  0
SECTION
  2
HEADER
  9
$ACADVER
  1
AC1032
  9
$ACADMAINTVER
 90
       55
  9
$DWGCODEPAGE
  3
ANSI_1252
  9
$LASTSAVEDBY
  1
ValentinL
  9
$REQUIREDVERSIONS
160
                 0
  9
$INSBASE
 10
0.0
 20
0.0
 30
0.0
  9
$EXTMIN
 10
-173.7890988588333
 20
-350.7455289363861
 30
0.0
  9
$EXTMAX
 10
386.2108886241913
 20
689.2544627189636
 30
0.0
  9
$LIMMIN
 10
0.0
 20
0.0
  9
$LIMMAX
 10
420.0
 20
297.0
  9
$ORTHOMODE
 70
     0
  9
$REGENMODE
 70
     1
  9
$FILLMODE
 70
     1
  9
$QTEXTMODE
 70
     0
  9
$MIRRTEXT
 70
     1
  9
$LTSCALE
 40
1.0
  9
$ATTMODE
 70
     1
  9
$TEXTSIZE
 40
2.5
  9
$TRACEWID
 40
1.0
  9
$TEXTSTYLE
  7
Standard
  9
$CLAYER
  8
0
  9
$CELTYPE
  6
ByLayer
  9
$CECOLOR
 62
   256
  9
$CELTSCALE
 40
1.0
  9
$DISPSILH
 70
     0
  9
$DIMSCALE
 40
1.0
  9
$DIMASZ
 40
2.5
  9
$DIMEXO
 40
0.625
  9
$DIMDLI
 40
3.75
  9
$DIMRND
 40
0.0
  9
$DIMDLE
 40
0.0
  9
$DIMEXE
 40
1.25
  9
$DIMTP
 40
0.0
  9
$DIMTM
 40
0.0
  9
$DIMTXT
 40
2.5
  9
$DIMCEN
 40
2.5
  9
$DIMTSZ
 40
0.0
  9
$DIMTOL
 70
     0
  9
$DIMLIM
 70
     0
  9
$DIMTIH
 70
     0
  9
$DIMTOH
 70
     0
  9
$DIMSE1
 70
     0
  9
$DIMSE2
 70
     0
  9
$DIMTAD
 70
     1
  9
$DIMZIN
 70
     8
  9
$DIMBLK
  1

  9
$DIMASO
 70
     1
  9
$DIMSHO
 70
     1
  9
$DIMPOST
  1

  9
$DIMAPOST
  1

  9
$DIMALT
 70
     0
  9
$DIMALTD
 70
     3
  9
$DIMALTF
 40
0.03937007874016
  9
$DIMLFAC
 40
1.0
  9
$DIMTOFL
 70
     1
  9
$DIMTVP
 40
0.0
  9
$DIMTIX
 70
     0
  9
$DIMSOXD
 70
     0
  9
$DIMSAH
 70
     0
  9
$DIMBLK1
  1

  9
$DIMBLK2
  1

  9
$DIMSTYLE
  2
ISO-25
  9
$DIMCLRD
 70
     0
  9
$DIMCLRE
 70
     0
  9
$DIMCLRT
 70
     0
  9
$DIMTFAC
 40
1.0
  9
$DIMGAP
 40
0.625
  9
$DIMJUST
 70
     0
  9
$DIMSD1
 70
     0
  9
$DIMSD2
 70
     0
  9
$DIMTOLJ
 70
     0
  9
$DIMTZIN
 70
     8
  9
$DIMALTZ
 70
     0
  9
$DIMALTTZ
 70
     0
  9
$DIMUPT
 70
     0
  9
$DIMDEC
 70
     2
  9
$DIMTDEC
 70
     2
  9
$DIMALTU
 70
     2
  9
$DIMALTTD
 70
     3
  9
$DIMTXSTY
  7
Standard
  9
$DIMAUNIT
 70
     0
  9
$DIMADEC
 70
     0
  9
$DIMALTRND
 40
0.0
  9
$DIMAZIN
 70
     0
  9
$DIMDSEP
 70
    44
  9
$DIMATFIT
 70
     3
  9
$DIMFRAC
 70
     0
  9
$DIMLDRBLK
  1

  9
$DIMLUNIT
 70
     2
  9
$DIMLWD
 70
    -2
  9
$DIMLWE
 70
    -2
  9
$DIMTMOVE
 70
     0
  9
$DIMFXL
 40
1.0
  9
$DIMFXLON
 70
     0
  9
$DIMJOGANG
 40
0.7853981633974483
  9
$DIMTFILL
 70
     0
  9
$DIMTFILLCLR
 70
     0
  9
$DIMARCSYM
 70
     0
  9
$DIMLTYPE
  6

  9
$DIMLTEX1
  6

  9
$DIMLTEX2
  6

  9
$DIMTXTDIRECTION
 70
     0
  9
$LUNITS
 70
     2
  9
$LUPREC
 70
     4
  9
$SKETCHINC
 40
1.0
  9
$FILLETRAD
 40
0.0
  9
$AUNITS
 70
     0
  9
$AUPREC
 70
     0
  9
$MENU
  1
.
  9
$ELEVATION
 40
0.0
  9
$PELEVATION
 40
0.0
  9
$THICKNESS
 40
0.0
  9
$LIMCHECK
 70
     0
  9
$CHAMFERA
 40
0.0
  9
$CHAMFERB
 40
0.0
  9
$CHAMFERC
 40
0.0
  9
$CHAMFERD
 40
0.0
  9
$SKPOLY
 70
     0
  9
$TDCREATE
 40
2460791.411073322
  9
$TDUCREATE
 40
2460791.327739989
  9
$TDUPDATE
 40
2460791.411076956
  9
$TDUUPDATE
 40
2460791.327743623
  9
$TDINDWG
 40
0.0000000116
  9
$TDUSRTIMER
 40
0.0000000116
  9
$USRTIMER
 70
     1
  9
$ANGBASE
 50
0.0
  9
$ANGDIR
 70
     0
  9
$PDMODE
 70
     0
  9
$PDSIZE
 40
0.0
  9
$PLINEWID
 40
0.0
  9
$SPLFRAME
 70
     0
  9
$SPLINETYPE
 70
     6
  9
$SPLINESEGS
 70
     8
  9
$HANDSEED
  5
34C
  9
$SURFTAB1
 70
     6
  9
$SURFTAB2
 70
     6
  9
$SURFTYPE
 70
     6
  9
$SURFU
 70
     6
  9
$SURFV
 70
     6
  9
$UCSBASE
  2

  9
$UCSNAME
  2

  9
$UCSORG
 10
0.0
 20
0.0
 30
0.0
  9
$UCSXDIR
 10
1.0
 20
0.0
 30
0.0
  9
$UCSYDIR
 10
0.0
 20
1.0
 30
0.0
  9
$UCSORTHOREF
  2

  9
$UCSORTHOVIEW
 70
     0
  9
$UCSORGTOP
 10
0.0
 20
0.0
 30
0.0
  9
$UCSORGBOTTOM
 10
0.0
 20
0.0
 30
0.0
  9
$UCSORGLEFT
 10
0.0
 20
0.0
 30
0.0
  9
$UCSORGRIGHT
 10
0.0
 20
0.0
 30
0.0
  9
$UCSORGFRONT
 10
0.0
 20
0.0
 30
0.0
  9
$UCSORGBACK
 10
0.0
 20
0.0
 30
0.0
  9
$PUCSBASE
  2

  9
$PUCSNAME
  2

  9
$PUCSORG
 10
0.0
 20
0.0
 30
0.0
  9
$PUCSXDIR
 10
1.0
 20
0.0
 30
0.0
  9
$PUCSYDIR
 10
0.0
 20
1.0
 30
0.0
  9
$PUCSORTHOREF
  2

  9
$PUCSORTHOVIEW
 70
     0
  9
$PUCSORGTOP
 10
0.0
 20
0.0
 30
0.0
  9
$PUCSORGBOTTOM
 10
0.0
 20
0.0
 30
0.0
  9
$PUCSORGLEFT
 10
0.0
 20
0.0
 30
0.0
  9
$PUCSORGRIGHT
 10
0.0
 20
0.0
 30
0.0
  9
$PUCSORGFRONT
 10
0.0
 20
0.0
 30
0.0
  9
$PUCSORGBACK
 10
0.0
 20
0.0
 30
0.0
  9
$USERI1
 70
     0
  9
$USERI2
 70
     0
  9
$USERI3
 70
     0
  9
$USERI4
 70
     0
  9
$USERI5
 70
     0
  9
$USERR1
 40
0.0
  9
$USERR2
 40
0.0
  9
$USERR3
 40
0.0
  9
$USERR4
 40
0.0
  9
$USERR5
 40
0.0
  9
$WORLDVIEW
 70
     1
  9
$SHADEDGE
 70
     3
  9
$SHADEDIF
 70
    70
  9
$TILEMODE
 70
     1
  9
$MAXACTVP
 70
    64
  9
$PINSBASE
 10
0.0
 20
0.0
 30
0.0
  9
$PLIMCHECK
 70
     0
  9
$PEXTMIN
 10
1.000000000000000E+20
 20
1.000000000000000E+20
 30
1.000000000000000E+20
  9
$PEXTMAX
 10
-1.000000000000000E+20
 20
-1.000000000000000E+20
 30
-1.000000000000000E+20
  9
$PLIMMIN
 10
0.0
 20
0.0
  9
$PLIMMAX
 10
420.0
 20
297.0
  9
$UNITMODE
 70
     0
  9
$VISRETAIN
 70
     1
  9
$PLINEGEN
 70
     0
  9
$PSLTSCALE
 70
     1
  9
$TREEDEPTH
 70
  3020
  9
$CMLSTYLE
  2
Standard
  9
$CMLJUST
 70
     0
  9
$CMLSCALE
 40
20.0
  9
$PROXYGRAPHICS
 70
     1
  9
$MEASUREMENT
 70
     1
  9
$CELWEIGHT
370
    -1
  9
$ENDCAPS
280
     0
  9
$JOINSTYLE
280
     0
  9
$LWDISPLAY
290
     0
  9
$INSUNITS
 70
     4
  9
$HYPERLINKBASE
  1

  9
$STYLESHEET
  1

  9
$XEDIT
290
     1
  9
$CEPSNTYPE
380
     0
  9
$PSTYLEMODE
290
     1
  9
$FINGERPRINTGUID
  2
{c69c5133-1df2-4778-9c43-651582be0c63}
  9
$VERSIONGUID
  2
{FAEB1C32-E019-11D5-929B-00C0DF256EC4}
  9
$EXTNAMES
290
     1
  9
$PSVPSCALE
 40
0.0
  9
$OLESTARTUP
290
     0
  9
$SORTENTS
280
   127
  9
$INDEXCTL
280
     0
  9
$HIDETEXT
280
     1
  9
$XCLIPFRAME
280
     2
  9
$HALOGAP
280
     0
  9
$OBSCOLOR
 70
   257
  9
$OBSLTYPE
280
     0
  9
$INTERSECTIONDISPLAY
280
     0
  9
$INTERSECTIONCOLOR
 70
   257
  9
$DIMASSOC
280
     2
  9
$PROJECTNAME
  1

  9
$CAMERADISPLAY
290
     0
  9
$LENSLENGTH
 40
50.0
  9
$CAMERAHEIGHT
 40
0.0
  9
$STEPSPERSEC
 40
2.0
  9
$STEPSIZE
 40
6.0
  9
$3DDWFPREC
 40
2.0
  9
$PSOLWIDTH
 40
5.0
  9
$PSOLHEIGHT
 40
80.0
  9
$LOFTANG1
 40
1.570796326794897
  9
$LOFTANG2
 40
1.570796326794897
  9
$LOFTMAG1
 40
0.0
  9
$LOFTMAG2
 40
0.0
  9
$LOFTPARAM
 70
     7
  9
$LOFTNORMALS
280
     1
  9
$LATITUDE
 40
37.795
  9
$LONGITUDE
 40
-122.394
  9
$NORTHDIRECTION
 40
0.0
  9
$TIMEZONE
 70
 -8000
  9
$LIGHTGLYPHDISPLAY
280
     1
  9
$TILEMODELIGHTSYNCH
280
     1
  9
$CMATERIAL
347
44
  9
$SOLIDHIST
280
     0
  9
$SHOWHIST
280
     1
  9
$DWFFRAME
280
     2
  9
$DGNFRAME
280
     2
  9
$REALWORLDSCALE
290
     1
  9
$INTERFERECOLOR
 62
   256
  9
$CSHADOW
280
     0
  9
$SHADOWPLANELOCATION
 40
0.0
  0
ENDSEC
  0
SECTION
  2
CLASSES
  0
CLASS
  1
ACDBDICTIONARYWDFLT
  2
AcDbDictionaryWithDefault
  3
ObjectDBX Classes
 90
        0
 91
        3
280
     0
281
     0
  0
CLASS
  1
VISUALSTYLE
  2
AcDbVisualStyle
  3
ObjectDBX Classes
 90
     4095
 91
        3
280
     0
281
     0
  0
CLASS
  1
MATERIAL
  2
AcDbMaterial
  3
ObjectDBX Classes
 90
     1153
 91
        3
280
     0
281
     0
  0
CLASS
  1
SCALE
  2
AcDbScale
  3
ObjectDBX Classes
 90
     1153
 91
        3
280
     0
281
     0
  0
CLASS
  1
TABLESTYLE
  2
AcDbTableStyle
  3
ObjectDBX Classes
 90
     4095
 91
        3
280
     0
281
     0
  0
CLASS
  1
MLEADERSTYLE
  2
AcDbMLeaderStyle
  3
ACDB_MLEADERSTYLE_CLASS
 90
     4095
 91
        3
280
     0
281
     0
  0
CLASS
  1
SUN
  2
AcDbSun
  3
SCENEOE
 90
     1153
 91
        3
280
     0
281
     0
  0
CLASS
  1
RASTERVARIABLES
  2
AcDbRasterVariables
  3
ISM
 90
        0
 91
        3
280
     0
281
     0
  0
CLASS
  1
DICTIONARYVAR
  2
AcDbDictionaryVar
  3
ObjectDBX Classes
 90
        0
 91
        3
280
     0
281
     0
  0
CLASS
  1
CELLSTYLEMAP
  2
AcDbCellStyleMap
  3
ObjectDBX Classes
 90
     1152
 91
        3
280
     0
281
     0
  0
ENDSEC
  0
SECTION
  2
TABLES
  0
TABLE
  2
VPORT
  5
8
330
0
100
AcDbSymbolTable
 70
     1
  0
VPORT
  5
29
330
8
100
AcDbSymbolTableRecord
100
AcDbViewportTableRecord
  2
*Active
 70
     0
 10
0.0
 20
0.0
 11
1.0
 21
1.0
 12
106.210894882679
 22
169.2544668912888
 13
0.0
 23
0.0
 14
10.0
 24
10.0
 15
10.0
 25
10.0
 16
0.0
 26
0.0
 36
1.0
 17
0.0
 27
0.0
 37
0.0
 40
1039.99999165535
 41
0.5384615307464401
 42
50.0
 43
0.0
 44
0.0
 50
0.0
 51
0.0
 71
     0
 72
   100
 73
     1
 74
     3
 75
     0
 76
     0
 77
     0
 78
     0
281
     0
 65
     1
110
0.0
120
0.0
130
0.0
111
1.0
121
0.0
131
0.0
112
0.0
122
1.0
132
0.0
 79
     0
146
0.0
348
2F
 60
     3
 61
     5
292
     1
282
     1
141
0.0
142
0.0
 63
   250
361
5D
  0
ENDTAB
  0
TABLE
  2
LTYPE
  5
5
330
0
100
AcDbSymbolTable
 70
     1
  0
LTYPE
  5
14
330
5
100
AcDbSymbolTableRecord
100
AcDbLinetypeTableRecord
  2
ByBlock
 70
     0
  3

 72
    65
 73
     0
 40
0.0
  0
LTYPE
  5
15
330
5
100
AcDbSymbolTableRecord
100
AcDbLinetypeTableRecord
  2
ByLayer
 70
     0
  3

 72
    65
 73
     0
 40
0.0
  0
LTYPE
  5
16
330
5
100
AcDbSymbolTableRecord
100
AcDbLinetypeTableRecord
  2
Continuous
 70
     0
  3
Solid line
 72
    65
 73
     0
 40
0.0
  0
ENDTAB
  0
TABLE
  2
LAYER
  5
2
330
0
100
AcDbSymbolTable
 70
     1
  0
LAYER
  5
10
330
2
100
AcDbSymbolTableRecord
100
AcDbLayerTableRecord
  2
0
 70
     0
 62
     7
  6
Continuous
370
    -3
390
F
347
46
348
0
  0
ENDTAB
  0
TABLE
  2
STYLE
  5
3
330
0
100
AcDbSymbolTable
 70
     1
  0
STYLE
  5
11
330
3
100
AcDbSymbolTableRecord
100
AcDbTextStyleTableRecord
  2
Standard
 70
     0
 40
0.0
 41
1.0
 50
0.0
 71
     0
 42
2.5
  3
txt
  4

  0
ENDTAB
  0
TABLE
  2
VIEW
  5
6
330
0
100
AcDbSymbolTable
 70
     0
  0
ENDTAB
  0
TABLE
  2
UCS
  5
7
330
0
100
AcDbSymbolTable
 70
     0
  0
ENDTAB
  0
TABLE
  2
APPID
  5
9
330
0
100
AcDbSymbolTable
 70
     1
  0
APPID
  5
12
330
9
100
AcDbSymbolTableRecord
100
AcDbRegAppTableRecord
  2
ACAD
 70
     0
  0
ENDTAB
  0
TABLE
  2
DIMSTYLE
  5
A
330
0
100
AcDbSymbolTable
 70
     1
100
AcDbDimStyleTable
  0
DIMSTYLE
105
27
330
A
100
AcDbSymbolTableRecord
100
AcDbDimStyleTableRecord
  2
ISO-25
 70
     0
 41
2.5
 42
0.625
 43
3.75
 44
1.25
 73
     0
 74
     0
 77
     1
 78
     8
140
2.5
141
2.5
143
0.03937007874016
147
0.625
171
     3
172
     1
178
     0
271
     2
272
     2
274
     3
278
    44
283
     0
284
     8
340
11
  0
ENDTAB
  0
TABLE
  2
BLOCK_RECORD
  5
1
330
0
100
AcDbSymbolTable
 70
     0
  0
BLOCK_RECORD
  5
1F
330
1
100
AcDbSymbolTableRecord
100
AcDbBlockTableRecord
  2
*Model_Space
340
22
 70
     0
280
     1
281
     0
  0
BLOCK_RECORD
  5
1B
330
1
100
AcDbSymbolTableRecord
100
AcDbBlockTableRecord
  2
*Paper_Space
340
1E
 70
     0
280
     1
281
     0
  0
ENDTAB
  0
ENDSEC
  0
SECTION
  2
BLOCKS
  0
BLOCK
  5
20
330
1F
100
AcDbEntity
  8
0
100
AcDbBlockBegin
  2
*Model_Space
 70
     0
 10
0.0
 20
0.0
 30
0.0
  3
*Model_Space
  1

  0
ENDBLK
  5
21
330
1F
100
AcDbEntity
  8
0
100
AcDbBlockEnd
  0
BLOCK
  5
1C
330
1B
100
AcDbEntity
 67
     1
  8
0
100
AcDbBlockBegin
  2
*Paper_Space
 70
     0
 10
0.0
 20
0.0
 30
0.0
  3
*Paper_Space
  1

  0
ENDBLK
  5
1D
330
1B
100
AcDbEntity
 67
     1
  8
0
100
AcDbBlockEnd
  0
ENDSEC
  0
SECTION
  2
ENTITIES
  0
LWPOLYLINE
  5
5F
102
{ACAD_REACTORS
330
60
102
}
330
1F
100
AcDbEntity
  8
0
 60
     1
100
AcDbPolyline
 90
        7
 70
     1
 43
0.0
 10
330.917382064705
 20
-232.8746263514701
 10
330.917382064705
 20
-272.8746180068198
 10
334.9173752697755
 20
-272.8746180068198
 10
334.9173752697755
 20
-232.8746263514701
 10
340.1967821749498
 20
-232.8746263514701
 10
332.9173861178209
 20
-212.874615622634
 10
325.6379751595308
 20
-232.8746263514701
  0
HATCH
  5
60
330
1F
100
AcDbEntity
  8
0
  6
Continuous
 62
     7
370
     9
100
AcDbHatch
 10
0.0
 20
0.0
 30
0.0
210
0.0
220
0.0
230
1.0
  2
SOLID
 70
     1
 71
     1
 91
        1
 92
        0
 93
        7
 72
     1
 10
330.917382064705
 20
-232.8746263514701
 11
330.917382064705
 21
-272.8746180068198
 72
     1
 10
330.917382064705
 20
-272.8746180068198
 11
334.9173752697755
 21
-272.8746180068198
 72
     1
 10
334.9173752697755
 20
-272.8746180068198
 11
334.9173752697755
 21
-232.8746263514701
 72
     1
 10
334.9173752697755
 20
-232.8746263514701
 11
340.1967821749498
 21
-232.8746263514701
 72
     1
 10
340.1967821749498
 20
-232.8746263514701
 11
332.9173861178209
 21
-212.874615622634
 72
     1
 10
332.9173861178209
 20
-212.874615622634
 11
325.6379751595308
 21
-232.8746263514701
 72
     1
 10
325.6379751595308
 20
-232.8746263514701
 11
330.917382064705
 21
-232.8746263514701
 97
        1
330
5F
 75
     0
 76
     1
 98
        0
  0
LINE
  5
61
330
1F
100
AcDbEntity
  8
0
  6
Continuous
 62
     7
370
    30
100
AcDbLine
 10
376.2109069260408
 20
-330.7455329428855
 30
0.0
 11
376.2109069260409
 21
669.2544670571148
 31
0.0
  0
LINE
  5
62
330
1F
100
AcDbEntity
  8
0
  6
Continuous
 62
     7
370
    30
100
AcDbLine
 10
366.2109069260409
 20
679.2544670571145
 30
0.0
 11
-153.7890930739592
 21
679.2544670571145
 31
0.0
  0
LINE
  5
63
330
1F
100
AcDbEntity
  8
0
  6
Continuous
 62
     7
370
    30
100
AcDbLine
 10
-163.7890930739593
 20
669.2544670571145
 30
0.0
 11
-163.7890930739592
 21
-330.7455329428855
 31
0.0
  0
LINE
  5
64
330
1F
100
AcDbEntity
  8
0
  6
Continuous
 62
     7
370
    30
100
AcDbLine
 10
-153.7890930739592
 20
-340.7455329428855
 30
0.0
 11
366.2109069260408
 21
-340.7455329428855
 31
0.0
  0
ARC
  5
65
330
1F
100
AcDbEntity
  8
0
  6
Continuous
 62
     7
370
    30
100
AcDbCircle
 10
-153.7890930739592
 20
-330.7455329428855
 30
0.0
 40
10.0
100
AcDbArc
 50
180.0
 51
270.0
  0
ARC
  5
66
330
1F
100
AcDbEntity
  8
0
  6
Continuous
 62
     7
370
    30
100
AcDbCircle
 10
-153.7890930739592
 20
669.2544670571145
 30
0.0
 40
10.0
100
AcDbArc
 50
90.0
 51
180.0
  0
ARC
  5
67
330
1F
100
AcDbEntity
  8
0
  6
Continuous
 62
     7
370
    30
100
AcDbCircle
 10
366.2109069260409
 20
669.2544670571148
 30
0.0
 40
10.0
100
AcDbArc
 50
0.0
 51
90.0
  0
ARC
  5
68
330
1F
100
AcDbEntity
  8
0
  6
Continuous
 62
     7
370
    30
100
AcDbCircle
 10
366.2109069260408
 20
-330.7455329428855
 30
0.0
 40
10.0
100
AcDbArc
 50
270.0
 51
0.0
  0
LINE
  5
69
330
1F
100
AcDbEntity
  8
0
  6
Continuous
 62
     7
370
    30
100
AcDbLine
 10
226.2109069260406
 20
-190.7455329428856
 30
0.0
 11
226.2109069260406
 21
449.2544670571146
 31
0.0
  0
LINE
  5
6A
330
1F
100
AcDbEntity
  8
0
  6
Continuous
 62
     7
370
    30
100
AcDbLine
 10
226.2109069260406
 20
449.2544670571146
 30
0.0
 11
-13.78909307395934
 21
449.2544670571146
 31
0.0
  0
LINE
  5
6B
330
1F
100
AcDbEntity
  8
0
  6
Continuous
 62
     7
370
    30
100
AcDbLine
 10
-13.7890930739594
 20
449.2544670571146
 30
0.0
 11
-13.78909307395933
 21
-190.7455329428855
 31
0.0
  0
LINE
  5
6C
330
1F
100
AcDbEntity
  8
0
  6
Continuous
 62
     7
370
    30
100
AcDbLine
 10
-13.78909307395938
 20
-190.7455329428856
 30
0.0
 11
226.2109069260406
 21
-190.7455329428856
 31
0.0
  0
LINE
  5
6D
330
1F
100
AcDbEntity
  8
0
  6
Continuous
 62
     7
370
    30
100
AcDbLine
 10
-163.7890930739594
 20
599.2544670571145
 30
0.0
 11
376.2109069260406
 21
599.2544670571145
 31
0.0
  0
LINE
  5
6E
330
1F
100
AcDbEntity
  8
0
  6
Continuous
 62
     7
370
    30
100
AcDbLine
 10
-13.78909307395938
 20
-190.7455329428856
 30
0.0
 11
-13.78909307395938
 21
-340.7455329428855
 31
0.0
  0
LINE
  5
6F
330
1F
100
AcDbEntity
  8
0
  6
Continuous
 62
     7
370
    30
100
AcDbLine
 10
-13.78909307395934
 20
449.2544670571146
 30
0.0
 11
-13.78909307395933
 21
599.2544670571145
 31
0.0
  0
LINE
  5
70
330
1F
100
AcDbEntity
  8
0
  6
Continuous
 62
     7
370
    30
100
AcDbLine
 10
66.21090692604062
 20
-340.7455329428855
 30
0.0
 11
66.21090692604064
 21
-190.7455329428855
 31
0.0
  0
LINE
  5
71
330
1F
100
AcDbEntity
  8
0
  6
Continuous
 62
     7
370
    30
100
AcDbLine
 10
146.2109069260406
 20
-340.7455329428855
 30
0.0
 11
146.2109069260406
 21
-190.7455329428855
 31
0.0
  0
LINE
  5
72
330
1F
100
AcDbEntity
  8
0
  6
Continuous
 62
     7
370
    30
100
AcDbLine
 10
226.2109069260406
 20
-190.7455329428856
 30
0.0
 11
226.2109069260406
 21
-340.7455329428855
 31
0.0
  0
LINE
  5
73
330
1F
100
AcDbEntity
  8
0
  6
Continuous
 62
     7
370
    30
100
AcDbLine
 10
226.2109069260406
 20
449.2544670571146
 30
0.0
 11
226.2109069260406
 21
599.2544670571145
 31
0.0
  0
LINE
  5
74
330
1F
100
AcDbEntity
  8
0
  6
Continuous
 62
     7
370
    30
100
AcDbLine
 10
66.21090692604068
 20
449.2544670571146
 30
0.0
 11
66.21090692604069
 21
599.2544670571145
 31
0.0
  0
LINE
  5
75
330
1F
100
AcDbEntity
  8
0
  6
Continuous
 62
     7
370
    30
100
AcDbLine
 10
146.2109069260406
 20
449.2544670571146
 30
0.0
 11
146.2109069260406
 21
599.2544670571145
 31
0.0
  0
LINE
  5
76
330
1F
100
AcDbEntity
  8
0
  6
Continuous
 62
     7
370
    30
100
AcDbLine
 10
226.2109069260406
 20
-190.7455329428856
 30
0.0
 11
376.2109069260408
 21
-190.7455329428856
 31
0.0
  0
LINE
  5
77
330
1F
100
AcDbEntity
  8
0
  6
Continuous
 62
     7
370
    30
100
AcDbLine
 10
226.2109069260406
 20
449.2544670571146
 30
0.0
 11
376.2109069260408
 21
449.2544670571146
 31
0.0
  0
LINE
  5
78
330
1F
100
AcDbEntity
  8
0
  6
Continuous
 62
     7
370
    30
100
AcDbLine
 10
-13.78909307395934
 20
449.2544670571146
 30
0.0
 11
-163.7890930739594
 21
449.2544670571146
 31
0.0
  0
LINE
  5
79
330
1F
100
AcDbEntity
  8
0
  6
Continuous
 62
     7
370
    30
100
AcDbLine
 10
-13.78909307395938
 20
-190.7455329428856
 30
0.0
 11
-163.7890930739594
 21
-190.7455329428856
 31
0.0
  0
LINE
  5
7A
330
1F
100
AcDbEntity
  8
0
  6
Continuous
 62
     7
370
    30
100
AcDbLine
 10
-163.7890930739594
 20
-110.7455329428855
 30
0.0
 11
-13.78909307395926
 21
-110.7455329428855
 31
0.0
  0
LINE
  5
7B
330
1F
100
AcDbEntity
  8
0
  6
Continuous
 62
     7
370
    30
100
AcDbLine
 10
376.2109069260408
 20
-30.74553294288551
 30
0.0
 11
226.2109069260406
 21
-30.74553294288548
 31
0.0
  0
LINE
  5
7C
330
1F
100
AcDbEntity
  8
0
  6
Continuous
 62
     7
370
    30
100
AcDbLine
 10
-163.7890930739594
 20
49.25446705711449
 30
0.0
 11
-13.78909307395937
 21
49.25446705711449
 31
0.0
  0
LINE
  5
7D
330
1F
100
AcDbEntity
  8
0
  6
Continuous
 62
     7
370
    30
100
AcDbLine
 10
376.2109069260408
 20
129.2544670571145
 30
0.0
 11
226.2109069260406
 21
129.2544670571145
 31
0.0
  0
LINE
  5
7E
330
1F
100
AcDbEntity
  8
0
  6
Continuous
 62
     7
370
    30
100
AcDbLine
 10
-163.7890930739594
 20
209.2544670571146
 30
0.0
 11
-13.78909307395937
 21
209.2544670571146
 31
0.0
  0
LINE
  5
7F
330
1F
100
AcDbEntity
  8
0
  6
Continuous
 62
     7
370
    30
100
AcDbLine
 10
376.2109069260408
 20
289.2544670571144
 30
0.0
 11
226.2109069260406
 21
289.2544670571144
 31
0.0
  0
LINE
  5
80
330
1F
100
AcDbEntity
  8
0
  6
Continuous
 62
     7
370
    30
100
AcDbLine
 10
-163.7890930739594
 20
369.2544670571145
 30
0.0
 11
-13.78909307395937
 21
369.2544670571145
 31
0.0
  0
LINE
  5
81
330
1F
100
AcDbEntity
  8
0
  6
Continuous
 62
     7
370
    30
100
AcDbLine
 10
226.2109069260406
 20
-110.7455329428855
 30
0.0
 11
376.2109069260408
 21
-110.7455329428855
 31
0.0
  0
LINE
  5
82
330
1F
100
AcDbEntity
  8
0
  6
Continuous
 62
     7
370
    30
100
AcDbLine
 10
-13.78909307395937
 20
-30.74553294288548
 30
0.0
 11
-163.7890930739594
 21
-30.74553294288546
 31
0.0
  0
LINE
  5
83
330
1F
100
AcDbEntity
  8
0
  6
Continuous
 62
     7
370
    30
100
AcDbLine
 10
226.2109069260406
 20
49.25446705711446
 30
0.0
 11
376.2109069260408
 21
49.25446705711446
 31
0.0
  0
LINE
  5
84
330
1F
100
AcDbEntity
  8
0
  6
Continuous
 62
     7
370
    30
100
AcDbLine
 10
-13.78909307395936
 20
129.2544670571145
 30
0.0
 11
-163.7890930739594
 21
129.2544670571145
 31
0.0
  0
LINE
  5
85
330
1F
100
AcDbEntity
  8
0
  6
Continuous
 62
     7
370
    30
100
AcDbLine
 10
226.2109069260406
 20
209.2544670571146
 30
0.0
 11
376.2109069260408
 21
209.2544670571146
 31
0.0
  0
LINE
  5
86
330
1F
100
AcDbEntity
  8
0
  6
Continuous
 62
     7
370
    30
100
AcDbLine
 10
-13.78909307395934
 20
289.2544670571144
 30
0.0
 11
-163.7890930739594
 21
289.2544670571144
 31
0.0
  0
LINE
  5
87
330
1F
100
AcDbEntity
  8
0
  6
Continuous
 62
     7
370
    30
100
AcDbLine
 10
226.2109069260406
 20
369.2544670571145
 30
0.0
 11
376.2109069260408
 21
369.2544670571145
 31
0.0
  0
LINE
  5
88
330
1F
100
AcDbEntity
  8
0
  6
Continuous
 62
     7
370
    30
100
AcDbLine
 10
312.1035673618103
 20
-308.0105609896018
 30
0.0
 11
311.9376525791681
 21
-307.5075909792297
 31
0.0
  0
LINE
  5
89
330
1F
100
AcDbEntity
  8
0
  6
Continuous
 62
     7
370
    30
100
AcDbLine
 10
311.9376525791681
 20
-307.5075909792297
 30
0.0
 11
316.7297716724237
 21
-306.1315620788686
 31
0.0
  0
LINE
  5
8A
330
1F
100
AcDbEntity
  8
0
  6
Continuous
 62
     7
370
    30
100
AcDbLine
 10
316.7297716724237
 20
-306.1315620788685
 30
0.0
 11
316.8850484993735
 21
-306.6451700449331
 31
0.0
  0
ARC
  5
8B
330
1F
100
AcDbEntity
  8
0
  6
Continuous
 62
     7
370
    30
100
AcDbCircle
 10
317.9268382677888
 20
-309.6441476041621
 30
0.0
 40
3.174774373453005
100
AcDbArc
 50
109.1562887183403
 51
127.0701290337666
  0
ARC
  5
8C
330
1F
100
AcDbEntity
  8
0
  6
Continuous
 62
     7
370
    30
100
AcDbCircle
 10
317.2864547628146
 20
-307.8584512806229
 30
0.0
 40
1.476513142067881
100
AcDbArc
 50
149.5871655801211
 51
218.1129273172319
  0
ARC
  5
8D
330
1F
100
AcDbEntity
  8
0
  6
Continuous
 62
     7
370
    30
100
AcDbCircle
 10
331.8599310176965
 20
-303.1056028965909
 30
0.0
 40
16.72360809769411
100
AcDbArc
 50
199.7972758508307
 51
225.2493986080811
  0
ARC
  5
8E
330
1F
100
AcDbEntity
  8
0
  6
Continuous
 62
     7
370
    30
100
AcDbCircle
 10
328.6246782423789
 20
-306.8848831563014
 30
0.0
 40
11.7675597376328
100
AcDbArc
 50
223.4812383542226
 51
250.8121717518873
  0
ARC
  5
8F
330
1F
100
AcDbEntity
  8
0
  6
Continuous
 62
     7
370
    30
100
AcDbCircle
 10
326.2584608133598
 20
-314.3536617020519
 30
0.0
 40
3.942146687597797
100
AcDbArc
 50
247.6134518871827
 51
311.4975226515952
  0
ARC
  5
90
330
1F
100
AcDbEntity
  8
0
  6
Continuous
 62
     7
370
    30
100
AcDbCircle
 10
326.636208900394
 20
-315.2034391662162
 30
0.0
 40
3.068199785176526
100
AcDbArc
 50
316.7358849097619
 51
21.41164876201328
  0
SPLINE
  5
91
330
1F
100
AcDbEntity
  8
0
  6
Continuous
 62
     7
370
    30
100
AcDbSpline
210
0.0
220
0.0
230
1.0
 70
     8
 71
     2
 72
     8
 73
     5
 74
     0
 42
0.0000000001
 43
0.0000000001
 40
0.0
 40
0.0
 40
0.0
 40
1.0
 40
1.0
 40
2.0
 40
2.0
 40
2.0
 10
329.4926464878429
 20
-314.083343531564
 30
0.0
 10
329.1405333495047
 20
-313.14234814181
 30
0.0
 10
328.3759069552581
 20
-312.151151954394
 30
0.0
 10
327.6112805610116
 20
-311.159955766978
 30
0.0
 10
325.6880501502939
 20
-309.1176549048253
 30
0.0
  0
SPLINE
  5
92
330
1F
100
AcDbEntity
  8
0
  6
Continuous
 62
     7
370
    30
100
AcDbSpline
210
0.0
220
0.0
230
1.0
 70
     8
 71
     2
 72
     8
 73
     5
 74
     0
 42
0.0000000001
 43
0.0000000001
 40
0.0
 40
0.0
 40
0.0
 40
1.0
 40
1.0
 40
2.0
 40
2.0
 40
2.0
 10
325.6880501502939
 20
-309.1176549048253
 30
0.0
 10
323.0244553495405
 20
-306.2868389058183
 30
0.0
 10
322.0151559743671
 20
-304.9311527628339
 30
0.0
 10
321.0058565991937
 20
-303.5754666198496
 30
0.0
 10
320.6689893543053
 20
-302.3817137617498
 30
0.0
  0
ARC
  5
93
330
1F
100
AcDbEntity
  8
0
  6
Continuous
 62
     7
370
    30
100
AcDbCircle
 10
325.659518351339
 20
-300.7511656750304
 30
0.0
 40
5.250149210578583
100
AcDbArc
 50
132.7933925720264
 51
198.0936908426566
  0
ARC
  5
94
330
1F
100
AcDbEntity
  8
0
  6
Continuous
 62
     7
370
    30
100
AcDbCircle
 10
326.5223231353712
 20
-301.2021194487311
 30
0.0
 40
6.175866134193566
100
AcDbArc
 50
80.40087754307241
 51
135.8264186025858
  0
ARC
  5
95
330
1F
100
AcDbEntity
  8
0
  6
Continuous
 62
     7
370
    30
100
AcDbCircle
 10
325.3490579546022
 20
-307.447440954472
 30
0.0
 40
12.52992208241549
100
AcDbArc
 50
41.35893290061459
 51
79.8731434552675
  0
ARC
  5
96
330
1F
100
AcDbEntity
  8
0
  6
Continuous
 62
     7
370
    30
100
AcDbCircle
 10
321.534262383762
 20
-312.9427773608803
 30
0.0
 40
19.09192451547134
100
AcDbArc
 50
13.72515869809913
 51
46.17829003734
  0
ARC
  5
97
330
1F
100
AcDbEntity
  8
0
  6
Continuous
 62
     7
370
    30
100
AcDbCircle
 10
343.2961050886447
 20
-307.5855440504327
 30
0.0
 40
3.319844398918037
100
AcDbArc
 50
194.4317406703606
 51
212.9735512315683
  0
ARC
  5
98
330
1F
100
AcDbEntity
  8
0
  6
Continuous
 62
     7
370
    30
100
AcDbCircle
 10
341.1560048445256
 20
-308.3315444636088
 30
0.0
 40
1.241520982408637
100
AcDbArc
 50
238.7002145278933
 51
286.2009419355798
  0
LINE
  5
99
330
1F
100
AcDbEntity
  8
0
  6
Continuous
 62
     7
370
    30
100
AcDbLine
 10
341.5023977565605
 20
-309.5237635291554
 30
0.0
 11
341.6218414695988
 21
-310.0493158665237
 31
0.0
  0
LINE
  5
9A
330
1F
100
AcDbEntity
  8
0
  6
Continuous
 62
     7
370
    30
100
AcDbLine
 10
341.6218414695988
 20
-310.0493158665237
 30
0.0
 11
336.8321485767643
 21
-311.2556973682103
 31
0.0
  0
LINE
  5
9B
330
1F
100
AcDbEntity
  8
0
  6
Continuous
 62
     7
370
    30
100
AcDbLine
 10
336.8321485767643
 20
-311.2556973682102
 30
0.0
 11
336.6888161211184
 21
-310.7301450308419
 31
0.0
  0
ARC
  5
9C
330
1F
100
AcDbEntity
  8
0
  6
Continuous
 62
     7
370
    30
100
AcDbCircle
 10
336.1589330760255
 20
-308.5066259721444
 30
0.0
 40
2.285784995547006
100
AcDbArc
 50
283.4040497915936
 51
307.8269188496926
  0
SPLINE
  5
9D
330
1F
100
AcDbEntity
  8
0
  6
Continuous
 62
     7
370
    30
100
AcDbSpline
210
0.0
220
0.0
230
1.0
 70
     8
 71
     2
 72
     6
 73
     3
 74
     0
 42
0.0000000001
 43
0.0000000001
 40
0.0
 40
0.0
 40
0.0
 40
1.0
 40
1.0
 40
1.0
 10
337.5607552262977
 20
-310.3120920352079
 30
0.0
 10
337.9429751080201
 20
-309.9298721534855
 30
0.0
 10
337.2128988073313
 20
-307.6011805047366
 30
0.0
  0
ARC
  5
9E
330
1F
100
AcDbEntity
  8
0
  6
Continuous
 62
     7
370
    30
100
AcDbCircle
 10
322.4106283968707
 20
-311.8898975319423
 30
0.0
 40
15.41104483945983
100
AcDbArc
 50
16.15808540641913
 51
45.80720198032895
  0
ARC
  5
9F
330
1F
100
AcDbEntity
  8
0
  6
Continuous
 62
     7
370
    30
100
AcDbCircle
 10
325.8735217418609
 20
-307.0555693092625
 30
0.0
 40
9.572129266567476
100
AcDbArc
 50
40.49026378648512
 51
81.78877754593626
  0
ARC
  5
A0
330
1F
100
AcDbEntity
  8
0
  6
Continuous
 62
     7
370
    30
100
AcDbCircle
 10
326.7498394251987
 20
-301.3092323554829
 30
0.0
 40
3.759833151615378
100
AcDbArc
 50
82.49932540368553
 51
134.8232762681103
  0
ARC
  5
A1
330
1F
100
AcDbEntity
  8
0
  6
Continuous
 62
     7
370
    30
100
AcDbCircle
 10
326.3136271505731
 20
-300.9043961362723
 30
0.0
 40
3.165284462043131
100
AcDbArc
 50
134.3884706653061
 51
213.1413357952651
  0
SPLINE
  5
A2
330
1F
100
AcDbEntity
  8
0
  6
Continuous
 62
     7
370
    30
100
AcDbSpline
210
0.0
220
0.0
230
1.0
 70
     8
 71
     2
 72
     8
 73
     5
 74
     0
 42
0.0000000001
 43
0.0000000001
 40
0.0
 40
0.0
 40
0.0
 40
1.0
 40
1.0
 40
2.0
 40
2.0
 40
2.0
 10
323.6632568712795
 20
-302.6348767366514
 30
0.0
 10
324.0397269103657
 20
-303.4082454215961
 30
0.0
 10
324.6011123616456
 20
-304.0771302146103
 30
0.0
 10
325.1624978129254
 20
-304.7460150076246
 30
0.0
 10
327.9294224556023
 20
-307.7359663217514
 30
0.0
  0
SPLINE
  5
A3
330
1F
100
AcDbEntity
  8
0
  6
Continuous
 62
     7
370
    30
100
AcDbSpline
210
0.0
220
0.0
230
1.0
 70
     8
 71
     2
 72
     8
 73
     5
 74
     0
 42
0.0000000001
 43
0.0000000001
 40
0.0
 40
0.0
 40
0.0
 40
1.0
 40
1.0
 40
2.0
 40
2.0
 40
2.0
 10
327.9294224556023
 20
-307.7359663217514
 30
0.0
 10
329.9044132205447
 20
-309.8701502969663
 30
0.0
 10
330.8420463678951
 20
-311.2616695538621
 30
0.0
 10
331.7796795152455
 20
-312.653188810758
 30
0.0
 10
332.1750969674506
 20
-314.0742202796202
 30
0.0
  0
ARC
  5
A4
330
1F
100
AcDbEntity
  8
0
  6
Continuous
 62
     7
370
    30
100
AcDbCircle
 10
327.1739373113597
 20
-315.4268762756385
 30
0.0
 40
5.180856700322424
100
AcDbArc
 50
314.4224213927918
 51
15.13458969761847
  0
ARC
  5
A5
330
1F
100
AcDbEntity
  8
0
  6
Continuous
 62
     7
370
    30
100
AcDbCircle
 10
326.7969242121925
 20
-315.2070889307462
 30
0.0
 40
5.602905229115844
100
AcDbArc
 50
267.3334479392127
 51
315.602837616951
  0
ARC
  5
A6
330
1F
100
AcDbEntity
  8
0
  6
Continuous
 62
     7
370
    30
100
AcDbCircle
 10
328.0894652237063
 20
-307.8495869840336
 30
0.0
 40
13.04712173983081
100
AcDbArc
 50
221.1068087017468
 51
263.1629563440998
  0
ARC
  5
A7
330
1F
100
AcDbEntity
  8
0
  6
Continuous
 62
     7
370
    30
100
AcDbCircle
 10
331.9093503483566
 20
-302.6142928686112
 30
0.0
 40
19.420332679287
100
AcDbArc
 50
198.4885091199812
 51
225.339252031167
  0
ARC
  5
A8
330
1F
100
AcDbEntity
  8
0
  6
Continuous
 62
     7
370
    30
100
AcDbCircle
 10
311.4516246005432
 20
-309.3605611900605
 30
0.0
 40
2.12273523589579
100
AcDbArc
 50
16.0756844812309
 51
35.94444888267127
  0
ARC
  5
A9
330
1F
100
AcDbEntity
  8
0
  6
Continuous
 62
     7
370
    30
100
AcDbCircle
 10
312.533934727277
 20
-309.118634271473
 30
0.0
 40
1.188714628182737
100
AcDbArc
 50
57.64094938500384
 51
111.2257971919991
  0
LINE
  5
AA
330
1F
100
AcDbEntity
  8
0
  6
Continuous
 62
     7
370
    30
100
AcDbLine
 10
296.71100536721
 20
-291.201097949085
 30
0.0
 11
302.2293049095779
 21
-296.719397491453
 31
0.0
  0
LINE
  5
AB
330
1F
100
AcDbEntity
  8
0
  6
Continuous
 62
     7
370
    30
100
AcDbLine
 10
302.2293049095779
 20
-296.719397491453
 30
0.0
 11
315.5711676559525
 21
-283.3775347450785
 31
0.0
  0
ARC
  5
AC
330
1F
100
AcDbEntity
  8
0
  6
Continuous
 62
     7
370
    30
100
AcDbCircle
 10
314.9251966895774
 20
-282.3676942365195
 30
0.0
 40
1.198772848427147
100
AcDbArc
 50
302.6060807881553
 51
40.70613604377647
  0
LINE
  5
AD
330
1F
100
AcDbEntity
  8
0
  6
Continuous
 62
     7
370
    30
100
AcDbLine
 10
315.8339438246367
 20
-281.5858790495044
 30
0.0
 11
316.2161637063592
 21
-281.203659167782
 31
0.0
  0
LINE
  5
AE
330
1F
100
AcDbEntity
  8
0
  6
Continuous
 62
     7
370
    30
100
AcDbLine
 10
316.2161637063592
 20
-281.203659167782
 30
0.0
 11
319.6203095279498
 21
-284.6078049893726
 31
0.0
  0
LINE
  5
AF
330
1F
100
AcDbEntity
  8
0
  6
Continuous
 62
     7
370
    30
100
AcDbLine
 10
319.6203095279498
 20
-284.6078049893725
 30
0.0
 11
319.2380896462274
 21
-284.990024871095
 31
0.0
  0
ARC
  5
B0
330
1F
100
AcDbEntity
  8
0
  6
Continuous
 62
     7
370
    30
100
AcDbCircle
 10
318.4550651885256
 20
-285.8905269787454
 30
0.0
 40
1.193327845665982
100
AcDbArc
 50
48.99166863866336
 51
147.6961145294037
  0
LINE
  5
B1
330
1F
100
AcDbEntity
  8
0
  6
Continuous
 62
     7
370
    30
100
AcDbLine
 10
317.4464339506533
 20
-285.2528010397792
 30
0.0
 11
304.1045712042787
 21
-298.5946637861538
 31
0.0
  0
LINE
  5
B2
330
1F
100
AcDbEntity
  8
0
  6
Continuous
 62
     7
370
    30
100
AcDbLine
 10
304.1045712042787
 20
-298.5946637861538
 30
0.0
 11
309.6228707466468
 21
-304.1129633285219
 31
0.0
  0
ARC
  5
B3
330
1F
100
AcDbEntity
  8
0
  6
Continuous
 62
     7
370
    30
100
AcDbCircle
 10
310.6262385183514
 20
-303.5111246588802
 30
0.0
 40
1.17002421751497
100
AcDbArc
 50
210.9561144108566
 51
312.356102421077
  0
LINE
  5
B4
330
1F
100
AcDbEntity
  8
0
  6
Continuous
 62
     7
370
    30
100
AcDbLine
 10
311.4145264422208
 20
-304.375739497206
 30
0.0
 11
311.7967463239432
 21
-304.7579593789284
 31
0.0
  0
LINE
  5
B5
330
1F
100
AcDbEntity
  8
0
  6
Continuous
 62
     7
370
    30
100
AcDbLine
 10
311.7967463239432
 20
-304.7579593789285
 30
0.0
 11
308.7150985275559
 21
-307.8396071753158
 31
0.0
  0
LINE
  5
B6
330
1F
100
AcDbEntity
  8
0
  6
Continuous
 62
     7
370
    30
100
AcDbLine
 10
308.7150985275559
 20
-307.8396071753158
 30
0.0
 11
308.3328786458335
 21
-307.4573872935933
 31
0.0
  0
ARC
  5
B7
330
1F
100
AcDbEntity
  8
0
  6
Continuous
 62
     7
370
    30
100
AcDbCircle
 10
307.4641325123878
 20
-306.6697052930082
 30
0.0
 40
1.172673346854334
100
AcDbArc
 50
317.8017695932456
 51
58.88601357482185
  0
LINE
  5
B8
330
1F
100
AcDbEntity
  8
0
  6
Continuous
 62
     7
370
    30
100
AcDbLine
 10
308.0701024771492
 20
-305.6657315980192
 30
0.0
 11
295.1582370977125
 21
-292.7538662185825
 31
0.0
  0
ARC
  5
B9
330
1F
100
AcDbEntity
  8
0
  6
Continuous
 62
     7
370
    30
100
AcDbCircle
 10
294.1542634027236
 20
-293.3598361833436
 30
0.0
 40
1.172673346854116
100
AcDbArc
 50
31.11398642516633
 51
132.1982304067673
  0
LINE
  5
BA
330
1F
100
AcDbEntity
  8
0
  6
Continuous
 62
     7
370
    30
100
AcDbLine
 10
293.3665814021384
 20
-292.4910900498983
 30
0.0
 11
292.984361520416
 21
-292.1088701681758
 31
0.0
  0
LINE
  5
BB
330
1F
100
AcDbEntity
  8
0
  6
Continuous
 62
     7
370
    30
100
AcDbLine
 10
292.984361520416
 20
-292.1088701681759
 30
0.0
 11
296.0660093168033
 21
-289.0272223717886
 31
0.0
  0
LINE
  5
BC
330
1F
100
AcDbEntity
  8
0
  6
Continuous
 62
     7
370
    30
100
AcDbLine
 10
296.0660093168033
 20
-289.0272223717886
 30
0.0
 11
296.4482291985258
 21
-289.409442253511
 31
0.0
  0
ARC
  5
BD
330
1F
100
AcDbEntity
  8
0
  6
Continuous
 62
     7
370
    30
100
AcDbCircle
 10
297.3128440368515
 20
-290.1977301773804
 30
0.0
 40
1.170024217514855
100
AcDbArc
 50
137.6438975789156
 51
239.043885589149
  0
LINE
  5
BE
330
1F
100
AcDbEntity
  8
0
  6
Continuous
 62
     7
370
    30
100
AcDbLine
 10
293.4600834337513
 20
-261.7442253750302
 30
0.0
 11
291.8683093267147
 21
-266.0051932068688
 31
0.0
  0
LINE
  5
BF
330
1F
100
AcDbEntity
  8
0
  6
Continuous
 62
     7
370
    30
100
AcDbLine
 10
291.8683093267147
 20
-266.0051932068688
 30
0.0
 11
300.5890067941197
 21
-274.7258906742737
 31
0.0
  0
LINE
  5
C0
330
1F
100
AcDbEntity
  8
0
  6
Continuous
 62
     7
370
    30
100
AcDbLine
 10
300.5890067941197
 20
-274.7258906742738
 30
0.0
 11
305.1156158139411
 21
-273.0641413718395
 31
0.0
  0
ARC
  5
C1
330
1F
100
AcDbEntity
  8
0
  6
Continuous
 62
     7
370
    30
100
AcDbCircle
 10
304.5784464318579
 20
-270.9740949423768
 30
0.0
 40
2.15797243317829
100
AcDbArc
 50
284.4138012760119
 51
309.1352809364637
  0
ARC
  5
C2
330
1F
100
AcDbEntity
  8
0
  6
Continuous
 62
     7
370
    30
100
AcDbCircle
 10
305.1852685917878
 20
-272.1794688652915
 30
0.0
 40
0.8886956561946445
100
AcDbArc
 50
328.1870168356403
 51
53.72391441314434
  0
LINE
  5
C3
330
1F
100
AcDbEntity
  8
0
  6
Continuous
 62
     7
370
    30
100
AcDbLine
 10
305.7110891446434
 20
-271.4630243695112
 30
0.0
 11
306.0933090263659
 21
-271.0808044877887
 31
0.0
  0
LINE
  5
C4
330
1F
100
AcDbEntity
  8
0
  6
Continuous
 62
     7
370
    30
100
AcDbLine
 10
306.0933090263659
 20
-271.0808044877887
 30
0.0
 11
309.7303700883812
 21
-274.717865549804
 31
0.0
  0
LINE
  5
C5
330
1F
100
AcDbEntity
  8
0
  6
Continuous
 62
     7
370
    30
100
AcDbLine
 10
309.7303700883812
 20
-274.7178655498041
 30
0.0
 11
309.3481502066588
 21
-275.1000854315265
 31
0.0
  0
SPLINE
  5
C6
330
1F
100
AcDbEntity
  8
0
  6
Continuous
 62
     7
370
    30
100
AcDbSpline
210
0.0
220
0.0
230
1.0
 70
     8
 71
     2
 72
     8
 73
     5
 74
     0
 42
0.0000000001
 43
0.0000000001
 40
0.0
 40
0.0
 40
0.0
 40
1.0
 40
1.0
 40
2.0
 40
2.0
 40
2.0
 10
309.3481502066587
 20
-275.1000854315264
 30
0.0
 10
308.774820384075
 20
-274.6939768071963
 30
0.0
 10
308.2432958610548
 20
-274.7118933641522
 30
0.0
 10
307.7117713380345
 20
-274.7298099211079
 30
0.0
 10
306.3706417371183
 20
-275.2223241033485
 30
0.0
  0
LINE
  5
C7
330
1F
100
AcDbEntity
  8
0
  6
Continuous
 62
     7
370
    30
100
AcDbLine
 10
306.3706417371183
 20
-275.2223241033485
 30
0.0
 11
287.5140909771715
 21
-282.1479493031868
 31
0.0
  0
ARC
  5
C8
330
1F
100
AcDbEntity
  8
0
  6
Continuous
 62
     7
370
    30
100
AcDbCircle
 10
288.0698731448306
 20
-284.3483498411607
 30
0.0
 40
2.26950574914526
100
AcDbArc
 50
104.1754088022207
 51
128.2193624535073
  0
ARC
  5
C9
330
1F
100
AcDbEntity
  8
0
  6
Continuous
 62
     7
370
    30
100
AcDbCircle
 10
287.3601726737658
 20
-283.018749184178
 30
0.0
 40
0.8293182995810124
100
AcDbArc
 50
146.855508791011
 51
226.1106385947867
  0
LINE
  5
CA
330
1F
100
AcDbEntity
  8
0
  6
Continuous
 62
     7
370
    30
100
AcDbLine
 10
286.7852328137299
 20
-283.616422171155
 30
0.0
 11
286.4030129320074
 21
-283.9986420528775
 31
0.0
  0
LINE
  5
CB
330
1F
100
AcDbEntity
  8
0
  6
Continuous
 62
     7
370
    30
100
AcDbLine
 10
286.4030129320074
 20
-283.9986420528774
 30
0.0
 11
282.4374816591369
 21
-280.033110780007
 31
0.0
  0
LINE
  5
CC
330
1F
100
AcDbEntity
  8
0
  6
Continuous
 62
     7
370
    30
100
AcDbLine
 10
282.4374816591369
 20
-280.033110780007
 30
0.0
 11
282.8197015408593
 21
-279.6508908982844
 31
0.0
  0
ARC
  5
CD
330
1F
100
AcDbEntity
  8
0
  6
Continuous
 62
     7
370
    30
100
AcDbCircle
 10
283.4177627424743
 20
-278.9829962030678
 30
0.0
 40
0.8965269236201047
100
AcDbArc
 50
228.1573875908482
 51
303.0452016991565
  0
ARC
  5
CE
330
1F
100
AcDbEntity
  8
0
  6
Continuous
 62
     7
370
    30
100
AcDbCircle
 10
282.0435050842258
 20
-278.3616897266609
 30
0.0
 40
2.314277721850346
100
AcDbArc
 50
323.6161263120306
 51
345.9816263970206
  0
LINE
  5
CF
330
1F
100
AcDbEntity
  8
0
  6
Continuous
 62
     7
370
    30
100
AcDbLine
 10
284.2888592112301
 20
-278.922284248751
 30
0.0
 11
290.989651512677
 21
-260.7787842382381
 31
0.0
  0
SPLINE
  5
D0
330
1F
100
AcDbEntity
  8
0
  6
Continuous
 62
     7
370
    30
100
AcDbSpline
210
0.0
220
0.0
230
1.0
 70
     8
 71
     2
 72
     8
 73
     5
 74
     0
 42
0.0000000001
 43
0.0000000001
 40
0.0
 40
0.0
 40
0.0
 40
1.0
 40
1.0
 40
2.0
 40
2.0
 40
2.0
 10
290.9896515126769
 20
-260.7787842382381
 30
0.0
 10
291.7302025335142
 20
-258.7721298591952
 30
0.0
 10
291.7660356474257
 20
-258.3301881209537
 30
0.0
 10
291.8018687613371
 20
-257.888246382712
 30
0.0
 10
291.2882607952726
 20
-257.0401960201403
 30
0.0
  0
LINE
  5
D1
330
1F
100
AcDbEntity
  8
0
  6
Continuous
 62
     7
370
    30
100
AcDbLine
 10
291.2882607952726
 20
-257.0401960201403
 30
0.0
 11
291.6704806769951
 21
-256.6579761384178
 31
0.0
  0
LINE
  5
D2
330
1F
100
AcDbEntity
  8
0
  6
Continuous
 62
     7
370
    30
100
AcDbLine
 10
291.6704806769951
 20
-256.6579761384179
 30
0.0
 11
295.5404569794349
 21
-260.5279524408577
 31
0.0
  0
LINE
  5
D3
330
1F
100
AcDbEntity
  8
0
  6
Continuous
 62
     7
370
    30
100
AcDbLine
 10
295.5404569794349
 20
-260.5279524408577
 30
0.0
 11
295.1582370977125
 21
-260.9101723225802
 31
0.0
  0
ARC
  5
D4
330
1F
100
AcDbEntity
  8
0
  6
Continuous
 62
     7
370
    30
100
AcDbCircle
 10
294.4661718538422
 20
-261.4158176183896
 30
0.0
 40
0.857106450184232
100
AcDbArc
 50
36.15307478679649
 51
128.0531360143453
  0
ARC
  5
D5
330
1F
100
AcDbEntity
  8
0
  6
Continuous
 62
     7
370
    30
100
AcDbCircle
 10
296.0071301266335
 20
-262.3416852406531
 30
0.0
 40
2.616181405551343
100
AcDbArc
 50
142.2744923290336
 51
166.7988175472229
  0
LINE
  5
D6
330
1F
100
AcDbEntity
  8
0
  6
Continuous
 62
     7
370
    30
100
AcDbLine
 10
291.0045819768067
 20
-268.2470023959558
 30
0.0
 11
286.6195046618893
 21
-279.9745087082975
 31
0.0
  0
LINE
  5
D7
330
1F
100
AcDbEntity
  8
0
  6
Continuous
 62
     7
370
    30
100
AcDbLine
 10
286.6195046618893
 20
-279.9745087082975
 30
0.0
 11
298.3430917273969
 21
-275.5855121465461
 31
0.0
  0
LINE
  5
D8
330
1F
100
AcDbEntity
  8
0
  6
Continuous
 62
     7
370
    30
100
AcDbLine
 10
298.3430917273969
 20
-275.585512146546
 30
0.0
 11
291.0045819768067
 21
-268.2470023959558
 31
0.0
  0
LINE
  5
D9
330
1F
100
AcDbEntity
  8
0
  6
Continuous
 62
     7
370
    30
100
AcDbLine
 10
280.0008299131563
 20
-259.6560133356783
 30
0.0
 11
285.926917757069
 21
-253.7299254917656
 31
0.0
  0
ARC
  5
DA
330
1F
100
AcDbEntity
  8
0
  6
Continuous
 62
     7
370
    30
100
AcDbCircle
 10
285.2812755918824
 20
-252.7217177573353
 30
0.0
 40
1.197220381229823
100
AcDbArc
 50
302.6349318929379
 51
40.76712224231892
  0
LINE
  5
DB
330
1F
100
AcDbEntity
  8
0
  6
Continuous
 62
     7
370
    30
100
AcDbLine
 10
286.1880142485386
 20
-251.9399494734062
 30
0.0
 11
286.570234130261
 21
-251.5577295916838
 31
0.0
  0
LINE
  5
DC
330
1F
100
AcDbEntity
  8
0
  6
Continuous
 62
     7
370
    30
100
AcDbLine
 10
286.570234130261
 20
-251.5577295916838
 30
0.0
 11
289.9743799518516
 21
-254.9618754132744
 31
0.0
  0
LINE
  5
DD
330
1F
100
AcDbEntity
  8
0
  6
Continuous
 62
     7
370
    30
100
AcDbLine
 10
289.9743799518516
 20
-254.9618754132744
 30
0.0
 11
289.5921600701292
 21
-255.3440952949969
 31
0.0
  0
ARC
  5
DE
330
1F
100
AcDbEntity
  8
0
  6
Continuous
 62
     7
370
    30
100
AcDbCircle
 10
288.8091356124274
 20
-256.2445974026475
 30
0.0
 40
1.19332784566615
100
AcDbArc
 50
48.99166863867035
 51
147.6961145293961
  0
LINE
  5
DF
330
1F
100
AcDbEntity
  8
0
  6
Continuous
 62
     7
370
    30
100
AcDbLine
 10
287.8005043745552
 20
-255.6068714636811
 30
0.0
 11
274.3153091725347
 21
-269.0920666657016
 31
0.0
  0
ARC
  5
E0
330
1F
100
AcDbEntity
  8
0
  6
Continuous
 62
     7
370
    30
100
AcDbCircle
 10
274.9296089871655
 20
-270.0972620720047
 30
0.0
 40
1.178041623673884
100
AcDbArc
 50
121.4301355427843
 51
221.8820812891476
  0
LINE
  5
E1
330
1F
100
AcDbEntity
  8
0
  6
Continuous
 62
     7
370
    30
100
AcDbLine
 10
274.0525330038505
 20
-270.8837223612755
 30
0.0
 11
273.6703131221281
 21
-271.2659422429981
 31
0.0
  0
LINE
  5
E2
330
1F
100
AcDbEntity
  8
0
  6
Continuous
 62
     7
370
    30
100
AcDbLine
 10
273.6703131221281
 20
-271.2659422429981
 30
0.0
 11
264.7239790155618
 21
-262.3196081364317
 31
0.0
  0
SPLINE
  5
E3
330
1F
100
AcDbEntity
  8
0
  6
Continuous
 62
     7
370
    30
100
AcDbSpline
210
0.0
220
0.0
230
1.0
 70
     8
 71
     2
 72
     8
 73
     5
 74
     0
 42
0.0000000001
 43
0.0000000001
 40
0.0
 40
0.0
 40
0.0
 40
1.0
 40
1.0
 40
2.0
 40
2.0
 40
2.0
 10
264.7239790155618
 20
-262.3196081364317
 30
0.0
 10
262.8845458347724
 20
-260.4801749556424
 30
0.0
 10
262.0128866757955
 20
-259.2137916512344
 30
0.0
 10
261.1412275168186
 20
-257.9474083468263
 30
0.0
 10
260.8416071039134
 20
-256.669168973993
 30
0.0
  0
ARC
  5
E4
330
1F
100
AcDbEntity
  8
0
  6
Continuous
 62
     7
370
    30
100
AcDbCircle
 10
266.1216594332711
 20
-255.4441726568651
 30
0.0
 40
5.420292296337265
100
AcDbArc
 50
164.3173046640403
 51
193.0618000339446
  0
ARC
  5
E5
330
1F
100
AcDbEntity
  8
0
  6
Continuous
 62
     7
370
    30
100
AcDbCircle
 10
266.8761558109227
 20
-255.6205386366996
 30
0.0
 40
6.194468912588921
100
AcDbArc
 50
134.0655640102517
 51
164.6331509485536
  0
ELLIPSE
  5
E6
330
1F
100
AcDbEntity
  8
0
  6
Continuous
 62
     7
370
    30
100
AcDbEllipse
 10
268.3662559268988
 20
-262.4597549047931
 30
0.0
 11
2.838845141652116
 21
-12.97412485777044
 31
0.0
210
0.0
220
0.0
230
1.0
 40
0.6391974572132728
 41
2.434915806458562
 42
3.534577798279531
  0
LINE
  5
E7
330
1F
100
AcDbEntity
  8
0
  6
Continuous
 62
     7
370
    30
100
AcDbLine
 10
271.5919925152622
 20
-251.4143971360378
 30
0.0
 11
273.9006641481956
 21
-240.8338972827364
 31
0.0
  0
ARC
  5
E8
330
1F
100
AcDbEntity
  8
0
  6
Continuous
 62
     7
370
    30
100
AcDbCircle
 10
272.2354261580052
 20
-240.4144919658228
 30
0.0
 40
1.717241504223769
100
AcDbArc
 50
345.8635484798568
 51
46.95642088812263
  0
LINE
  5
E9
330
1F
100
AcDbEntity
  8
0
  6
Continuous
 62
     7
370
    30
100
AcDbLine
 10
273.4075369534438
 20
-239.1594721783116
 30
0.0
 11
273.7897568351663
 21
-238.7772522965891
 31
0.0
  0
LINE
  5
EA
330
1F
100
AcDbEntity
  8
0
  6
Continuous
 62
     7
370
    30
100
AcDbLine
 10
273.7897568351663
 20
-238.7772522965891
 30
0.0
 11
277.5638049055723
 21
-242.5513003669952
 31
0.0
  0
LINE
  5
EB
330
1F
100
AcDbEntity
  8
0
  6
Continuous
 62
     7
370
    30
100
AcDbLine
 10
277.5638049055723
 20
-242.5513003669952
 30
0.0
 11
277.1815850238499
 21
-242.9335202487176
 31
0.0
  0
ARC
  5
EC
330
1F
100
AcDbEntity
  8
0
  6
Continuous
 62
     7
370
    30
100
AcDbCircle
 10
276.5981541924974
 20
-243.2606629157859
 30
0.0
 40
0.6688900205484498
100
AcDbArc
 50
29.28032067252937
 51
120.1267697239512
  0
ARC
  5
ED
330
1F
100
AcDbEntity
  8
0
  6
Continuous
 62
     7
370
    30
100
AcDbCircle
 10
278.2891863364055
 20
-243.9433986821102
 30
0.0
 40
2.387163663624875
100
AcDbArc
 50
148.1056164482974
 51
178.3514660500579
  0
LINE
  5
EE
330
1F
100
AcDbEntity
  8
0
  6
Continuous
 62
     7
370
    30
100
AcDbLine
 10
275.903010708771
 20
-243.8747238612935
 30
0.0
 11
273.7668012465668
 21
-253.4219846690889
 31
0.0
  0
LINE
  5
EF
330
1F
100
AcDbEntity
  8
0
  6
Continuous
 62
     7
370
    30
100
AcDbLine
 10
273.7668012465668
 20
-253.4219846690889
 30
0.0
 11
280.0008299131563
 21
-259.6560133356784
 31
0.0
  0
LINE
  5
F0
330
1F
100
AcDbEntity
  8
0
  6
Continuous
 62
     7
370
    30
100
AcDbLine
 10
278.4480616436588
 20
-261.2087816051759
 30
0.0
 11
271.8428243126426
 21
-254.6035442741596
 31
0.0
  0
ARC
  5
F1
330
1F
100
AcDbEntity
  8
0
  6
Continuous
 62
     7
370
    30
100
AcDbCircle
 10
265.3531072116493
 20
-259.6402553912708
 30
0.0
 40
8.214918558826636
100
AcDbArc
 50
37.81526843174242
 51
70.71125046072666
  0
ARC
  5
F2
330
1F
100
AcDbEntity
  8
0
  6
Continuous
 62
     7
370
    30
100
AcDbCircle
 10
267.1727336319871
 20
-255.3387081807472
 30
0.0
 40
3.566111837138832
100
AcDbArc
 50
75.48146487585088
 51
140.0905529682251
  0
ARC
  5
F3
330
1F
100
AcDbEntity
  8
0
  6
Continuous
 62
     7
370
    30
100
AcDbCircle
 10
266.7265930626169
 20
-255.7764860135613
 30
0.0
 40
3.559535531743237
100
AcDbArc
 50
130.026346677341
 51
195.5041630435185
  0
ARC
  5
F4
330
1F
100
AcDbEntity
  8
0
  6
Continuous
 62
     7
370
    30
100
AcDbCircle
 10
271.31784823637
 20
-253.8722104078338
 30
0.0
 40
8.514462796747216
100
AcDbArc
 50
199.5969957235122
 51
232.5914437486315
  0
LINE
  5
F5
330
1F
100
AcDbEntity
  8
0
  6
Continuous
 62
     7
370
    30
100
AcDbLine
 10
266.1453592007171
 20
-260.6354517825922
 30
0.0
 11
272.5833753334798
 21
-267.0734679153548
 31
0.0
  0
LINE
  5
F6
330
1F
100
AcDbEntity
  8
0
  6
Continuous
 62
     7
370
    30
100
AcDbLine
 10
272.5833753334798
 20
-267.0734679153548
 30
0.0
 11
278.4480616436588
 21
-261.2087816051758
 31
0.0
  0
LINE
  5
F7
330
1F
100
AcDbEntity
  8
0
  6
Continuous
 62
     7
370
    30
100
AcDbLine
 10
243.6541080356113
 20
-238.1442006174863
 30
0.0
 11
249.1724075779793
 21
-243.6625001598543
 31
0.0
  0
LINE
  5
F8
330
1F
100
AcDbEntity
  8
0
  6
Continuous
 62
     7
370
    30
100
AcDbLine
 10
249.1724075779793
 20
-243.6625001598543
 30
0.0
 11
262.5142703243538
 21
-230.3206374134797
 31
0.0
  0
ARC
  5
F9
330
1F
100
AcDbEntity
  8
0
  6
Continuous
 62
     7
370
    30
100
AcDbCircle
 10
261.8682993579784
 20
-229.3107969049209
 30
0.0
 40
1.198772848427235
100
AcDbArc
 50
302.6060807881668
 51
40.70613604377014
  0
LINE
  5
FA
330
1F
100
AcDbEntity
  8
0
  6
Continuous
 62
     7
370
    30
100
AcDbLine
 10
262.777046493038
 20
-228.5289817179057
 30
0.0
 11
263.1592663747604
 21
-228.1467618361832
 31
0.0
  0
LINE
  5
FB
330
1F
100
AcDbEntity
  8
0
  6
Continuous
 62
     7
370
    30
100
AcDbLine
 10
263.1592663747604
 20
-228.1467618361832
 30
0.0
 11
266.5634121963511
 21
-231.5509076577739
 31
0.0
  0
LINE
  5
FC
330
1F
100
AcDbEntity
  8
0
  6
Continuous
 62
     7
370
    30
100
AcDbLine
 10
266.5634121963511
 20
-231.5509076577739
 30
0.0
 11
266.1811923146286
 21
-231.9331275394964
 31
0.0
  0
ARC
  5
FD
330
1F
100
AcDbEntity
  8
0
  6
Continuous
 62
     7
370
    30
100
AcDbCircle
 10
265.3981678569268
 20
-232.8336296471469
 30
0.0
 40
1.19332784566615
100
AcDbArc
 50
48.99166863867035
 51
147.6961145293931
  0
LINE
  5
FE
330
1F
100
AcDbEntity
  8
0
  6
Continuous
 62
     7
370
    30
100
AcDbLine
 10
264.3895366190546
 20
-232.1959037081805
 30
0.0
 11
251.0476738726801
 21
-245.5377664545551
 31
0.0
  0
LINE
  5
FF
330
1F
100
AcDbEntity
  8
0
  6
Continuous
 62
     7
370
    30
100
AcDbLine
 10
251.0476738726801
 20
-245.5377664545551
 30
0.0
 11
256.5659734150481
 21
-251.0560659969231
 31
0.0
  0
ARC
  5
100
330
1F
100
AcDbEntity
  8
0
  6
Continuous
 62
     7
370
    30
100
AcDbCircle
 10
257.5693411867527
 20
-250.4542273272816
 30
0.0
 40
1.170024217514885
100
AcDbArc
 50
210.9561144108496
 51
312.3561024210835
  0
LINE
  5
101
330
1F
100
AcDbEntity
  8
0
  6
Continuous
 62
     7
370
    30
100
AcDbLine
 10
258.3576291106221
 20
-251.3188421656073
 30
0.0
 11
258.7398489923445
 21
-251.7010620473297
 31
0.0
  0
LINE
  5
102
330
1F
100
AcDbEntity
  8
0
  6
Continuous
 62
     7
370
    30
100
AcDbLine
 10
258.7398489923445
 20
-251.7010620473297
 30
0.0
 11
255.6582011959572
 21
-254.782709843717
 31
0.0
  0
LINE
  5
103
330
1F
100
AcDbEntity
  8
0
  6
Continuous
 62
     7
370
    30
100
AcDbLine
 10
255.6582011959572
 20
-254.7827098437171
 30
0.0
 11
255.2759813142347
 21
-254.4004899619946
 31
0.0
  0
ARC
  5
104
330
1F
100
AcDbEntity
  8
0
  6
Continuous
 62
     7
370
    30
100
AcDbCircle
 10
254.4072351807893
 20
-253.6128079614094
 30
0.0
 40
1.172673346854231
100
AcDbArc
 50
317.8017695932411
 51
58.88601357482626
  0
LINE
  5
105
330
1F
100
AcDbEntity
  8
0
  6
Continuous
 62
     7
370
    30
100
AcDbLine
 10
255.0132051455505
 20
-252.6088342664206
 30
0.0
 11
242.1013397661138
 21
-239.6969688869838
 31
0.0
  0
ARC
  5
106
330
1F
100
AcDbEntity
  8
0
  6
Continuous
 62
     7
370
    30
100
AcDbCircle
 10
241.097366071125
 20
-240.3029388517449
 30
0.0
 40
1.172673346854116
100
AcDbArc
 50
31.11398642516633
 51
132.1982304067673
  0
LINE
  5
107
330
1F
100
AcDbEntity
  8
0
  6
Continuous
 62
     7
370
    30
100
AcDbLine
 10
240.3096840705398
 20
-239.4341927182996
 30
0.0
 11
239.9274641888173
 21
-239.0519728365771
 31
0.0
  0
LINE
  5
108
330
1F
100
AcDbEntity
  8
0
  6
Continuous
 62
     7
370
    30
100
AcDbLine
 10
239.9274641888173
 20
-239.0519728365771
 30
0.0
 11
243.0091119852046
 21
-235.9703250401898
 31
0.0
  0
LINE
  5
109
330
1F
100
AcDbEntity
  8
0
  6
Continuous
 62
     7
370
    30
100
AcDbLine
 10
243.0091119852046
 20
-235.9703250401898
 30
0.0
 11
243.391331866927
 21
-236.3525449219123
 31
0.0
  0
ARC
  5
10A
330
1F
100
AcDbEntity
  8
0
  6
Continuous
 62
     7
370
    30
100
AcDbCircle
 10
244.2559467052527
 20
-237.1408328457817
 30
0.0
 40
1.170024217514817
100
AcDbArc
 50
137.6438975789176
 51
239.0438855891513
  0
LINE
  5
10B
330
1F
100
AcDbEntity
  8
0
  6
Continuous
 62
     7
370
    30
100
AcDbLine
 10
301.1055817084375
 20
-148.5550617516622
 30
0.0
 11
301.1055817084375
 21
-153.573511936164
 31
0.0
  0
LINE
  5
10C
330
1F
100
AcDbEntity
  8
0
  6
Continuous
 62
     7
370
    30
100
AcDbLine
 10
301.1055817084375
 20
-153.573511936164
 30
0.0
 11
270.7980786334066
 21
-153.573511936164
 31
0.0
  0
LINE
  5
10D
330
1F
100
AcDbEntity
  8
0
  6
Continuous
 62
     7
370
    30
100
AcDbLine
 10
270.7980786334067
 20
-153.573511936164
 30
0.0
 11
273.9223098757191
 21
-158.6657628586732
 31
0.0
  0
LINE
  5
10E
330
1F
100
AcDbEntity
  8
0
  6
Continuous
 62
     7
370
    30
100
AcDbLine
 10
273.9223098757191
 20
-158.6657628586732
 30
0.0
 11
268.7316579692001
 21
-158.6657628586732
 31
0.0
  0
LINE
  5
10F
330
1F
100
AcDbEntity
  8
0
  6
Continuous
 62
     7
370
    30
100
AcDbLine
 10
268.7316579692001
 20
-158.6657628586732
 30
0.0
 11
265.3368240208605
 21
-153.573511936164
 31
0.0
  0
LINE
  5
110
330
1F
100
AcDbEntity
  8
0
  6
Continuous
 62
     7
370
    30
100
AcDbLine
 10
265.3368240208605
 20
-153.573511936164
 30
0.0
 11
265.3368240208605
 21
-148.5550617516622
 31
0.0
  0
LINE
  5
111
330
1F
100
AcDbEntity
  8
0
  6
Continuous
 62
     7
370
    30
100
AcDbLine
 10
265.3368240208605
 20
-148.5550617516622
 30
0.0
 11
301.1055817084375
 21
-148.5550617516622
 31
0.0
  0
LINE
  5
112
330
1F
100
AcDbEntity
  8
0
  6
Continuous
 62
     7
370
    30
100
AcDbLine
 10
296.3098885853199
 20
-80.69598134993808
 30
0.0
 11
279.6855611937443
 21
-68.21641133255638
 31
0.0
  0
ARC
  5
113
330
1F
100
AcDbEntity
  8
0
  6
Continuous
 62
     7
370
    30
100
AcDbCircle
 10
273.2439095547197
 20
-76.09306968445287
 30
0.0
 40
10.17529471961621
100
AcDbArc
 50
50.72317489491899
 51
86.5859283535792
  0
LINE
  5
114
330
1F
100
AcDbEntity
  8
0
  6
Continuous
 62
     7
370
    30
100
AcDbLine
 10
273.849863985074
 20
-65.93583374846204
 30
0.0
 11
273.800663493069
 21
-65.93583374846204
 31
0.0
  0
ARC
  5
115
330
1F
100
AcDbEntity
  8
0
  6
Continuous
 62
     7
370
    30
100
AcDbCircle
 10
273.4897117704927
 20
-70.1579571115844
 30
0.0
 40
4.233558393030245
100
AcDbArc
 50
85.78787444652035
 51
188.1411663201065
  0
ARC
  5
116
330
1F
100
AcDbEntity
  8
0
  6
Continuous
 62
     7
370
    30
100
AcDbCircle
 10
274.2824068606469
 20
-70.96056149062579
 30
0.0
 40
4.987724380426913
100
AcDbArc
 50
177.666507585206
 51
269.552689886706
  0
LINE
  5
117
330
1F
100
AcDbEntity
  8
0
  6
Continuous
 62
     7
370
    30
100
AcDbLine
 10
274.2434679211133
 20
-75.9481338714633
 30
0.0
 11
274.2680681671158
 21
-75.9481338714633
 31
0.0
  0
LINE
  5
118
330
1F
100
AcDbEntity
  8
0
  6
Continuous
 62
     7
370
    30
100
AcDbLine
 10
274.2680681671158
 20
-75.9481338714633
 30
0.0
 11
274.2680681671158
 21
-81.13878577798236
 31
0.0
  0
LINE
  5
119
330
1F
100
AcDbEntity
  8
0
  6
Continuous
 62
     7
370
    30
100
AcDbLine
 10
274.2680681671158
 20
-81.13878577798236
 30
0.0
 11
274.2434679211133
 21
-81.13878577798236
 31
0.0
  0
ELLIPSE
  5
11A
330
1F
100
AcDbEntity
  8
0
  6
Continuous
 62
     7
370
    30
100
AcDbEllipse
 10
290.5219044710125
 20
-59.5900477786831
 30
0.0
 11
24.22474072696881
 21
17.22958707978474
 31
0.0
210
0.0
220
0.0
230
1.0
 40
0.5473342981609054
 41
2.768781499298318
 42
3.664482738537132
  0
ELLIPSE
  5
11B
330
1F
100
AcDbEntity
  8
0
  6
Continuous
 62
     7
370
    30
100
AcDbEllipse
 10
291.3329463942716
 20
-89.72029028336256
 30
0.0
 11
23.83905299555415
 21
-26.8853078852548
 31
0.0
210
0.0
220
0.0
230
1.0
 40
0.4559888704227965
 41
2.756258739856657
 42
3.617679223490611
  0
LINE
  5
11C
330
1F
100
AcDbEntity
  8
0
  6
Continuous
 62
     7
370
    30
100
AcDbLine
 10
273.849863985074
 20
-60.72058159594054
 30
0.0
 11
273.8744642310764
 21
-60.72058159594054
 31
0.0
  0
ARC
  5
11D
330
1F
100
AcDbEntity
  8
0
  6
Continuous
 62
     7
370
    30
100
AcDbCircle
 10
273.2392706184635
 20
-74.476954808861
 30
0.0
 40
13.77103027731257
100
AcDbArc
 50
51.47778308769168
 51
87.35627402012628
  0
LINE
  5
11E
330
1F
100
AcDbEntity
  8
0
  6
Continuous
 62
     7
370
    30
100
AcDbLine
 10
281.8161168782813
 20
-63.70295911858395
 30
0.0
 11
295.8916844032781
 21
-74.05391492927384
 31
0.0
  0
LINE
  5
11F
330
1F
100
AcDbEntity
  8
0
  6
Continuous
 62
     7
370
    30
100
AcDbLine
 10
295.8916844032781
 20
-74.05391492927384
 30
0.0
 11
295.8916844032781
 21
-60.52377962792085
 31
0.0
  0
LINE
  5
120
330
1F
100
AcDbEntity
  8
0
  6
Continuous
 62
     7
370
    30
100
AcDbLine
 10
295.8916844032781
 20
-60.52377962792085
 30
0.0
 11
300.6641321277554
 21
-60.52377962792085
 31
0.0
  0
LINE
  5
121
330
1F
100
AcDbEntity
  8
0
  6
Continuous
 62
     7
370
    30
100
AcDbLine
 10
300.6641321277554
 20
-60.52377962792085
 30
0.0
 11
300.6641321277554
 21
-80.69598134993808
 31
0.0
  0
LINE
  5
122
330
1F
100
AcDbEntity
  8
0
  6
Continuous
 62
     7
370
    30
100
AcDbLine
 10
300.6641321277554
 20
-80.69598134993808
 30
0.0
 11
296.3098885853199
 21
-80.69598134993808
 31
0.0
  0
ARC
  5
123
330
1F
100
AcDbEntity
  8
0
  6
Continuous
 62
     7
370
    30
100
AcDbCircle
 10
291.1960078601384
 20
7.560324651155081
 30
0.0
 40
9.949134490239913
100
AcDbArc
 50
273.7046041143965
 51
4.596835688559044
  0
LINE
  5
124
330
1F
100
AcDbEntity
  8
0
  6
Continuous
 62
     7
370
    30
100
AcDbLine
 10
291.838846287569
 20
-2.36802042046183
 30
0.0
 11
291.838846287569
 21
2.748830748049852
 31
0.0
  0
ARC
  5
125
330
1F
100
AcDbEntity
  8
0
  6
Continuous
 62
     7
370
    30
100
AcDbCircle
 10
291.3714902669545
 20
7.691661289586982
 30
0.0
 40
4.964876172912762
100
AcDbArc
 50
275.4013898210399
 51
7.709324755765429
  0
ARC
  5
126
330
1F
100
AcDbEntity
  8
0
  6
Continuous
 62
     7
370
    30
100
AcDbCircle
 10
291.6267114618143
 20
8.916690374497104
 30
0.0
 40
4.698154037500359
100
AcDbArc
 50
353.1665499521391
 51
94.91921067214149
  0
LINE
  5
127
330
1F
100
AcDbEntity
  8
0
  6
Continuous
 62
     7
370
    30
100
AcDbLine
 10
291.2238401375075
 20
13.59753923513471
 30
0.0
 11
290.1414293133993
 21
13.59753923513471
 31
0.0
  0
ELLIPSE
  5
128
330
1F
100
AcDbEntity
  8
0
  6
Continuous
 62
     7
370
    30
100
AcDbEllipse
 10
300.2720740625301
 20
-0.4170153715911395
 30
0.0
 11
14.69316777914459
 21
-12.28124138817921
 31
0.0
210
0.0
220
0.0
230
1.0
 40
0.4594845277563743
 41
2.636734128594077
 42
3.51048033653535
  0
LINE
  5
129
330
1F
100
AcDbEntity
  8
0
  6
Continuous
 62
     7
370
    30
100
AcDbLine
 10
284.5325732248384
 20
8.603689296635325
 30
0.0
 11
284.5325732248384
 21
6.069863958381966
 31
0.0
  0
LINE
  5
12A
330
1F
100
AcDbEntity
  8
0
  6
Continuous
 62
     7
370
    30
100
AcDbLine
 10
284.5325732248384
 20
6.069863958381966
 30
0.0
 11
279.7601255003611
 21
6.069863958381966
 31
0.0
  0
LINE
  5
12B
330
1F
100
AcDbEntity
  8
0
  6
Continuous
 62
     7
370
    30
100
AcDbLine
 10
279.7601255003611
 20
6.069863958381966
 30
0.0
 11
279.7601255003611
 21
8.603689296635325
 31
0.0
  0
ARC
  5
12C
330
1F
100
AcDbEntity
  8
0
  6
Continuous
 62
     7
370
    30
100
AcDbCircle
 10
275.5831079652449
 20
8.867946273487359
 30
0.0
 40
4.185368232125306
100
AcDbArc
 50
356.3800348280145
 51
98.51929041223922
  0
LINE
  5
12D
330
1F
100
AcDbEntity
  8
0
  6
Continuous
 62
     7
370
    30
100
AcDbLine
 10
274.9630775298814
 20
13.0071333310757
 30
0.0
 11
273.8560664597707
 21
13.0071333310757
 31
0.0
  0
ARC
  5
12E
330
1F
100
AcDbEntity
  8
0
  6
Continuous
 62
     7
370
    30
100
AcDbCircle
 10
273.5188136048912
 20
8.892118006307653
 30
0.0
 40
4.128812251871026
100
AcDbArc
 50
85.31470156282465
 51
187.7816138351312
  0
ARC
  5
12F
330
1F
100
AcDbEntity
  8
0
  6
Continuous
 62
     7
370
    30
100
AcDbCircle
 10
274.3002114993421
 20
8.171420014432218
 30
0.0
 40
4.874870752329032
100
AcDbArc
 50
178.0995370563739
 51
265.0628599537179
  0
LINE
  5
130
330
1F
100
AcDbEntity
  8
0
  6
Continuous
 62
     7
370
    30
100
AcDbLine
 10
273.8806667057732
 20
3.314636406106436
 30
0.0
 11
273.8806667057732
 21
-1.777614516402765
 31
0.0
  0
ELLIPSE
  5
131
330
1F
100
AcDbEntity
  8
0
  6
Continuous
 62
     7
370
    30
100
AcDbEllipse
 10
290.2240173591464
 20
19.04313843400199
 30
0.0
 11
23.96689339885554
 21
16.45453126632121
 31
0.0
210
0.0
220
0.0
230
1.0
 40
0.5498358909127554
 41
2.778976214835172
 42
3.659574761109273
  0
ELLIPSE
  5
132
330
1F
100
AcDbEntity
  8
0
  6
Continuous
 62
     7
370
    30
100
AcDbEllipse
 10
289.3683252269832
 20
-7.777912832968109
 30
0.0
 11
22.04780630047766
 21
-23.54630946150222
 31
0.0
210
0.0
220
0.0
230
1.0
 40
0.4787053901619649
 41
2.717844718505862
 42
3.616673406528382
  0
LINE
  5
133
330
1F
100
AcDbEntity
  8
0
  6
Continuous
 62
     7
370
    30
100
AcDbLine
 10
273.9052669517756
 20
18.02558351557751
 30
0.0
 11
274.4956728558346
 21
18.02558351557751
 31
0.0
  0
ARC
  5
134
330
1F
100
AcDbEntity
  8
0
  6
Continuous
 62
     7
370
    30
100
AcDbCircle
 10
274.6703140176823
 20
10.32075841402691
 30
0.0
 40
7.706804096439439
100
AcDbArc
 50
16.16160192926908
 51
91.29847053955079
  0
ELLIPSE
  5
135
330
1F
100
AcDbEntity
  8
0
  6
Continuous
 62
     7
370
    30
100
AcDbEllipse
 10
299.5441512905965
 20
1.782842173983251
 30
0.0
 11
15.70720770841089
 21
-14.22943631084113
 31
0.0
210
0.0
220
0.0
230
1.0
 40
0.5725600906222316
 41
2.57542450818582
 42
3.461208462541846
  0
LINE
  5
136
330
1F
100
AcDbEntity
  8
0
  6
Continuous
 62
     7
370
    30
100
AcDbLine
 10
290.6580344794509
 20
18.61598941963657
 30
0.0
 11
291.2484403835099
 21
18.61598941963657
 31
0.0
  0
ELLIPSE
  5
137
330
1F
100
AcDbEntity
  8
0
  6
Continuous
 62
     7
370
    30
100
AcDbEllipse
 10
273.3045652294275
 20
-10.29700377184667
 30
0.0
 11
-24.95345164072479
 21
-26.50324214627247
 31
0.0
210
0.0
220
0.0
230
1.0
 40
0.4631010294542851
 41
2.683250391244569
 42
3.553903827465301
  0
LINE
  5
138
330
1F
100
AcDbEntity
  8
0
  6
Continuous
 62
     7
370
    30
100
AcDbLine
 10
291.3909842494949
 20
75.3313616930328
 30
0.0
 11
265.4869252089045
 21
87.33628174223331
 31
0.0
  0
LINE
  5
139
330
1F
100
AcDbEntity
  8
0
  6
Continuous
 62
     7
370
    30
100
AcDbLine
 10
265.4869252089045
 20
87.33628174223331
 30
0.0
 11
265.4869252089045
 21
92.5023334027499
 31
0.0
  0
LINE
  5
13A
330
1F
100
AcDbEntity
  8
0
  6
Continuous
 62
     7
370
    30
100
AcDbLine
 10
265.4869252089045
 20
92.5023334027499
 30
0.0
 11
291.0957812974654
 21
80.79261630557895
 31
0.0
  0
LINE
  5
13B
330
1F
100
AcDbEntity
  8
0
  6
Continuous
 62
     7
370
    30
100
AcDbLine
 10
291.0957812974654
 20
80.79261630557895
 30
0.0
 11
291.0957812974654
 21
98.33259170533294
 31
0.0
  0
LINE
  5
13C
330
1F
100
AcDbEntity
  8
0
  6
Continuous
 62
     7
370
    30
100
AcDbLine
 10
291.0957812974654
 20
98.33259170533294
 30
0.0
 11
295.7452277919303
 21
98.33259170533294
 31
0.0
  0
LINE
  5
13D
330
1F
100
AcDbEntity
  8
0
  6
Continuous
 62
     7
370
    30
100
AcDbLine
 10
295.7452277919303
 20
98.33259170533294
 30
0.0
 11
295.7452277919303
 21
75.3313616930328
 31
0.0
  0
LINE
  5
13E
330
1F
100
AcDbEntity
  8
0
  6
Continuous
 62
     7
370
    30
100
AcDbLine
 10
295.7452277919303
 20
75.3313616930328
 30
0.0
 11
291.3909842494949
 21
75.3313616930328
 31
0.0
  0
LINE
  5
13F
330
1F
100
AcDbEntity
  8
0
  6
Continuous
 62
     7
370
    30
100
AcDbLine
 10
280.1978723183756
 20
90.75571593657523
 30
0.0
 11
280.1978723183756
 21
95.65116489106481
 31
0.0
  0
LINE
  5
140
330
1F
100
AcDbEntity
  8
0
  6
Continuous
 62
     7
370
    30
100
AcDbLine
 10
280.1978723183756
 20
95.65116489106481
 30
0.0
 11
301.2556828964813
 21
95.65116489106481
 31
0.0
  0
LINE
  5
141
330
1F
100
AcDbEntity
  8
0
  6
Continuous
 62
     7
370
    30
100
AcDbLine
 10
301.2556828964813
 20
95.65116489106481
 30
0.0
 11
301.2556828964813
 21
90.75571593657523
 31
0.0
  0
LINE
  5
142
330
1F
100
AcDbEntity
  8
0
  6
Continuous
 62
     7
370
    30
100
AcDbLine
 10
301.2556828964813
 20
90.75571593657523
 30
0.0
 11
280.1978723183756
 21
90.75571593657523
 31
0.0
  0
ELLIPSE
  5
143
330
1F
100
AcDbEntity
  8
0
  6
Continuous
 62
     7
370
    30
100
AcDbEllipse
 10
275.4824676952828
 20
180.6102621923184
 30
0.0
 11
23.95440219848323
 21
-18.29549777559497
 31
0.0
210
0.0
220
0.0
230
1.0
 40
0.5332562985548083
 41
5.810494182669128
 42
6.67040482235803
  0
LINE
  5
144
330
1F
100
AcDbEntity
  8
0
  6
Continuous
 62
     7
370
    30
100
AcDbLine
 10
292.3683441775806
 20
158.5052110442619
 30
0.0
 11
292.3437439315782
 21
158.5052110442619
 31
0.0
  0
LINE
  5
145
330
1F
100
AcDbEntity
  8
0
  6
Continuous
 62
     7
370
    30
100
AcDbLine
 10
292.3437439315782
 20
158.5052110442619
 30
0.0
 11
292.3437439315782
 21
163.5236612287638
 31
0.0
  0
LINE
  5
146
330
1F
100
AcDbEntity
  8
0
  6
Continuous
 62
     7
370
    30
100
AcDbLine
 10
292.3437439315782
 20
163.5236612287638
 30
0.0
 11
292.3683441775806
 21
163.5236612287638
 31
0.0
  0
ARC
  5
147
330
1F
100
AcDbEntity
  8
0
  6
Continuous
 62
     7
370
    30
100
AcDbCircle
 10
291.9655853634287
 20
168.0843754444667
 30
0.0
 40
4.578463587241002
100
AcDbArc
 50
275.0467250047405
 51
5.119300696799614
  0
ELLIPSE
  5
148
330
1F
100
AcDbEntity
  8
0
  6
Continuous
 62
     7
370
    30
100
AcDbEllipse
 10
279.8021275826638
 20
159.8299658407759
 30
0.0
 11
15.850913597829
 21
11.61482777208361
 31
0.0
210
0.0
220
0.0
230
1.0
 40
0.4590739481653823
 41
5.956269946660424
 42
6.84502753672824
  0
LINE
  5
149
330
1F
100
AcDbEntity
  8
0
  6
Continuous
 62
     7
370
    30
100
AcDbLine
 10
290.3757242513814
 20
173.5359613517651
 30
0.0
 11
287.3744942390812
 21
173.5359613517651
 31
0.0
  0
ELLIPSE
  5
14A
330
1F
100
AcDbEntity
  8
0
  6
Continuous
 62
     7
370
    30
100
AcDbEllipse
 10
297.3267013776999
 20
160.3138420075456
 30
0.0
 11
15.20512208694268
 21
-11.13015656587789
 31
0.0
210
0.0
220
0.0
230
1.0
 40
0.4694185003397267
 41
2.569247637788552
 42
3.475222130646912
  0
ARC
  5
14B
330
1F
100
AcDbEntity
  8
0
  6
Continuous
 62
     7
370
    30
100
AcDbCircle
 10
286.9319434771458
 20
168.7762292738443
 30
0.0
 40
5.689968449533761
100
AcDbArc
 50
182.8540863159091
 51
239.6097327811248
  0
LINE
  5
14C
330
1F
100
AcDbEntity
  8
0
  6
Continuous
 62
     7
370
    30
100
AcDbLine
 10
284.0534610287491
 20
163.8680646727982
 30
0.0
 11
284.0534610287491
 21
159.2924189163407
 31
0.0
  0
LINE
  5
14D
330
1F
100
AcDbEntity
  8
0
  6
Continuous
 62
     7
370
    30
100
AcDbLine
 10
284.0534610287491
 20
159.2924189163407
 30
0.0
 11
265.2096725908647
 21
159.2924189163407
 31
0.0
  0
LINE
  5
14E
330
1F
100
AcDbEntity
  8
0
  6
Continuous
 62
     7
370
    30
100
AcDbLine
 10
265.2096725908647
 20
159.2924189163407
 30
0.0
 11
265.2096725908647
 21
177.5212012041636
 31
0.0
  0
LINE
  5
14F
330
1F
100
AcDbEntity
  8
0
  6
Continuous
 62
     7
370
    30
100
AcDbLine
 10
265.2096725908647
 20
177.5212012041636
 30
0.0
 11
269.9821203153419
 21
177.5212012041636
 31
0.0
  0
LINE
  5
150
330
1F
100
AcDbEntity
  8
0
  6
Continuous
 62
     7
370
    30
100
AcDbLine
 10
269.9821203153419
 20
177.5212012041636
 30
0.0
 11
269.9821203153419
 21
164.3108691008426
 31
0.0
  0
LINE
  5
151
330
1F
100
AcDbEntity
  8
0
  6
Continuous
 62
     7
370
    30
100
AcDbLine
 10
269.9821203153419
 20
164.3108691008426
 30
0.0
 11
278.0264007581464
 21
164.3108691008426
 31
0.0
  0
ARC
  5
152
330
1F
100
AcDbEntity
  8
0
  6
Continuous
 62
     7
370
    30
100
AcDbCircle
 10
283.5310458340405
 20
168.8011137376193
 30
0.0
 40
7.103760575193118
100
AcDbArc
 50
180.3032672156837
 51
219.2047856611772
  0
ELLIPSE
  5
153
330
1F
100
AcDbEntity
  8
0
  6
Continuous
 62
     7
370
    30
100
AcDbEllipse
 10
309.9071286254285
 20
148.6044317515153
 30
0.0
 11
31.38866520552444
 21
-26.61437793610378
 31
0.0
210
0.0
220
0.0
230
1.0
 40
0.4376090273053342
 41
2.664385593806644
 42
3.49755505568218
  0
LINE
  5
154
330
1F
100
AcDbEntity
  8
0
  6
Continuous
 62
     7
370
    30
100
AcDbLine
 10
287.3744942390812
 20
178.5544115362668
 30
0.0
 11
290.3757242513814
 21
178.5544115362668
 31
0.0
  0
ELLIPSE
  5
155
330
1F
100
AcDbEntity
  8
0
  6
Continuous
 62
     7
370
    30
100
AcDbEllipse
 10
271.2843850874153
 20
150.9616456721563
 30
0.0
 11
27.81710938453037
 21
24.31508934923804
 31
0.0
210
0.0
220
0.0
230
1.0
 40
0.4689098921053456
 41
5.893236423904749
 42
6.776925679367852
  0
ELLIPSE
  5
156
330
1F
100
AcDbEntity
  8
0
  6
Continuous
 62
     7
370
    30
100
AcDbEllipse
 10
270.4193837935822
 20
266.8163925867729
 30
0.0
 11
28.46708987001337
 21
-25.16486087421709
 31
0.0
210
0.0
220
0.0
230
1.0
 40
0.4588358334847565
 41
5.803267842395968
 42
6.669468084014978
  0
LINE
  5
157
330
1F
100
AcDbEntity
  8
0
  6
Continuous
 62
     7
370
    30
100
AcDbLine
 10
290.3395264952316
 20
238.4636552608598
 30
0.0
 11
290.3149262492292
 21
238.4636552608598
 31
0.0
  0
ARC
  5
158
330
1F
100
AcDbEntity
  8
0
  6
Continuous
 62
     7
370
    30
100
AcDbCircle
 10
290.7003734992447
 20
261.0218480202852
 30
0.0
 40
22.56148554847257
100
AcDbArc
 50
246.8367703323285
 51
269.0210939320665
  0
ARC
  5
159
330
1F
100
AcDbEntity
  8
0
  6
Continuous
 62
     7
370
    30
100
AcDbCircle
 10
289.2260242128094
 20
257.8448456803404
 30
0.0
 40
19.06094337617629
100
AcDbArc
 50
242.4220850773876
 51
247.1548556956159
  0
LINE
  5
15A
330
1F
100
AcDbEntity
  8
0
  6
Continuous
 62
     7
370
    30
100
AcDbLine
 10
280.4016764741329
 20
240.9495667724114
 30
0.0
 11
265.0012731126978
 21
248.7219578438857
 31
0.0
  0
LINE
  5
15B
330
1F
100
AcDbEntity
  8
0
  6
Continuous
 62
     7
370
    30
100
AcDbLine
 10
265.0012731126978
 20
248.7219578438857
 30
0.0
 11
265.0012731126978
 21
254.1340119644268
 31
0.0
  0
LINE
  5
15C
330
1F
100
AcDbEntity
  8
0
  6
Continuous
 62
     7
370
    30
100
AcDbLine
 10
265.0012731126978
 20
254.1340119644268
 30
0.0
 11
282.8364514644813
 21
245.0073206975142
 31
0.0
  0
LINE
  5
15D
330
1F
100
AcDbEntity
  8
0
  6
Continuous
 62
     7
370
    30
100
AcDbLine
 10
282.8364514644813
 20
245.0073206975142
 30
0.0
 11
281.9508426083927
 21
245.0319209435166
 31
0.0
  0
ARC
  5
15E
330
1F
100
AcDbEntity
  8
0
  6
Continuous
 62
     7
370
    30
100
AcDbCircle
 10
284.3394459235743
 20
249.2373098270578
 30
0.0
 40
4.836395502759081
100
AcDbArc
 50
175.901583124705
 51
240.4040180023603
  0
ELLIPSE
  5
15F
330
1F
100
AcDbEntity
  8
0
  6
Continuous
 62
     7
370
    30
100
AcDbEllipse
 10
310.0202055761422
 20
233.1523124766305
 30
0.0
 11
28.91720750755339
 21
-21.6914998896491
 31
0.0
210
0.0
220
0.0
230
1.0
 40
0.4477672345333458
 41
2.602429718128346
 42
3.466115631158962
  0
LINE
  5
160
330
1F
100
AcDbEntity
  8
0
  6
Continuous
 62
     7
370
    30
100
AcDbLine
 10
290.1919250192168
 20
258.4144547688549
 30
0.0
 11
290.2165252652193
 21
258.4144547688549
 31
0.0
  0
ELLIPSE
  5
161
330
1F
100
AcDbEntity
  8
0
  6
Continuous
 62
     7
370
    30
100
AcDbEllipse
 10
268.7596178270204
 20
228.8017567696794
 30
0.0
 11
30.15514867971346
 21
26.36086681305132
 31
0.0
210
0.0
220
0.0
230
1.0
 40
0.4473983077096778
 41
5.90987624248983
 42
6.756787586940915
  0
ELLIPSE
  5
162
330
1F
100
AcDbEntity
  8
0
  6
Continuous
 62
     7
370
    30
100
AcDbEllipse
 10
278.6040862866748
 20
237.9051483511736
 30
0.0
 11
16.70005821107959
 21
13.72330810276884
 31
0.0
210
0.0
220
0.0
230
1.0
 40
0.4302966732692369
 41
5.941453414359384
 42
6.767452986633234
  0
LINE
  5
163
330
1F
100
AcDbEntity
  8
0
  6
Continuous
 62
     7
370
    30
100
AcDbLine
 10
290.6347294472611
 20
253.396004584353
 30
0.0
 11
290.6101292012586
 21
253.396004584353
 31
0.0
  0
ELLIPSE
  5
164
330
1F
100
AcDbEntity
  8
0
  6
Continuous
 62
     7
370
    30
100
AcDbEllipse
 10
303.5458321826451
 20
237.4376695353433
 30
0.0
 11
18.25665754244288
 21
-13.89580121920922
 31
0.0
210
0.0
220
0.0
230
1.0
 40
0.4298176045675182
 41
2.625804352011577
 42
3.459805193993549
  0
ELLIPSE
  5
165
330
1F
100
AcDbEntity
  8
0
  6
Continuous
 62
     7
370
    30
100
AcDbEllipse
 10
301.0262558790383
 20
255.9342084413431
 30
0.0
 11
16.05273173471909
 21
10.14050516991951
 31
0.0
210
0.0
220
0.0
230
1.0
 40
0.4501882816736568
 41
2.862107960563095
 42
3.763197219984014
  0
LINE
  5
166
330
1F
100
AcDbEntity
  8
0
  6
Continuous
 62
     7
370
    30
100
AcDbLine
 10
290.6347294472611
 20
243.4821054453617
 30
0.0
 11
290.6593296932636
 21
243.4821054453617
 31
0.0
  0
ELLIPSE
  5
167
330
1F
100
AcDbEntity
  8
0
  6
Continuous
 62
     7
370
    30
100
AcDbEllipse
 10
279.1106188599083
 20
258.5390123362276
 30
0.0
 11
16.19911558189752
 21
-13.29394379560849
 31
0.0
210
0.0
220
0.0
230
1.0
 40
0.4364340301083138
 41
5.792105794551685
 42
6.628844218012832
  0
LINE
  5
168
330
1F
100
AcDbEntity
  8
0
  6
Continuous
 62
     7
370
    30
100
AcDbLine
 10
269.9705957001333
 20
339.7425066287424
 30
0.0
 11
301.2621086152624
 21
330.4928141318174
 31
0.0
  0
LINE
  5
169
330
1F
100
AcDbEntity
  8
0
  6
Continuous
 62
     7
370
    30
100
AcDbLine
 10
301.2621086152624
 20
330.4928141318174
 30
0.0
 11
301.2621086152624
 21
325.1545607492836
 31
0.0
  0
LINE
  5
16A
330
1F
100
AcDbEntity
  8
0
  6
Continuous
 62
     7
370
    30
100
AcDbLine
 10
301.2621086152624
 20
325.1545607492836
 30
0.0
 11
270.2657986521628
 21
334.4042532462086
 31
0.0
  0
LINE
  5
16B
330
1F
100
AcDbEntity
  8
0
  6
Continuous
 62
     7
370
    30
100
AcDbLine
 10
270.2657986521628
 20
334.4042532462086
 30
0.0
 11
270.2657986521628
 21
325.3021622252984
 31
0.0
  0
LINE
  5
16C
330
1F
100
AcDbEntity
  8
0
  6
Continuous
 62
     7
370
    30
100
AcDbLine
 10
270.2657986521628
 20
325.3021622252984
 30
0.0
 11
275.407250066677
 21
325.3021622252984
 31
0.0
  0
LINE
  5
16D
330
1F
100
AcDbEntity
  8
0
  6
Continuous
 62
     7
370
    30
100
AcDbLine
 10
275.4072500666769
 20
325.3021622252984
 30
0.0
 11
275.4072500666769
 21
320.2837120407966
 31
0.0
  0
LINE
  5
16E
330
1F
100
AcDbEntity
  8
0
  6
Continuous
 62
     7
370
    30
100
AcDbLine
 10
275.4072500666769
 20
320.2837120407966
 30
0.0
 11
265.4933509276856
 21
320.2837120407966
 31
0.0
  0
LINE
  5
16F
330
1F
100
AcDbEntity
  8
0
  6
Continuous
 62
     7
370
    30
100
AcDbLine
 10
265.4933509276856
 20
320.2837120407966
 30
0.0
 11
265.4933509276856
 21
339.7425066287424
 31
0.0
  0
LINE
  5
170
330
1F
100
AcDbEntity
  8
0
  6
Continuous
 62
     7
370
    30
100
AcDbLine
 10
265.4933509276856
 20
339.7425066287424
 30
0.0
 11
269.9705957001333
 21
339.7425066287424
 31
0.0
  0
ELLIPSE
  5
171
330
1F
100
AcDbEntity
  8
0
  6
Continuous
 62
     7
370
    30
100
AcDbEllipse
 10
285.9224529372751
 20
415.140390591793
 30
0.0
 11
11.54957014754794
 21
-14.76679207524631
 31
0.0
210
0.0
220
0.0
230
1.0
 40
0.6828649486049764
 41
5.789605788260312
 42
7.003769460559916
  0
LINE
  5
172
330
1F
100
AcDbEntity
  8
0
  6
Continuous
 62
     7
370
    30
100
AcDbLine
 10
291.3160172374642
 20
398.3995085761637
 30
0.0
 11
290.7256113334051
 21
398.3995085761637
 31
0.0
  0
ARC
  5
173
330
1F
100
AcDbEntity
  8
0
  6
Continuous
 62
     7
370
    30
100
AcDbCircle
 10
290.6150779915071
 20
408.1999251663415
 30
0.0
 40
9.801039891802473
100
AcDbArc
 50
209.8640581933409
 51
270.6461792127743
  0
ARC
  5
174
330
1F
100
AcDbEntity
  8
0
  6
Continuous
 62
     7
370
    30
100
AcDbCircle
 10
274.9435367535465
 20
407.3778668502381
 30
0.0
 40
8.240588042099622
100
AcDbArc
 50
270.4346797350803
 51
330.49641010384
  0
LINE
  5
175
330
1F
100
AcDbEntity
  8
0
  6
Continuous
 62
     7
370
    30
100
AcDbLine
 10
275.0060541378331
 20
399.1375159562375
 30
0.0
 11
274.1450455277471
 21
399.1375159562375
 31
0.0
  0
ELLIPSE
  5
176
330
1F
100
AcDbEntity
  8
0
  6
Continuous
 62
     7
370
    30
100
AcDbEllipse
 10
278.7209113984498
 20
414.1661612730862
 30
0.0
 11
-10.51288915330412
 21
-13.08228558133084
 31
0.0
210
0.0
220
0.0
230
1.0
 40
0.7036187867908458
 41
5.560375677683031
 42
6.801191577906002
  0
ELLIPSE
  5
177
330
1F
100
AcDbEntity
  8
0
  6
Continuous
 62
     7
370
    30
100
AcDbEllipse
 10
278.7209113984389
 20
404.3302728534226
 30
0.0
 11
10.51288915329255
 21
-13.08228558132002
 31
0.0
210
0.0
220
0.0
230
1.0
 40
0.7036187867912125
 41
2.623586382863213
 42
3.864402283086807
  0
LINE
  5
178
330
1F
100
AcDbEntity
  8
0
  6
Continuous
 62
     7
370
    30
100
AcDbLine
 10
274.1450455277471
 20
419.3589181702596
 30
0.0
 11
275.0060541378331
 21
419.3589181702596
 31
0.0
  0
ARC
  5
179
330
1F
100
AcDbEntity
  8
0
  6
Continuous
 62
     7
370
    30
100
AcDbCircle
 10
274.9631441493905
 20
411.2210572387599
 30
0.0
 40
8.137974060387299
100
AcDbArc
 50
28.49129005186856
 51
89.69788885894947
  0
ARC
  5
17A
330
1F
100
AcDbEntity
  8
0
  6
Continuous
 62
     7
370
    30
100
AcDbCircle
 10
290.6921248538488
 20
410.2352478726798
 30
0.0
 40
9.861734531117868
100
AcDbArc
 50
89.80544622953562
 51
150.4220200724292
  0
LINE
  5
17B
330
1F
100
AcDbEntity
  8
0
  6
Continuous
 62
     7
370
    30
100
AcDbLine
 10
290.7256113334051
 20
420.0969255503334
 30
0.0
 11
291.3160172374642
 21
420.0969255503334
 31
0.0
  0
ELLIPSE
  5
17C
330
1F
100
AcDbEntity
  8
0
  6
Continuous
 62
     7
370
    30
100
AcDbEllipse
 10
285.9224529372774
 20
403.3560435347059
 30
0.0
 11
-11.5495701475433
 21
-14.76679207524224
 31
0.0
210
0.0
220
0.0
230
1.0
 40
0.6828649486050308
 41
2.421008500209435
 42
3.635172172509008
  0
ARC
  5
17D
330
1F
100
AcDbEntity
  8
0
  6
Continuous
 62
     7
370
    30
100
AcDbCircle
 10
291.1092469435871
 20
409.7576010880264
 30
0.0
 40
5.347935822306114
100
AcDbArc
 50
354.5343648483588
 51
91.7383744809578
  0
LINE
  5
17E
330
1F
100
AcDbEntity
  8
0
  6
Continuous
 62
     7
370
    30
100
AcDbLine
 10
290.9470135474272
 20
415.103075611834
 30
0.0
 11
290.6026101033928
 21
415.103075611834
 31
0.0
  0
ARC
  5
17F
330
1F
100
AcDbEntity
  8
0
  6
Continuous
 62
     7
370
    30
100
AcDbCircle
 10
290.4171436007421
 20
409.7570477026002
 30
0.0
 40
5.349244080233358
100
AcDbArc
 50
88.01306916042238
 51
185.4583400174344
  0
ARC
  5
180
330
1F
100
AcDbEntity
  8
0
  6
Continuous
 62
     7
370
    30
100
AcDbCircle
 10
290.4263631258029
 20
408.7472714092457
 30
0.0
 40
5.357678871489333
100
AcDbArc
 50
174.6349793676094
 51
272.1483921625409
  0
LINE
  5
181
330
1F
100
AcDbEntity
  8
0
  6
Continuous
 62
     7
370
    30
100
AcDbLine
 10
290.6272103493953
 20
403.3933585146631
 30
0.0
 11
290.9962140394322
 21
403.3933585146631
 31
0.0
  0
ARC
  5
182
330
1F
100
AcDbEntity
  8
0
  6
Continuous
 62
     7
370
    30
100
AcDbCircle
 10
291.1526403891609
 20
408.6996957058171
 30
0.0
 40
5.308642348954657
100
AcDbArc
 50
268.3114577052692
 51
5.930735088053611
  0
ARC
  5
183
330
1F
100
AcDbEntity
  8
0
  6
Continuous
 62
     7
370
    30
100
AcDbCircle
 10
275.3820514062676
 20
409.4636917026291
 30
0.0
 40
4.893201945991857
100
AcDbArc
 50
357.4761350426504
 51
94.69595660936272
  0
LINE
  5
184
330
1F
100
AcDbEntity
  8
0
  6
Continuous
 62
     7
370
    30
100
AcDbLine
 10
274.9814538918307
 20
414.3404679857578
 30
0.0
 11
274.6370504477962
 21
414.3404679857578
 31
0.0
  0
ARC
  5
185
330
1F
100
AcDbEntity
  8
0
  6
Continuous
 62
     7
370
    30
100
AcDbCircle
 10
274.3649188086596
 20
409.5435748819038
 30
0.0
 40
4.804606027430396
100
AcDbArc
 50
86.75304425801497
 51
183.5244166017598
  0
ARC
  5
186
330
1F
100
AcDbEntity
  8
0
  6
Continuous
 62
     7
370
    30
100
AcDbCircle
 10
274.3673211500619
 20
408.9538875195117
 30
0.0
 40
4.806940756572462
100
AcDbArc
 50
176.4895768927658
 51
273.5104231072345
  0
LINE
  5
187
330
1F
100
AcDbEntity
  8
0
  6
Continuous
 62
     7
370
    30
100
AcDbLine
 10
274.6616506937987
 20
404.1559661407393
 30
0.0
 11
275.0306543838356
 21
404.1559661407393
 31
0.0
  0
ARC
  5
188
330
1F
100
AcDbEntity
  8
0
  6
Continuous
 62
     7
370
    30
100
AcDbCircle
 10
275.38952849393
 20
409.0286814328765
 30
0.0
 40
4.885912908057591
100
AcDbArc
 50
265.7877870521224
 51
2.575302024500223
  0
LINE
  5
189
330
1F
100
AcDbEntity
  8
0
  6
Continuous
 62
     7
370
    30
100
AcDbLine
 10
248.8807353694736
 20
476.6003314537029
 30
0.0
 11
249.5243503978599
 21
477.2091564805547
 31
0.0
  0
ARC
  5
18A
330
1F
100
AcDbEntity
  8
0
  6
Continuous
 62
     7
370
    30
100
AcDbCircle
 10
250.547260776341
 20
472.4098719733755
 30
0.0
 40
4.907084411670043
100
AcDbArc
 50
37.03300923266674
 51
102.031875568197
  0
ELLIPSE
  5
18B
330
1F
100
AcDbEntity
  8
0
  6
Continuous
 62
     7
370
    30
100
AcDbEllipse
 10
240.8546448551288
 20
467.3380531046244
 30
0.0
 11
15.72052078037028
 21
4.542573673571644
 31
0.0
210
0.0
220
0.0
230
1.0
 40
0.6788392322911302
 41
5.391197163452945
 42
6.645152713947178
  0
LINE
  5
18C
330
1F
100
AcDbEntity
  8
0
  6
Continuous
 62
     7
370
    30
100
AcDbLine
 10
253.1251155566696
 20
461.8841608046545
 30
0.0
 11
253.1077205559024
 21
461.8667658038873
 31
0.0
  0
ELLIPSE
  5
18D
330
1F
100
AcDbEntity
  8
0
  6
Continuous
 62
     7
370
    30
100
AcDbEllipse
 10
247.3899560693001
 20
498.7429282413627
 30
0.0
 11
-2.755738273583336
 21
-40.74435486769431
 31
0.0
210
0.0
220
0.0
230
1.0
 40
0.442853948322067
 41
5.913740307115413
 42
6.753352859911081
  0
ELLIPSE
  5
18E
330
1F
100
AcDbEntity
  8
0
  6
Continuous
 62
     7
370
    30
100
AcDbEllipse
 10
272.1664179070304
 20
470.383598187079
 30
0.0
 11
36.9963874310624
 21
3.039279765138919
 31
0.0
210
0.0
220
0.0
230
1.0
 40
0.4666141328684705
 41
2.637473026202198
 42
3.519551027143117
  0
LINE
  5
18F
330
1F
100
AcDbEntity
  8
0
  6
Continuous
 62
     7
370
    30
100
AcDbLine
 10
239.0873499375418
 20
476.0610864299197
 30
0.0
 11
239.104744938309
 21
476.078481430687
 31
0.0
  0
ARC
  5
190
330
1F
100
AcDbEntity
  8
0
  6
Continuous
 62
     7
370
    30
100
AcDbCircle
 10
254.3011688082596
 20
460.1178105920976
 30
0.0
 40
22.03801969445079
100
AcDbArc
 50
111.0284040991047
 51
133.5948835254395
  0
ARC
  5
191
330
1F
100
AcDbEntity
  8
0
  6
Continuous
 62
     7
370
    30
100
AcDbCircle
 10
252.8568459892804
 20
464.8157982672928
 30
0.0
 40
17.1379645779658
100
AcDbArc
 50
107.3363700453253
 51
112.1573031655314
  0
LINE
  5
192
330
1F
100
AcDbEntity
  8
0
  6
Continuous
 62
     7
370
    30
100
AcDbLine
 10
247.7500603196058
 20
481.1752166554757
 30
0.0
 11
263.9795960354004
 21
486.6198518956082
 31
0.0
  0
LINE
  5
193
330
1F
100
AcDbEntity
  8
0
  6
Continuous
 62
     7
370
    30
100
AcDbLine
 10
263.9795960354004
 20
486.6198518956082
 30
0.0
 11
267.8064962041837
 21
482.7929517268249
 31
0.0
  0
LINE
  5
194
330
1F
100
AcDbEntity
  8
0
  6
Continuous
 62
     7
370
    30
100
AcDbLine
 10
267.8064962041837
 20
482.7929517268249
 30
0.0
 11
248.8807353694736
 21
476.6003314537029
 31
0.0
  0
ELLIPSE
  5
195
330
1F
100
AcDbEntity
  8
0
  6
Continuous
 62
     7
370
    30
100
AcDbEllipse
 10
244.5421590071121
 20
455.6574953101377
 30
0.0
 11
-3.09870441195856
 21
-18.8874087894579
 31
0.0
210
0.0
220
0.0
230
1.0
 40
0.4609379190249425
 41
2.819478995953545
 42
3.714457093047953
  0
LINE
  5
196
330
1F
100
AcDbEntity
  8
0
  6
Continuous
 62
     7
370
    30
100
AcDbLine
 10
242.4271900848436
 20
472.3037662642054
 30
0.0
 11
242.4097950840764
 21
472.2863712634382
 31
0.0
  0
ELLIPSE
  5
197
330
1F
100
AcDbEntity
  8
0
  6
Continuous
 62
     7
370
    30
100
AcDbEllipse
 10
259.3473152003461
 20
470.0075639046123
 30
0.0
 11
19.09928307527257
 21
2.679971090803295
 31
0.0
210
0.0
220
0.0
230
1.0
 40
0.4584065185258246
 41
2.593025188388127
 42
3.476638546636564
  0
ELLIPSE
  5
198
330
1F
100
AcDbEntity
  8
0
  6
Continuous
 62
     7
370
    30
100
AcDbEllipse
 10
247.3482353082251
 20
484.5918361795045
 30
0.0
 11
-2.852114258027662
 21
-21.48145309528989
 31
0.0
210
0.0
220
0.0
230
1.0
 40
0.4317375180290684
 41
5.961981679114458
 42
6.798541389619784
  0
LINE
  5
199
330
1F
100
AcDbEntity
  8
0
  6
Continuous
 62
     7
370
    30
100
AcDbLine
 10
249.4373753940239
 20
465.293580955025
 30
0.0
 11
249.4547703947911
 21
465.3109759557923
 31
0.0
  0
ELLIPSE
  5
19A
330
1F
100
AcDbEntity
  8
0
  6
Continuous
 62
     7
370
    30
100
AcDbEllipse
 10
230.7122406154261
 20
467.2911171552232
 30
0.0
 11
20.98190102156985
 21
3.144633124965333
 31
0.0
210
0.0
220
0.0
230
1.0
 40
0.4371992004685099
 41
5.747294127321089
 42
6.597963078729279
  0
LINE
  5
19B
330
1F
100
AcDbEntity
  8
0
  6
Continuous
 62
     7
370
    30
100
AcDbLine
 10
193.8795335974945
 20
524.0342003540945
 30
0.0
 11
198.8979837819963
 21
524.0342003540945
 31
0.0
  0
LINE
  5
19C
330
1F
100
AcDbEntity
  8
0
  6
Continuous
 62
     7
370
    30
100
AcDbLine
 10
198.8979837819963
 20
524.0342003540945
 30
0.0
 11
198.8979837819963
 21
493.7266972790638
 31
0.0
  0
LINE
  5
19D
330
1F
100
AcDbEntity
  8
0
  6
Continuous
 62
     7
370
    30
100
AcDbLine
 10
198.8979837819963
 20
493.7266972790638
 30
0.0
 11
203.9902347045055
 21
496.8509285213763
 31
0.0
  0
LINE
  5
19E
330
1F
100
AcDbEntity
  8
0
  6
Continuous
 62
     7
370
    30
100
AcDbLine
 10
203.9902347045055
 20
496.8509285213763
 30
0.0
 11
203.9902347045055
 21
491.6602766148571
 31
0.0
  0
LINE
  5
19F
330
1F
100
AcDbEntity
  8
0
  6
Continuous
 62
     7
370
    30
100
AcDbLine
 10
203.9902347045055
 20
491.6602766148571
 30
0.0
 11
198.8979837819963
 21
488.2654426665176
 31
0.0
  0
LINE
  5
1A0
330
1F
100
AcDbEntity
  8
0
  6
Continuous
 62
     7
370
    30
100
AcDbLine
 10
198.8979837819963
 20
488.2654426665176
 30
0.0
 11
193.8795335974945
 21
488.2654426665176
 31
0.0
  0
LINE
  5
1A1
330
1F
100
AcDbEntity
  8
0
  6
Continuous
 62
     7
370
    30
100
AcDbLine
 10
193.8795335974945
 20
488.2654426665176
 30
0.0
 11
193.8795335974945
 21
524.0342003540945
 31
0.0
  0
ELLIPSE
  5
1A2
330
1F
100
AcDbEntity
  8
0
  6
Continuous
 62
     7
370
    30
100
AcDbEllipse
 10
149.2897287078947
 20
487.9225013841013
 30
0.0
 11
-33.83684392866543
 21
-33.8485038289136
 31
0.0
210
0.0
220
0.0
230
1.0
 40
0.402110213588965
 41
2.758963888775795
 42
3.526025438554381
  0
LINE
  5
1A3
330
1F
100
AcDbEntity
  8
0
  6
Continuous
 62
     7
370
    30
100
AcDbLine
 10
185.7614524166827
 20
514.2433024451154
 30
0.0
 11
185.7614524166827
 21
497.9825398374893
 31
0.0
  0
ELLIPSE
  5
1A4
330
1F
100
AcDbEntity
  8
0
  6
Continuous
 62
     7
370
    30
100
AcDbEllipse
 10
149.8814123434016
 20
523.6661250030724
 30
0.0
 11
33.25073205437516
 21
-33.20358661544852
 31
0.0
210
0.0
220
0.0
230
1.0
 40
0.4060428796254393
 41
5.894889822990238
 42
6.668943101391893
  0
ELLIPSE
  5
1A5
330
1F
100
AcDbEntity
  8
0
  6
Continuous
 62
     7
370
    30
100
AcDbEllipse
 10
206.6301420657282
 20
529.0665439011011
 30
0.0
 11
38.66964489751273
 21
38.61632096981774
 31
0.0
210
0.0
220
0.0
230
1.0
 40
0.3746095097755934
 41
2.783293893518682
 42
3.502218052538062
  0
LINE
  5
1A6
330
1F
100
AcDbEntity
  8
0
  6
Continuous
 62
     7
370
    30
100
AcDbLine
 10
165.3432482346408
 20
497.9825398374893
 30
0.0
 11
165.3432482346408
 21
514.2433024451154
 31
0.0
  0
ELLIPSE
  5
1A7
330
1F
100
AcDbEntity
  8
0
  6
Continuous
 62
     7
370
    30
100
AcDbEllipse
 10
201.2232883078925
 20
488.5597172795625
 30
0.0
 11
33.25073205434453
 21
-33.20358661541692
 31
0.0
210
0.0
220
0.0
230
1.0
 40
0.4060428796256331
 41
2.75329716940031
 42
3.527350447802226
  0
ELLIPSE
  5
1A8
330
1F
100
AcDbEntity
  8
0
  6
Continuous
 62
     7
370
    30
100
AcDbEllipse
 10
1064.571813667623
 20
-415.0110472690271
 30
0.0
 11
892.7972979596259
 21
-933.4053012215735
 31
0.0
210
0.0
220
0.0
230
1.0
 40
0.0538319356557868
 41
3.090014067334688
 42
3.197570148336911
  0
LINE
  5
1A9
330
1F
100
AcDbEntity
  8
0
  6
Continuous
 62
     7
370
    30
100
AcDbLine
 10
170.3616984191427
 20
514.2433024451154
 30
0.0
 11
170.3616984191427
 21
497.9825398374893
 31
0.0
  0
SPLINE
  5
1AA
330
1F
100
AcDbEntity
  8
0
  6
Continuous
 62
     7
370
    30
100
AcDbSpline
210
0.0
220
0.0
230
1.0
 70
     8
 71
     2
 72
     8
 73
     5
 74
     0
 42
0.0000000001
 43
0.0000000001
 40
0.0
 40
0.0
 40
0.0
 40
1.0
 40
1.0
 40
2.0
 40
2.0
 40
2.0
 10
170.3616984191427
 20
497.9825398374893
 30
0.0
 10
170.3616984191427
 20
495.3749137612285
 30
0.0
 10
171.6163109652681
 20
493.9849998620895
 30
0.0
 10
172.8709235113936
 20
492.5950859629506
 30
0.0
 10
175.5523503256617
 20
492.5950859629506
 30
0.0
  0
SPLINE
  5
1AB
330
1F
100
AcDbEntity
  8
0
  6
Continuous
 62
     7
370
    30
100
AcDbSpline
210
0.0
220
0.0
230
1.0
 70
     8
 71
     2
 72
     8
 73
     5
 74
     0
 42
0.0000000001
 43
0.0000000001
 40
0.0
 40
0.0
 40
0.0
 40
1.0
 40
1.0
 40
2.0
 40
2.0
 40
2.0
 10
175.5523503256617
 20
492.5950859629506
 30
0.0
 10
178.2337771399299
 20
492.5950859629506
 30
0.0
 10
179.4883896860553
 20
493.9849998620895
 30
0.0
 10
180.7430022321808
 20
495.3749137612285
 30
0.0
 10
180.7430022321808
 20
497.9825398374893
 30
0.0
  0
LINE
  5
1AC
330
1F
100
AcDbEntity
  8
0
  6
Continuous
 62
     7
370
    30
100
AcDbLine
 10
180.7430022321808
 20
497.9825398374893
 30
0.0
 11
180.7430022321808
 21
514.2433024451154
 31
0.0
  0
ELLIPSE
  5
1AD
330
1F
100
AcDbEntity
  8
0
  6
Continuous
 62
     7
370
    30
100
AcDbEllipse
 10
-713.4671129848005
 20
-415.0110472361391
 30
0.0
 11
-892.7972979281229
 21
-933.4053011886814
 31
0.0
210
0.0
220
0.0
230
1.0
 40
0.0538319356567371
 41
3.08561515884173
 42
3.193171239845765
  0
LINE
  5
1AE
330
1F
100
AcDbEntity
  8
0
  6
Continuous
 62
     7
370
    30
100
AcDbLine
 10
110.5079807445478
 20
523.6534173877238
 30
0.0
 11
115.5264309290496
 21
523.6534173877238
 31
0.0
  0
LINE
  5
1AF
330
1F
100
AcDbEntity
  8
0
  6
Continuous
 62
     7
370
    30
100
AcDbLine
 10
115.5264309290496
 20
523.6534173877238
 30
0.0
 11
115.5264309290496
 21
493.3459143126931
 31
0.0
  0
LINE
  5
1B0
330
1F
100
AcDbEntity
  8
0
  6
Continuous
 62
     7
370
    30
100
AcDbLine
 10
115.5264309290496
 20
493.3459143126931
 30
0.0
 11
120.6186818515588
 21
496.4701455550056
 31
0.0
  0
LINE
  5
1B1
330
1F
100
AcDbEntity
  8
0
  6
Continuous
 62
     7
370
    30
100
AcDbLine
 10
120.6186818515588
 20
496.4701455550056
 30
0.0
 11
120.6186818515588
 21
491.2794936484864
 31
0.0
  0
LINE
  5
1B2
330
1F
100
AcDbEntity
  8
0
  6
Continuous
 62
     7
370
    30
100
AcDbLine
 10
120.6186818515588
 20
491.2794936484864
 30
0.0
 11
115.5264309290496
 21
487.8846597001469
 31
0.0
  0
LINE
  5
1B3
330
1F
100
AcDbEntity
  8
0
  6
Continuous
 62
     7
370
    30
100
AcDbLine
 10
115.5264309290496
 20
487.8846597001469
 30
0.0
 11
110.5079807445477
 21
487.8846597001469
 31
0.0
  0
LINE
  5
1B4
330
1F
100
AcDbEntity
  8
0
  6
Continuous
 62
     7
370
    30
100
AcDbLine
 10
110.5079807445477
 20
487.8846597001469
 30
0.0
 11
110.5079807445477
 21
523.6534173877238
 31
0.0
  0
LINE
  5
1B5
330
1F
100
AcDbEntity
  8
0
  6
Continuous
 62
     7
370
    30
100
AcDbLine
 10
93.75521321687245
 20
523.6534173877238
 30
0.0
 11
98.77366340137432
 21
523.6534173877238
 31
0.0
  0
LINE
  5
1B6
330
1F
100
AcDbEntity
  8
0
  6
Continuous
 62
     7
370
    30
100
AcDbLine
 10
98.77366340137432
 20
523.6534173877238
 30
0.0
 11
98.77366340137432
 21
493.3459143126931
 31
0.0
  0
LINE
  5
1B7
330
1F
100
AcDbEntity
  8
0
  6
Continuous
 62
     7
370
    30
100
AcDbLine
 10
98.77366340137431
 20
493.3459143126931
 30
0.0
 11
103.8659143238835
 21
496.4701455550056
 31
0.0
  0
LINE
  5
1B8
330
1F
100
AcDbEntity
  8
0
  6
Continuous
 62
     7
370
    30
100
AcDbLine
 10
103.8659143238835
 20
496.4701455550056
 30
0.0
 11
103.8659143238835
 21
491.2794936484864
 31
0.0
  0
LINE
  5
1B9
330
1F
100
AcDbEntity
  8
0
  6
Continuous
 62
     7
370
    30
100
AcDbLine
 10
103.8659143238835
 20
491.2794936484864
 30
0.0
 11
98.77366340137431
 21
487.8846597001469
 31
0.0
  0
LINE
  5
1BA
330
1F
100
AcDbEntity
  8
0
  6
Continuous
 62
     7
370
    30
100
AcDbLine
 10
98.77366340137431
 20
487.8846597001469
 30
0.0
 11
93.75521321687243
 21
487.8846597001469
 31
0.0
  0
LINE
  5
1BB
330
1F
100
AcDbEntity
  8
0
  6
Continuous
 62
     7
370
    30
100
AcDbLine
 10
93.75521321687243
 20
487.8846597001469
 30
0.0
 11
93.75521321687243
 21
523.6534173877238
 31
0.0
  0
LINE
  5
1BC
330
1F
100
AcDbEntity
  8
0
  6
Continuous
 62
     7
370
    30
100
AcDbLine
 10
34.41243342853216
 20
524.1727135756822
 30
0.0
 11
39.43088361303403
 21
524.1727135756822
 31
0.0
  0
LINE
  5
1BD
330
1F
100
AcDbEntity
  8
0
  6
Continuous
 62
     7
370
    30
100
AcDbLine
 10
39.43088361303403
 20
524.1727135756822
 30
0.0
 11
39.43088361303401
 21
493.8652105006515
 31
0.0
  0
LINE
  5
1BE
330
1F
100
AcDbEntity
  8
0
  6
Continuous
 62
     7
370
    30
100
AcDbLine
 10
39.43088361303401
 20
493.8652105006515
 30
0.0
 11
44.52313453554322
 21
496.9894417429639
 31
0.0
  0
LINE
  5
1BF
330
1F
100
AcDbEntity
  8
0
  6
Continuous
 62
     7
370
    30
100
AcDbLine
 10
44.52313453554322
 20
496.9894417429639
 30
0.0
 11
44.52313453554322
 21
491.7987898364448
 31
0.0
  0
LINE
  5
1C0
330
1F
100
AcDbEntity
  8
0
  6
Continuous
 62
     7
370
    30
100
AcDbLine
 10
44.52313453554322
 20
491.7987898364448
 30
0.0
 11
39.43088361303401
 21
488.4039558881053
 31
0.0
  0
LINE
  5
1C1
330
1F
100
AcDbEntity
  8
0
  6
Continuous
 62
     7
370
    30
100
AcDbLine
 10
39.43088361303401
 20
488.4039558881053
 30
0.0
 11
34.41243342853215
 21
488.4039558881053
 31
0.0
  0
LINE
  5
1C2
330
1F
100
AcDbEntity
  8
0
  6
Continuous
 62
     7
370
    30
100
AcDbLine
 10
34.41243342853215
 20
488.4039558881053
 30
0.0
 11
34.41243342853216
 21
524.1727135756822
 31
0.0
  0
LINE
  5
1C3
330
1F
100
AcDbEntity
  8
0
  6
Continuous
 62
     7
370
    30
100
AcDbLine
 10
26.83555765977445
 20
519.8184700332467
 30
0.0
 11
14.35598764239274
 21
503.1941426416711
 31
0.0
  0
ARC
  5
1C4
330
1F
100
AcDbEntity
  8
0
  6
Continuous
 62
     7
370
    30
100
AcDbCircle
 10
22.23264599428781
 20
496.752491002647
 30
0.0
 40
10.17529471961471
100
AcDbArc
 50
140.7231748949167
 51
176.5859283535817
  0
LINE
  5
1C5
330
1F
100
AcDbEntity
  8
0
  6
Continuous
 62
     7
370
    30
100
AcDbLine
 10
12.07541005829846
 20
497.3584454330008
 30
0.0
 11
12.07541005829846
 21
497.3092449409958
 31
0.0
  0
ARC
  5
1C6
330
1F
100
AcDbEntity
  8
0
  6
Continuous
 62
     7
370
    30
100
AcDbCircle
 10
16.29753342142087
 20
496.9982932184195
 30
0.0
 40
4.233558393030299
100
AcDbArc
 50
175.7878744465207
 51
278.141166320105
  0
ARC
  5
1C7
330
1F
100
AcDbEntity
  8
0
  6
Continuous
 62
     7
370
    30
100
AcDbCircle
 10
17.10013780046202
 20
497.7909883085738
 30
0.0
 40
4.987724380427018
100
AcDbArc
 50
267.6665075852076
 51
359.5526898867041
  0
LINE
  5
1C8
330
1F
100
AcDbEntity
  8
0
  6
Continuous
 62
     7
370
    30
100
AcDbLine
 10
22.08771018129965
 20
497.75204936904
 30
0.0
 11
22.08771018129965
 21
497.7766496150425
 31
0.0
  0
LINE
  5
1C9
330
1F
100
AcDbEntity
  8
0
  6
Continuous
 62
     7
370
    30
100
AcDbLine
 10
22.08771018129965
 20
497.7766496150425
 30
0.0
 11
27.27836208781872
 21
497.7766496150425
 31
0.0
  0
LINE
  5
1CA
330
1F
100
AcDbEntity
  8
0
  6
Continuous
 62
     7
370
    30
100
AcDbLine
 10
27.27836208781872
 20
497.7766496150425
 30
0.0
 11
27.27836208781872
 21
497.75204936904
 31
0.0
  0
ELLIPSE
  5
1CB
330
1F
100
AcDbEntity
  8
0
  6
Continuous
 62
     7
370
    30
100
AcDbEllipse
 10
5.729624088506247
 20
514.0304859189581
 30
0.0
 11
17.22958707979733
 21
-24.22474072698699
 31
0.0
210
0.0
220
0.0
230
1.0
 40
0.5473342981606829
 41
5.910374152888284
 42
6.806075392126703
  0
ELLIPSE
  5
1CC
330
1F
100
AcDbEntity
  8
0
  6
Continuous
 62
     7
370
    30
100
AcDbEllipse
 10
35.85986659319617
 20
514.8415278421962
 30
0.0
 11
26.88530788525309
 21
23.83905299555318
 31
0.0
210
0.0
220
0.0
230
1.0
 40
0.455988870422819
 41
2.756258739856591
 42
3.617679223490668
  0
LINE
  5
1CD
330
1F
100
AcDbEntity
  8
0
  6
Continuous
 62
     7
370
    30
100
AcDbLine
 10
6.860157905776903
 20
497.3584454330008
 30
0.0
 11
6.860157905776903
 21
497.3830456790031
 31
0.0
  0
ARC
  5
1CE
330
1F
100
AcDbEntity
  8
0
  6
Continuous
 62
     7
370
    30
100
AcDbCircle
 10
20.61653111869735
 20
496.7478520663904
 30
0.0
 40
13.77103027731256
100
AcDbArc
 50
141.4777830876918
 51
177.3562740201268
  0
LINE
  5
1CF
330
1F
100
AcDbEntity
  8
0
  6
Continuous
 62
     7
370
    30
100
AcDbLine
 10
9.842535428420312
 20
505.3246983262082
 30
0.0
 11
20.19349123911028
 21
519.400265851205
 31
0.0
  0
LINE
  5
1D0
330
1F
100
AcDbEntity
  8
0
  6
Continuous
 62
     7
370
    30
100
AcDbLine
 10
20.19349123911028
 20
519.400265851205
 30
0.0
 11
6.663355937757228
 21
519.400265851205
 31
0.0
  0
LINE
  5
1D1
330
1F
100
AcDbEntity
  8
0
  6
Continuous
 62
     7
370
    30
100
AcDbLine
 10
6.663355937757228
 20
519.400265851205
 30
0.0
 11
6.663355937757228
 21
524.1727135756822
 31
0.0
  0
LINE
  5
1D2
330
1F
100
AcDbEntity
  8
0
  6
Continuous
 62
     7
370
    30
100
AcDbLine
 10
6.663355937757228
 20
524.1727135756822
 30
0.0
 11
26.83555765977445
 21
524.1727135756822
 31
0.0
  0
LINE
  5
1D3
330
1F
100
AcDbEntity
  8
0
  6
Continuous
 62
     7
370
    30
100
AcDbLine
 10
26.83555765977445
 20
524.1727135756822
 30
0.0
 11
26.83555765977445
 21
519.8184700332467
 31
0.0
  0
LINE
  5
1D4
330
1F
100
AcDbEntity
  8
0
  6
Continuous
 62
     7
370
    30
100
AcDbLine
 10
-45.27143004484514
 20
492.8106642343567
 30
0.0
 11
-41.72284988833704
 21
496.3592443908649
 31
0.0
  0
LINE
  5
1D5
330
1F
100
AcDbEntity
  8
0
  6
Continuous
 62
     7
370
    30
100
AcDbLine
 10
-41.72284988833704
 20
496.3592443908649
 30
0.0
 11
-20.29220894315066
 21
474.9286034456786
 31
0.0
  0
LINE
  5
1D6
330
1F
100
AcDbEntity
  8
0
  6
Continuous
 62
     7
370
    30
100
AcDbLine
 10
-20.29220894315066
 20
474.9286034456786
 30
0.0
 11
-18.90060888177488
 21
480.7385337019222
 31
0.0
  0
LINE
  5
1D7
330
1F
100
AcDbEntity
  8
0
  6
Continuous
 62
     7
370
    30
100
AcDbLine
 10
-18.90060888177488
 20
480.7385337019222
 30
0.0
 11
-15.23026371989636
 21
477.0681885400438
 31
0.0
  0
LINE
  5
1D8
330
1F
100
AcDbEntity
  8
0
  6
Continuous
 62
     7
370
    30
100
AcDbLine
 10
-15.23026371989636
 20
477.0681885400438
 30
0.0
 11
-16.430518772833
 21
471.0669132753609
 31
0.0
  0
LINE
  5
1D9
330
1F
100
AcDbEntity
  8
0
  6
Continuous
 62
     7
370
    30
100
AcDbLine
 10
-16.430518772833
 20
471.0669132753609
 30
0.0
 11
-19.97909892934109
 21
467.5183331188527
 31
0.0
  0
LINE
  5
1DA
330
1F
100
AcDbEntity
  8
0
  6
Continuous
 62
     7
370
    30
100
AcDbLine
 10
-19.97909892934109
 20
467.5183331188527
 30
0.0
 11
-45.27143004484514
 21
492.8106642343567
 31
0.0
  0
ARC
  5
1DB
330
1F
100
AcDbEntity
  8
0
  6
Continuous
 62
     7
370
    30
100
AcDbCircle
 10
-50.23693468911987
 20
474.3420682121446
 30
0.0
 40
9.949134490239858
100
AcDbArc
 50
48.70460411439637
 51
139.5968356885599
  0
LINE
  5
1DC
330
1F
100
AcDbEntity
  8
0
  6
Continuous
 62
     7
370
    30
100
AcDbLine
 10
-43.67108997426301
 20
481.8170237494884
 30
0.0
 11
-47.28925013383996
 21
478.1988635899116
 31
0.0
  0
ARC
  5
1DD
330
1F
100
AcDbEntity
  8
0
  6
Continuous
 62
     7
370
    30
100
AcDbCircle
 10
-50.45388851661191
 20
474.3732839843295
 30
0.0
 40
4.964876172912913
100
AcDbArc
 50
50.40138982104213
 51
142.7093247557648
  0
ARC
  5
1DE
330
1F
100
AcDbEntity
  8
0
  6
Continuous
 62
     7
370
    30
100
AcDbCircle
 10
-51.50058352729052
 20
473.6875262488269
 30
0.0
 40
4.698154037500361
100
AcDbArc
 50
128.1665499521395
 51
229.9192106721419
  0
LINE
  5
1DF
330
1F
100
AcDbEntity
  8
0
  6
Continuous
 62
     7
370
    30
100
AcDbLine
 10
-54.52557045299379
 20
470.0927932323978
 30
0.0
 11
-53.76019041923715
 21
469.3274131986411
 31
0.0
  0
ELLIPSE
  5
1E0
330
1F
100
AcDbEntity
  8
0
  6
Continuous
 62
     7
370
    30
100
AcDbEllipse
 10
-51.01385142141316
 20
486.4006473962669
 30
0.0
 11
1.705489506773038
 21
-19.07378764071654
 31
0.0
210
0.0
220
0.0
230
1.0
 40
0.4594845277564183
 41
5.778326782183759
 42
6.652072990125308
  0
LINE
  5
1E1
330
1F
100
AcDbEntity
  8
0
  6
Continuous
 62
     7
370
    30
100
AcDbLine
 10
-46.26294508857533
 20
468.8925381794612
 30
0.0
 11
-44.47126000955411
 21
470.6842232584825
 31
0.0
  0
LINE
  5
1E2
330
1F
100
AcDbEntity
  8
0
  6
Continuous
 62
     7
370
    30
100
AcDbLine
 10
-44.47126000955411
 20
470.6842232584825
 30
0.0
 11
-41.09662986071795
 21
467.3095931096462
 31
0.0
  0
LINE
  5
1E3
330
1F
100
AcDbEntity
  8
0
  6
Continuous
 62
     7
370
    30
100
AcDbLine
 10
-41.09662986071795
 20
467.3095931096462
 30
0.0
 11
-42.88831493973917
 21
465.517908030625
 31
0.0
  0
ARC
  5
1E4
330
1F
100
AcDbEntity
  8
0
  6
Continuous
 62
     7
370
    30
100
AcDbCircle
 10
-40.1215754158314
 20
462.3774527061012
 30
0.0
 40
4.185368232125241
100
AcDbArc
 50
131.380034828013
 51
233.5192904122405
  0
LINE
  5
1E5
330
1F
100
AcDbEntity
  8
0
  6
Continuous
 62
     7
370
    30
100
AcDbLine
 10
-42.60999492746405
 20
459.0121777436934
 30
0.0
 11
-41.82721989294015
 21
458.2294027091696
 31
0.0
  0
ARC
  5
1E6
330
1F
100
AcDbEntity
  8
0
  6
Continuous
 62
     7
370
    30
100
AcDbCircle
 10
-38.67899087145028
 20
460.9006841693398
 30
0.0
 40
4.12881225187104
100
AcDbArc
 50
220.3147015628262
 51
322.7816138351314
  0
ARC
  5
1E7
330
1F
100
AcDbEntity
  8
0
  6
Continuous
 62
     7
370
    30
100
AcDbCircle
 10
-38.72191218417893
 20
461.9628263565536
 30
0.0
 40
4.874870752329115
100
AcDbArc
 50
313.099537056375
 51
40.06285995371719
  0
LINE
  5
1E8
330
1F
100
AcDbEntity
  8
0
  6
Continuous
 62
     7
370
    30
100
AcDbLine
 10
-34.99098459143187
 20
465.1004280122124
 30
0.0
 11
-31.39021943262217
 21
468.7011931710221
 31
0.0
  0
ELLIPSE
  5
1E9
330
1F
100
AcDbEntity
  8
0
  6
Continuous
 62
     7
370
    30
100
AcDbEllipse
 10
-57.66920910755739
 20
465.535191644688
 30
0.0
 11
28.582263485953
 21
-5.312042206641622
 31
0.0
210
0.0
220
0.0
230
1.0
 40
0.5498358909129186
 41
5.920568868424859
 42
6.801167414699238
  0
ELLIPSE
  5
1EA
330
1F
100
AcDbEntity
  8
0
  6
Continuous
 62
     7
370
    30
100
AcDbEllipse
 10
-38.09879616888488
 20
483.8954731648366
 30
0.0
 11
-1.059601746791525
 21
-32.23990843748139
 31
0.0
210
0.0
220
0.0
230
1.0
 40
0.4787053901621259
 41
5.859437372095523
 42
6.758266060118386
  0
LINE
  5
1EB
330
1F
100
AcDbEntity
  8
0
  6
Continuous
 62
     7
370
    30
100
AcDbLine
 10
-45.41059005098276
 20
454.7156125541959
 30
0.0
 11
-45.82807006939544
 21
455.1330925726087
 31
0.0
  0
ARC
  5
1EC
330
1F
100
AcDbEntity
  8
0
  6
Continuous
 62
     7
370
    30
100
AcDbCircle
 10
-40.50342594204943
 20
460.7047165995882
 30
0.0
 40
7.706804096439453
100
AcDbArc
 50
151.1616019292694
 51
226.2984705395507
  0
ELLIPSE
  5
1ED
330
1F
100
AcDbEntity
  8
0
  6
Continuous
 62
     7
370
    30
100
AcDbEllipse
 10
-52.05466648132003
 20
484.3303940798995
 30
0.0
 11
1.044942176265583
 21
-21.16840399194045
 31
0.0
210
0.0
220
0.0
230
1.0
 40
0.5725600906227074
 41
5.717017161775234
 42
6.602801116131699
  0
LINE
  5
1EE
330
1F
100
AcDbEntity
  8
0
  6
Continuous
 62
     7
370
    30
100
AcDbLine
 10
-57.6740655918564
 20
466.1441280582441
 30
0.0
 11
-58.09154561026909
 21
466.5616080766568
 31
0.0
  0
ELLIPSE
  5
1EF
330
1F
100
AcDbEntity
  8
0
  6
Continuous
 62
     7
370
    30
100
AcDbEllipse
 10
-24.95873625794977
 20
474.3179458245389
 30
0.0
 11
36.38537711422932
 21
1.09586737589181
 31
0.0
210
0.0
220
0.0
230
1.0
 40
0.4631010294542502
 41
2.683250391244607
 42
3.553903827465253
  0
LINE
  5
1F0
330
1F
100
AcDbEntity
  8
0
  6
Continuous
 62
     7
370
    30
100
AcDbLine
 10
-88.80118916721398
 20
419.1901511263158
 30
0.0
 11
-88.80118916721398
 21
424.2086013108176
 31
0.0
  0
LINE
  5
1F1
330
1F
100
AcDbEntity
  8
0
  6
Continuous
 62
     7
370
    30
100
AcDbLine
 10
-88.80118916721398
 20
424.2086013108176
 30
0.0
 11
-58.49368609218321
 21
424.2086013108176
 31
0.0
  0
LINE
  5
1F2
330
1F
100
AcDbEntity
  8
0
  6
Continuous
 62
     7
370
    30
100
AcDbLine
 10
-58.49368609218321
 20
424.2086013108176
 30
0.0
 11
-61.61791733449564
 21
429.3008522333268
 31
0.0
  0
LINE
  5
1F3
330
1F
100
AcDbEntity
  8
0
  6
Continuous
 62
     7
370
    30
100
AcDbLine
 10
-61.61791733449564
 20
429.3008522333268
 30
0.0
 11
-56.42726542797656
 21
429.3008522333268
 31
0.0
  0
LINE
  5
1F4
330
1F
100
AcDbEntity
  8
0
  6
Continuous
 62
     7
370
    30
100
AcDbLine
 10
-56.42726542797656
 20
429.3008522333268
 30
0.0
 11
-53.03243147963711
 21
424.2086013108176
 31
0.0
  0
LINE
  5
1F5
330
1F
100
AcDbEntity
  8
0
  6
Continuous
 62
     7
370
    30
100
AcDbLine
 10
-53.03243147963711
 20
424.2086013108176
 30
0.0
 11
-53.03243147963711
 21
419.1901511263158
 31
0.0
  0
LINE
  5
1F6
330
1F
100
AcDbEntity
  8
0
  6
Continuous
 62
     7
370
    30
100
AcDbLine
 10
-53.03243147963711
 20
419.1901511263158
 30
0.0
 11
-88.80118916721398
 21
419.1901511263158
 31
0.0
  0
LINE
  5
1F7
330
1F
100
AcDbEntity
  8
0
  6
Continuous
 62
     7
370
    30
100
AcDbLine
 10
-78.96109076622994
 20
411.5640748655532
 30
0.0
 11
-53.05703172563954
 21
399.5591548163526
 31
0.0
  0
LINE
  5
1F8
330
1F
100
AcDbEntity
  8
0
  6
Continuous
 62
     7
370
    30
100
AcDbLine
 10
-53.05703172563954
 20
399.5591548163526
 30
0.0
 11
-53.05703172563957
 21
394.3931031558361
 31
0.0
  0
LINE
  5
1F9
330
1F
100
AcDbEntity
  8
0
  6
Continuous
 62
     7
370
    30
100
AcDbLine
 10
-53.05703172563957
 20
394.3931031558361
 30
0.0
 11
-78.66588781420043
 21
406.1028202530071
 31
0.0
  0
LINE
  5
1FA
330
1F
100
AcDbEntity
  8
0
  6
Continuous
 62
     7
370
    30
100
AcDbLine
 10
-78.66588781420043
 20
406.1028202530071
 30
0.0
 11
-78.66588781420046
 21
388.562844853253
 31
0.0
  0
LINE
  5
1FB
330
1F
100
AcDbEntity
  8
0
  6
Continuous
 62
     7
370
    30
100
AcDbLine
 10
-78.66588781420046
 20
388.562844853253
 30
0.0
 11
-83.31533430866543
 21
388.562844853253
 31
0.0
  0
LINE
  5
1FC
330
1F
100
AcDbEntity
  8
0
  6
Continuous
 62
     7
370
    30
100
AcDbLine
 10
-83.31533430866543
 20
388.562844853253
 30
0.0
 11
-83.3153343086654
 21
411.5640748655532
 31
0.0
  0
LINE
  5
1FD
330
1F
100
AcDbEntity
  8
0
  6
Continuous
 62
     7
370
    30
100
AcDbLine
 10
-83.3153343086654
 20
411.5640748655532
 30
0.0
 11
-78.96109076622994
 21
411.5640748655532
 31
0.0
  0
LINE
  5
1FE
330
1F
100
AcDbEntity
  8
0
  6
Continuous
 62
     7
370
    30
100
AcDbLine
 10
-67.76797883511067
 20
396.1397206220108
 30
0.0
 11
-67.7679788351107
 21
391.2442716675212
 31
0.0
  0
LINE
  5
1FF
330
1F
100
AcDbEntity
  8
0
  6
Continuous
 62
     7
370
    30
100
AcDbLine
 10
-67.7679788351107
 20
391.2442716675212
 30
0.0
 11
-88.82578941321644
 21
391.2442716675212
 31
0.0
  0
LINE
  5
200
330
1F
100
AcDbEntity
  8
0
  6
Continuous
 62
     7
370
    30
100
AcDbLine
 10
-88.82578941321644
 20
391.2442716675212
 30
0.0
 11
-88.82578941321641
 21
396.1397206220108
 31
0.0
  0
LINE
  5
201
330
1F
100
AcDbEntity
  8
0
  6
Continuous
 62
     7
370
    30
100
AcDbLine
 10
-88.82578941321641
 20
396.1397206220108
 30
0.0
 11
-67.76797883511067
 21
396.1397206220108
 31
0.0
  0
LINE
  5
202
330
1F
100
AcDbEntity
  8
0
  6
Continuous
 62
     7
370
    30
100
AcDbLine
 10
-88.59135932460703
 20
336.5653248289868
 30
0.0
 11
-88.59135932460703
 21
341.5837750134887
 31
0.0
  0
LINE
  5
203
330
1F
100
AcDbEntity
  8
0
  6
Continuous
 62
     7
370
    30
100
AcDbLine
 10
-88.59135932460703
 20
341.5837750134887
 30
0.0
 11
-58.28385624957626
 21
341.5837750134887
 31
0.0
  0
LINE
  5
204
330
1F
100
AcDbEntity
  8
0
  6
Continuous
 62
     7
370
    30
100
AcDbLine
 10
-58.28385624957626
 20
341.5837750134887
 30
0.0
 11
-61.40808749188868
 21
346.6760259359979
 31
0.0
  0
LINE
  5
205
330
1F
100
AcDbEntity
  8
0
  6
Continuous
 62
     7
370
    30
100
AcDbLine
 10
-61.40808749188868
 20
346.6760259359979
 30
0.0
 11
-56.21743558536961
 21
346.6760259359979
 31
0.0
  0
LINE
  5
206
330
1F
100
AcDbEntity
  8
0
  6
Continuous
 62
     7
370
    30
100
AcDbLine
 10
-56.21743558536961
 20
346.6760259359979
 30
0.0
 11
-52.82260163703016
 21
341.5837750134887
 31
0.0
  0
LINE
  5
207
330
1F
100
AcDbEntity
  8
0
  6
Continuous
 62
     7
370
    30
100
AcDbLine
 10
-52.82260163703016
 20
341.5837750134887
 30
0.0
 11
-52.82260163703016
 21
336.5653248289868
 31
0.0
  0
LINE
  5
208
330
1F
100
AcDbEntity
  8
0
  6
Continuous
 62
     7
370
    30
100
AcDbLine
 10
-52.82260163703016
 20
336.5653248289868
 30
0.0
 11
-88.59135932460703
 21
336.5653248289868
 31
0.0
  0
ELLIPSE
  5
209
330
1F
100
AcDbEntity
  8
0
  6
Continuous
 62
     7
370
    30
100
AcDbEllipse
 10
-63.09539674144902
 20
306.3421925001201
 30
0.0
 11
23.95440219848102
 21
-18.29549777559203
 31
0.0
210
0.0
220
0.0
230
1.0
 40
0.5332562985548336
 41
2.668901529079357
 42
3.528812168768188
  0
LINE
  5
20A
330
1F
100
AcDbEntity
  8
0
  6
Continuous
 62
     7
370
    30
100
AcDbLine
 10
-79.98127322374603
 20
328.447243648175
 30
0.0
 11
-79.95667297774355
 21
328.447243648175
 31
0.0
  0
LINE
  5
20B
330
1F
100
AcDbEntity
  8
0
  6
Continuous
 62
     7
370
    30
100
AcDbLine
 10
-79.95667297774355
 20
328.447243648175
 30
0.0
 11
-79.95667297774355
 21
323.4287934636732
 31
0.0
  0
LINE
  5
20C
330
1F
100
AcDbEntity
  8
0
  6
Continuous
 62
     7
370
    30
100
AcDbLine
 10
-79.95667297774355
 20
323.4287934636732
 30
0.0
 11
-79.98127322374603
 21
323.4287934636732
 31
0.0
  0
ARC
  5
20D
330
1F
100
AcDbEntity
  8
0
  6
Continuous
 62
     7
370
    30
100
AcDbCircle
 10
-79.57851440959408
 20
318.8680792479702
 30
0.0
 40
4.578463587241007
100
AcDbArc
 50
95.04672500474119
 51
185.1193006967996
  0
ELLIPSE
  5
20E
330
1F
100
AcDbEntity
  8
0
  6
Continuous
 62
     7
370
    30
100
AcDbEllipse
 10
-67.41505662884852
 20
327.1224888516443
 30
0.0
 11
15.85091359780749
 21
11.61482777206439
 31
0.0
210
0.0
220
0.0
230
1.0
 40
0.459073948165694
 41
2.814677293070617
 42
3.703434883138746
  0
LINE
  5
20F
330
1F
100
AcDbEntity
  8
0
  6
Continuous
 62
     7
370
    30
100
AcDbLine
 10
-77.98865329754678
 20
313.4164933406719
 30
0.0
 11
-74.98742328524665
 21
313.4164933406719
 31
0.0
  0
ELLIPSE
  5
210
330
1F
100
AcDbEntity
  8
0
  6
Continuous
 62
     7
370
    30
100
AcDbEllipse
 10
-84.93963042386473
 20
326.6386126848916
 30
0.0
 11
15.20512208693971
 21
-11.13015656587647
 31
0.0
210
0.0
220
0.0
230
1.0
 40
0.4694185003397325
 41
5.710840291378476
 42
6.616814784236593
  0
ARC
  5
211
330
1F
100
AcDbEntity
  8
0
  6
Continuous
 62
     7
370
    30
100
AcDbCircle
 10
-74.54487252331111
 20
318.1762254185926
 30
0.0
 40
5.689968449533731
100
AcDbArc
 50
2.854086315908691
 51
59.60973278112492
  0
LINE
  5
212
330
1F
100
AcDbEntity
  8
0
  6
Continuous
 62
     7
370
    30
100
AcDbLine
 10
-71.66639007491453
 20
323.0843900196388
 30
0.0
 11
-71.66639007491453
 21
327.6600357760963
 31
0.0
  0
LINE
  5
213
330
1F
100
AcDbEntity
  8
0
  6
Continuous
 62
     7
370
    30
100
AcDbLine
 10
-71.66639007491453
 20
327.6600357760963
 30
0.0
 11
-52.82260163703016
 21
327.6600357760963
 31
0.0
  0
LINE
  5
214
330
1F
100
AcDbEntity
  8
0
  6
Continuous
 62
     7
370
    30
100
AcDbLine
 10
-52.82260163703016
 20
327.6600357760963
 30
0.0
 11
-52.82260163703016
 21
309.4312534882734
 31
0.0
  0
LINE
  5
215
330
1F
100
AcDbEntity
  8
0
  6
Continuous
 62
     7
370
    30
100
AcDbLine
 10
-52.82260163703016
 20
309.4312534882734
 30
0.0
 11
-57.59504936150738
 21
309.4312534882734
 31
0.0
  0
LINE
  5
216
330
1F
100
AcDbEntity
  8
0
  6
Continuous
 62
     7
370
    30
100
AcDbLine
 10
-57.59504936150738
 20
309.4312534882734
 30
0.0
 11
-57.59504936150738
 21
322.6415855915944
 31
0.0
  0
LINE
  5
217
330
1F
100
AcDbEntity
  8
0
  6
Continuous
 62
     7
370
    30
100
AcDbLine
 10
-57.59504936150738
 20
322.6415855915944
 30
0.0
 11
-65.6393298043118
 21
322.6415855915944
 31
0.0
  0
ARC
  5
218
330
1F
100
AcDbEntity
  8
0
  6
Continuous
 62
     7
370
    30
100
AcDbCircle
 10
-71.1439748802055
 20
318.1513409548177
 30
0.0
 40
7.103760575192724
100
AcDbArc
 50
0.3032672156824699
 51
39.20478566117831
  0
ELLIPSE
  5
219
330
1F
100
AcDbEntity
  8
0
  6
Continuous
 62
     7
370
    30
100
AcDbEllipse
 10
-97.52005767159176
 20
338.3480229409208
 30
0.0
 11
31.38866520552277
 21
-26.61437793610388
 31
0.0
210
0.0
220
0.0
230
1.0
 40
0.4376090273053477
 41
5.805978247396418
 42
6.639147709272017
  0
LINE
  5
21A
330
1F
100
AcDbEntity
  8
0
  6
Continuous
 62
     7
370
    30
100
AcDbLine
 10
-74.98742328524665
 20
308.3980431561702
 30
0.0
 11
-77.98865329754678
 21
308.3980431561702
 31
0.0
  0
ELLIPSE
  5
21B
330
1F
100
AcDbEntity
  8
0
  6
Continuous
 62
     7
370
    30
100
AcDbEllipse
 10
-58.89731413358103
 20
335.9908090202803
 30
0.0
 11
27.81710938453248
 21
24.31508934923959
 31
0.0
210
0.0
220
0.0
230
1.0
 40
0.4689098921053432
 41
2.751643770314887
 42
3.635333025778137
  0
LINE
  5
21C
330
1F
100
AcDbEntity
  8
0
  6
Continuous
 62
     7
370
    30
100
AcDbLine
 10
-88.10298081072442
 20
256.8332541520027
 30
0.0
 11
-88.10298081072442
 21
261.8517043365045
 31
0.0
  0
LINE
  5
21D
330
1F
100
AcDbEntity
  8
0
  6
Continuous
 62
     7
370
    30
100
AcDbLine
 10
-88.10298081072442
 20
261.8517043365045
 30
0.0
 11
-57.79547773569364
 21
261.8517043365045
 31
0.0
  0
LINE
  5
21E
330
1F
100
AcDbEntity
  8
0
  6
Continuous
 62
     7
370
    30
100
AcDbLine
 10
-57.79547773569364
 20
261.8517043365045
 30
0.0
 11
-60.91970897800607
 21
266.9439552590137
 31
0.0
  0
LINE
  5
21F
330
1F
100
AcDbEntity
  8
0
  6
Continuous
 62
     7
370
    30
100
AcDbLine
 10
-60.91970897800607
 20
266.9439552590137
 30
0.0
 11
-55.729057071487
 21
266.9439552590137
 31
0.0
  0
LINE
  5
220
330
1F
100
AcDbEntity
  8
0
  6
Continuous
 62
     7
370
    30
100
AcDbLine
 10
-55.729057071487
 20
266.9439552590137
 30
0.0
 11
-52.33422312314755
 21
261.8517043365045
 31
0.0
  0
LINE
  5
221
330
1F
100
AcDbEntity
  8
0
  6
Continuous
 62
     7
370
    30
100
AcDbLine
 10
-52.33422312314755
 20
261.8517043365045
 30
0.0
 11
-52.33422312314755
 21
256.8332541520027
 31
0.0
  0
LINE
  5
222
330
1F
100
AcDbEntity
  8
0
  6
Continuous
 62
     7
370
    30
100
AcDbLine
 10
-52.33422312314755
 20
256.8332541520027
 30
0.0
 11
-88.10298081072442
 21
256.8332541520027
 31
0.0
  0
ELLIPSE
  5
223
330
1F
100
AcDbEntity
  8
0
  6
Continuous
 62
     7
370
    30
100
AcDbEllipse
 10
-57.75233380403509
 20
221.1004430253548
 30
0.0
 11
28.46708987000747
 21
-25.16486087421166
 31
0.0
210
0.0
220
0.0
230
1.0
 40
0.4588358334847845
 41
2.661675188806231
 42
3.527875430425133
  0
LINE
  5
224
330
1F
100
AcDbEntity
  8
0
  6
Continuous
 62
     7
370
    30
100
AcDbLine
 10
-77.67247650568136
 20
249.4531803512646
 30
0.0
 11
-77.64787625967888
 21
249.4531803512646
 31
0.0
  0
ARC
  5
225
330
1F
100
AcDbEntity
  8
0
  6
Continuous
 62
     7
370
    30
100
AcDbCircle
 10
-78.03332350969443
 20
226.8949875918391
 30
0.0
 40
22.5614855484727
100
AcDbArc
 50
66.8367703323286
 51
89.02109393206646
  0
ARC
  5
226
330
1F
100
AcDbEntity
  8
0
  6
Continuous
 62
     7
370
    30
100
AcDbCircle
 10
-76.55897422326545
 20
230.0719899317707
 30
0.0
 40
19.06094337619104
100
AcDbArc
 50
62.42208507738942
 51
67.15485569561406
  0
LINE
  5
227
330
1F
100
AcDbEntity
  8
0
  6
Continuous
 62
     7
370
    30
100
AcDbLine
 10
-67.7346264845826
 20
246.9672688397131
 30
0.0
 11
-52.33422312314755
 21
239.1948777682388
 31
0.0
  0
LINE
  5
228
330
1F
100
AcDbEntity
  8
0
  6
Continuous
 62
     7
370
    30
100
AcDbLine
 10
-52.33422312314755
 20
239.1948777682388
 30
0.0
 11
-52.33422312314755
 21
233.7828236476975
 31
0.0
  0
LINE
  5
229
330
1F
100
AcDbEntity
  8
0
  6
Continuous
 62
     7
370
    30
100
AcDbLine
 10
-52.33422312314755
 20
233.7828236476975
 30
0.0
 11
-70.16940147493105
 21
242.9095149146102
 31
0.0
  0
LINE
  5
22A
330
1F
100
AcDbEntity
  8
0
  6
Continuous
 62
     7
370
    30
100
AcDbLine
 10
-70.16940147493105
 20
242.9095149146102
 30
0.0
 11
-69.28379261884247
 21
242.8849146686078
 31
0.0
  0
ARC
  5
22B
330
1F
100
AcDbEntity
  8
0
  6
Continuous
 62
     7
370
    30
100
AcDbCircle
 10
-71.67239593402395
 20
238.6795257850666
 30
0.0
 40
4.836395502759042
100
AcDbArc
 50
355.9015831247049
 51
60.40401800236081
  0
ELLIPSE
  5
22C
330
1F
100
AcDbEntity
  8
0
  6
Continuous
 62
     7
370
    30
100
AcDbEllipse
 10
-97.35315558659093
 20
254.7645231354934
 30
0.0
 11
28.91720750755286
 21
-21.69149988964924
 31
0.0
210
0.0
220
0.0
230
1.0
 40
0.4477672345333534
 41
5.744022371718117
 42
6.607708284748787
  0
LINE
  5
22D
330
1F
100
AcDbEntity
  8
0
  6
Continuous
 62
     7
370
    30
100
AcDbLine
 10
-77.52487502966657
 20
229.5023808432696
 30
0.0
 11
-77.54947527566907
 21
229.5023808432696
 31
0.0
  0
ELLIPSE
  5
22E
330
1F
100
AcDbEntity
  8
0
  6
Continuous
 62
     7
370
    30
100
AcDbEllipse
 10
-56.09256783743393
 20
259.1150788424789
 30
0.0
 11
30.15514867974955
 21
26.36086681308583
 31
0.0
210
0.0
220
0.0
230
1.0
 40
0.4473983077093907
 41
2.768283588900237
 42
3.615194933350804
  0
ELLIPSE
  5
22F
330
1F
100
AcDbEntity
  8
0
  6
Continuous
 62
     7
370
    30
100
AcDbEllipse
 10
-65.93703629709884
 20
250.0116872609712
 30
0.0
 11
16.70005821110479
 21
13.72330810278837
 31
0.0
210
0.0
220
0.0
230
1.0
 40
0.4302966732689001
 41
2.799860760769916
 42
3.625860333043045
  0
LINE
  5
230
330
1F
100
AcDbEntity
  8
0
  6
Continuous
 62
     7
370
    30
100
AcDbLine
 10
-77.96767945771087
 20
234.5208310277714
 30
0.0
 11
-77.94307921170838
 21
234.5208310277714
 31
0.0
  0
ELLIPSE
  5
231
330
1F
100
AcDbEntity
  8
0
  6
Continuous
 62
     7
370
    30
100
AcDbEllipse
 10
-90.87878219310524
 20
250.4791660767898
 30
0.0
 11
18.25665754245394
 21
-13.89580121921854
 31
0.0
210
0.0
220
0.0
230
1.0
 40
0.4298176045673901
 41
5.767397005601501
 42
6.601397847583298
  0
ELLIPSE
  5
232
330
1F
100
AcDbEntity
  8
0
  6
Continuous
 62
     7
370
    30
100
AcDbEllipse
 10
-88.35920588950006
 20
231.9826271707731
 30
0.0
 11
16.05273173473068
 21
10.14050516992786
 31
0.0
210
0.0
220
0.0
230
1.0
 40
0.450188281673477
 41
6.003700614152989
 42
6.904789873573525
  0
LINE
  5
233
330
1F
100
AcDbEntity
  8
0
  6
Continuous
 62
     7
370
    30
100
AcDbLine
 10
-77.96767945771087
 20
244.4347301667628
 30
0.0
 11
-77.99227970371335
 21
244.4347301667628
 31
0.0
  0
ELLIPSE
  5
234
330
1F
100
AcDbEntity
  8
0
  6
Continuous
 62
     7
370
    30
100
AcDbEllipse
 10
-66.44356887036174
 20
229.3778232758994
 30
0.0
 11
16.19911558189422
 21
-13.2939437956064
 31
0.0
210
0.0
220
0.0
230
1.0
 40
0.4364340301083705
 41
2.650513140961823
 42
3.48725156442311
  0
LINE
  5
235
330
1F
100
AcDbEntity
  8
0
  6
Continuous
 62
     7
370
    30
100
AcDbLine
 10
-88.22780009575058
 20
176.964617245238
 30
0.0
 11
-88.22780009575058
 21
181.9830674297399
 31
0.0
  0
LINE
  5
236
330
1F
100
AcDbEntity
  8
0
  6
Continuous
 62
     7
370
    30
100
AcDbLine
 10
-88.22780009575058
 20
181.9830674297399
 30
0.0
 11
-57.92029702071981
 21
181.9830674297399
 31
0.0
  0
LINE
  5
237
330
1F
100
AcDbEntity
  8
0
  6
Continuous
 62
     7
370
    30
100
AcDbLine
 10
-57.92029702071981
 20
181.9830674297399
 30
0.0
 11
-61.04452826303223
 21
187.0753183522491
 31
0.0
  0
LINE
  5
238
330
1F
100
AcDbEntity
  8
0
  6
Continuous
 62
     7
370
    30
100
AcDbLine
 10
-61.04452826303223
 20
187.0753183522491
 30
0.0
 11
-55.85387635651316
 21
187.0753183522491
 31
0.0
  0
LINE
  5
239
330
1F
100
AcDbEntity
  8
0
  6
Continuous
 62
     7
370
    30
100
AcDbLine
 10
-55.85387635651316
 20
187.0753183522491
 30
0.0
 11
-52.45904240817372
 21
181.9830674297399
 31
0.0
  0
LINE
  5
23A
330
1F
100
AcDbEntity
  8
0
  6
Continuous
 62
     7
370
    30
100
AcDbLine
 10
-52.45904240817372
 20
181.9830674297399
 30
0.0
 11
-52.45904240817372
 21
176.964617245238
 31
0.0
  0
LINE
  5
23B
330
1F
100
AcDbEntity
  8
0
  6
Continuous
 62
     7
370
    30
100
AcDbLine
 10
-52.45904240817372
 20
176.964617245238
 30
0.0
 11
-88.22780009575058
 21
176.964617245238
 31
0.0
  0
LINE
  5
23C
330
1F
100
AcDbEntity
  8
0
  6
Continuous
 62
     7
370
    30
100
AcDbLine
 10
-56.93628718062142
 20
150.3717513165787
 30
0.0
 11
-88.22780009575058
 21
159.6214438135037
 31
0.0
  0
LINE
  5
23D
330
1F
100
AcDbEntity
  8
0
  6
Continuous
 62
     7
370
    30
100
AcDbLine
 10
-88.22780009575058
 20
159.6214438135037
 30
0.0
 11
-88.22780009575058
 21
164.9596971960375
 31
0.0
  0
LINE
  5
23E
330
1F
100
AcDbEntity
  8
0
  6
Continuous
 62
     7
370
    30
100
AcDbLine
 10
-88.22780009575058
 20
164.9596971960375
 30
0.0
 11
-57.23149013265093
 21
155.7100046991125
 31
0.0
  0
LINE
  5
23F
330
1F
100
AcDbEntity
  8
0
  6
Continuous
 62
     7
370
    30
100
AcDbLine
 10
-57.23149013265093
 20
155.7100046991125
 30
0.0
 11
-57.23149013265093
 21
164.8120957200227
 31
0.0
  0
LINE
  5
240
330
1F
100
AcDbEntity
  8
0
  6
Continuous
 62
     7
370
    30
100
AcDbLine
 10
-57.23149013265093
 20
164.8120957200227
 30
0.0
 11
-62.37294154716509
 21
164.8120957200227
 31
0.0
  0
LINE
  5
241
330
1F
100
AcDbEntity
  8
0
  6
Continuous
 62
     7
370
    30
100
AcDbLine
 10
-62.37294154716509
 20
164.8120957200227
 30
0.0
 11
-62.37294154716509
 21
169.8305459045246
 31
0.0
  0
LINE
  5
242
330
1F
100
AcDbEntity
  8
0
  6
Continuous
 62
     7
370
    30
100
AcDbLine
 10
-62.37294154716509
 20
169.8305459045246
 30
0.0
 11
-52.45904240817372
 21
169.8305459045246
 31
0.0
  0
LINE
  5
243
330
1F
100
AcDbEntity
  8
0
  6
Continuous
 62
     7
370
    30
100
AcDbLine
 10
-52.45904240817372
 20
169.8305459045246
 30
0.0
 11
-52.45904240817372
 21
150.3717513165787
 31
0.0
  0
LINE
  5
244
330
1F
100
AcDbEntity
  8
0
  6
Continuous
 62
     7
370
    30
100
AcDbLine
 10
-52.45904240817372
 20
150.3717513165787
 30
0.0
 11
-56.93628718062142
 21
150.3717513165787
 31
0.0
  0
LINE
  5
245
330
1F
100
AcDbEntity
  8
0
  6
Continuous
 62
     7
370
    30
100
AcDbLine
 10
-88.34645094493747
 20
97.61942568560909
 30
0.0
 11
-88.34645094493747
 21
102.637875870111
 31
0.0
  0
LINE
  5
246
330
1F
100
AcDbEntity
  8
0
  6
Continuous
 62
     7
370
    30
100
AcDbLine
 10
-88.34645094493747
 20
102.637875870111
 30
0.0
 11
-58.03894786990669
 21
102.637875870111
 31
0.0
  0
LINE
  5
247
330
1F
100
AcDbEntity
  8
0
  6
Continuous
 62
     7
370
    30
100
AcDbLine
 10
-58.03894786990669
 20
102.637875870111
 30
0.0
 11
-61.16317911221912
 21
107.7301267926201
 31
0.0
  0
LINE
  5
248
330
1F
100
AcDbEntity
  8
0
  6
Continuous
 62
     7
370
    30
100
AcDbLine
 10
-61.16317911221912
 20
107.7301267926201
 30
0.0
 11
-55.97252720570005
 21
107.7301267926201
 31
0.0
  0
LINE
  5
249
330
1F
100
AcDbEntity
  8
0
  6
Continuous
 62
     7
370
    30
100
AcDbLine
 10
-55.97252720570005
 20
107.7301267926201
 30
0.0
 11
-52.5776932573606
 21
102.6378758701109
 31
0.0
  0
LINE
  5
24A
330
1F
100
AcDbEntity
  8
0
  6
Continuous
 62
     7
370
    30
100
AcDbLine
 10
-52.5776932573606
 20
102.637875870111
 30
0.0
 11
-52.5776932573606
 21
97.61942568560909
 31
0.0
  0
LINE
  5
24B
330
1F
100
AcDbEntity
  8
0
  6
Continuous
 62
     7
370
    30
100
AcDbLine
 10
-52.5776932573606
 20
97.61942568560909
 30
0.0
 11
-88.34645094493747
 21
97.61942568560909
 31
0.0
  0
ELLIPSE
  5
24C
330
1F
100
AcDbEntity
  8
0
  6
Continuous
 62
     7
370
    30
100
AcDbEllipse
 10
-73.38339094978842
 20
73.12946617920122
 30
0.0
 11
11.54957014755262
 21
-14.76679207525152
 31
0.0
210
0.0
220
0.0
230
1.0
 40
0.6828649486048842
 41
2.648013134670516
 42
3.862176806970052
  0
LINE
  5
24D
330
1F
100
AcDbEntity
  8
0
  6
Continuous
 62
     7
370
    30
100
AcDbLine
 10
-78.7769552499805
 20
89.87034819483418
 30
0.0
 11
-78.18654934592143
 21
89.87034819483418
 31
0.0
  0
ARC
  5
24E
330
1F
100
AcDbEntity
  8
0
  6
Continuous
 62
     7
370
    30
100
AcDbCircle
 10
-78.07601600402337
 20
80.06993160465639
 30
0.0
 40
9.801039891802459
100
AcDbArc
 50
29.86405819334128
 51
90.64617921277441
  0
ARC
  5
24F
330
1F
100
AcDbEntity
  8
0
  6
Continuous
 62
     7
370
    30
100
AcDbCircle
 10
-62.40447476606268
 20
80.89198992075946
 30
0.0
 40
8.240588042099931
100
AcDbArc
 50
90.43467973508139
 51
150.4964101038385
  0
LINE
  5
250
330
1F
100
AcDbEntity
  8
0
  6
Continuous
 62
     7
370
    30
100
AcDbLine
 10
-62.4669921503495
 20
89.13234081476038
 30
0.0
 11
-61.60598354026341
 21
89.13234081476038
 31
0.0
  0
ELLIPSE
  5
251
330
1F
100
AcDbEntity
  8
0
  6
Continuous
 62
     7
370
    30
100
AcDbEllipse
 10
-66.1818494109591
 20
74.1036954979195
 30
0.0
 11
-10.51288915329709
 21
-13.08228558132354
 31
0.0
210
0.0
220
0.0
230
1.0
 40
0.7036187867910991
 41
2.418783024092957
 42
3.659598924316349
  0
ELLIPSE
  5
252
330
1F
100
AcDbEntity
  8
0
  6
Continuous
 62
     7
370
    30
100
AcDbEllipse
 10
-66.181849410958
 20
83.93958391757795
 30
0.0
 11
10.5128891532955
 21
-13.08228558132191
 31
0.0
210
0.0
220
0.0
230
1.0
 40
0.7036187867911313
 41
5.765179036453024
 42
7.005994936676457
  0
LINE
  5
253
330
1F
100
AcDbEntity
  8
0
  6
Continuous
 62
     7
370
    30
100
AcDbLine
 10
-61.60598354026341
 20
68.91093860073826
 30
0.0
 11
-62.4669921503495
 21
68.91093860073826
 31
0.0
  0
ARC
  5
254
330
1F
100
AcDbEntity
  8
0
  6
Continuous
 62
     7
370
    30
100
AcDbCircle
 10
-62.42408216190685
 20
77.04879953223806
 30
0.0
 40
8.137974060387451
100
AcDbArc
 50
208.4912900518692
 51
269.6978888589489
  0
ARC
  5
255
330
1F
100
AcDbEntity
  8
0
  6
Continuous
 62
     7
370
    30
100
AcDbCircle
 10
-78.15306286636523
 20
78.03460889831813
 30
0.0
 40
9.861734531118016
100
AcDbArc
 50
269.8054462295362
 51
330.4220200724286
  0
LINE
  5
256
330
1F
100
AcDbEntity
  8
0
  6
Continuous
 62
     7
370
    30
100
AcDbLine
 10
-78.18654934592143
 20
68.17293122066447
 30
0.0
 11
-78.7769552499805
 21
68.17293122066447
 31
0.0
  0
ELLIPSE
  5
257
330
1F
100
AcDbEntity
  8
0
  6
Continuous
 62
     7
370
    30
100
AcDbEllipse
 10
-73.38339094978551
 20
84.9138132363016
 30
0.0
 11
-11.54957014755498
 21
-14.76679207525581
 31
0.0
210
0.0
220
0.0
230
1.0
 40
0.682864948604773
 41
5.562601153799402
 42
6.776764826098763
  0
ARC
  5
258
330
1F
100
AcDbEntity
  8
0
  6
Continuous
 62
     7
370
    30
100
AcDbCircle
 10
-78.57018495610345
 20
78.51225568297136
 30
0.0
 40
5.347935822306117
100
AcDbArc
 50
174.5343648483585
 51
271.7383744809578
  0
LINE
  5
259
330
1F
100
AcDbEntity
  8
0
  6
Continuous
 62
     7
370
    30
100
AcDbLine
 10
-78.40795155994361
 20
73.16678115916385
 30
0.0
 11
-78.06354811590914
 21
73.16678115916385
 31
0.0
  0
ARC
  5
25A
330
1F
100
AcDbEntity
  8
0
  6
Continuous
 62
     7
370
    30
100
AcDbCircle
 10
-77.87808161325844
 20
78.51280906839757
 30
0.0
 40
5.349244080233331
100
AcDbArc
 50
268.0130691604223
 51
5.458340017434725
  0
ARC
  5
25B
330
1F
100
AcDbEntity
  8
0
  6
Continuous
 62
     7
370
    30
100
AcDbCircle
 10
-77.88730113831933
 20
79.52258536175214
 30
0.0
 40
5.357678871489332
100
AcDbArc
 50
354.6349793676095
 51
92.14839216254059
  0
LINE
  5
25C
330
1F
100
AcDbEntity
  8
0
  6
Continuous
 62
     7
370
    30
100
AcDbLine
 10
-78.08814836191162
 20
84.8764982563348
 30
0.0
 11
-78.45715205194851
 21
84.8764982563348
 31
0.0
  0
ARC
  5
25D
330
1F
100
AcDbEntity
  8
0
  6
Continuous
 62
     7
370
    30
100
AcDbCircle
 10
-78.61357840167724
 20
79.57016106518061
 30
0.0
 40
5.308642348954725
100
AcDbArc
 50
88.31145770527009
 51
185.9307350880528
  0
ARC
  5
25E
330
1F
100
AcDbEntity
  8
0
  6
Continuous
 62
     7
370
    30
100
AcDbCircle
 10
-62.84298941878393
 20
78.80616506836873
 30
0.0
 40
4.893201945991938
100
AcDbArc
 50
177.4761350426508
 51
274.6959566093614
  0
LINE
  5
25F
330
1F
100
AcDbEntity
  8
0
  6
Continuous
 62
     7
370
    30
100
AcDbLine
 10
-62.44239190434707
 20
73.92938878524006
 30
0.0
 11
-62.0979884603126
 21
73.92938878524006
 31
0.0
  0
ARC
  5
260
330
1F
100
AcDbEntity
  8
0
  6
Continuous
 62
     7
370
    30
100
AcDbCircle
 10
-61.82585682117607
 20
78.72628188909407
 30
0.0
 40
4.804606027430474
100
AcDbArc
 50
266.753044258016
 51
3.52441660175941
  0
ARC
  5
261
330
1F
100
AcDbEntity
  8
0
  6
Continuous
 62
     7
370
    30
100
AcDbCircle
 10
-61.82825916257813
 20
79.31596925148624
 30
0.0
 40
4.806940756572384
100
AcDbArc
 50
356.4895768927649
 51
93.5104231072355
  0
LINE
  5
262
330
1F
100
AcDbEntity
  8
0
  6
Continuous
 62
     7
370
    30
100
AcDbLine
 10
-62.12258870631509
 20
84.11389063025852
 30
0.0
 11
-62.49159239635198
 21
84.11389063025852
 31
0.0
  0
ARC
  5
263
330
1F
100
AcDbEntity
  8
0
  6
Continuous
 62
     7
370
    30
100
AcDbCircle
 10
-62.85046650644639
 20
79.24117533812134
 30
0.0
 40
4.885912908057579
100
AcDbArc
 50
85.78778705212216
 51
182.5753020245004
  0
LINE
  5
264
330
1F
100
AcDbEntity
  8
0
  6
Continuous
 62
     7
370
    30
100
AcDbLine
 10
-88.52645167682708
 20
17.20065808539087
 30
0.0
 11
-88.52645167682708
 21
22.21910826989274
 31
0.0
  0
LINE
  5
265
330
1F
100
AcDbEntity
  8
0
  6
Continuous
 62
     7
370
    30
100
AcDbLine
 10
-88.52645167682708
 20
22.21910826989274
 30
0.0
 11
-58.21894860179631
 21
22.21910826989274
 31
0.0
  0
LINE
  5
266
330
1F
100
AcDbEntity
  8
0
  6
Continuous
 62
     7
370
    30
100
AcDbLine
 10
-58.21894860179631
 20
22.21910826989274
 30
0.0
 11
-61.34317984410874
 21
27.31135919240193
 31
0.0
  0
LINE
  5
267
330
1F
100
AcDbEntity
  8
0
  6
Continuous
 62
     7
370
    30
100
AcDbLine
 10
-61.34317984410874
 20
27.31135919240193
 30
0.0
 11
-56.15252793758967
 21
27.31135919240193
 31
0.0
  0
LINE
  5
268
330
1F
100
AcDbEntity
  8
0
  6
Continuous
 62
     7
370
    30
100
AcDbLine
 10
-56.15252793758967
 20
27.31135919240193
 30
0.0
 11
-52.75769398925022
 21
22.21910826989274
 31
0.0
  0
LINE
  5
269
330
1F
100
AcDbEntity
  8
0
  6
Continuous
 62
     7
370
    30
100
AcDbLine
 10
-52.75769398925022
 20
22.21910826989274
 30
0.0
 11
-52.75769398925022
 21
17.20065808539087
 31
0.0
  0
LINE
  5
26A
330
1F
100
AcDbEntity
  8
0
  6
Continuous
 62
     7
370
    30
100
AcDbLine
 10
-52.75769398925022
 20
17.20065808539087
 30
0.0
 11
-88.52645167682708
 21
17.20065808539087
 31
0.0
  0
LINE
  5
26B
330
1F
100
AcDbEntity
  8
0
  6
Continuous
 62
     7
370
    30
100
AcDbLine
 10
-70.76507406305092
 20
-3.586549786687848
 30
0.0
 11
-71.6506829191395
 21
-3.561949540685422
 31
0.0
  0
ARC
  5
26C
330
1F
100
AcDbEntity
  8
0
  6
Continuous
 62
     7
370
    30
100
AcDbCircle
 10
-68.98038316443885
 20
0.554963944354947
 30
0.0
 40
4.907084411670701
100
AcDbArc
 50
172.0330092326703
 51
237.031875568192
  0
ELLIPSE
  5
26D
330
1F
100
AcDbEntity
  8
0
  6
Continuous
 62
     7
370
    30
100
AcDbEllipse
 10
-58.54035120406943
 20
-2.712432985927882
 30
0.0
 11
14.32817149620578
 21
-7.904002198962364
 31
0.0
210
0.0
220
0.0
230
1.0
 40
0.6788392322911143
 41
2.249604509863202
 42
3.503560060357387
  0
LINE
  5
26E
330
1F
100
AcDbEntity
  8
0
  6
Continuous
 62
     7
370
    30
100
AcDbLine
 10
-63.36040001631048
 20
9.82058428465285
 30
0.0
 11
-63.33579977030799
 21
9.82058428465285
 31
0.0
  0
ELLIPSE
  5
26F
330
1F
100
AcDbEntity
  8
0
  6
Continuous
 62
     7
370
    30
100
AcDbEllipse
 10
-85.36811425227019
 20
-20.29787028071903
 30
0.0
 11
30.75921084243682
 21
26.86200840158586
 31
0.0
210
0.0
220
0.0
230
1.0
 40
0.4428539483221368
 41
5.913740307115288
 42
6.753352859911213
  0
ELLIPSE
  5
270
330
1F
100
AcDbEntity
  8
0
  6
Continuous
 62
     7
370
    30
100
AcDbEllipse
 10
-82.83464384025196
 20
17.27480848982824
 30
0.0
 11
28.30949176375801
 21
-24.01130110005129
 31
0.0
210
0.0
220
0.0
230
1.0
 40
0.4666141328685242
 41
5.779065679791903
 42
6.661143680732947
  0
LINE
  5
271
330
1F
100
AcDbEntity
  8
0
  6
Continuous
 62
     7
370
    30
100
AcDbLine
 10
-63.45880100032029
 20
-10.1302152233422
 30
0.0
 11
-63.48340124632278
 21
-10.1302152233422
 31
0.0
  0
ARC
  5
272
330
1F
100
AcDbEntity
  8
0
  6
Continuous
 62
     7
370
    30
100
AcDbCircle
 10
-62.94299703229704
 20
11.90117772713811
 30
0.0
 40
22.03801969445101
100
AcDbArc
 50
246.028404099105
 51
268.5948835254397
  0
ARC
  5
273
330
1F
100
AcDbEntity
  8
0
  6
Continuous
 62
     7
370
    30
100
AcDbCircle
 10
-65.24368551582253
 20
7.557908324580365
 30
0.0
 40
17.13796457799533
100
AcDbArc
 50
242.3363700453275
 51
247.1573031655251
  0
LINE
  5
274
330
1F
100
AcDbEntity
  8
0
  6
Continuous
 62
     7
370
    30
100
AcDbLine
 10
-73.20049841729447
 20
-7.620990131091326
 30
0.0
 11
-88.52645167682708
 21
0.0050861296712881
 31
0.0
  0
LINE
  5
275
330
1F
100
AcDbEntity
  8
0
  6
Continuous
 62
     7
370
    30
100
AcDbLine
 10
-88.52645167682708
 20
0.005086129671289
 30
0.0
 11
-88.52645167682708
 21
5.417140250212532
 31
0.0
  0
LINE
  5
276
330
1F
100
AcDbEntity
  8
0
  6
Continuous
 62
     7
370
    30
100
AcDbLine
 10
-88.52645167682708
 20
5.417140250212532
 30
0.0
 11
-70.76507406305092
 21
-3.586549786687848
 31
0.0
  0
ELLIPSE
  5
277
330
1F
100
AcDbEntity
  8
0
  6
Continuous
 62
     7
370
    30
100
AcDbEllipse
 10
-52.88841584217317
 20
8.154434901156304
 30
0.0
 11
15.54652973661474
 21
11.16429993144773
 31
0.0
210
0.0
220
0.0
230
1.0
 40
0.4609379190255483
 41
2.819478995953451
 42
3.71445709304846
  0
LINE
  5
278
330
1F
100
AcDbEntity
  8
0
  6
Continuous
 62
     7
370
    30
100
AcDbLine
 10
-63.16359804829079
 20
-5.111765038840393
 30
0.0
 11
-63.13899780228831
 21
-5.111765038840393
 31
0.0
  0
ELLIPSE
  5
279
330
1F
100
AcDbEntity
  8
0
  6
Continuous
 62
     7
370
    30
100
AcDbEllipse
 10
-73.5042729965132
 20
8.47623042827575
 30
0.0
 11
15.40025830998704
 21
-11.61020684660872
 31
0.0
210
0.0
220
0.0
230
1.0
 40
0.4584065185262837
 41
5.734617841977368
 42
6.618231200226544
  0
ELLIPSE
  5
27A
330
1F
100
AcDbEntity
  8
0
  6
Continuous
 62
     7
370
    30
100
AcDbEllipse
 10
-75.33228006107518
 20
-10.32103815566612
 30
0.0
 11
17.20643048598536
 21
13.17293182084563
 31
0.0
210
0.0
220
0.0
230
1.0
 40
0.4317375180290184
 41
5.961981679114924
 42
6.798541389619309
  0
LINE
  5
27B
330
1F
100
AcDbEntity
  8
0
  6
Continuous
 62
     7
370
    30
100
AcDbLine
 10
-63.16359804829079
 20
4.80213410015104
 30
0.0
 11
-63.18819829429322
 21
4.80213410015104
 31
0.0
  0
ELLIPSE
  5
27C
330
1F
100
AcDbEntity
  8
0
  6
Continuous
 62
     7
370
    30
100
AcDbEllipse
 10
-51.33539966054425
 20
-9.851007073249152
 30
0.0
 11
17.06003590153693
 21
-12.61285308752564
 31
0.0
210
0.0
220
0.0
230
1.0
 40
0.43719920046861
 41
2.605701473731239
 42
3.456370425139519
  0
LINE
  5
27D
330
1F
100
AcDbEntity
  8
0
  6
Continuous
 62
     7
370
    30
100
AcDbLine
 10
-84.27732248293967
 20
-46.62793772975374
 30
0.0
 11
-67.65299509136409
 21
-59.10750774713544
 31
0.0
  0
ARC
  5
27E
330
1F
100
AcDbEntity
  8
0
  6
Continuous
 62
     7
370
    30
100
AcDbCircle
 10
-61.21134345233973
 20
-51.23084939523962
 30
0.0
 40
10.17529471961552
100
AcDbArc
 50
230.7231748949178
 51
266.5859283535805
  0
LINE
  5
27F
330
1F
100
AcDbEntity
  8
0
  6
Continuous
 62
     7
370
    30
100
AcDbLine
 10
-61.8172978826937
 20
-61.38808533122977
 30
0.0
 11
-61.76809739068879
 21
-61.38808533122977
 31
0.0
  0
ARC
  5
280
330
1F
100
AcDbEntity
  8
0
  6
Continuous
 62
     7
370
    30
100
AcDbCircle
 10
-61.45714566811252
 20
-57.16596196810736
 30
0.0
 40
4.233558393030299
100
AcDbArc
 50
265.7878744465208
 51
8.141166320105572
  0
ARC
  5
281
330
1F
100
AcDbEntity
  8
0
  6
Continuous
 62
     7
370
    30
100
AcDbCircle
 10
-62.24984075826674
 20
-56.3633575890661
 30
0.0
 40
4.987724380426993
100
AcDbArc
 50
357.6665075852069
 51
89.55268988670505
  0
LINE
  5
282
330
1F
100
AcDbEntity
  8
0
  6
Continuous
 62
     7
370
    30
100
AcDbLine
 10
-62.21090181873305
 20
-51.37578520822853
 30
0.0
 11
-62.23550206473548
 21
-51.37578520822853
 31
0.0
  0
LINE
  5
283
330
1F
100
AcDbEntity
  8
0
  6
Continuous
 62
     7
370
    30
100
AcDbLine
 10
-62.23550206473548
 20
-51.37578520822853
 30
0.0
 11
-62.23550206473548
 21
-46.18513330170945
 31
0.0
  0
LINE
  5
284
330
1F
100
AcDbEntity
  8
0
  6
Continuous
 62
     7
370
    30
100
AcDbLine
 10
-62.23550206473548
 20
-46.18513330170945
 30
0.0
 11
-62.21090181873305
 21
-46.18513330170945
 31
0.0
  0
ELLIPSE
  5
285
330
1F
100
AcDbEntity
  8
0
  6
Continuous
 62
     7
370
    30
100
AcDbEllipse
 10
-78.4893383686315
 20
-67.73387130100386
 30
0.0
 11
24.22474072697237
 21
17.22958707978037
 31
0.0
210
0.0
220
0.0
230
1.0
 40
0.5473342981609275
 41
5.910374152888117
 42
6.806075392127143
  0
ELLIPSE
  5
286
330
1F
100
AcDbEntity
  8
0
  6
Continuous
 62
     7
370
    30
100
AcDbEllipse
 10
-79.30038029189905
 20
-37.60362879631884
 30
0.0
 11
23.83905299556075
 21
-26.88530788526437
 31
0.0
210
0.0
220
0.0
230
1.0
 40
0.4559888704227039
 41
5.897851393446559
 42
6.759271877080301
  0
LINE
  5
287
330
1F
100
AcDbEntity
  8
0
  6
Continuous
 62
     7
370
    30
100
AcDbLine
 10
-61.8172978826937
 20
-66.60333748375128
 30
0.0
 11
-61.84189812869619
 21
-66.60333748375128
 31
0.0
  0
ARC
  5
288
330
1F
100
AcDbEntity
  8
0
  6
Continuous
 62
     7
370
    30
100
AcDbCircle
 10
-61.20670451608353
 20
-52.84696427083149
 30
0.0
 40
13.77103027731189
100
AcDbArc
 50
231.4777830876908
 51
267.3562740201272
  0
LINE
  5
289
330
1F
100
AcDbEntity
  8
0
  6
Continuous
 62
     7
370
    30
100
AcDbLine
 10
-69.7835507759011
 20
-63.62095996110786
 30
0.0
 11
-83.85911830089786
 21
-53.27000415041797
 31
0.0
  0
LINE
  5
28A
330
1F
100
AcDbEntity
  8
0
  6
Continuous
 62
     7
370
    30
100
AcDbLine
 10
-83.85911830089786
 20
-53.27000415041797
 30
0.0
 11
-83.85911830089789
 21
-66.80013945177096
 31
0.0
  0
LINE
  5
28B
330
1F
100
AcDbEntity
  8
0
  6
Continuous
 62
     7
370
    30
100
AcDbLine
 10
-83.85911830089789
 20
-66.80013945177096
 30
0.0
 11
-88.63156602537515
 21
-66.80013945177096
 31
0.0
  0
LINE
  5
28C
330
1F
100
AcDbEntity
  8
0
  6
Continuous
 62
     7
370
    30
100
AcDbLine
 10
-88.63156602537515
 20
-66.80013945177096
 30
0.0
 11
-88.63156602537512
 21
-46.62793772975374
 31
0.0
  0
LINE
  5
28D
330
1F
100
AcDbEntity
  8
0
  6
Continuous
 62
     7
370
    30
100
AcDbLine
 10
-88.63156602537512
 20
-46.62793772975374
 30
0.0
 11
-84.27732248293967
 21
-46.62793772975374
 31
0.0
  0
ELLIPSE
  5
28E
330
1F
100
AcDbEntity
  8
0
  6
Continuous
 62
     7
370
    30
100
AcDbEllipse
 10
-52.51986705532673
 20
-109.6679271212528
 30
0.0
 11
33.84850382896277
 21
-33.83684392871386
 31
0.0
210
0.0
220
0.0
230
1.0
 40
0.4021102135886361
 41
2.758963888776298
 42
3.526025438553881
  0
LINE
  5
28F
330
1F
100
AcDbEntity
  8
0
  6
Continuous
 62
     7
370
    30
100
AcDbLine
 10
-78.84066811639602
 20
-73.19620341241054
 30
0.0
 11
-62.57990550876998
 21
-73.19620341241054
 31
0.0
  0
ELLIPSE
  5
290
330
1F
100
AcDbEntity
  8
0
  6
Continuous
 62
     7
370
    30
100
AcDbEllipse
 10
-88.26349067435625
 20
-109.0762434856986
 30
0.0
 11
-33.20358661544855
 21
-33.25073205438014
 31
0.0
210
0.0
220
0.0
230
1.0
 40
0.406042879625411
 41
2.753297169400527
 42
3.527350447801955
  0
ELLIPSE
  5
291
330
1F
100
AcDbEntity
  8
0
  6
Continuous
 62
     7
370
    30
100
AcDbEllipse
 10
-93.66390957237451
 20
-52.32751376337511
 30
0.0
 11
38.61632096980809
 21
-38.66964489749931
 31
0.0
210
0.0
220
0.0
230
1.0
 40
0.3746095097756391
 41
5.924886547108498
 42
6.643810706127789
  0
LINE
  5
292
330
1F
100
AcDbEntity
  8
0
  6
Continuous
 62
     7
370
    30
100
AcDbLine
 10
-62.57990550876998
 20
-93.61440759445242
 30
0.0
 11
-78.84066811639602
 21
-93.61440759445242
 31
0.0
  0
ELLIPSE
  5
293
330
1F
100
AcDbEntity
  8
0
  6
Continuous
 62
     7
370
    30
100
AcDbEllipse
 10
-53.15708295087639
 20
-57.7343675212344
 30
0.0
 11
-33.20358661538349
 21
-33.25073205431055
 31
0.0
210
0.0
220
0.0
230
1.0
 40
0.4060428796258513
 41
5.894889822989917
 42
6.668943101392208
  0
ELLIPSE
  5
294
330
1F
100
AcDbEntity
  8
0
  6
Continuous
 62
     7
370
    30
100
AcDbEllipse
 10
850.4136815520826
 20
805.6141577947034
 30
0.0
 11
933.4053011758998
 21
892.7972979157896
 31
0.0
210
0.0
220
0.0
230
1.0
 40
0.0538319356571069
 41
3.090014067333529
 42
3.197570148338185
  0
LINE
  5
295
330
1F
100
AcDbEntity
  8
0
  6
Continuous
 62
     7
370
    30
100
AcDbLine
 10
-78.84066811639602
 20
-88.59595740995054
 30
0.0
 11
-62.57990550876998
 21
-88.59595740995054
 31
0.0
  0
SPLINE
  5
296
330
1F
100
AcDbEntity
  8
0
  6
Continuous
 62
     7
370
    30
100
AcDbSpline
210
0.0
220
0.0
230
1.0
 70
     8
 71
     2
 72
     8
 73
     5
 74
     0
 42
0.0000000001
 43
0.0000000001
 40
0.0
 40
0.0
 40
0.0
 40
1.0
 40
1.0
 40
2.0
 40
2.0
 40
2.0
 10
-62.57990550876998
 20
-88.59595740995054
 30
0.0
 10
-59.97227943250923
 20
-88.59595740995054
 30
0.0
 10
-58.58236553337022
 20
-87.34134486382509
 30
0.0
 10
-57.19245163423121
 20
-86.08673231769961
 30
0.0
 10
-57.19245163423121
 20
-83.40530550343148
 30
0.0
  0
SPLINE
  5
297
330
1F
100
AcDbEntity
  8
0
  6
Continuous
 62
     7
370
    30
100
AcDbSpline
210
0.0
220
0.0
230
1.0
 70
     8
 71
     2
 72
     8
 73
     5
 74
     0
 42
0.0000000001
 43
0.0000000001
 40
0.0
 40
0.0
 40
0.0
 40
1.0
 40
1.0
 40
2.0
 40
2.0
 40
2.0
 10
-57.19245163423121
 20
-83.40530550343148
 30
0.0
 10
-57.19245163423121
 20
-80.72387868916334
 30
0.0
 10
-58.58236553337022
 20
-79.46926614303787
 30
0.0
 10
-59.97227943250923
 20
-78.2146535969124
 30
0.0
 10
-62.57990550876998
 20
-78.2146535969124
 30
0.0
  0
LINE
  5
298
330
1F
100
AcDbEntity
  8
0
  6
Continuous
 62
     7
370
    30
100
AcDbLine
 10
-62.57990550876998
 20
-78.2146535969124
 30
0.0
 11
-78.84066811639602
 21
-78.2146535969124
 31
0.0
  0
ELLIPSE
  5
299
330
1F
100
AcDbEntity
  8
0
  6
Continuous
 62
     7
370
    30
100
AcDbEllipse
 10
850.4136816024665
 20
-972.4247688499006
 30
0.0
 11
933.4053012262926
 21
-892.7972979641329
 31
0.0
210
0.0
220
0.0
230
1.0
 40
0.0538319356556513
 41
3.085615158842824
 42
3.193171239844757
  0
LINE
  5
29A
330
1F
100
AcDbEntity
  8
0
  6
Continuous
 62
     7
370
    30
100
AcDbLine
 10
-84.16993818323039
 20
-130.1338997911406
 30
0.0
 11
-67.5456107916548
 21
-142.6134698085223
 31
0.0
  0
ARC
  5
29B
330
1F
100
AcDbEntity
  8
0
  6
Continuous
 62
     7
370
    30
100
AcDbCircle
 10
-61.10395915263013
 20
-134.7368114566255
 30
0.0
 40
10.17529471961644
100
AcDbArc
 50
230.7231748949198
 51
266.5859283535791
  0
LINE
  5
29C
330
1F
100
AcDbEntity
  8
0
  6
Continuous
 62
     7
370
    30
100
AcDbLine
 10
-61.7099135829844
 20
-144.8940473926166
 30
0.0
 11
-61.66071309097949
 21
-144.8940473926166
 31
0.0
  0
ARC
  5
29D
330
1F
100
AcDbEntity
  8
0
  6
Continuous
 62
     7
370
    30
100
AcDbCircle
 10
-61.34976136840319
 20
-140.6719240294942
 30
0.0
 40
4.233558393030274
100
AcDbArc
 50
265.7878744465204
 51
8.141166320106056
  0
ARC
  5
29E
330
1F
100
AcDbEntity
  8
0
  6
Continuous
 62
     7
370
    30
100
AcDbCircle
 10
-62.1424564585575
 20
-139.869319650453
 30
0.0
 40
4.987724380427016
100
AcDbArc
 50
357.6665075852083
 51
89.55268988670475
  0
LINE
  5
29F
330
1F
100
AcDbEntity
  8
0
  6
Continuous
 62
     7
370
    30
100
AcDbLine
 10
-62.10351751902378
 20
-134.8817472696153
 30
0.0
 11
-62.1281177650262
 21
-134.8817472696153
 31
0.0
  0
LINE
  5
2A0
330
1F
100
AcDbEntity
  8
0
  6
Continuous
 62
     7
370
    30
100
AcDbLine
 10
-62.1281177650262
 20
-134.8817472696153
 30
0.0
 11
-62.1281177650262
 21
-129.6910953630962
 31
0.0
  0
LINE
  5
2A1
330
1F
100
AcDbEntity
  8
0
  6
Continuous
 62
     7
370
    30
100
AcDbLine
 10
-62.1281177650262
 20
-129.6910953630962
 30
0.0
 11
-62.10351751902378
 21
-129.6910953630962
 31
0.0
  0
ELLIPSE
  5
2A2
330
1F
100
AcDbEntity
  8
0
  6
Continuous
 62
     7
370
    30
100
AcDbEllipse
 10
-78.38195406891556
 20
-151.2398333623851
 30
0.0
 11
24.22474072695517
 21
17.22958707976706
 31
0.0
210
0.0
220
0.0
230
1.0
 40
0.5473342981610047
 41
5.910374152888342
 42
6.806075392126956
  0
ELLIPSE
  5
2A3
330
1F
100
AcDbEntity
  8
0
  6
Continuous
 62
     7
370
    30
100
AcDbEllipse
 10
-79.19299599217165
 20
-121.1095908577251
 30
0.0
 11
23.83905299554329
 21
-26.88530788524615
 31
0.0
210
0.0
220
0.0
230
1.0
 40
0.4559888704228812
 41
5.897851393446399
 42
6.759271877080527
  0
LINE
  5
2A4
330
1F
100
AcDbEntity
  8
0
  6
Continuous
 62
     7
370
    30
100
AcDbLine
 10
-61.7099135829844
 20
-150.1092995451381
 30
0.0
 11
-61.73451382898688
 21
-150.1092995451381
 31
0.0
  0
ARC
  5
2A5
330
1F
100
AcDbEntity
  8
0
  6
Continuous
 62
     7
370
    30
100
AcDbCircle
 10
-61.0993202163737
 20
-136.3529263322169
 30
0.0
 40
13.77103027731336
100
AcDbArc
 50
231.4777830876928
 51
267.3562740201253
  0
LINE
  5
2A6
330
1F
100
AcDbEntity
  8
0
  6
Continuous
 62
     7
370
    30
100
AcDbLine
 10
-69.67616647619181
 20
-147.1269220224947
 30
0.0
 11
-83.75173400118858
 21
-136.7759662118047
 31
0.0
  0
LINE
  5
2A7
330
1F
100
AcDbEntity
  8
0
  6
Continuous
 62
     7
370
    30
100
AcDbLine
 10
-83.75173400118858
 20
-136.7759662118047
 30
0.0
 11
-83.75173400118858
 21
-150.3061015131577
 31
0.0
  0
LINE
  5
2A8
330
1F
100
AcDbEntity
  8
0
  6
Continuous
 62
     7
370
    30
100
AcDbLine
 10
-83.75173400118858
 20
-150.3061015131577
 30
0.0
 11
-88.52418172566585
 21
-150.3061015131577
 31
0.0
  0
LINE
  5
2A9
330
1F
100
AcDbEntity
  8
0
  6
Continuous
 62
     7
370
    30
100
AcDbLine
 10
-88.52418172566585
 20
-150.3061015131577
 30
0.0
 11
-88.52418172566585
 21
-130.1338997911406
 31
0.0
  0
LINE
  5
2AA
330
1F
100
AcDbEntity
  8
0
  6
Continuous
 62
     7
370
    30
100
AcDbLine
 10
-88.52418172566585
 20
-130.1338997911406
 30
0.0
 11
-84.16993818323039
 21
-130.1338997911406
 31
0.0
  0
LINE
  5
2AB
330
1F
100
AcDbEntity
  8
0
  6
Continuous
 62
     7
370
    30
100
AcDbLine
 10
-88.52418172566585
 20
-165.3368518206609
 30
0.0
 11
-88.52418172566585
 21
-160.318401636159
 31
0.0
  0
LINE
  5
2AC
330
1F
100
AcDbEntity
  8
0
  6
Continuous
 62
     7
370
    30
100
AcDbLine
 10
-88.52418172566585
 20
-160.318401636159
 30
0.0
 11
-58.21667865063508
 21
-160.318401636159
 31
0.0
  0
LINE
  5
2AD
330
1F
100
AcDbEntity
  8
0
  6
Continuous
 62
     7
370
    30
100
AcDbLine
 10
-58.21667865063508
 20
-160.318401636159
 30
0.0
 11
-61.34090989294751
 21
-155.2261507136498
 31
0.0
  0
LINE
  5
2AE
330
1F
100
AcDbEntity
  8
0
  6
Continuous
 62
     7
370
    30
100
AcDbLine
 10
-61.34090989294751
 20
-155.2261507136498
 30
0.0
 11
-56.15025798642844
 21
-155.2261507136498
 31
0.0
  0
LINE
  5
2AF
330
1F
100
AcDbEntity
  8
0
  6
Continuous
 62
     7
370
    30
100
AcDbLine
 10
-56.15025798642844
 20
-155.2261507136498
 30
0.0
 11
-52.75542403808898
 21
-160.318401636159
 31
0.0
  0
LINE
  5
2B0
330
1F
100
AcDbEntity
  8
0
  6
Continuous
 62
     7
370
    30
100
AcDbLine
 10
-52.75542403808898
 20
-160.318401636159
 30
0.0
 11
-52.75542403808898
 21
-165.3368518206609
 31
0.0
  0
LINE
  5
2B1
330
1F
100
AcDbEntity
  8
0
  6
Continuous
 62
     7
370
    30
100
AcDbLine
 10
-52.75542403808898
 20
-165.3368518206609
 30
0.0
 11
-88.52418172566585
 21
-165.3368518206609
 31
0.0
  0
LINE
  5
2B2
330
1F
100
AcDbEntity
  8
0
  6
Continuous
 62
     7
370
    30
100
AcDbLine
 10
-67.12608927614717
 20
-210.7179084175807
 30
0.0
 11
-46.54652605931582
 21
-207.7871223719152
 31
0.0
  0
ARC
  5
2B3
330
1F
100
AcDbEntity
  8
0
  6
Continuous
 62
     7
370
    30
100
AcDbCircle
 10
-47.56122903703535
 20
-197.6625482822048
 30
0.0
 40
10.17529471961516
100
AcDbArc
 50
275.7231748949174
 51
311.5859283535812
  0
LINE
  5
2B4
330
1F
100
AcDbEntity
  8
0
  6
Continuous
 62
     7
370
    30
100
AcDbLine
 10
-40.80745311537849
 20
-205.2732731774481
 30
0.0
 11
-40.7726631138441
 21
-205.2384831759137
 31
0.0
  0
ARC
  5
2B5
330
1F
100
AcDbEntity
  8
0
  6
Continuous
 62
     7
370
    30
100
AcDbCircle
 10
-43.53827910325876
 20
-202.0331150431885
 30
0.0
 40
4.233558393030225
100
AcDbArc
 50
310.7878744465212
 51
53.14116632010657
  0
ARC
  5
2B6
330
1F
100
AcDbEntity
  8
0
  6
Continuous
 62
     7
370
    30
100
AcDbCircle
 10
-44.66632617595022
 20
-202.0261081178195
 30
0.0
 40
4.987724380426829
100
AcDbArc
 50
42.66650758520569
 51
134.5526898867065
  0
LINE
  5
2B7
330
1F
100
AcDbEntity
  8
0
  6
Continuous
 62
     7
370
    30
100
AcDbLine
 10
-48.16553843990269
 20
-198.4718278774742
 30
0.0
 11
-48.18293344066988
 21
-198.4892228782413
 31
0.0
  0
LINE
  5
2B8
330
1F
100
AcDbEntity
  8
0
  6
Continuous
 62
     7
370
    30
100
AcDbLine
 10
-48.18293344066988
 20
-198.4892228782413
 30
0.0
 11
-51.85327860254841
 21
-194.8188777163629
 31
0.0
  0
LINE
  5
2B9
330
1F
100
AcDbEntity
  8
0
  6
Continuous
 62
     7
370
    30
100
AcDbLine
 10
-51.85327860254841
 20
-194.8188777163629
 30
0.0
 11
-51.83588360178122
 21
-194.8014827155957
 31
0.0
  0
ELLIPSE
  5
2BA
330
1F
100
AcDbEntity
  8
0
  6
Continuous
 62
     7
370
    30
100
AcDbEllipse
 10
-48.10921770801223
 20
-221.5493343524303
 30
0.0
 11
-4.946320579366456
 21
-29.31263630165083
 31
0.0
210
0.0
220
0.0
230
1.0
 40
0.5473342981611851
 41
2.768781499298315
 42
3.664482738537453
  0
ELLIPSE
  5
2BB
330
1F
100
AcDbEntity
  8
0
  6
Continuous
 62
     7
370
    30
100
AcDbEllipse
 10
-69.98800974561746
 20
-200.8175288023696
 30
0.0
 11
35.86753955016114
 21
-2.154027489731191
 31
0.0
210
0.0
220
0.0
230
1.0
 40
0.4559888704228728
 41
5.897851393446392
 42
6.759271877080527
  0
LINE
  5
2BC
330
1F
100
AcDbEntity
  8
0
  6
Continuous
 62
     7
370
    30
100
AcDbLine
 10
-37.11971295273283
 20
-208.9610133400938
 30
0.0
 11
-37.13710795350002
 21
-208.9784083408611
 31
0.0
  0
ARC
  5
2BD
330
1F
100
AcDbEntity
  8
0
  6
Continuous
 62
     7
370
    30
100
AcDbCircle
 10
-46.41518302604401
 20
-198.8020338466272
 30
0.0
 40
13.77103027731244
100
AcDbArc
 50
276.4777830876918
 51
312.3562740201265
  0
LINE
  5
2BE
330
1F
100
AcDbEntity
  8
0
  6
Continuous
 62
     7
370
    30
100
AcDbLine
 10
-44.86156376448615
 20
-212.4851454112082
 30
0.0
 11
-62.13372405596169
 21
-215.1188436116815
 31
0.0
  0
LINE
  5
2BF
330
1F
100
AcDbEntity
  8
0
  6
Continuous
 62
     7
370
    30
100
AcDbLine
 10
-62.13372405596169
 20
-215.1188436116815
 30
0.0
 11
-52.56647363400348
 21
-224.6860940336397
 31
0.0
  0
LINE
  5
2C0
330
1F
100
AcDbEntity
  8
0
  6
Continuous
 62
     7
370
    30
100
AcDbLine
 10
-52.56647363400348
 20
-224.6860940336397
 30
0.0
 11
-55.94110378283963
 21
-228.0607241824758
 31
0.0
  0
LINE
  5
2C1
330
1F
100
AcDbEntity
  8
0
  6
Continuous
 62
     7
370
    30
100
AcDbLine
 10
-55.94110378283963
 20
-228.0607241824758
 30
0.0
 11
-70.205004411941
 21
-213.7968235533745
 31
0.0
  0
LINE
  5
2C2
330
1F
100
AcDbEntity
  8
0
  6
Continuous
 62
     7
370
    30
100
AcDbLine
 10
-70.205004411941
 20
-213.7968235533745
 30
0.0
 11
-67.12608927614717
 21
-210.7179084175807
 31
0.0
  0
LINE
  5
2C3
330
1F
100
AcDbEntity
  8
0
  6
Continuous
 62
     7
370
    30
100
AcDbLine
 10
-48.72217846445299
 20
-229.1218192292748
 30
0.0
 11
-28.14261524762164
 21
-226.1910331836094
 31
0.0
  0
ARC
  5
2C4
330
1F
100
AcDbEntity
  8
0
  6
Continuous
 62
     7
370
    30
100
AcDbCircle
 10
-29.15731822534075
 20
-216.0664590939
 30
0.0
 40
10.17529471961412
100
AcDbArc
 50
275.7231748949156
 51
311.5859283535828
  0
LINE
  5
2C5
330
1F
100
AcDbEntity
  8
0
  6
Continuous
 62
     7
370
    30
100
AcDbLine
 10
-22.40354230368437
 20
-223.6771839891423
 30
0.0
 11
-22.36875230214998
 21
-223.6423939876079
 31
0.0
  0
ARC
  5
2C6
330
1F
100
AcDbEntity
  8
0
  6
Continuous
 62
     7
370
    30
100
AcDbCircle
 10
-25.13436829156456
 20
-220.4370258548826
 30
0.0
 40
4.233558393030212
100
AcDbArc
 50
310.7878744465199
 51
53.14116632010733
  0
ARC
  5
2C7
330
1F
100
AcDbEntity
  8
0
  6
Continuous
 62
     7
370
    30
100
AcDbCircle
 10
-26.2624153642561
 20
-220.4300189295138
 30
0.0
 40
4.987724380427021
100
AcDbArc
 50
42.66650758520712
 51
134.5526898867049
  0
LINE
  5
2C8
330
1F
100
AcDbEntity
  8
0
  6
Continuous
 62
     7
370
    30
100
AcDbLine
 10
-29.76162762820857
 20
-216.8757386891683
 30
0.0
 11
-29.77902262897576
 21
-216.8931336899356
 31
0.0
  0
LINE
  5
2C9
330
1F
100
AcDbEntity
  8
0
  6
Continuous
 62
     7
370
    30
100
AcDbLine
 10
-29.77902262897576
 20
-216.8931336899356
 30
0.0
 11
-33.44936779085424
 21
-213.222788528057
 31
0.0
  0
LINE
  5
2CA
330
1F
100
AcDbEntity
  8
0
  6
Continuous
 62
     7
370
    30
100
AcDbLine
 10
-33.44936779085424
 20
-213.222788528057
 30
0.0
 11
-33.43197279008704
 21
-213.2053935272899
 31
0.0
  0
ELLIPSE
  5
2CB
330
1F
100
AcDbEntity
  8
0
  6
Continuous
 62
     7
370
    30
100
AcDbEllipse
 10
-29.70530689632349
 20
-239.9532451641691
 30
0.0
 11
-4.946320579371437
 21
-29.3126363016986
 31
0.0
210
0.0
220
0.0
230
1.0
 40
0.5473342981607616
 41
2.768781499298491
 42
3.664482738537055
  0
ELLIPSE
  5
2CC
330
1F
100
AcDbEntity
  8
0
  6
Continuous
 62
     7
370
    30
100
AcDbEllipse
 10
-51.58409893397111
 20
-219.2214396140629
 30
0.0
 11
35.86753955020356
 21
-2.154027489730826
 31
0.0
210
0.0
220
0.0
230
1.0
 40
0.4559888704225631
 41
5.897851393446741
 42
6.759271877080028
  0
LINE
  5
2CD
330
1F
100
AcDbEntity
  8
0
  6
Continuous
 62
     7
370
    30
100
AcDbLine
 10
-18.71580214103864
 20
-227.364924151788
 30
0.0
 11
-18.73319714180584
 21
-227.3823191525552
 31
0.0
  0
ARC
  5
2CE
330
1F
100
AcDbEntity
  8
0
  6
Continuous
 62
     7
370
    30
100
AcDbCircle
 10
-28.01127221435008
 20
-217.2059446583209
 30
0.0
 40
13.77103027731289
100
AcDbArc
 50
276.4777830876926
 51
312.3562740201262
  0
LINE
  5
2CF
330
1F
100
AcDbEntity
  8
0
  6
Continuous
 62
     7
370
    30
100
AcDbLine
 10
-26.45765295279197
 20
-230.8890562229024
 30
0.0
 11
-43.72981324426757
 21
-233.5227544233756
 31
0.0
  0
LINE
  5
2D0
330
1F
100
AcDbEntity
  8
0
  6
Continuous
 62
     7
370
    30
100
AcDbLine
 10
-43.72981324426757
 20
-233.5227544233756
 30
0.0
 11
-34.16256282230935
 21
-243.0900048453339
 31
0.0
  0
LINE
  5
2D1
330
1F
100
AcDbEntity
  8
0
  6
Continuous
 62
     7
370
    30
100
AcDbLine
 10
-34.16256282230935
 20
-243.0900048453339
 30
0.0
 11
-37.53719297114551
 21
-246.46463499417
 31
0.0
  0
LINE
  5
2D2
330
1F
100
AcDbEntity
  8
0
  6
Continuous
 62
     7
370
    30
100
AcDbLine
 10
-37.53719297114551
 20
-246.46463499417
 30
0.0
 11
-51.80109360024683
 21
-232.2007343650687
 31
0.0
  0
LINE
  5
2D3
330
1F
100
AcDbEntity
  8
0
  6
Continuous
 62
     7
370
    30
100
AcDbLine
 10
-51.80109360024683
 20
-232.2007343650687
 30
0.0
 11
-48.72217846445299
 21
-229.1218192292748
 31
0.0
  0
LINE
  5
2D4
330
1F
100
AcDbEntity
  8
0
  6
Continuous
 62
     7
370
    30
100
AcDbLine
 10
2.877760161730289
 20
-261.3018193799441
 30
0.0
 11
15.35733017911199
 21
-244.6774919883685
 31
0.0
  0
ARC
  5
2D5
330
1F
100
AcDbEntity
  8
0
  6
Continuous
 62
     7
370
    30
100
AcDbCircle
 10
7.480671827215499
 20
-238.2358403493438
 30
0.0
 40
10.17529471961619
100
AcDbArc
 50
320.7231748949191
 51
356.5859283535793
  0
LINE
  5
2D6
330
1F
100
AcDbEntity
  8
0
  6
Continuous
 62
     7
370
    30
100
AcDbLine
 10
17.63790776320633
 20
-238.8417947796981
 30
0.0
 11
17.63790776320633
 21
-238.7925942876931
 31
0.0
  0
ARC
  5
2D7
330
1F
100
AcDbEntity
  8
0
  6
Continuous
 62
     7
370
    30
100
AcDbCircle
 10
13.41578440008392
 20
-238.4816425651169
 30
0.0
 40
4.233558393030285
100
AcDbArc
 50
355.7878744465207
 51
98.14116632010584
  0
ARC
  5
2D8
330
1F
100
AcDbEntity
  8
0
  6
Continuous
 62
     7
370
    30
100
AcDbCircle
 10
12.6131800210427
 20
-239.2743376552712
 30
0.0
 40
4.987724380427074
100
AcDbArc
 50
87.66650758520748
 51
179.5526898867041
  0
LINE
  5
2D9
330
1F
100
AcDbEntity
  8
0
  6
Continuous
 62
     7
370
    30
100
AcDbLine
 10
7.625607640205076
 20
-239.2353987157374
 30
0.0
 11
7.625607640205076
 21
-239.2599989617399
 31
0.0
  0
LINE
  5
2DA
330
1F
100
AcDbEntity
  8
0
  6
Continuous
 62
     7
370
    30
100
AcDbLine
 10
7.625607640205076
 20
-239.2599989617399
 30
0.0
 11
2.434955733686003
 21
-239.2599989617399
 31
0.0
  0
LINE
  5
2DB
330
1F
100
AcDbEntity
  8
0
  6
Continuous
 62
     7
370
    30
100
AcDbLine
 10
2.434955733686003
 20
-239.2599989617399
 30
0.0
 11
2.434955733686003
 21
-239.2353987157374
 31
0.0
  0
ELLIPSE
  5
2DC
330
1F
100
AcDbEntity
  8
0
  6
Continuous
 62
     7
370
    30
100
AcDbEllipse
 10
23.98369373300048
 20
-255.5138352656574
 30
0.0
 11
17.22958707980019
 21
-24.22474072698946
 31
0.0
210
0.0
220
0.0
230
1.0
 40
0.5473342981606518
 41
2.768781499298464
 42
3.664482738536887
  0
ELLIPSE
  5
2DD
330
1F
100
AcDbEntity
  8
0
  6
Continuous
 62
     7
370
    30
100
AcDbEllipse
 10
-6.146548771694612
 20
-256.3248771888969
 30
0.0
 11
26.88530788525687
 21
23.83905299555702
 31
0.0
210
0.0
220
0.0
230
1.0
 40
0.4559888704227872
 41
5.897851393446391
 42
6.759271877080447
  0
LINE
  5
2DE
330
1F
100
AcDbEntity
  8
0
  6
Continuous
 62
     7
370
    30
100
AcDbLine
 10
22.85315991572783
 20
-238.8417947796981
 30
0.0
 11
22.85315991572783
 21
-238.8663950257005
 31
0.0
  0
ARC
  5
2DF
330
1F
100
AcDbEntity
  8
0
  6
Continuous
 62
     7
370
    30
100
AcDbCircle
 10
9.096786702807725
 20
-238.2312014130877
 30
0.0
 40
13.77103027731222
100
AcDbArc
 50
321.477783087691
 51
357.3562740201265
  0
LINE
  5
2E0
330
1F
100
AcDbEntity
  8
0
  6
Continuous
 62
     7
370
    30
100
AcDbLine
 10
19.87078239308441
 20
-246.8080476729054
 30
0.0
 11
9.519826582394517
 21
-260.8836151979023
 31
0.0
  0
LINE
  5
2E1
330
1F
100
AcDbEntity
  8
0
  6
Continuous
 62
     7
370
    30
100
AcDbLine
 10
9.519826582394517
 20
-260.8836151979023
 30
0.0
 11
23.04996188374751
 21
-260.8836151979023
 31
0.0
  0
LINE
  5
2E2
330
1F
100
AcDbEntity
  8
0
  6
Continuous
 62
     7
370
    30
100
AcDbLine
 10
23.04996188374751
 20
-260.8836151979023
 30
0.0
 11
23.04996188374751
 21
-265.6560629223795
 31
0.0
  0
LINE
  5
2E3
330
1F
100
AcDbEntity
  8
0
  6
Continuous
 62
     7
370
    30
100
AcDbLine
 10
23.04996188374751
 20
-265.6560629223795
 30
0.0
 11
2.877760161730289
 21
-265.6560629223795
 31
0.0
  0
LINE
  5
2E4
330
1F
100
AcDbEntity
  8
0
  6
Continuous
 62
     7
370
    30
100
AcDbLine
 10
2.877760161730289
 20
-265.6560629223795
 30
0.0
 11
2.877760161730289
 21
-261.3018193799441
 31
0.0
  0
ARC
  5
2E5
330
1F
100
AcDbEntity
  8
0
  6
Continuous
 62
     7
370
    30
100
AcDbCircle
 10
37.89835615585642
 20
-256.1079354420584
 30
0.0
 40
9.949134490239913
100
AcDbArc
 50
183.7046041143966
 51
274.5968356885591
  0
LINE
  5
2E6
330
1F
100
AcDbEntity
  8
0
  6
Continuous
 62
     7
370
    30
100
AcDbLine
 10
27.97001108423951
 20
-256.750773869489
 30
0.0
 11
33.08686225275119
 21
-256.750773869489
 31
0.0
  0
ARC
  5
2E7
330
1F
100
AcDbEntity
  8
0
  6
Continuous
 62
     7
370
    30
100
AcDbCircle
 10
38.02969279428824
 20
-256.2834178488745
 30
0.0
 40
4.964876172912676
100
AcDbArc
 50
185.4013898210397
 51
277.7093247557665
  0
ARC
  5
2E8
330
1F
100
AcDbEntity
  8
0
  6
Continuous
 62
     7
370
    30
100
AcDbCircle
 10
39.25472187919848
 20
-256.5386390437342
 30
0.0
 40
4.698154037500364
100
AcDbArc
 50
263.1665499521386
 51
4.919210672141168
  0
LINE
  5
2E9
330
1F
100
AcDbEntity
  8
0
  6
Continuous
 62
     7
370
    30
100
AcDbLine
 10
43.93557073983605
 20
-256.1357677194275
 30
0.0
 11
43.93557073983605
 21
-255.0533568953192
 31
0.0
  0
ELLIPSE
  5
2EA
330
1F
100
AcDbEntity
  8
0
  6
Continuous
 62
     7
370
    30
100
AcDbEllipse
 10
29.92101613309094
 20
-265.1840016444697
 30
0.0
 11
-12.28124138820406
 21
-14.69316777916981
 31
0.0
210
0.0
220
0.0
230
1.0
 40
0.4594845277560478
 41
2.636734128594172
 42
3.510480336535489
  0
LINE
  5
2EB
330
1F
100
AcDbEntity
  8
0
  6
Continuous
 62
     7
370
    30
100
AcDbLine
 10
38.94172080133666
 20
-249.4445008067583
 30
0.0
 11
36.40789546308331
 21
-249.4445008067583
 31
0.0
  0
LINE
  5
2EC
330
1F
100
AcDbEntity
  8
0
  6
Continuous
 62
     7
370
    30
100
AcDbLine
 10
36.40789546308331
 20
-249.4445008067583
 30
0.0
 11
36.40789546308331
 21
-244.6720530822811
 31
0.0
  0
LINE
  5
2ED
330
1F
100
AcDbEntity
  8
0
  6
Continuous
 62
     7
370
    30
100
AcDbLine
 10
36.40789546308331
 20
-244.6720530822811
 30
0.0
 11
38.94172080133666
 21
-244.6720530822811
 31
0.0
  0
ARC
  5
2EE
330
1F
100
AcDbEntity
  8
0
  6
Continuous
 62
     7
370
    30
100
AcDbCircle
 10
39.20597777818871
 20
-240.4950355471648
 30
0.0
 40
4.185368232125334
100
AcDbArc
 50
266.3800348280143
 51
8.519290412238774
  0
LINE
  5
2EF
330
1F
100
AcDbEntity
  8
0
  6
Continuous
 62
     7
370
    30
100
AcDbLine
 10
43.34516483577703
 20
-239.8750051118014
 30
0.0
 11
43.34516483577703
 21
-238.7679940416907
 31
0.0
  0
ARC
  5
2F0
330
1F
100
AcDbEntity
  8
0
  6
Continuous
 62
     7
370
    30
100
AcDbCircle
 10
39.23014951100892
 20
-238.4307411868112
 30
0.0
 40
4.128812251871094
100
AcDbArc
 50
355.3147015628251
 51
97.78161383513012
  0
ARC
  5
2F1
330
1F
100
AcDbEntity
  8
0
  6
Continuous
 62
     7
370
    30
100
AcDbCircle
 10
38.50945151913364
 20
-239.2121390812621
 30
0.0
 40
4.874870752329083
100
AcDbArc
 50
88.09953705637491
 51
175.0628599537176
  0
LINE
  5
2F2
330
1F
100
AcDbEntity
  8
0
  6
Continuous
 62
     7
370
    30
100
AcDbLine
 10
33.65266791080777
 20
-238.7925942876931
 30
0.0
 11
28.56041698829857
 21
-238.7925942876931
 31
0.0
  0
ELLIPSE
  5
2F3
330
1F
100
AcDbEntity
  8
0
  6
Continuous
 62
     7
370
    30
100
AcDbEllipse
 10
49.38116993873169
 20
-255.1359449411017
 30
0.0
 11
16.45453126635162
 21
-23.96689339889052
 31
0.0
210
0.0
220
0.0
230
1.0
 40
0.5498358909123148
 41
2.778976214835339
 42
3.65957476110878
  0
ELLIPSE
  5
2F4
330
1F
100
AcDbEntity
  8
0
  6
Continuous
 62
     7
370
    30
100
AcDbEllipse
 10
22.56011867173792
 20
-254.2802528088991
 30
0.0
 11
23.54630946149296
 21
22.04780630046975
 31
0.0
210
0.0
220
0.0
230
1.0
 40
0.478705390162014
 41
5.85943737209575
 42
6.75826606011806
  0
LINE
  5
2F5
330
1F
100
AcDbEntity
  8
0
  6
Continuous
 62
     7
370
    30
100
AcDbLine
 10
48.36361502027885
 20
-238.8171945336956
 30
0.0
 11
48.36361502027885
 21
-239.4076004377546
 31
0.0
  0
ARC
  5
2F6
330
1F
100
AcDbEntity
  8
0
  6
Continuous
 62
     7
370
    30
100
AcDbCircle
 10
40.65878991872833
 20
-239.5822415996024
 30
0.0
 40
7.706804096439357
100
AcDbArc
 50
286.1616019292691
 51
1.29847053955146
  0
ELLIPSE
  5
2F7
330
1F
100
AcDbEntity
  8
0
  6
Continuous
 62
     7
370
    30
100
AcDbEllipse
 10
32.12087367874182
 20
-264.4560788724614
 30
0.0
 11
-14.22943631078481
 21
-15.70720770836124
 31
0.0
210
0.0
220
0.0
230
1.0
 40
0.5725600906233277
 41
2.57542450818438
 42
3.461208462542335
  0
LINE
  5
2F8
330
1F
100
AcDbEntity
  8
0
  6
Continuous
 62
     7
370
    30
100
AcDbLine
 10
48.95402092433791
 20
-255.5699620613708
 30
0.0
 11
48.95402092433791
 21
-256.1603679654299
 31
0.0
  0
ELLIPSE
  5
2F9
330
1F
100
AcDbEntity
  8
0
  6
Continuous
 62
     7
370
    30
100
AcDbEllipse
 10
20.04102773281326
 20
-238.2164928113114
 30
0.0
 11
26.50324214631302
 21
-24.95345164075876
 31
0.0
210
0.0
220
0.0
230
1.0
 40
0.4631010294539133
 41
5.82484304483472
 42
6.695496481054692
  0
LINE
  5
2FA
330
1F
100
AcDbEntity
  8
0
  6
Continuous
 62
     7
370
    30
100
AcDbLine
 10
83.41429651507651
 20
-261.2875358927715
 30
0.0
 11
95.89386653245822
 21
-244.6632085011959
 31
0.0
  0
ARC
  5
2FB
330
1F
100
AcDbEntity
  8
0
  6
Continuous
 62
     7
370
    30
100
AcDbCircle
 10
88.01720818056236
 20
-238.2215568621715
 30
0.0
 40
10.17529471961557
100
AcDbArc
 50
320.7231748949179
 51
356.5859283535804
  0
LINE
  5
2FC
330
1F
100
AcDbEntity
  8
0
  6
Continuous
 62
     7
370
    30
100
AcDbLine
 10
98.17444411655256
 20
-238.8275112925255
 30
0.0
 11
98.17444411655256
 21
-238.7783108005206
 31
0.0
  0
ARC
  5
2FD
330
1F
100
AcDbEntity
  8
0
  6
Continuous
 62
     7
370
    30
100
AcDbCircle
 10
93.95232075343019
 20
-238.4673590779443
 30
0.0
 40
4.233558393030261
100
AcDbArc
 50
355.7878744465207
 51
98.14116632010618
  0
ARC
  5
2FE
330
1F
100
AcDbEntity
  8
0
  6
Continuous
 62
     7
370
    30
100
AcDbCircle
 10
93.14971637438889
 20
-239.2600541680985
 30
0.0
 40
4.987724380427021
100
AcDbArc
 50
87.66650758520689
 51
179.5526898867047
  0
LINE
  5
2FF
330
1F
100
AcDbEntity
  8
0
  6
Continuous
 62
     7
370
    30
100
AcDbLine
 10
88.16214399355131
 20
-239.2211152285649
 30
0.0
 11
88.16214399355131
 21
-239.2457154745673
 31
0.0
  0
LINE
  5
300
330
1F
100
AcDbEntity
  8
0
  6
Continuous
 62
     7
370
    30
100
AcDbLine
 10
88.16214399355131
 20
-239.2457154745673
 30
0.0
 11
82.97149208703223
 21
-239.2457154745673
 31
0.0
  0
LINE
  5
301
330
1F
100
AcDbEntity
  8
0
  6
Continuous
 62
     7
370
    30
100
AcDbLine
 10
82.97149208703223
 20
-239.2457154745673
 30
0.0
 11
82.97149208703223
 21
-239.2211152285649
 31
0.0
  0
ELLIPSE
  5
302
330
1F
100
AcDbEntity
  8
0
  6
Continuous
 62
     7
370
    30
100
AcDbEllipse
 10
104.52023008634
 20
-255.4995517784774
 30
0.0
 11
17.2295870797924
 21
-24.22474072698187
 31
0.0
210
0.0
220
0.0
230
1.0
 40
0.5473342981607471
 41
2.768781499298456
 42
3.664482738536998
  0
ELLIPSE
  5
303
330
1F
100
AcDbEntity
  8
0
  6
Continuous
 62
     7
370
    30
100
AcDbEllipse
 10
74.38998758163247
 20
-256.3105937017402
 30
0.0
 11
26.88530788527945
 21
23.83905299557543
 31
0.0
210
0.0
220
0.0
230
1.0
 40
0.4559888704226261
 41
5.897851393446441
 42
6.759271877080393
  0
LINE
  5
304
330
1F
100
AcDbEntity
  8
0
  6
Continuous
 62
     7
370
    30
100
AcDbLine
 10
103.3896962690741
 20
-238.8275112925255
 30
0.0
 11
103.3896962690741
 21
-238.852111538528
 31
0.0
  0
ARC
  5
305
330
1F
100
AcDbEntity
  8
0
  6
Continuous
 62
     7
370
    30
100
AcDbCircle
 10
89.63332305615394
 20
-238.2169179259151
 30
0.0
 40
13.77103027731224
100
AcDbArc
 50
321.477783087691
 51
357.3562740201265
  0
LINE
  5
306
330
1F
100
AcDbEntity
  8
0
  6
Continuous
 62
     7
370
    30
100
AcDbLine
 10
100.4073187464306
 20
-246.7937641857329
 30
0.0
 11
90.05636293574075
 21
-260.8693317107297
 31
0.0
  0
LINE
  5
307
330
1F
100
AcDbEntity
  8
0
  6
Continuous
 62
     7
370
    30
100
AcDbLine
 10
90.05636293574075
 20
-260.8693317107297
 30
0.0
 11
103.5864982370937
 21
-260.8693317107297
 31
0.0
  0
LINE
  5
308
330
1F
100
AcDbEntity
  8
0
  6
Continuous
 62
     7
370
    30
100
AcDbLine
 10
103.5864982370937
 20
-260.8693317107297
 30
0.0
 11
103.5864982370937
 21
-265.6417794352069
 31
0.0
  0
LINE
  5
309
330
1F
100
AcDbEntity
  8
0
  6
Continuous
 62
     7
370
    30
100
AcDbLine
 10
103.5864982370937
 20
-265.641779435207
 30
0.0
 11
83.41429651507651
 21
-265.641779435207
 31
0.0
  0
LINE
  5
30A
330
1F
100
AcDbEntity
  8
0
  6
Continuous
 62
     7
370
    30
100
AcDbLine
 10
83.41429651507651
 20
-265.641779435207
 30
0.0
 11
83.41429651507651
 21
-261.2875358927715
 31
0.0
  0
LINE
  5
30B
330
1F
100
AcDbEntity
  8
0
  6
Continuous
 62
     7
370
    30
100
AcDbLine
 10
108.0145425175365
 20
-255.8016810342228
 30
0.0
 11
120.019462566737
 21
-229.8976219936325
 31
0.0
  0
LINE
  5
30C
330
1F
100
AcDbEntity
  8
0
  6
Continuous
 62
     7
370
    30
100
AcDbLine
 10
120.019462566737
 20
-229.8976219936325
 30
0.0
 11
125.1855142272537
 21
-229.8976219936325
 31
0.0
  0
LINE
  5
30D
330
1F
100
AcDbEntity
  8
0
  6
Continuous
 62
     7
370
    30
100
AcDbLine
 10
125.1855142272537
 20
-229.8976219936325
 30
0.0
 11
113.4757971300827
 21
-255.5064780821934
 31
0.0
  0
LINE
  5
30E
330
1F
100
AcDbEntity
  8
0
  6
Continuous
 62
     7
370
    30
100
AcDbLine
 10
113.4757971300826
 20
-255.5064780821934
 30
0.0
 11
131.0157725298367
 21
-255.5064780821934
 31
0.0
  0
LINE
  5
30F
330
1F
100
AcDbEntity
  8
0
  6
Continuous
 62
     7
370
    30
100
AcDbLine
 10
131.0157725298367
 20
-255.5064780821934
 30
0.0
 11
131.0157725298367
 21
-260.1559245766584
 31
0.0
  0
LINE
  5
310
330
1F
100
AcDbEntity
  8
0
  6
Continuous
 62
     7
370
    30
100
AcDbLine
 10
131.0157725298367
 20
-260.1559245766584
 30
0.0
 11
108.0145425175365
 21
-260.1559245766584
 31
0.0
  0
LINE
  5
311
330
1F
100
AcDbEntity
  8
0
  6
Continuous
 62
     7
370
    30
100
AcDbLine
 10
108.0145425175365
 20
-260.1559245766584
 30
0.0
 11
108.0145425175365
 21
-255.8016810342229
 31
0.0
  0
LINE
  5
312
330
1F
100
AcDbEntity
  8
0
  6
Continuous
 62
     7
370
    30
100
AcDbLine
 10
123.438896761079
 20
-244.6085691031036
 30
0.0
 11
128.3343457155685
 21
-244.6085691031036
 31
0.0
  0
LINE
  5
313
330
1F
100
AcDbEntity
  8
0
  6
Continuous
 62
     7
370
    30
100
AcDbLine
 10
128.3343457155685
 20
-244.6085691031036
 30
0.0
 11
128.3343457155685
 21
-265.6663796812093
 31
0.0
  0
LINE
  5
314
330
1F
100
AcDbEntity
  8
0
  6
Continuous
 62
     7
370
    30
100
AcDbLine
 10
128.3343457155685
 20
-265.6663796812093
 30
0.0
 11
123.438896761079
 21
-265.6663796812093
 31
0.0
  0
LINE
  5
315
330
1F
100
AcDbEntity
  8
0
  6
Continuous
 62
     7
370
    30
100
AcDbLine
 10
123.438896761079
 20
-265.6663796812093
 30
0.0
 11
123.438896761079
 21
-244.6085691031036
 31
0.0
  0
LINE
  5
316
330
1F
100
AcDbEntity
  8
0
  6
Continuous
 62
     7
370
    30
100
AcDbLine
 10
162.8454021131743
 20
-261.0682342675865
 30
0.0
 11
175.324972130556
 21
-244.4439068760109
 31
0.0
  0
ARC
  5
317
330
1F
100
AcDbEntity
  8
0
  6
Continuous
 62
     7
370
    30
100
AcDbCircle
 10
167.4483137786596
 20
-238.0022552369865
 30
0.0
 40
10.17529471961599
100
AcDbArc
 50
320.7231748949195
 51
356.5859283535802
  0
LINE
  5
318
330
1F
100
AcDbEntity
  8
0
  6
Continuous
 62
     7
370
    30
100
AcDbLine
 10
177.6055497146503
 20
-238.6082096673406
 30
0.0
 11
177.6055497146503
 21
-238.5590091753357
 31
0.0
  0
ARC
  5
319
330
1F
100
AcDbEntity
  8
0
  6
Continuous
 62
     7
370
    30
100
AcDbCircle
 10
173.3834263515279
 20
-238.2480574527594
 30
0.0
 40
4.233558393030244
100
AcDbArc
 50
355.7878744465207
 51
98.14116632010607
  0
ARC
  5
31A
330
1F
100
AcDbEntity
  8
0
  6
Continuous
 62
     7
370
    30
100
AcDbCircle
 10
172.5808219724867
 20
-239.0407525429137
 30
0.0
 40
4.987724380427072
100
AcDbArc
 50
87.66650758520797
 51
179.5526898867041
  0
LINE
  5
31B
330
1F
100
AcDbEntity
  8
0
  6
Continuous
 62
     7
370
    30
100
AcDbLine
 10
167.5932495916491
 20
-239.0018136033799
 30
0.0
 11
167.5932495916491
 21
-239.0264138493824
 31
0.0
  0
LINE
  5
31C
330
1F
100
AcDbEntity
  8
0
  6
Continuous
 62
     7
370
    30
100
AcDbLine
 10
167.5932495916491
 20
-239.0264138493824
 30
0.0
 11
162.40259768513
 21
-239.0264138493824
 31
0.0
  0
LINE
  5
31D
330
1F
100
AcDbEntity
  8
0
  6
Continuous
 62
     7
370
    30
100
AcDbLine
 10
162.40259768513
 20
-239.0264138493824
 30
0.0
 11
162.40259768513
 21
-239.0018136033799
 31
0.0
  0
ELLIPSE
  5
31E
330
1F
100
AcDbEntity
  8
0
  6
Continuous
 62
     7
370
    30
100
AcDbEllipse
 10
183.9513356844433
 20
-255.2802501533005
 30
0.0
 11
17.22958707979862
 21
-24.22474072699106
 31
0.0
210
0.0
220
0.0
230
1.0
 40
0.5473342981606513
 41
2.768781499298498
 42
3.664482738536949
  0
ELLIPSE
  5
31F
330
1F
100
AcDbEntity
  8
0
  6
Continuous
 62
     7
370
    30
100
AcDbEllipse
 10
153.8210931797277
 20
-256.0912920765576
 30
0.0
 11
26.88530788527477
 21
23.83905299557176
 31
0.0
210
0.0
220
0.0
230
1.0
 40
0.455988870422596
 41
5.897851393446667
 42
6.759271877080143
  0
LINE
  5
320
330
1F
100
AcDbEntity
  8
0
  6
Continuous
 62
     7
370
    30
100
AcDbLine
 10
182.8208018671718
 20
-238.6082096673406
 30
0.0
 11
182.8208018671718
 21
-238.632809913343
 31
0.0
  0
ARC
  5
321
330
1F
100
AcDbEntity
  8
0
  6
Continuous
 62
     7
370
    30
100
AcDbCircle
 10
169.0644286542511
 20
-237.99761630073
 30
0.0
 40
13.77103027731277
100
AcDbArc
 50
321.477783087692
 51
357.356274020126
  0
LINE
  5
322
330
1F
100
AcDbEntity
  8
0
  6
Continuous
 62
     7
370
    30
100
AcDbLine
 10
179.8384243445284
 20
-246.574462560548
 30
0.0
 11
169.4874685338385
 21
-260.6500300855448
 31
0.0
  0
LINE
  5
323
330
1F
100
AcDbEntity
  8
0
  6
Continuous
 62
     7
370
    30
100
AcDbLine
 10
169.4874685338384
 20
-260.6500300855448
 30
0.0
 11
183.0176038351915
 21
-260.6500300855448
 31
0.0
  0
LINE
  5
324
330
1F
100
AcDbEntity
  8
0
  6
Continuous
 62
     7
370
    30
100
AcDbLine
 10
183.0176038351915
 20
-260.6500300855448
 30
0.0
 11
183.0176038351915
 21
-265.422477810022
 31
0.0
  0
LINE
  5
325
330
1F
100
AcDbEntity
  8
0
  6
Continuous
 62
     7
370
    30
100
AcDbLine
 10
183.0176038351915
 20
-265.4224778100219
 30
0.0
 11
162.8454021131743
 21
-265.4224778100219
 31
0.0
  0
LINE
  5
326
330
1F
100
AcDbEntity
  8
0
  6
Continuous
 62
     7
370
    30
100
AcDbLine
 10
162.8454021131743
 20
-265.4224778100219
 30
0.0
 11
162.8454021131743
 21
-261.0682342675865
 31
0.0
  0
ELLIPSE
  5
327
330
1F
100
AcDbEntity
  8
0
  6
Continuous
 62
     7
370
    30
100
AcDbEllipse
 10
211.5187189438796
 20
-239.9265152268702
 30
0.0
 11
-18.2954977755841
 21
-23.95440219847364
 31
0.0
210
0.0
220
0.0
230
1.0
 40
0.5332562985549001
 41
5.810494182669085
 42
6.670404822357975
  0
LINE
  5
328
330
1F
100
AcDbEntity
  8
0
  6
Continuous
 62
     7
370
    30
100
AcDbLine
 10
189.4136677958311
 20
-256.8123917091609
 30
0.0
 11
189.4136677958311
 21
-256.7877914631585
 31
0.0
  0
LINE
  5
329
330
1F
100
AcDbEntity
  8
0
  6
Continuous
 62
     7
370
    30
100
AcDbLine
 10
189.4136677958311
 20
-256.7877914631586
 30
0.0
 11
194.4321179803329
 21
-256.7877914631586
 31
0.0
  0
LINE
  5
32A
330
1F
100
AcDbEntity
  8
0
  6
Continuous
 62
     7
370
    30
100
AcDbLine
 10
194.4321179803329
 20
-256.7877914631586
 30
0.0
 11
194.4321179803329
 21
-256.812391709161
 31
0.0
  0
ARC
  5
32B
330
1F
100
AcDbEntity
  8
0
  6
Continuous
 62
     7
370
    30
100
AcDbCircle
 10
198.9928321960359
 20
-256.4096328950091
 30
0.0
 40
4.57846358724106
100
AcDbArc
 50
185.0467250047408
 51
275.1193006967992
  0
ELLIPSE
  5
32C
330
1F
100
AcDbEntity
  8
0
  6
Continuous
 62
     7
370
    30
100
AcDbEllipse
 10
190.7384225923388
 20
-244.2461751142362
 30
0.0
 11
11.61482777208973
 21
-15.85091359783695
 31
0.0
210
0.0
220
0.0
230
1.0
 40
0.4590739481652572
 41
5.956269946660512
 42
6.845027536728093
  0
LINE
  5
32D
330
1F
100
AcDbEntity
  8
0
  6
Continuous
 62
     7
370
    30
100
AcDbLine
 10
204.4444181033342
 20
-254.8197717829617
 30
0.0
 11
204.4444181033342
 21
-251.8185417706615
 31
0.0
  0
ELLIPSE
  5
32E
330
1F
100
AcDbEntity
  8
0
  6
Continuous
 62
     7
370
    30
100
AcDbEllipse
 10
191.2222987591433
 20
-261.7707489092478
 30
0.0
 11
-11.13015656584555
 21
-15.20512208690759
 31
0.0
210
0.0
220
0.0
230
1.0
 40
0.4694185003402627
 41
2.569247637787927
 42
3.475222130646976
  0
ARC
  5
32F
330
1F
100
AcDbEntity
  8
0
  6
Continuous
 62
     7
370
    30
100
AcDbCircle
 10
199.6846860254134
 20
-251.375991008726
 30
0.0
 40
5.689968449533648
100
AcDbArc
 50
92.85408631590876
 51
149.6097327811261
  0
LINE
  5
330
330
1F
100
AcDbEntity
  8
0
  6
Continuous
 62
     7
370
    30
100
AcDbLine
 10
194.7765214243674
 20
-248.4975085603295
 30
0.0
 11
190.2008756679098
 21
-248.4975085603295
 31
0.0
  0
LINE
  5
331
330
1F
100
AcDbEntity
  8
0
  6
Continuous
 62
     7
370
    30
100
AcDbLine
 10
190.2008756679098
 20
-248.4975085603295
 30
0.0
 11
190.2008756679098
 21
-229.6537201224451
 31
0.0
  0
LINE
  5
332
330
1F
100
AcDbEntity
  8
0
  6
Continuous
 62
     7
370
    30
100
AcDbLine
 10
190.2008756679098
 20
-229.6537201224451
 30
0.0
 11
208.4296579557327
 21
-229.6537201224451
 31
0.0
  0
LINE
  5
333
330
1F
100
AcDbEntity
  8
0
  6
Continuous
 62
     7
370
    30
100
AcDbLine
 10
208.4296579557327
 20
-229.6537201224451
 30
0.0
 11
208.4296579557327
 21
-234.4261678469224
 31
0.0
  0
LINE
  5
334
330
1F
100
AcDbEntity
  8
0
  6
Continuous
 62
     7
370
    30
100
AcDbLine
 10
208.4296579557327
 20
-234.4261678469224
 30
0.0
 11
195.2193258524117
 21
-234.4261678469224
 31
0.0
  0
LINE
  5
335
330
1F
100
AcDbEntity
  8
0
  6
Continuous
 62
     7
370
    30
100
AcDbLine
 10
195.2193258524116
 20
-234.4261678469224
 30
0.0
 11
195.2193258524116
 21
-242.4704482897268
 31
0.0
  0
ARC
  5
336
330
1F
100
AcDbEntity
  8
0
  6
Continuous
 62
     7
370
    30
100
AcDbCircle
 10
199.7095704891885
 20
-247.9750933656209
 30
0.0
 40
7.103760575193173
100
AcDbArc
 50
90.30326721568355
 51
129.204785661177
  0
ELLIPSE
  5
337
330
1F
100
AcDbEntity
  8
0
  6
Continuous
 62
     7
370
    30
100
AcDbEllipse
 10
179.5128885030929
 20
-274.3511761569991
 30
0.0
 11
-26.61437793609431
 21
-31.38866520551355
 31
0.0
210
0.0
220
0.0
230
1.0
 40
0.4376090273054072
 41
2.664385593806602
 42
3.497555055682202
  0
LINE
  5
338
330
1F
100
AcDbEntity
  8
0
  6
Continuous
 62
     7
370
    30
100
AcDbLine
 10
209.462868287836
 20
-251.8185417706615
 30
0.0
 11
209.462868287836
 21
-254.8197717829617
 31
0.0
  0
ELLIPSE
  5
339
330
1F
100
AcDbEntity
  8
0
  6
Continuous
 62
     7
370
    30
100
AcDbEllipse
 10
181.8701024237311
 20
-235.7284326190004
 30
0.0
 11
24.31508934923019
 21
-27.81710938452366
 31
0.0
210
0.0
220
0.0
230
1.0
 40
0.468909892105386
 41
5.893236423904787
 42
6.776925679367855
  0
LINE
  5
33A
330
1F
100
AcDbEntity
  8
0
  6
Continuous
 62
     7
370
    30
100
AcDbLine
 10
332.9173814883412
 20
-212.8746167217622
 30
0.0
 11
340.1967861736652
 21
-232.8746167217623
 31
0.0
  0
LINE
  5
33B
330
1F
100
AcDbEntity
  8
0
  6
Continuous
 62
     7
370
    30
100
AcDbLine
 10
340.1967861736652
 20
-232.8746167217623
 30
0.0
 11
334.9173814883412
 21
-232.8746167217623
 31
0.0
  0
LINE
  5
33C
330
1F
100
AcDbEntity
  8
0
  6
Continuous
 62
     7
370
    30
100
AcDbLine
 10
334.9173814883412
 20
-232.8746167217623
 30
0.0
 11
334.9173814883411
 21
-272.8746167217623
 31
0.0
  0
LINE
  5
33D
330
1F
100
AcDbEntity
  8
0
  6
Continuous
 62
     7
370
    30
100
AcDbLine
 10
334.9173814883412
 20
-272.8746167217623
 30
0.0
 11
330.9173814883412
 21
-272.8746167217623
 31
0.0
  0
LINE
  5
33E
330
1F
100
AcDbEntity
  8
0
  6
Continuous
 62
     7
370
    30
100
AcDbLine
 10
330.9173814883412
 20
-272.8746167217623
 30
0.0
 11
330.9173814883412
 21
-232.8746167217622
 31
0.0
  0
LINE
  5
33F
330
1F
100
AcDbEntity
  8
0
  6
Continuous
 62
     7
370
    30
100
AcDbLine
 10
330.9173814883412
 20
-232.8746167217623
 30
0.0
 11
325.6379768030171
 21
-232.8746167217623
 31
0.0
  0
LINE
  5
340
330
1F
100
AcDbEntity
  8
0
  6
Continuous
 62
     7
370
    30
100
AcDbLine
 10
325.6379768030171
 20
-232.8746167217623
 30
0.0
 11
332.9173814883412
 21
-212.8746167217622
 31
0.0
  0
ENDSEC
  0
SECTION
  2
OBJECTS
  0
DICTIONARY
  5
C
330
0
100
AcDbDictionary
281
     1
  3
ACAD_DETAILVIEWSTYLE
350
348
  3
ACAD_GROUP
350
D
  3
ACAD_IMAGE_VARS
350
5E
  3
ACAD_LAYOUT
350
1A
  3
ACAD_MATERIAL
350
43
  3
ACAD_MLEADERSTYLE
350
5B
  3
ACAD_MLINESTYLE
350
17
  3
ACAD_PLOTSETTINGS
350
19
  3
ACAD_PLOTSTYLENAME
350
E
  3
ACAD_SCALELIST
350
47
  3
ACAD_SECTIONVIEWSTYLE
350
349
  3
ACAD_TABLESTYLE
350
59
  3
ACAD_VISUALSTYLE
350
2A
  3
ACDB_RECOMPOSE_DATA
350
345
  3
AcDbVariableDictionary
350
341
  0
SUN
  5
5D
330
29
100
AcDbSun
 90
        1
290
     0
 63
     7
421
 16777215
 40
1.0
291
     1
 91
  2455826
 92
 54000000
292
     0
 70
     2
 71
   256
280
     1
  0
DICTIONARY
  5
348
102
{ACAD_REACTORS
330
C
102
}
330
C
100
AcDbDictionary
281
     1
  0
DICTIONARY
  5
D
102
{ACAD_REACTORS
330
C
102
}
330
C
100
AcDbDictionary
281
     1
  0
RASTERVARIABLES
  5
5E
102
{ACAD_REACTORS
330
C
102
}
330
C
100
AcDbRasterVariables
 90
        0
 70
     0
 71
     1
 72
     1
  0
DICTIONARY
  5
1A
102
{ACAD_REACTORS
330
C
102
}
330
C
100
AcDbDictionary
281
     1
  3
Layout1
350
1E
  3
Model
350
22
  0
DICTIONARY
  5
43
102
{ACAD_REACTORS
330
C
102
}
330
C
100
AcDbDictionary
281
     1
  3
ByBlock
350
45
  3
ByLayer
350
44
  3
Global
350
46
  0
DICTIONARY
  5
5B
102
{ACAD_REACTORS
330
C
102
}
330
C
100
AcDbDictionary
281
     1
  3
Standard
350
5C
  0
DICTIONARY
  5
17
102
{ACAD_REACTORS
330
C
102
}
330
C
100
AcDbDictionary
281
     1
  3
Standard
350
18
  0
DICTIONARY
  5
19
102
{ACAD_REACTORS
330
C
102
}
330
C
100
AcDbDictionary
281
     1
  0
ACDBDICTIONARYWDFLT
  5
E
102
{ACAD_REACTORS
330
C
102
}
330
C
100
AcDbDictionary
281
     1
  3
Normal
350
F
100
AcDbDictionaryWithDefault
340
F
  0
DICTIONARY
  5
47
102
{ACAD_REACTORS
330
C
102
}
330
C
100
AcDbDictionary
281
     1
  3
A0
350
48
  3
A1
350
49
  3
A2
350
4A
  3
A3
350
4B
  3
A4
350
4C
  3
A5
350
4D
  3
A6
350
4E
  3
A7
350
4F
  3
A8
350
50
  3
A9
350
51
  3
B0
350
52
  3
B1
350
53
  3
B2
350
54
  3
B3
350
55
  3
B4
350
56
  3
B5
350
57
  3
B6
350
58
  0
DICTIONARY
  5
349
102
{ACAD_REACTORS
330
C
102
}
330
C
100
AcDbDictionary
281
     1
  0
DICTIONARY
  5
59
102
{ACAD_REACTORS
330
C
102
}
330
C
100
AcDbDictionary
281
     1
  3
Standard
350
5A
  0
DICTIONARY
  5
2A
102
{ACAD_REACTORS
330
C
102
}
330
C
100
AcDbDictionary
281
     1
  3
2dWireframe
350
2F
  3
Basic
350
32
  3
Brighten
350
36
  3
ColorChange
350
3A
  3
Conceptual
350
34
  3
Dim
350
35
  3
EdgeColorOff
350
3D
  3
Facepattern
350
39
  3
Flat
350
2B
  3
FlatWithEdges
350
2C
  3
Gouraud
350
2D
  3
GouraudWithEdges
350
2E
  3
Hidden
350
31
  3
JitterOff
350
3B
  3
Linepattern
350
38
  3
OverhangOff
350
3C
  3
Realistic
350
33
  3
Shaded
350
42
  3
Shaded with edges
350
41
  3
Shades of Gray
350
3E
  3
Sketchy
350
3F
  3
Thicken
350
37
  3
Wireframe
350
30
  3
X-Ray
350
40
  0
XRECORD
  5
345
102
{ACAD_REACTORS
330
C
102
}
330
C
100
AcDbXrecord
280
     1
 90
        1
330
5A
  0
DICTIONARY
  5
341
102
{ACAD_REACTORS
330
C
102
}
330
C
100
AcDbDictionary
281
     1
  3
CANNOSCALE
350
342
  3
CENTEREXE
350
34A
  3
CENTERLTYPEFILE
350
34B
  3
CMLEADERSTYLE
350
347
  3
CTABLESTYLE
350
346
  0
LAYOUT
  5
1E
102
{ACAD_REACTORS
330
1A
102
}
330
1A
100
AcDbPlotSettings
  1

  2
none_device
  4

  6

 40
0.0
 41
0.0
 42
0.0
 43
0.0
 44
0.0
 45
0.0
 46
0.0
 47
0.0
 48
0.0
 49
0.0
140
0.0
141
0.0
142
1.0
143
1.0
 70
   688
 72
     1
 73
     0
 74
     5
  7

 75
    16
 76
     0
 77
     2
 78
   300
147
1.0
148
0.0
149
0.0
100
AcDbLayout
  1
Layout1
 70
     1
 71
     1
 10
0.0
 20
0.0
 11
420.0
 21
297.0
 12
0.0
 22
0.0
 32
0.0
 14
1.000000000000000E+20
 24
1.000000000000000E+20
 34
1.000000000000000E+20
 15
-1.000000000000000E+20
 25
-1.000000000000000E+20
 35
-1.000000000000000E+20
146
0.0
 13
0.0
 23
0.0
 33
0.0
 16
1.0
 26
0.0
 36
0.0
 17
0.0
 27
1.0
 37
0.0
 76
     0
330
1B
  0
LAYOUT
  5
22
102
{ACAD_REACTORS
330
1A
102
}
330
1A
100
AcDbPlotSettings
  1

  2
none_device
  4
Letter_(8.50_x_11.00_Inches)
  6

 40
6.35
 41
6.35
 42
6.35000508
 43
6.35000508
 44
215.9
 45
279.4
 46
0.0
 47
0.0
 48
0.0
 49
0.0
140
0.0
141
0.0
142
1.0
143
1.0
 70
  1712
 72
     1
 73
     0
 74
     0
  7

 75
     0
 76
     0
 77
     2
 78
   300
147
1.0
148
0.0
149
0.0
100
AcDbLayout
  1
Model
 70
     1
 71
     0
 10
0.0
 20
0.0
 11
420.0
 21
297.0
 12
0.0
 22
0.0
 32
0.0
 14
-173.7890988588333
 24
-350.7455289363861
 34
0.0
 15
386.2108886241913
 25
689.2544627189636
 35
0.0
146
0.0
 13
0.0
 23
0.0
 33
0.0
 16
1.0
 26
0.0
 36
0.0
 17
0.0
 27
1.0
 37
0.0
 76
     0
330
1F
331
29
  0
MATERIAL
  5
45
102
{ACAD_REACTORS
330
43
102
}
330
43
100
AcDbMaterial
  1
ByBlock
 72
     1
 94
      127
  0
MATERIAL
  5
44
102
{ACAD_REACTORS
330
43
102
}
330
43
100
AcDbMaterial
  1
ByLayer
 72
     1
 94
      127
  0
MATERIAL
  5
46
102
{ACAD_REACTORS
330
43
102
}
330
43
100
AcDbMaterial
  1
Global
 72
     1
 94
      127
  0
MLEADERSTYLE
  5
5C
102
{ACAD_REACTORS
330
5B
102
}
330
5B
100
AcDbMLeaderStyle
179
     2
170
     2
171
     1
172
     0
 90
        2
 40
0.0
 41
0.0
173
     1
 91
-1056964608
340
14
 92
       -2
290
     1
 42
2.0
291
     1
 43
8.0
  3
Standard
341
0
 44
4.0
300

342
11
174
     1
178
     6
175
     1
176
     0
 93
-1056964608
 45
4.0
292
     0
297
     0
 46
4.0
343
0
 94
-1056964608
 47
1.0
 49
1.0
140
1.0
293
     1
141
0.0
294
     1
177
     0
142
1.0
295
     0
296
     0
143
3.75
271
     0
272
     9
273
     9
298
     0
  0
MLINESTYLE
  5
18
102
{ACAD_REACTORS
330
17
102
}
330
17
100
AcDbMlineStyle
  2
Standard
 70
     0
  3

 62
   256
 51
90.0
 52
90.0
 71
     2
 49
0.5
 62
   256
  6
BYLAYER
 49
-0.5
 62
   256
  6
BYLAYER
  0
ACDBPLACEHOLDER
  5
F
102
{ACAD_REACTORS
330
E
102
}
330
E
  0
SCALE
  5
48
102
{ACAD_REACTORS
330
47
102
}
330
47
100
AcDbScale
 70
     0
300
1:1
140
1.0
141
1.0
290
     1
  0
SCALE
  5
49
102
{ACAD_REACTORS
330
47
102
}
330
47
100
AcDbScale
 70
     0
300
1:2
140
1.0
141
2.0
290
     0
  0
SCALE
  5
4A
102
{ACAD_REACTORS
330
47
102
}
330
47
100
AcDbScale
 70
     0
300
1:4
140
1.0
141
4.0
290
     0
  0
SCALE
  5
4B
102
{ACAD_REACTORS
330
47
102
}
330
47
100
AcDbScale
 70
     0
300
1:5
140
1.0
141
5.0
290
     0
  0
SCALE
  5
4C
102
{ACAD_REACTORS
330
47
102
}
330
47
100
AcDbScale
 70
     0
300
1:8
140
1.0
141
8.0
290
     0
  0
SCALE
  5
4D
102
{ACAD_REACTORS
330
47
102
}
330
47
100
AcDbScale
 70
     0
300
1:10
140
1.0
141
10.0
290
     0
  0
SCALE
  5
4E
102
{ACAD_REACTORS
330
47
102
}
330
47
100
AcDbScale
 70
     0
300
1:16
140
1.0
141
16.0
290
     0
  0
SCALE
  5
4F
102
{ACAD_REACTORS
330
47
102
}
330
47
100
AcDbScale
 70
     0
300
1:20
140
1.0
141
20.0
290
     0
  0
SCALE
  5
50
102
{ACAD_REACTORS
330
47
102
}
330
47
100
AcDbScale
 70
     0
300
1:30
140
1.0
141
30.0
290
     0
  0
SCALE
  5
51
102
{ACAD_REACTORS
330
47
102
}
330
47
100
AcDbScale
 70
     0
300
1:40
140
1.0
141
40.0
290
     0
  0
SCALE
  5
52
102
{ACAD_REACTORS
330
47
102
}
330
47
100
AcDbScale
 70
     0
300
1:50
140
1.0
141
50.0
290
     0
  0
SCALE
  5
53
102
{ACAD_REACTORS
330
47
102
}
330
47
100
AcDbScale
 70
     0
300
1:100
140
1.0
141
100.0
290
     0
  0
SCALE
  5
54
102
{ACAD_REACTORS
330
47
102
}
330
47
100
AcDbScale
 70
     0
300
2:1
140
2.0
141
1.0
290
     0
  0
SCALE
  5
55
102
{ACAD_REACTORS
330
47
102
}
330
47
100
AcDbScale
 70
     0
300
4:1
140
4.0
141
1.0
290
     0
  0
SCALE
  5
56
102
{ACAD_REACTORS
330
47
102
}
330
47
100
AcDbScale
 70
     0
300
8:1
140
8.0
141
1.0
290
     0
  0
SCALE
  5
57
102
{ACAD_REACTORS
330
47
102
}
330
47
100
AcDbScale
 70
     0
300
10:1
140
10.0
141
1.0
290
     0
  0
SCALE
  5
58
102
{ACAD_REACTORS
330
47
102
}
330
47
100
AcDbScale
 70
     0
300
100:1
140
100.0
141
1.0
290
     0
  0
TABLESTYLE
  5
5A
102
{ACAD_REACTORS
330
59
102
}
102
{ACAD_XDICTIONARY
360
343
102
}
330
59
100
AcDbTableStyle
  3
Standard
 70
     0
 71
     0
 40
0.06
 41
0.06
280
     0
281
     0
  7
Standard
140
4.5
170
     2
 62
     0
 63
   257
283
     0
 90
        4
 91
        0
  1

274
    -2
284
     1
 64
     0
275
    -2
285
     1
 65
     0
276
    -2
286
     1
 66
     0
277
    -2
287
     1
 67
     0
278
    -2
288
     1
 68
     0
279
    -2
289
     1
 69
     0
  7
Standard
140
6.0
170
     5
 62
     0
 63
   257
283
     0
 90
        4
 91
        0
  1

274
    -2
284
     1
 64
     0
275
    -2
285
     1
 65
     0
276
    -2
286
     1
 66
     0
277
    -2
287
     1
 67
     0
278
    -2
288
     1
 68
     0
279
    -2
289
     1
 69
     0
  7
Standard
140
4.5
170
     5
 62
     0
 63
   257
283
     0
 90
        4
 91
        0
  1

274
    -2
284
     1
 64
     0
275
    -2
285
     1
 65
     0
276
    -2
286
     1
 66
     0
277
    -2
287
     1
 67
     0
278
    -2
288
     1
 68
     0
279
    -2
289
     1
 69
     0
  0
VISUALSTYLE
  5
2F
102
{ACAD_REACTORS
330
2A
102
}
330
2A
100
AcDbVisualStyle
  2
2dWireframe
 70
     4
177
     3
291
     0
 70
    58
 90
        0
176
     1
 90
        2
176
     1
 90
        0
176
     1
 90
        0
176
     1
 40
0.6
176
     1
 40
30.0
176
     1
 62
     7
420
 16777215
176
     1
 90
        1
176
     1
 90
        4
176
     1
 62
     7
176
     1
 62
   257
176
     1
 90
        1
176
     1
 90
        1
176
     1
 40
1.0
176
     1
 90
        0
176
     1
 62
   257
176
     1
 40
1.0
176
     1
 90
        1
176
     1
 90
        6
176
     1
 90
        2
176
     1
 62
     7
176
     1
 90
        5
176
     1
 90
        0
176
     1
 90
        0
176
     1
290
     0
176
     1
 90
        1
176
     1
 40
0.0
176
     1
 90
        0
176
     1
290
     1
176
     1
290
     1
176
     1
290
     0
176
     1
290
     0
176
     1
290
     0
176
     1
290
     0
176
     1
290
     0
176
     1
290
     0
176
     1
290
     0
176
     1
 90
       50
176
     1
 40
0.0
176
     1
 40
1.0
176
     1
 90
        0
176
     1
 62
    18
420
        0
176
     1
 90
       50
176
     1
 90
        3
176
     1
 62
     5
420
      255
176
     1
290
     0
176
     1
 90
       50
176
     1
 90
       50
176
     1
 90
       50
176
     1
290
     0
176
     1
 90
       50
176
     1
 62
   256
176
     0
 40
1.0
176
     0
 90
        2
176
     1
  1
strokes_ogs.tif
176
     1
290
     0
176
     1
 40
1.0
176
     1
 40
1.0
176
     1
  0
VISUALSTYLE
  5
32
102
{ACAD_REACTORS
330
2A
102
}
330
2A
100
AcDbVisualStyle
  2
Basic
 70
     7
177
     3
291
     1
 70
    58
 90
        1
176
     1
 90
        0
176
     1
 90
        1
176
     1
 90
        0
176
     1
 40
0.6
176
     1
 40
30.0
176
     1
 62
     7
420
 16777215
176
     1
 90
        0
176
     1
 90
        4
176
     1
 62
     7
176
     1
 62
   257
176
     1
 90
        1
176
     1
 90
        1
176
     1
 40
1.0
176
     1
 90
        8
176
     1
 62
     7
176
     1
 40
1.0
176
     1
 90
        1
176
     1
 90
        6
176
     1
 90
        2
176
     1
 62
     7
176
     1
 90
        5
176
     1
 90
        0
176
     1
 90
        0
176
     1
290
     0
176
     1
 90
        1
176
     1
 40
0.0
176
     1
 90
        0
176
     1
290
     0
176
     1
290
     1
176
     1
290
     1
176
     1
290
     0
176
     1
290
     0
176
     1
290
     0
176
     1
290
     0
176
     1
290
     0
176
     1
290
     0
176
     1
 90
       50
176
     1
 40
0.0
176
     1
 40
1.0
176
     1
 90
        0
176
     1
 62
    18
420
        0
176
     1
 90
       50
176
     1
 90
        3
176
     1
 62
     5
420
      255
176
     1
290
     0
176
     1
 90
       50
176
     1
 90
       50
176
     1
 90
       50
176
     1
290
     0
176
     1
 90
       50
176
     1
 62
   256
176
     0
 40
1.0
176
     0
 90
        2
176
     1
  1
strokes_ogs.tif
176
     1
290
     0
176
     1
 40
1.0
176
     1
 40
1.0
176
     1
  0
VISUALSTYLE
  5
36
102
{ACAD_REACTORS
330
2A
102
}
330
2A
100
AcDbVisualStyle
  2
Brighten
 70
    12
177
     3
291
     1
 70
    58
 90
        2
176
     1
 90
        2
176
     1
 90
        0
176
     1
 90
        0
176
     1
 40
0.6
176
     1
 40
30.0
176
     1
 62
     7
420
 16777215
176
     1
 90
        1
176
     1
 90
        4
176
     1
 62
     7
176
     1
 62
   257
176
     1
 90
        1
176
     1
 90
        1
176
     1
 40
1.0
176
     1
 90
        8
176
     1
 62
     7
176
     1
 40
1.0
176
     1
 90
        1
176
     1
 90
        6
176
     1
 90
        2
176
     1
 62
     7
176
     1
 90
        5
176
     1
 90
        0
176
     1
 90
        0
176
     1
290
     0
176
     1
 90
        1
176
     1
 40
50.0
176
     1
 90
        0
176
     1
290
     0
176
     1
290
     1
176
     1
290
     1
176
     1
290
     0
176
     1
290
     0
176
     1
290
     0
176
     1
290
     0
176
     1
290
     0
176
     1
290
     0
176
     1
 90
       50
176
     1
 40
0.0
176
     1
 40
1.0
176
     1
 90
        0
176
     1
 62
    18
420
        0
176
     1
 90
       50
176
     1
 90
        3
176
     1
 62
     5
420
      255
176
     1
290
     0
176
     1
 90
       50
176
     1
 90
       50
176
     1
 90
       50
176
     1
290
     0
176
     1
 90
       50
176
     1
 62
   256
176
     0
 40
1.0
176
     0
 90
        2
176
     1
  1
strokes_ogs.tif
176
     1
290
     0
176
     1
 40
1.0
176
     1
 40
1.0
176
     1
  0
VISUALSTYLE
  5
3A
102
{ACAD_REACTORS
330
2A
102
}
330
2A
100
AcDbVisualStyle
  2
ColorChange
 70
    16
177
     3
291
     1
 70
    58
 90
        2
176
     1
 90
        2
176
     1
 90
        3
176
     1
 90
        0
176
     1
 40
0.6
176
     1
 40
30.0
176
     1
 62
     8
420
  8421504
176
     1
 90
        1
176
     1
 90
        4
176
     1
 62
     7
176
     1
 62
   257
176
     1
 90
        1
176
     1
 90
        1
176
     1
 40
1.0
176
     1
 90
        8
176
     1
 62
     8
420
  8421504
176
     1
 40
1.0
176
     1
 90
        1
176
     1
 90
        6
176
     1
 90
        2
176
     1
 62
     7
176
     1
 90
        5
176
     1
 90
        0
176
     1
 90
        0
176
     1
290
     0
176
     1
 90
        1
176
     1
 40
0.0
176
     1
 90
        0
176
     1
290
     0
176
     1
290
     1
176
     1
290
     1
176
     1
290
     0
176
     1
290
     0
176
     1
290
     0
176
     1
290
     0
176
     1
290
     0
176
     1
290
     0
176
     1
 90
       50
176
     1
 40
0.0
176
     1
 40
1.0
176
     1
 90
        0
176
     1
 62
    18
420
        0
176
     1
 90
       50
176
     1
 90
        3
176
     1
 62
     5
420
      255
176
     1
290
     0
176
     1
 90
       50
176
     1
 90
       50
176
     1
 90
       50
176
     1
290
     0
176
     1
 90
       50
176
     1
 62
   256
176
     0
 40
1.0
176
     0
 90
        2
176
     1
  1
strokes_ogs.tif
176
     1
290
     0
176
     1
 40
1.0
176
     1
 40
1.0
176
     1
  0
VISUALSTYLE
  5
34
102
{ACAD_REACTORS
330
2A
102
}
330
2A
100
AcDbVisualStyle
  2
Conceptual
 70
     9
177
     3
291
     0
 70
    58
 90
        3
176
     1
 90
        2
176
     1
 90
        0
176
     1
 90
        0
176
     1
 40
0.6
176
     1
 40
30.0
176
     1
 62
     7
420
 16777215
176
     1
 90
        2
176
     1
 90
        2
176
     1
 62
     7
176
     1
 62
   257
176
     1
 90
        1
176
     1
 90
        1
176
     1
 40
179.0
176
     1
 90
        8
176
     1
 62
     7
176
     1
 40
1.0
176
     1
 90
        1
176
     1
 90
        6
176
     1
 90
        2
176
     1
 62
     7
176
     1
 90
        3
176
     1
 90
        0
176
     1
 90
        0
176
     1
290
     0
176
     1
 90
        1
176
     1
 40
0.0
176
     1
 90
        0
176
     1
290
     0
176
     1
290
     1
176
     1
290
     1
176
     1
290
     0
176
     1
290
     0
176
     1
290
     0
176
     1
290
     0
176
     1
290
     0
176
     1
290
     0
176
     1
 90
       50
176
     1
 40
0.0
176
     1
 40
1.0
176
     1
 90
        0
176
     1
 62
    18
420
        0
176
     1
 90
       50
176
     1
 90
        3
176
     1
 62
     5
420
      255
176
     1
290
     0
176
     1
 90
       50
176
     1
 90
       50
176
     1
 90
       50
176
     1
290
     0
176
     1
 90
       50
176
     1
 62
   256
176
     0
 40
1.0
176
     0
 90
        2
176
     1
  1
strokes_ogs.tif
176
     1
290
     0
176
     1
 40
1.0
176
     1
 40
1.0
176
     1
  0
VISUALSTYLE
  5
35
102
{ACAD_REACTORS
330
2A
102
}
330
2A
100
AcDbVisualStyle
  2
Dim
 70
    11
177
     3
291
     1
 70
    58
 90
        2
176
     1
 90
        2
176
     1
 90
        0
176
     1
 90
        0
176
     1
 40
0.6
176
     1
 40
30.0
176
     1
 62
     7
420
 16777215
176
     1
 90
        1
176
     1
 90
        4
176
     1
 62
     7
176
     1
 62
   257
176
     1
 90
        1
176
     1
 90
        1
176
     1
 40
1.0
176
     1
 90
        8
176
     1
 62
     7
176
     1
 40
1.0
176
     1
 90
        1
176
     1
 90
        6
176
     1
 90
        2
176
     1
 62
     7
176
     1
 90
        5
176
     1
 90
        0
176
     1
 90
        0
176
     1
290
     0
176
     1
 90
        1
176
     1
 40
-50.0
176
     1
 90
        0
176
     1
290
     0
176
     1
290
     1
176
     1
290
     1
176
     1
290
     0
176
     1
290
     0
176
     1
290
     0
176
     1
290
     0
176
     1
290
     0
176
     1
290
     0
176
     1
 90
       50
176
     1
 40
0.0
176
     1
 40
1.0
176
     1
 90
        0
176
     1
 62
    18
420
        0
176
     1
 90
       50
176
     1
 90
        3
176
     1
 62
     5
420
      255
176
     1
290
     0
176
     1
 90
       50
176
     1
 90
       50
176
     1
 90
       50
176
     1
290
     0
176
     1
 90
       50
176
     1
 62
   256
176
     0
 40
1.0
176
     0
 90
        2
176
     1
  1
strokes_ogs.tif
176
     1
290
     0
176
     1
 40
1.0
176
     1
 40
1.0
176
     1
  0
VISUALSTYLE
  5
3D
102
{ACAD_REACTORS
330
2A
102
}
330
2A
100
AcDbVisualStyle
  2
EdgeColorOff
 70
    22
177
     3
291
     1
 70
    58
 90
        2
176
     0
 90
        2
176
     0
 90
        0
176
     0
 90
        0
176
     0
 40
0.6
176
     0
 40
30.0
176
     0
 62
     7
420
 16777215
176
     0
 90
        1
176
     0
 90
        4
176
     0
 62
     7
176
     0
 62
   257
176
     0
 90
        1
176
     0
 90
        1
176
     0
 40
1.0
176
     0
 90
        8
176
     2
 62
     7
176
     0
 40
1.0
176
     0
 90
        1
176
     0
 90
        6
176
     0
 90
        2
176
     0
 62
     7
176
     0
 90
        5
176
     0
 90
        0
176
     0
 90
        0
176
     0
290
     0
176
     0
 90
        1
176
     0
 40
0.0
176
     0
 90
        0
176
     0
290
     0
176
     0
290
     1
176
     0
290
     1
176
     0
290
     0
176
     0
290
     0
176
     0
290
     0
176
     0
290
     0
176
     0
290
     0
176
     0
290
     0
176
     0
 90
       50
176
     0
 40
0.0
176
     0
 40
1.0
176
     0
 90
        0
176
     0
 62
    18
420
        0
176
     0
 90
       50
176
     0
 90
        3
176
     0
 62
     5
420
      255
176
     0
290
     0
176
     0
 90
       50
176
     0
 90
       50
176
     0
 90
       50
176
     0
290
     0
176
     0
 90
       50
176
     0
 62
   256
176
     0
 40
1.0
176
     0
 90
        2
176
     0
  1
strokes_ogs.tif
176
     0
290
     0
176
     0
 40
1.0
176
     0
 40
1.0
176
     0
  0
VISUALSTYLE
  5
39
102
{ACAD_REACTORS
330
2A
102
}
330
2A
100
AcDbVisualStyle
  2
Facepattern
 70
    15
177
     3
291
     1
 70
    58
 90
        2
176
     1
 90
        2
176
     1
 90
        0
176
     1
 90
        0
176
     1
 40
0.6
176
     1
 40
30.0
176
     1
 62
     7
420
 16777215
176
     1
 90
        1
176
     1
 90
        4
176
     1
 62
     7
176
     1
 62
   257
176
     1
 90
        1
176
     1
 90
        1
176
     1
 40
1.0
176
     1
 90
        8
176
     1
 62
     7
176
     1
 40
1.0
176
     1
 90
        1
176
     1
 90
        6
176
     1
 90
        2
176
     1
 62
     7
176
     1
 90
        5
176
     1
 90
        0
176
     1
 90
        0
176
     1
290
     0
176
     1
 90
        1
176
     1
 40
0.0
176
     1
 90
        0
176
     1
290
     0
176
     1
290
     1
176
     1
290
     1
176
     1
290
     0
176
     1
290
     0
176
     1
290
     0
176
     1
290
     0
176
     1
290
     0
176
     1
290
     0
176
     1
 90
       50
176
     1
 40
0.0
176
     1
 40
1.0
176
     1
 90
        0
176
     1
 62
    18
420
        0
176
     1
 90
       50
176
     1
 90
        3
176
     1
 62
     5
420
      255
176
     1
290
     0
176
     1
 90
       50
176
     1
 90
       50
176
     1
 90
       50
176
     1
290
     0
176
     1
 90
       50
176
     1
 62
   256
176
     0
 40
1.0
176
     0
 90
        2
176
     1
  1
strokes_ogs.tif
176
     1
290
     0
176
     1
 40
1.0
176
     1
 40
1.0
176
     1
  0
VISUALSTYLE
  5
2B
102
{ACAD_REACTORS
330
2A
102
}
330
2A
100
AcDbVisualStyle
  2
Flat
 70
     0
177
     3
291
     1
 70
    58
 90
        2
176
     1
 90
        1
176
     1
 90
        1
176
     1
 90
        2
176
     1
 40
0.6
176
     1
 40
30.0
176
     1
 62
     7
420
 16777215
176
     1
 90
        0
176
     1
 90
        0
176
     1
 62
     7
176
     1
 62
   257
176
     1
 90
        1
176
     1
 90
        1
176
     1
 40
1.0
176
     1
 90
        8
176
     1
 62
     7
176
     1
 40
1.0
176
     1
 90
        1
176
     1
 90
        6
176
     1
 90
        2
176
     1
 62
     7
176
     1
 90
        5
176
     1
 90
        0
176
     1
 90
        0
176
     1
290
     0
176
     1
 90
       13
176
     1
 40
0.0
176
     1
 90
        0
176
     1
290
     0
176
     1
290
     1
176
     1
290
     1
176
     1
290
     0
176
     1
290
     0
176
     1
290
     0
176
     1
290
     0
176
     1
290
     0
176
     1
290
     0
176
     1
 90
       50
176
     1
 40
0.0
176
     1
 40
1.0
176
     1
 90
        0
176
     1
 62
    18
420
        0
176
     1
 90
       50
176
     1
 90
        3
176
     1
 62
     5
420
      255
176
     1
290
     0
176
     1
 90
       50
176
     1
 90
       50
176
     1
 90
       50
176
     1
290
     0
176
     1
 90
       50
176
     1
 62
   256
176
     0
 40
1.0
176
     0
 90
        2
176
     1
  1
strokes_ogs.tif
176
     1
290
     0
176
     1
 40
1.0
176
     1
 40
1.0
176
     1
  0
VISUALSTYLE
  5
2C
102
{ACAD_REACTORS
330
2A
102
}
330
2A
100
AcDbVisualStyle
  2
FlatWithEdges
 70
     1
177
     3
291
     1
 70
    58
 90
        2
176
     1
 90
        1
176
     1
 90
        1
176
     1
 90
        2
176
     1
 40
0.6
176
     1
 40
30.0
176
     1
 62
     7
420
 16777215
176
     1
 90
        1
176
     1
 90
        0
176
     1
 62
     7
176
     1
 62
   257
176
     1
 90
        1
176
     1
 90
        1
176
     1
 40
1.0
176
     1
 90
        0
176
     1
 62
   257
176
     1
 40
1.0
176
     1
 90
        1
176
     1
 90
        6
176
     1
 90
        2
176
     1
 62
     7
176
     1
 90
        5
176
     1
 90
        0
176
     1
 90
        0
176
     1
290
     0
176
     1
 90
       13
176
     1
 40
0.0
176
     1
 90
        0
176
     1
290
     0
176
     1
290
     1
176
     1
290
     1
176
     1
290
     0
176
     1
290
     0
176
     1
290
     0
176
     1
290
     0
176
     1
290
     0
176
     1
290
     0
176
     1
 90
       50
176
     1
 40
0.0
176
     1
 40
1.0
176
     1
 90
        0
176
     1
 62
    18
420
        0
176
     1
 90
       50
176
     1
 90
        3
176
     1
 62
     5
420
      255
176
     1
290
     0
176
     1
 90
       50
176
     1
 90
       50
176
     1
 90
       50
176
     1
290
     0
176
     1
 90
       50
176
     1
 62
   256
176
     0
 40
1.0
176
     0
 90
        2
176
     1
  1
strokes_ogs.tif
176
     1
290
     0
176
     1
 40
1.0
176
     1
 40
1.0
176
     1
  0
VISUALSTYLE
  5
2D
102
{ACAD_REACTORS
330
2A
102
}
330
2A
100
AcDbVisualStyle
  2
Gouraud
 70
     2
177
     3
291
     1
 70
    58
 90
        2
176
     1
 90
        2
176
     1
 90
        1
176
     1
 90
        2
176
     1
 40
0.6
176
     1
 40
30.0
176
     1
 62
     7
420
 16777215
176
     1
 90
        0
176
     1
 90
        0
176
     1
 62
     7
176
     1
 62
   257
176
     1
 90
        1
176
     1
 90
        1
176
     1
 40
1.0
176
     1
 90
        0
176
     1
 62
     7
176
     1
 40
1.0
176
     1
 90
        1
176
     1
 90
        6
176
     1
 90
        2
176
     1
 62
     7
176
     1
 90
        5
176
     1
 90
        0
176
     1
 90
        0
176
     1
290
     0
176
     1
 90
       13
176
     1
 40
0.0
176
     1
 90
        0
176
     1
290
     0
176
     1
290
     1
176
     1
290
     1
176
     1
290
     0
176
     1
290
     0
176
     1
290
     0
176
     1
290
     0
176
     1
290
     0
176
     1
290
     0
176
     1
 90
       50
176
     1
 40
0.0
176
     1
 40
1.0
176
     1
 90
        0
176
     1
 62
    18
420
        0
176
     1
 90
       50
176
     1
 90
        3
176
     1
 62
     5
420
      255
176
     1
290
     0
176
     1
 90
       50
176
     1
 90
       50
176
     1
 90
       50
176
     1
290
     0
176
     1
 90
       50
176
     1
 62
   256
176
     0
 40
1.0
176
     0
 90
        2
176
     1
  1
strokes_ogs.tif
176
     1
290
     0
176
     1
 40
1.0
176
     1
 40
1.0
176
     1
  0
VISUALSTYLE
  5
2E
102
{ACAD_REACTORS
330
2A
102
}
330
2A
100
AcDbVisualStyle
  2
GouraudWithEdges
 70
     3
177
     3
291
     1
 70
    58
 90
        2
176
     1
 90
        2
176
     1
 90
        1
176
     1
 90
        2
176
     1
 40
0.6
176
     1
 40
30.0
176
     1
 62
     7
420
 16777215
176
     1
 90
        1
176
     1
 90
        0
176
     1
 62
     7
176
     1
 62
   257
176
     1
 90
        1
176
     1
 90
        1
176
     1
 40
1.0
176
     1
 90
        0
176
     1
 62
   257
176
     1
 40
1.0
176
     1
 90
        1
176
     1
 90
        6
176
     1
 90
        2
176
     1
 62
     7
176
     1
 90
        5
176
     1
 90
        0
176
     1
 90
        0
176
     1
290
     0
176
     1
 90
       13
176
     1
 40
0.0
176
     1
 90
        0
176
     1
290
     0
176
     1
290
     1
176
     1
290
     1
176
     1
290
     0
176
     1
290
     0
176
     1
290
     0
176
     1
290
     0
176
     1
290
     0
176
     1
290
     0
176
     1
 90
       50
176
     1
 40
0.0
176
     1
 40
1.0
176
     1
 90
        0
176
     1
 62
    18
420
        0
176
     1
 90
       50
176
     1
 90
        3
176
     1
 62
     5
420
      255
176
     1
290
     0
176
     1
 90
       50
176
     1
 90
       50
176
     1
 90
       50
176
     1
290
     0
176
     1
 90
       50
176
     1
 62
   256
176
     0
 40
1.0
176
     0
 90
        2
176
     1
  1
strokes_ogs.tif
176
     1
290
     0
176
     1
 40
1.0
176
     1
 40
1.0
176
     1
  0
VISUALSTYLE
  5
31
102
{ACAD_REACTORS
330
2A
102
}
330
2A
100
AcDbVisualStyle
  2
Hidden
 70
     6
177
     3
291
     0
 70
    58
 90
        1
176
     1
 90
        2
176
     1
 90
        2
176
     1
 90
        0
176
     1
 40
0.6
176
     1
 40
30.0
176
     1
 62
     7
420
 16777215
176
     1
 90
        2
176
     1
 90
        2
176
     1
 62
     7
176
     1
 62
   257
176
     1
 90
        2
176
     1
 90
        1
176
     1
 40
40.0
176
     1
 90
        0
176
     1
 62
   257
176
     1
 40
1.0
176
     1
 90
        1
176
     1
 90
        6
176
     1
 90
        2
176
     1
 62
     7
176
     1
 90
        3
176
     1
 90
        0
176
     1
 90
        0
176
     1
290
     0
176
     1
 90
        1
176
     1
 40
0.0
176
     1
 90
        0
176
     1
290
     0
176
     1
290
     1
176
     1
290
     1
176
     1
290
     0
176
     1
290
     0
176
     1
290
     0
176
     1
290
     0
176
     1
290
     0
176
     1
290
     0
176
     1
 90
       50
176
     1
 40
0.0
176
     1
 40
1.0
176
     1
 90
        0
176
     1
 62
    18
420
        0
176
     1
 90
       50
176
     1
 90
        3
176
     1
 62
     5
420
      255
176
     1
290
     0
176
     1
 90
       50
176
     1
 90
       50
176
     1
 90
       50
176
     1
290
     0
176
     1
 90
       50
176
     1
 62
   256
176
     0
 40
1.0
176
     0
 90
        2
176
     1
  1
strokes_ogs.tif
176
     1
290
     0
176
     1
 40
1.0
176
     1
 40
1.0
176
     1
  0
VISUALSTYLE
  5
3B
102
{ACAD_REACTORS
330
2A
102
}
330
2A
100
AcDbVisualStyle
  2
JitterOff
 70
    20
177
     3
291
     1
 70
    58
 90
        2
176
     0
 90
        2
176
     0
 90
        0
176
     0
 90
        0
176
     0
 40
0.6
176
     0
 40
30.0
176
     0
 62
     7
420
 16777215
176
     0
 90
        1
176
     0
 90
        4
176
     0
 62
     7
176
     0
 62
   257
176
     0
 90
        1
176
     0
 90
        1
176
     0
 40
1.0
176
     0
 90
       10
176
     2
 62
     7
176
     0
 40
1.0
176
     0
 90
        1
176
     0
 90
        6
176
     0
 90
        2
176
     0
 62
     7
176
     0
 90
        5
176
     0
 90
        0
176
     0
 90
        0
176
     0
290
     0
176
     0
 90
        1
176
     0
 40
0.0
176
     0
 90
        0
176
     0
290
     0
176
     0
290
     1
176
     0
290
     1
176
     0
290
     0
176
     0
290
     0
176
     0
290
     0
176
     0
290
     0
176
     0
290
     0
176
     0
290
     0
176
     0
 90
       50
176
     0
 40
0.0
176
     0
 40
1.0
176
     0
 90
        0
176
     0
 62
    18
420
        0
176
     0
 90
       50
176
     0
 90
        3
176
     0
 62
     5
420
      255
176
     0
290
     0
176
     0
 90
       50
176
     0
 90
       50
176
     0
 90
       50
176
     0
290
     0
176
     0
 90
       50
176
     0
 62
   256
176
     0
 40
1.0
176
     0
 90
        2
176
     0
  1
strokes_ogs.tif
176
     0
290
     0
176
     0
 40
1.0
176
     0
 40
1.0
176
     0
  0
VISUALSTYLE
  5
38
102
{ACAD_REACTORS
330
2A
102
}
330
2A
100
AcDbVisualStyle
  2
Linepattern
 70
    14
177
     3
291
     1
 70
    58
 90
        2
176
     1
 90
        2
176
     1
 90
        0
176
     1
 90
        0
176
     1
 40
0.6
176
     1
 40
30.0
176
     1
 62
     7
420
 16777215
176
     1
 90
        1
176
     1
 90
        4
176
     1
 62
     7
176
     1
 62
   257
176
     1
 90
        7
176
     1
 90
        7
176
     1
 40
1.0
176
     1
 90
        8
176
     1
 62
     7
176
     1
 40
1.0
176
     1
 90
        1
176
     1
 90
        6
176
     1
 90
        2
176
     1
 62
     7
176
     1
 90
        5
176
     1
 90
        0
176
     1
 90
        0
176
     1
290
     0
176
     1
 90
        1
176
     1
 40
0.0
176
     1
 90
        0
176
     1
290
     0
176
     1
290
     1
176
     1
290
     1
176
     1
290
     0
176
     1
290
     0
176
     1
290
     0
176
     1
290
     0
176
     1
290
     0
176
     1
290
     0
176
     1
 90
       50
176
     1
 40
0.0
176
     1
 40
1.0
176
     1
 90
        0
176
     1
 62
    18
420
        0
176
     1
 90
       50
176
     1
 90
        3
176
     1
 62
     5
420
      255
176
     1
290
     0
176
     1
 90
       50
176
     1
 90
       50
176
     1
 90
       50
176
     1
290
     0
176
     1
 90
       50
176
     1
 62
   256
176
     0
 40
1.0
176
     0
 90
        2
176
     1
  1
strokes_ogs.tif
176
     1
290
     0
176
     1
 40
1.0
176
     1
 40
1.0
176
     1
  0
VISUALSTYLE
  5
3C
102
{ACAD_REACTORS
330
2A
102
}
330
2A
100
AcDbVisualStyle
  2
OverhangOff
 70
    21
177
     3
291
     1
 70
    58
 90
        2
176
     0
 90
        2
176
     0
 90
        0
176
     0
 90
        0
176
     0
 40
0.6
176
     0
 40
30.0
176
     0
 62
     7
420
 16777215
176
     0
 90
        1
176
     0
 90
        4
176
     0
 62
     7
176
     0
 62
   257
176
     0
 90
        1
176
     0
 90
        1
176
     0
 40
1.0
176
     0
 90
        9
176
     2
 62
     7
176
     0
 40
1.0
176
     0
 90
        1
176
     0
 90
        6
176
     0
 90
        2
176
     0
 62
     7
176
     0
 90
        5
176
     0
 90
        0
176
     0
 90
        0
176
     0
290
     0
176
     0
 90
        1
176
     0
 40
0.0
176
     0
 90
        0
176
     0
290
     0
176
     0
290
     1
176
     0
290
     1
176
     0
290
     0
176
     0
290
     0
176
     0
290
     0
176
     0
290
     0
176
     0
290
     0
176
     0
290
     0
176
     0
 90
       50
176
     0
 40
0.0
176
     0
 40
1.0
176
     0
 90
        0
176
     0
 62
    18
420
        0
176
     0
 90
       50
176
     0
 90
        3
176
     0
 62
     5
420
      255
176
     0
290
     0
176
     0
 90
       50
176
     0
 90
       50
176
     0
 90
       50
176
     0
290
     0
176
     0
 90
       50
176
     0
 62
   256
176
     0
 40
1.0
176
     0
 90
        2
176
     0
  1
strokes_ogs.tif
176
     0
290
     0
176
     0
 40
1.0
176
     0
 40
1.0
176
     0
  0
VISUALSTYLE
  5
33
102
{ACAD_REACTORS
330
2A
102
}
330
2A
100
AcDbVisualStyle
  2
Realistic
 70
     8
177
     3
291
     0
 70
    58
 90
        2
176
     1
 90
        3
176
     1
 90
        0
176
     1
 90
        2
176
     1
 40
0.6
176
     1
 40
30.0
176
     1
 62
     7
420
 16777215
176
     1
 90
        0
176
     1
 90
        0
176
     1
 62
     7
176
     1
 62
   257
176
     1
 90
        1
176
     1
 90
        1
176
     1
 40
1.0
176
     1
 90
        8
176
     1
 62
   257
176
     1
 40
1.0
176
     1
 90
        1
176
     1
 90
        6
176
     1
 90
        2
176
     1
 62
     7
176
     1
 90
        3
176
     1
 90
        0
176
     1
 90
        0
176
     1
290
     0
176
     1
 90
       13
176
     1
 40
0.0
176
     1
 90
        0
176
     1
290
     0
176
     1
290
     1
176
     1
290
     1
176
     1
290
     0
176
     1
290
     0
176
     1
290
     0
176
     1
290
     0
176
     1
290
     0
176
     1
290
     0
176
     1
 90
       50
176
     1
 40
0.0
176
     1
 40
1.0
176
     1
 90
        0
176
     1
 62
    18
420
        0
176
     1
 90
       50
176
     1
 90
        3
176
     1
 62
     5
420
      255
176
     1
290
     0
176
     1
 90
       50
176
     1
 90
       50
176
     1
 90
       50
176
     1
290
     0
176
     1
 90
       50
176
     1
 62
   256
176
     0
 40
1.0
176
     0
 90
        2
176
     1
  1
strokes_ogs.tif
176
     1
290
     0
176
     1
 40
1.0
176
     1
 40
1.0
176
     1
  0
VISUALSTYLE
  5
42
102
{ACAD_REACTORS
330
2A
102
}
330
2A
100
AcDbVisualStyle
  2
Shaded
 70
    27
177
     3
291
     0
 70
    58
 90
        2
176
     1
 90
        2
176
     1
 90
        1
176
     1
 90
        2
176
     1
 40
0.6
176
     1
 40
30.0
176
     1
 62
     7
420
 16777215
176
     1
 90
        0
176
     1
 90
        4
176
     1
 62
     7
176
     1
 62
   257
176
     1
 90
        1
176
     1
 90
        1
176
     1
 40
1.0
176
     1
 90
        8
176
     1
 62
   257
176
     1
 40
1.0
176
     1
 90
        1
176
     1
 90
        6
176
     1
 90
        2
176
     1
 62
     8
420
  7895160
176
     1
 90
        3
176
     1
 90
        0
176
     1
 90
        0
176
     1
290
     0
176
     1
 90
        5
176
     1
 40
0.0
176
     1
 90
        0
176
     1
290
     0
176
     1
290
     1
176
     1
290
     1
176
     1
290
     0
176
     1
290
     0
176
     1
290
     0
176
     1
290
     0
176
     1
290
     0
176
     1
290
     0
176
     1
 90
       50
176
     1
 40
0.0
176
     1
 40
1.0
176
     1
 90
        0
176
     1
 62
    18
420
        0
176
     1
 90
       50
176
     1
 90
        3
176
     1
 62
     5
420
      255
176
     1
290
     0
176
     1
 90
       50
176
     1
 90
       50
176
     1
 90
       50
176
     1
290
     0
176
     1
 90
       50
176
     1
 62
   256
176
     0
 40
1.0
176
     0
 90
        2
176
     1
  1
strokes_ogs.tif
176
     1
290
     0
176
     1
 40
1.0
176
     1
 40
1.0
176
     1
  0
VISUALSTYLE
  5
41
102
{ACAD_REACTORS
330
2A
102
}
330
2A
100
AcDbVisualStyle
  2
Shaded with edges
 70
    26
177
     3
291
     0
 70
    58
 90
        2
176
     1
 90
        2
176
     1
 90
        1
176
     1
 90
        2
176
     1
 40
0.6
176
     1
 40
30.0
176
     1
 62
     7
420
 16777215
176
     1
 90
        1
176
     1
 90
       10
176
     1
 62
     7
176
     1
 62
   257
176
     1
 90
        2
176
     1
 90
        1
176
     1
 40
1.0
176
     1
 90
        8
176
     1
 62
   257
176
     1
 40
1.0
176
     1
 90
        1
176
     1
 90
        6
176
     1
 90
        2
176
     1
 62
     7
176
     1
 90
        3
176
     1
 90
        0
176
     1
 90
        0
176
     1
290
     0
176
     1
 90
        5
176
     1
 40
0.0
176
     1
 90
        0
176
     1
290
     0
176
     1
290
     1
176
     1
290
     1
176
     1
290
     0
176
     1
290
     0
176
     1
290
     0
176
     1
290
     0
176
     1
290
     0
176
     1
290
     0
176
     1
 90
       50
176
     1
 40
0.0
176
     1
 40
1.0
176
     1
 90
        0
176
     1
 62
    18
420
        0
176
     1
 90
       50
176
     1
 90
        3
176
     1
 62
     5
420
      255
176
     1
290
     0
176
     1
 90
       50
176
     1
 90
       50
176
     1
 90
       50
176
     1
290
     0
176
     1
 90
       50
176
     1
 62
   256
176
     0
 40
1.0
176
     0
 90
        2
176
     1
  1
strokes_ogs.tif
176
     1
290
     0
176
     1
 40
1.0
176
     1
 40
1.0
176
     1
  0
VISUALSTYLE
  5
3E
102
{ACAD_REACTORS
330
2A
102
}
330
2A
100
AcDbVisualStyle
  2
Shades of Gray
 70
    23
177
     3
291
     0
 70
    58
 90
        2
176
     1
 90
        2
176
     1
 90
        3
176
     1
 90
        0
176
     1
 40
0.6
176
     1
 40
30.0
176
     1
 62
     7
420
 16777215
176
     1
 90
        2
176
     1
 90
        2
176
     1
 62
     7
176
     1
 62
     7
176
     1
 90
        1
176
     1
 90
        1
176
     1
 40
40.0
176
     1
 90
        8
176
     1
 62
     7
176
     1
 40
1.0
176
     1
 90
        1
176
     1
 90
        6
176
     1
 90
        2
176
     1
 62
     7
176
     1
 90
        3
176
     1
 90
        0
176
     1
 90
        0
176
     1
290
     0
176
     1
 90
        1
176
     1
 40
0.0
176
     1
 90
        0
176
     1
290
     0
176
     1
290
     1
176
     1
290
     1
176
     1
290
     0
176
     1
290
     0
176
     1
290
     0
176
     1
290
     0
176
     1
290
     0
176
     1
290
     0
176
     1
 90
       50
176
     1
 40
0.0
176
     1
 40
1.0
176
     1
 90
        0
176
     1
 62
    18
420
        0
176
     1
 90
       50
176
     1
 90
        3
176
     1
 62
     5
420
      255
176
     1
290
     0
176
     1
 90
       50
176
     1
 90
       50
176
     1
 90
       50
176
     1
290
     0
176
     1
 90
       50
176
     1
 62
   256
176
     0
 40
1.0
176
     0
 90
        2
176
     1
  1
strokes_ogs.tif
176
     1
290
     0
176
     1
 40
1.0
176
     1
 40
1.0
176
     1
  0
VISUALSTYLE
  5
3F
102
{ACAD_REACTORS
330
2A
102
}
330
2A
100
AcDbVisualStyle
  2
Sketchy
 70
    24
177
     3
291
     0
 70
    58
 90
        1
176
     1
 90
        2
176
     1
 90
        2
176
     1
 90
        0
176
     1
 40
0.6
176
     1
 40
30.0
176
     1
 62
     7
420
 16777215
176
     1
 90
        2
176
     1
 90
        2
176
     1
 62
     7
176
     1
 62
     7
176
     1
 90
        1
176
     1
 90
        1
176
     1
 40
40.0
176
     1
 90
       11
176
     1
 62
     7
176
     1
 40
1.0
176
     1
 90
        1
176
     1
 90
        6
176
     1
 90
        2
176
     1
 62
     7
176
     1
 90
        6
176
     1
 90
        0
176
     1
 90
        0
176
     1
290
     0
176
     1
 90
        1
176
     1
 40
0.0
176
     1
 90
        0
176
     1
290
     0
176
     1
290
     1
176
     1
290
     1
176
     1
290
     0
176
     1
290
     0
176
     1
290
     0
176
     1
290
     0
176
     1
290
     0
176
     1
290
     0
176
     1
 90
       50
176
     1
 40
0.0
176
     1
 40
1.0
176
     1
 90
        0
176
     1
 62
    18
420
        0
176
     1
 90
       50
176
     1
 90
        3
176
     1
 62
     5
420
      255
176
     1
290
     0
176
     1
 90
       50
176
     1
 90
       50
176
     1
 90
       50
176
     1
290
     0
176
     1
 90
       50
176
     1
 62
   256
176
     0
 40
1.0
176
     0
 90
        2
176
     1
  1
strokes_ogs.tif
176
     1
290
     0
176
     1
 40
1.0
176
     1
 40
1.0
176
     1
  0
VISUALSTYLE
  5
37
102
{ACAD_REACTORS
330
2A
102
}
330
2A
100
AcDbVisualStyle
  2
Thicken
 70
    13
177
     3
291
     1
 70
    58
 90
        2
176
     1
 90
        2
176
     1
 90
        0
176
     1
 90
        0
176
     1
 40
0.6
176
     1
 40
30.0
176
     1
 62
     7
420
 16777215
176
     1
 90
        1
176
     1
 90
        4
176
     1
 62
     7
176
     1
 62
   257
176
     1
 90
        1
176
     1
 90
        1
176
     1
 40
1.0
176
     1
 90
       12
176
     1
 62
     7
176
     1
 40
1.0
176
     1
 90
        1
176
     1
 90
        6
176
     1
 90
        2
176
     1
 62
     7
176
     1
 90
        5
176
     1
 90
        0
176
     1
 90
        0
176
     1
290
     0
176
     1
 90
        1
176
     1
 40
0.0
176
     1
 90
        0
176
     1
290
     0
176
     1
290
     1
176
     1
290
     1
176
     1
290
     0
176
     1
290
     0
176
     1
290
     0
176
     1
290
     0
176
     1
290
     0
176
     1
290
     0
176
     1
 90
       50
176
     1
 40
0.0
176
     1
 40
1.0
176
     1
 90
        0
176
     1
 62
    18
420
        0
176
     1
 90
       50
176
     1
 90
        3
176
     1
 62
     5
420
      255
176
     1
290
     0
176
     1
 90
       50
176
     1
 90
       50
176
     1
 90
       50
176
     1
290
     0
176
     1
 90
       50
176
     1
 62
   256
176
     0
 40
1.0
176
     0
 90
        2
176
     1
  1
strokes_ogs.tif
176
     1
290
     0
176
     1
 40
1.0
176
     1
 40
1.0
176
     1
  0
VISUALSTYLE
  5
30
102
{ACAD_REACTORS
330
2A
102
}
330
2A
100
AcDbVisualStyle
  2
Wireframe
 70
     5
177
     3
291
     0
 70
    58
 90
        0
176
     1
 90
        2
176
     1
 90
        0
176
     1
 90
        0
176
     1
 40
0.6
176
     1
 40
30.0
176
     1
 62
     7
420
 16777215
176
     1
 90
        1
176
     1
 90
        4
176
     1
 62
     7
176
     1
 62
   257
176
     1
 90
        1
176
     1
 90
        1
176
     1
 40
1.0
176
     1
 90
        0
176
     1
 62
   257
176
     1
 40
1.0
176
     1
 90
        1
176
     1
 90
        6
176
     1
 90
        2
176
     1
 62
     7
176
     1
 90
        3
176
     1
 90
        0
176
     1
 90
        0
176
     1
290
     0
176
     1
 90
        1
176
     1
 40
0.0
176
     1
 90
        0
176
     1
290
     0
176
     1
290
     1
176
     1
290
     1
176
     1
290
     0
176
     1
290
     0
176
     1
290
     0
176
     1
290
     0
176
     1
290
     0
176
     1
290
     0
176
     1
 90
       50
176
     1
 40
0.0
176
     1
 40
1.0
176
     1
 90
        0
176
     1
 62
    18
420
        0
176
     1
 90
       50
176
     1
 90
        3
176
     1
 62
     5
420
      255
176
     1
290
     0
176
     1
 90
       50
176
     1
 90
       50
176
     1
 90
       50
176
     1
290
     0
176
     1
 90
       50
176
     1
 62
   256
176
     0
 40
1.0
176
     0
 90
        2
176
     1
  1
strokes_ogs.tif
176
     1
290
     0
176
     1
 40
1.0
176
     1
 40
1.0
176
     1
  0
VISUALSTYLE
  5
40
102
{ACAD_REACTORS
330
2A
102
}
330
2A
100
AcDbVisualStyle
  2
X-Ray
 70
    25
177
     3
291
     0
 70
    58
 90
        2
176
     1
 90
        2
176
     1
 90
        1
176
     1
 90
        1
176
     1
 40
0.5
176
     1
 40
30.0
176
     1
 62
     7
420
 16777215
176
     1
 90
        1
176
     1
 90
        0
176
     1
 62
     7
176
     1
 62
   257
176
     1
 90
        1
176
     1
 90
        1
176
     1
 40
1.0
176
     1
 90
        8
176
     1
 62
     7
176
     1
 40
1.0
176
     1
 90
        1
176
     1
 90
        6
176
     1
 90
        2
176
     1
 62
     7
176
     1
 90
        3
176
     1
 90
        0
176
     1
 90
        0
176
     1
290
     0
176
     1
 90
       13
176
     1
 40
0.0
176
     1
 90
        0
176
     1
290
     0
176
     1
290
     1
176
     1
290
     1
176
     1
290
     0
176
     1
290
     0
176
     1
290
     0
176
     1
290
     0
176
     1
290
     0
176
     1
290
     0
176
     1
 90
       50
176
     1
 40
0.0
176
     1
 40
1.0
176
     1
 90
        0
176
     1
 62
    18
420
        0
176
     1
 90
       50
176
     1
 90
        3
176
     1
 62
     5
420
      255
176
     1
290
     0
176
     1
 90
       50
176
     1
 90
       50
176
     1
 90
       50
176
     1
290
     0
176
     1
 90
       50
176
     1
 62
   256
176
     0
 40
1.0
176
     0
 90
        2
176
     1
  1
strokes_ogs.tif
176
     1
290
     0
176
     1
 40
1.0
176
     1
 40
1.0
176
     1
  0
DICTIONARYVAR
  5
342
102
{ACAD_REACTORS
330
341
102
}
330
341
100
DictionaryVariables
280
     0
  1
1:1
  0
DICTIONARYVAR
  5
34A
102
{ACAD_REACTORS
330
341
102
}
330
341
100
DictionaryVariables
280
     0
  1
3.500000
  0
DICTIONARYVAR
  5
34B
102
{ACAD_REACTORS
330
341
102
}
330
341
100
DictionaryVariables
280
     0
  1
acadiso.lin
  0
DICTIONARYVAR
  5
347
102
{ACAD_REACTORS
330
341
102
}
330
341
100
DictionaryVariables
280
     0
  1
Standard
  0
DICTIONARYVAR
  5
346
102
{ACAD_REACTORS
330
341
102
}
330
341
100
DictionaryVariables
280
     0
  1
Standard
  0
DICTIONARY
  5
343
330
5A
100
AcDbDictionary
280
     1
281
     1
  3
ACAD_ROUNDTRIP_2008_TABLESTYLE_CELLSTYLEMAP
360
344
  0
CELLSTYLEMAP
  5
344
102
{ACAD_REACTORS
330
343
102
}
330
343
100
AcDbCellStyleMap
 90
        3
300
CELLSTYLE
  1
TABLEFORMAT_BEGIN
 90
        5
170
     1
 91
        0
 92
    32768
 62
   257
 93
        1
300
CONTENTFORMAT
  1
CONTENTFORMAT_BEGIN
 90
        0
 91
        0
 92
        4
 93
        0
300

 40
0.0
140
1.0
 94
        5
 62
     0
340
11
144
6.0
309
CONTENTFORMAT_END
171
     1
301
MARGIN
  1
CELLMARGIN_BEGIN
 40
1.5
 40
1.5
 40
1.5
 40
1.5
 40
1.5
 40
1.5
309
CELLMARGIN_END
 94
        6
 95
        1
302
GRIDFORMAT
  1
GRIDFORMAT_BEGIN
 90
        0
 91
        1
 62
     0
 92
       -2
340
14
 93
        0
 40
0.045
309
GRIDFORMAT_END
 95
        2
302
GRIDFORMAT
  1
GRIDFORMAT_BEGIN
 90
        0
 91
        1
 62
     0
 92
       -2
340
14
 93
        0
 40
0.045
309
GRIDFORMAT_END
 95
        4
302
GRIDFORMAT
  1
GRIDFORMAT_BEGIN
 90
        0
 91
        1
 62
     0
 92
       -2
340
14
 93
        0
 40
0.045
309
GRIDFORMAT_END
 95
        8
302
GRIDFORMAT
  1
GRIDFORMAT_BEGIN
 90
        0
 91
        1
 62
     0
 92
       -2
340
14
 93
        0
 40
0.045
309
GRIDFORMAT_END
 95
       16
302
GRIDFORMAT
  1
GRIDFORMAT_BEGIN
 90
        0
 91
        1
 62
     0
 92
       -2
340
14
 93
        0
 40
0.045
309
GRIDFORMAT_END
 95
       32
302
GRIDFORMAT
  1
GRIDFORMAT_BEGIN
 90
        0
 91
        1
 62
     0
 92
       -2
340
14
 93
        0
 40
0.045
309
GRIDFORMAT_END
309
TABLEFORMAT_END
  1
CELLSTYLE_BEGIN
 90
        1
 91
        1
300
_TITLE
309
CELLSTYLE_END
300
CELLSTYLE
  1
TABLEFORMAT_BEGIN
 90
        5
170
     1
 91
        0
 92
        0
 62
   257
 93
        1
300
CONTENTFORMAT
  1
CONTENTFORMAT_BEGIN
 90
        0
 91
        0
 92
        4
 93
        0
300

 40
0.0
140
1.0
 94
        5
 62
     0
340
11
144
4.5
309
CONTENTFORMAT_END
171
     1
301
MARGIN
  1
CELLMARGIN_BEGIN
 40
1.5
 40
1.5
 40
1.5
 40
1.5
 40
1.5
 40
1.5
309
CELLMARGIN_END
 94
        6
 95
        1
302
GRIDFORMAT
  1
GRIDFORMAT_BEGIN
 90
        0
 91
        1
 62
     0
 92
       -2
340
14
 93
        0
 40
0.045
309
GRIDFORMAT_END
 95
        2
302
GRIDFORMAT
  1
GRIDFORMAT_BEGIN
 90
        0
 91
        1
 62
     0
 92
       -2
340
14
 93
        0
 40
0.045
309
GRIDFORMAT_END
 95
        4
302
GRIDFORMAT
  1
GRIDFORMAT_BEGIN
 90
        0
 91
        1
 62
     0
 92
       -2
340
14
 93
        0
 40
0.045
309
GRIDFORMAT_END
 95
        8
302
GRIDFORMAT
  1
GRIDFORMAT_BEGIN
 90
        0
 91
        1
 62
     0
 92
       -2
340
14
 93
        0
 40
0.045
309
GRIDFORMAT_END
 95
       16
302
GRIDFORMAT
  1
GRIDFORMAT_BEGIN
 90
        0
 91
        1
 62
     0
 92
       -2
340
14
 93
        0
 40
0.045
309
GRIDFORMAT_END
 95
       32
302
GRIDFORMAT
  1
GRIDFORMAT_BEGIN
 90
        0
 91
        1
 62
     0
 92
       -2
340
14
 93
        0
 40
0.045
309
GRIDFORMAT_END
309
TABLEFORMAT_END
  1
CELLSTYLE_BEGIN
 90
        2
 91
        1
300
_HEADER
309
CELLSTYLE_END
300
CELLSTYLE
  1
TABLEFORMAT_BEGIN
 90
        5
170
     1
 91
        0
 92
        0
 62
   257
 93
        1
300
CONTENTFORMAT
  1
CONTENTFORMAT_BEGIN
 90
        0
 91
        0
 92
        4
 93
        0
300

 40
0.0
140
1.0
 94
        2
 62
     0
340
11
144
4.5
309
CONTENTFORMAT_END
171
     1
301
MARGIN
  1
CELLMARGIN_BEGIN
 40
1.5
 40
1.5
 40
1.5
 40
1.5
 40
1.5
 40
1.5
309
CELLMARGIN_END
 94
        6
 95
        1
302
GRIDFORMAT
  1
GRIDFORMAT_BEGIN
 90
        0
 91
        1
 62
     0
 92
       -2
340
14
 93
        0
 40
0.045
309
GRIDFORMAT_END
 95
        2
302
GRIDFORMAT
  1
GRIDFORMAT_BEGIN
 90
        0
 91
        1
 62
     0
 92
       -2
340
14
 93
        0
 40
0.045
309
GRIDFORMAT_END
 95
        4
302
GRIDFORMAT
  1
GRIDFORMAT_BEGIN
 90
        0
 91
        1
 62
     0
 92
       -2
340
14
 93
        0
 40
0.045
309
GRIDFORMAT_END
 95
        8
302
GRIDFORMAT
  1
GRIDFORMAT_BEGIN
 90
        0
 91
        1
 62
     0
 92
       -2
340
14
 93
        0
 40
0.045
309
GRIDFORMAT_END
 95
       16
302
GRIDFORMAT
  1
GRIDFORMAT_BEGIN
 90
        0
 91
        1
 62
     0
 92
       -2
340
14
 93
        0
 40
0.045
309
GRIDFORMAT_END
 95
       32
302
GRIDFORMAT
  1
GRIDFORMAT_BEGIN
 90
        0
 91
        1
 62
     0
 92
       -2
340
14
 93
        0
 40
0.045
309
GRIDFORMAT_END
309
TABLEFORMAT_END
  1
CELLSTYLE_BEGIN
 90
        3
 91
        2
300
_DATA
309
CELLSTYLE_END
  0
ENDSEC
  0
EOF
