  0
SECTION
  2
HEADER
  9
$ACADVER
  1
AC1009
  0
ENDSEC
  0
SECTION
  2
ENTITIES
  0
POLYLINE
  5
90
  8
Layer_0
  62
0
  70
1
  66
1
  10
0
  20
0
  30
0
  0
VERTEX
  5
90
  8
Layer_0
  10
337.77835
  20
163.02579
  0
VERTEX
  5
91
  8
Layer_0
  10
267.77835
  20
163.02579
  0
VERTEX
  5
92
  8
Layer_0
  10
264.86172
  20
213.02576
  0
VERTEX
  5
93
  8
Layer_0
  10
287.77835
  20
223.02576
  0
VERTEX
  5
94
  8
Layer_0
  10
317.77835
  20
223.02576
  0
VERTEX
  5
95
  8
Layer_0
  10
340.69504
  20
213.02576
  0
VERTEX
  5
96
  8
Layer_0
  10
337.77835
  20
163.02579
  0
SEQEND
  0
POLYLINE
  5
98
  8
Layer_0
  62
0
  70
1
  66
1
  10
0
  20
0
  30
0
  0
VERTEX
  5
98
  8
Layer_0
  10
246.16409
  20
290.6803
  0
VERTEX
  5
99
  8
Layer_0
  10
246.16409
  20
269.6803
  0
VERTEX
  5
9a
  8
Layer_0
  10
231.16409
  20
269.6803
  0
VERTEX
  5
9b
  8
Layer_0
  10
231.16409
  20
290.6803
  0
VERTEX
  5
9c
  8
Layer_0
  10
246.16409
  20
290.6803
  0
SEQEND
  0
POLYLINE
  5
9e
  8
Layer_0
  62
0
  70
1
  66
1
  10
0
  20
0
  30
0
  0
VERTEX
  5
9e
  8
Layer_0
  10
243.66409
  20
272.6803
  0
VERTEX
  5
9f
  8
Layer_0
  10
243.66409
  20
276.1803
  0
VERTEX
  5
a0
  8
Layer_0
  10
233.66409
  20
276.1803
  0
VERTEX
  5
a1
  8
Layer_0
  10
233.66409
  20
272.6803
  0
VERTEX
  5
a2
  8
Layer_0
  10
243.66409
  20
272.6803
  0
SEQEND
  0
POLYLINE
  5
a4
  8
Layer_0
  62
0
  70
1
  66
1
  10
0
  20
0
  30
0
  0
VERTEX
  5
a4
  8
Layer_0
  10
243.06827
  20
291.42346
  0
VERTEX
  5
a5
  8
Layer_0
  10
228.06827
  20
291.42346
  0
VERTEX
  5
a6
  8
Layer_0
  10
228.06827
  20
312.42346
  0
VERTEX
  5
a7
  8
Layer_0
  10
243.06827
  20
312.42346
  0
VERTEX
  5
a8
  8
Layer_0
  10
243.06827
  20
291.42346
  0
SEQEND
  0
POLYLINE
  5
aa
  8
Layer_0
  62
0
  70
1
  66
1
  10
0
  20
0
  30
0
  0
VERTEX
  5
aa
  8
Layer_0
  10
240.56827
  20
294.42346
  0
VERTEX
  5
ab
  8
Layer_0
  10
240.56827
  20
297.92346
  0
VERTEX
  5
ac
  8
Layer_0
  10
230.56827
  20
297.92346
  0
VERTEX
  5
ad
  8
Layer_0
  10
230.56827
  20
294.42346
  0
VERTEX
  5
ae
  8
Layer_0
  10
240.56827
  20
294.42346
  0
SEQEND
  0
POLYLINE
  5
b0
  8
Layer_0
  62
0
  70
1
  66
1
  10
0
  20
0
  30
0
  0
VERTEX
  5
b0
  8
Layer_0
  10
246.5593
  20
303.97992
  0
VERTEX
  5
b1
  8
Layer_0
  10
246.53226
  20
293.97998
  0
VERTEX
  5
b2
  8
Layer_0
  10
250.03226
  20
293.97046
  0
VERTEX
  5
b3
  8
Layer_0
  10
250.0593
  20
303.97046
  0
VERTEX
  5
b4
  8
Layer_0
  10
246.5593
  20
303.97992
  0
SEQEND
  0
POLYLINE
  5
b6
  8
Layer_0
  62
0
  70
1
  66
1
  10
0
  20
0
  30
0
  0
VERTEX
  5
b6
  8
Layer_0
  10
264.52542
  20
291.43127
  0
VERTEX
  5
b7
  8
Layer_0
  10
243.52554
  20
291.4881
  0
VERTEX
  5
b8
  8
Layer_0
  10
243.56607
  20
306.48804
  0
VERTEX
  5
b9
  8
Layer_0
  10
264.56601
  20
306.43115
  0
VERTEX
  5
ba
  8
Layer_0
  10
264.52542
  20
291.43127
  0
SEQEND
  0
POLYLINE
  5
bc
  8
Layer_0
  62
0
  70
1
  66
1
  10
0
  20
0
  30
0
  0
VERTEX
  5
bc
  8
Layer_0
  10
219.94498
  20
320.02576
  0
VERTEX
  5
bd
  8
Layer_0
  10
287.77835
  20
300.02576
  0
VERTEX
  5
be
  8
Layer_0
  10
317.77835
  20
300.02576
  0
VERTEX
  5
bf
  8
Layer_0
  10
385.61166
  20
320.02576
  0
VERTEX
  5
c0
  8
Layer_0
  10
389.11166
  20
380.02576
  0
VERTEX
  5
c1
  8
Layer_0
  10
317.77835
  20
400.02576
  0
VERTEX
  5
c2
  8
Layer_0
  10
287.77835
  20
400.02576
  0
VERTEX
  5
c3
  8
Layer_0
  10
216.44498
  20
380.02576
  0
VERTEX
  5
c4
  8
Layer_0
  10
219.94498
  20
320.02576
  0
SEQEND
  0
POLYLINE
  5
c6
  8
Layer_0
  62
0
  70
1
  66
1
  10
0
  20
0
  30
0
  0
VERTEX
  5
c6
  8
Layer_0
  10
287.77835
  20
299.52576
  0
VERTEX
  5
c7
  8
Layer_0
  10
317.77835
  20
299.52576
  0
VERTEX
  5
c8
  8
Layer_0
  10
358.77835
  20
284.52576
  0
VERTEX
  5
c9
  8
Layer_0
  10
356.15335
  20
239.52576
  0
VERTEX
  5
ca
  8
Layer_0
  10
317.77835
  20
224.52576
  0
VERTEX
  5
cb
  8
Layer_0
  10
287.77835
  20
224.52576
  0
VERTEX
  5
cc
  8
Layer_0
  10
249.40335
  20
239.52576
  0
VERTEX
  5
cd
  8
Layer_0
  10
246.77835
  20
284.52576
  0
VERTEX
  5
ce
  8
Layer_0
  10
287.77835
  20
299.52576
  0
SEQEND
  0
POLYLINE
  5
d0
  8
Layer_0
  62
0
  66
1
  10
0
  20
0
  30
0
  0
VERTEX
  5
d0
  8
Layer_0
  10
317.77835
  20
224.52576
  0
VERTEX
  5
d1
  8
Layer_0
  10
317.77835
  20
299.52576
  0
SEQEND
  0
POLYLINE
  5
d3
  8
Layer_0
  62
0
  66
1
  10
0
  20
0
  30
0
  0
VERTEX
  5
d3
  8
Layer_0
  10
287.77835
  20
299.52576
  0
VERTEX
  5
d4
  8
Layer_0
  10
287.77835
  20
224.52576
  0
SEQEND
  0
POLYLINE
  5
d6
  8
Layer_0
  62
0
  66
1
  10
0
  20
0
  30
0
  0
VERTEX
  5
d6
  8
Layer_0
  10
317.77835
  20
300.02576
  0
VERTEX
  5
d7
  8
Layer_0
  10
317.77835
  20
400.02576
  0
SEQEND
  0
POLYLINE
  5
d9
  8
Layer_0
  62
0
  66
1
  10
0
  20
0
  30
0
  0
VERTEX
  5
d9
  8
Layer_0
  10
287.77835
  20
400.02576
  0
VERTEX
  5
da
  8
Layer_0
  10
287.77835
  20
300.02576
  0
SEQEND
  0
POLYLINE
  5
dc
  8
Layer_0
  62
0
  66
1
  10
0
  20
0
  30
0
  0
VERTEX
  5
dc
  8
Layer_0
  10
287.77835
  20
223.02576
  0
VERTEX
  5
dd
  8
Layer_0
  10
287.77835
  20
163.02579
  0
SEQEND
  0
POLYLINE
  5
df
  8
Layer_0
  62
0
  66
1
  10
0
  20
0
  30
0
  0
VERTEX
  5
df
  8
Layer_0
  10
317.77835
  20
163.02579
  0
VERTEX
  5
e0
  8
Layer_0
  10
317.77835
  20
223.02576
  0
SEQEND
  0
POLYLINE
  5
e2
  8
Layer_0
  62
0
  70
1
  66
1
  10
0
  20
0
  30
0
  0
VERTEX
  5
e2
  8
Layer_0
  10
299.16312
  20
335.63757
  0
VERTEX
  5
e3
  8
Layer_0
  10
299.49228
  20
335.66931
  0
VERTEX
  5
e4
  8
Layer_0
  10
299.81339
  20
335.7356
  0
VERTEX
  5
e5
  8
Layer_0
  10
300.12387
  20
335.83545
  0
VERTEX
  5
e6
  8
Layer_0
  10
300.42123
  20
335.96729
  0
VERTEX
  5
e7
  8
Layer_0
  10
300.70291
  20
336.12988
  0
VERTEX
  5
e8
  8
Layer_0
  10
300.9664
  20
336.32202
  0
VERTEX
  5
e9
  8
Layer_0
  10
301.2092
  20
336.54248
  0
VERTEX
  5
ea
  8
Layer_0
  10
301.42874
  20
336.78992
  0
VERTEX
  5
eb
  8
Layer_0
  10
301.68094
  20
337.12451
  0
VERTEX
  5
ec
  8
Layer_0
  10
301.91061
  20
337.47437
  0
VERTEX
  5
ed
  8
Layer_0
  10
302.11716
  20
337.8385
  0
VERTEX
  5
ee
  8
Layer_0
  10
302.29984
  20
338.2157
  0
VERTEX
  5
ef
  8
Layer_0
  10
302.71414
  20
339.17981
  0
VERTEX
  5
f0
  8
Layer_0
  10
303.09671
  20
340.1571
  0
VERTEX
  5
f1
  8
Layer_0
  10
308.22171
  20
353.85632
  0
VERTEX
  5
f2
  8
Layer_0
  10
306.02249
  20
353.85632
  0
VERTEX
  5
f3
  8
Layer_0
  10
303.25296
  20
346.29773
  0
VERTEX
  5
f4
  8
Layer_0
  10
302.99753
  20
345.56873
  0
VERTEX
  5
f5
  8
Layer_0
  10
302.76187
  20
344.83337
  0
VERTEX
  5
f6
  8
Layer_0
  10
302.54617
  20
344.0918
  0
VERTEX
  5
f7
  8
Layer_0
  10
302.35062
  20
343.3446
  0
VERTEX
  5
f8
  8
Layer_0
  10
301.91373
  20
344.85706
  0
VERTEX
  5
f9
  8
Layer_0
  10
301.40921
  20
346.34851
  0
VERTEX
  5
fa
  8
Layer_0
  10
298.70999
  20
353.85632
  0
VERTEX
  5
fb
  8
Layer_0
  10
296.3428
  20
353.85632
  0
VERTEX
  5
fc
  8
Layer_0
  10
301.26077
  20
340.86804
  0
VERTEX
  5
fd
  8
Layer_0
  10
300.93668
  20
339.96899
  0
VERTEX
  5
fe
  8
Layer_0
  10
300.5889
  20
339.07898
  0
VERTEX
  5
ff
  8
Layer_0
  10
300.43375
  20
338.75415
  0
VERTEX
  5
100
  8
Layer_0
  10
300.22617
  20
338.46326
  0
VERTEX
  5
101
  8
Layer_0
  10
299.97141
  20
338.21277
  0
VERTEX
  5
102
  8
Layer_0
  10
299.67484
  20
338.00867
  0
VERTEX
  5
103
  8
Layer_0
  10
299.42581
  20
337.89929
  0
VERTEX
  5
104
  8
Layer_0
  10
299.16312
  20
337.82898
  0
VERTEX
  5
105
  8
Layer_0
  10
298.77127
  20
337.77881
  0
VERTEX
  5
106
  8
Layer_0
  10
298.37741
  20
337.7699
  0
VERTEX
  5
107
  8
Layer_0
  10
297.98483
  20
337.80225
  0
VERTEX
  5
108
  8
Layer_0
  10
297.59671
  20
337.87585
  0
VERTEX
  5
109
  8
Layer_0
  10
297.24515
  20
337.96179
  0
VERTEX
  5
10a
  8
Layer_0
  10
297.49124
  20
335.89929
  0
VERTEX
  5
10b
  8
Layer_0
  10
298.02859
  20
335.73975
  0
VERTEX
  5
10c
  8
Layer_0
  10
298.58109
  20
335.64539
  0
VERTEX
  5
10d
  8
Layer_0
  10
298.87192
  20
335.63
  0
VERTEX
  5
10e
  8
Layer_0
  10
299.16312
  20
335.63757
  0
SEQEND
  0
POLYLINE
  5
110
  8
Layer_0
  62
0
  70
1
  66
1
  10
0
  20
0
  30
0
  0
VERTEX
  5
110
  8
Layer_0
  10
299.65921
  20
255.92017
  0
VERTEX
  5
111
  8
Layer_0
  10
299.98837
  20
255.9519
  0
VERTEX
  5
112
  8
Layer_0
  10
300.30948
  20
256.01831
  0
VERTEX
  5
113
  8
Layer_0
  10
300.61996
  20
256.1181
  0
VERTEX
  5
114
  8
Layer_0
  10
300.91733
  20
256.24994
  0
VERTEX
  5
115
  8
Layer_0
  10
301.19901
  20
256.4126
  0
VERTEX
  5
116
  8
Layer_0
  10
301.46255
  20
256.60474
  0
VERTEX
  5
117
  8
Layer_0
  10
301.70529
  20
256.82513
  0
VERTEX
  5
118
  8
Layer_0
  10
301.92484
  20
257.07251
  0
VERTEX
  5
119
  8
Layer_0
  10
302.17703
  20
257.40717
  0
VERTEX
  5
11a
  8
Layer_0
  10
302.40677
  20
257.75708
  0
VERTEX
  5
11b
  8
Layer_0
  10
302.61331
  20
258.12115
  0
VERTEX
  5
11c
  8
Layer_0
  10
302.79593
  20
258.49829
  0
VERTEX
  5
11d
  8
Layer_0
  10
303.21024
  20
259.46252
  0
VERTEX
  5
11e
  8
Layer_0
  10
303.5928
  20
260.4397
  0
VERTEX
  5
11f
  8
Layer_0
  10
308.7178
  20
274.13892
  0
VERTEX
  5
120
  8
Layer_0
  10
306.51859
  20
274.13892
  0
VERTEX
  5
121
  8
Layer_0
  10
303.74905
  20
266.58032
  0
VERTEX
  5
122
  8
Layer_0
  10
303.49362
  20
265.85132
  0
VERTEX
  5
123
  8
Layer_0
  10
303.25803
  20
265.11597
  0
VERTEX
  5
124
  8
Layer_0
  10
303.04233
  20
264.37439
  0
VERTEX
  5
125
  8
Layer_0
  10
302.84671
  20
263.6272
  0
VERTEX
  5
126
  8
Layer_0
  10
302.40982
  20
265.13977
  0
VERTEX
  5
127
  8
Layer_0
  10
301.9053
  20
266.6311
  0
VERTEX
  5
128
  8
Layer_0
  10
299.20609
  20
274.13892
  0
VERTEX
  5
129
  8
Layer_0
  10
296.8389
  20
274.13892
  0
VERTEX
  5
12a
  8
Layer_0
  10
301.75687
  20
261.15063
  0
VERTEX
  5
12b
  8
Layer_0
  10
301.43277
  20
260.25165
  0
VERTEX
  5
12c
  8
Layer_0
  10
301.08499
  20
259.36157
  0
VERTEX
  5
12d
  8
Layer_0
  10
300.92984
  20
259.03674
  0
VERTEX
  5
12e
  8
Layer_0
  10
300.72226
  20
258.74585
  0
VERTEX
  5
12f
  8
Layer_0
  10
300.4675
  20
258.49536
  0
VERTEX
  5
130
  8
Layer_0
  10
300.17093
  20
258.29126
  0
VERTEX
  5
131
  8
Layer_0
  10
299.92191
  20
258.18201
  0
VERTEX
  5
132
  8
Layer_0
  10
299.65921
  20
258.11157
  0
VERTEX
  5
133
  8
Layer_0
  10
299.26736
  20
258.0614
  0
VERTEX
  5
134
  8
Layer_0
  10
298.87357
  20
258.05261
  0
VERTEX
  5
135
  8
Layer_0
  10
298.48093
  20
258.08496
  0
VERTEX
  5
136
  8
Layer_0
  10
298.0928
  20
258.15845
  0
VERTEX
  5
137
  8
Layer_0
  10
297.74124
  20
258.24438
  0
VERTEX
  5
138
  8
Layer_0
  10
297.98734
  20
256.18188
  0
VERTEX
  5
139
  8
Layer_0
  10
298.52469
  20
256.0224
  0
VERTEX
  5
13a
  8
Layer_0
  10
299.07718
  20
255.92798
  0
VERTEX
  5
13b
  8
Layer_0
  10
299.36807
  20
255.91266
  0
VERTEX
  5
13c
  8
Layer_0
  10
299.65921
  20
255.92017
  0
SEQEND
  0
POLYLINE
  5
13e
  8
Layer_0
  62
0
  70
1
  66
1
  10
0
  20
0
  30
0
  0
VERTEX
  5
13e
  8
Layer_0
  10
299.65921
  20
179.92017
  0
VERTEX
  5
13f
  8
Layer_0
  10
299.98843
  20
179.95193
  0
VERTEX
  5
140
  8
Layer_0
  10
300.30954
  20
180.01831
  0
VERTEX
  5
141
  8
Layer_0
  10
300.62003
  20
180.1181
  0
VERTEX
  5
142
  8
Layer_0
  10
300.91739
  20
180.24994
  0
VERTEX
  5
143
  8
Layer_0
  10
301.19907
  20
180.41257
  0
VERTEX
  5
144
  8
Layer_0
  10
301.46255
  20
180.60474
  0
VERTEX
  5
145
  8
Layer_0
  10
301.70535
  20
180.82513
  0
VERTEX
  5
146
  8
Layer_0
  10
301.92484
  20
181.07251
  0
VERTEX
  5
147
  8
Layer_0
  10
302.17703
  20
181.40717
  0
VERTEX
  5
148
  8
Layer_0
  10
302.40677
  20
181.75708
  0
VERTEX
  5
149
  8
Layer_0
  10
302.61331
  20
182.12115
  0
VERTEX
  5
14a
  8
Layer_0
  10
302.79593
  20
182.49829
  0
VERTEX
  5
14b
  8
Layer_0
  10
303.2103
  20
183.46249
  0
VERTEX
  5
14c
  8
Layer_0
  10
303.5928
  20
184.4397
  0
VERTEX
  5
14d
  8
Layer_0
  10
308.7178
  20
198.13892
  0
VERTEX
  5
14e
  8
Layer_0
  10
306.51859
  20
198.13892
  0
VERTEX
  5
14f
  8
Layer_0
  10
303.74905
  20
190.58032
  0
VERTEX
  5
150
  8
Layer_0
  10
303.49368
  20
189.85135
  0
VERTEX
  5
151
  8
Layer_0
  10
303.25803
  20
189.11594
  0
VERTEX
  5
152
  8
Layer_0
  10
303.04233
  20
188.37442
  0
VERTEX
  5
153
  8
Layer_0
  10
302.84671
  20
187.6272
  0
VERTEX
  5
154
  8
Layer_0
  10
302.40982
  20
189.13974
  0
VERTEX
  5
155
  8
Layer_0
  10
301.9053
  20
190.6311
  0
VERTEX
  5
156
  8
Layer_0
  10
299.20609
  20
198.13892
  0
VERTEX
  5
157
  8
Layer_0
  10
296.8389
  20
198.13892
  0
VERTEX
  5
158
  8
Layer_0
  10
301.75687
  20
185.15063
  0
VERTEX
  5
159
  8
Layer_0
  10
301.43283
  20
184.25165
  0
VERTEX
  5
15a
  8
Layer_0
  10
301.08499
  20
183.36157
  0
VERTEX
  5
15b
  8
Layer_0
  10
300.9299
  20
183.03671
  0
VERTEX
  5
15c
  8
Layer_0
  10
300.72232
  20
182.74588
  0
VERTEX
  5
15d
  8
Layer_0
  10
300.46756
  20
182.49533
  0
VERTEX
  5
15e
  8
Layer_0
  10
300.17093
  20
182.29126
  0
VERTEX
  5
15f
  8
Layer_0
  10
299.92191
  20
182.18198
  0
VERTEX
  5
160
  8
Layer_0
  10
299.65921
  20
182.11157
  0
VERTEX
  5
161
  8
Layer_0
  10
299.26736
  20
182.06143
  0
VERTEX
  5
162
  8
Layer_0
  10
298.87357
  20
182.05258
  0
VERTEX
  5
163
  8
Layer_0
  10
298.48099
  20
182.08493
  0
VERTEX
  5
164
  8
Layer_0
  10
298.0928
  20
182.15845
  0
VERTEX
  5
165
  8
Layer_0
  10
297.74124
  20
182.24438
  0
VERTEX
  5
166
  8
Layer_0
  10
297.98734
  20
180.18188
  0
VERTEX
  5
167
  8
Layer_0
  10
298.52469
  20
180.0224
  0
VERTEX
  5
168
  8
Layer_0
  10
299.07718
  20
179.92798
  0
VERTEX
  5
169
  8
Layer_0
  10
299.36807
  20
179.91266
  0
VERTEX
  5
16a
  8
Layer_0
  10
299.65921
  20
179.92017
  0
SEQEND
  0
ENDSEC
  0
EOF
