  0
SECTION
  2
HEADER
  9
$ACADVER
  1
AC1021
  9
$ACADMAINTVER
 70
    25
  9
$DWGCODEPAGE
  3
ANSI_936
  9
$INSBASE
 10
0.0
 20
0.0
 30
0.0
  9
$EXTMIN
 10
-63.4932
 20
-61.3341
 30
0.0
  9
$EXTMAX
 10
63.9643
 20
128.3159
 30
0.0
  9
$LIMMIN
 10
0.0
 20
0.0
  9
$LIMMAX
 10
12.0
 20
9.0
  9
$ORTHOMODE
 70
     0
  9
$REGENMODE
 70
     1
  9
$FILLMODE
 70
     1
  9
$QTEXTMODE
 70
     0
  9
$MIRRTEXT
 70
     1
  9
$LTSCALE
 40
1.0
  9
$ATTMODE
 70
     1
  9
$TEXTSIZE
 40
0.2
  9
$TRACEWID
 40
0.05
  9
$TEXTSTYLE
  7
Standard
  9
$CLAYER
  8
0
  9
$CELTYPE
  6
ByLayer
  9
$CECOLOR
 62
   256
  9
$CELTSCALE
 40
1.0
  9
$DISPSILH
 70
     0
  9
$DIMSCALE
 40
1.0
  9
$DIMASZ
 40
0.18
  9
$DIMEXO
 40
0.0625
  9
$DIMDLI
 40
0.38
  9
$DIMRND
 40
0.0
  9
$DIMDLE
 40
0.0
  9
$DIMEXE
 40
0.18
  9
$DIMTP
 40
0.0
  9
$DIMTM
 40
0.0
  9
$DIMTXT
 40
0.18
  9
$DIMCEN
 40
0.09
  9
$DIMTSZ
 40
0.0
  9
$DIMTOL
 70
     0
  9
$DIMLIM
 70
     0
  9
$DIMTIH
 70
     1
  9
$DIMTOH
 70
     1
  9
$DIMSE1
 70
     0
  9
$DIMSE2
 70
     0
  9
$DIMTAD
 70
     0
  9
$DIMZIN
 70
     0
  9
$DIMBLK
  1

  9
$DIMASO
 70
     1
  9
$DIMSHO
 70
     1
  9
$DIMPOST
  1

  9
$DIMAPOST
  1

  9
$DIMALT
 70
     0
  9
$DIMALTD
 70
     2
  9
$DIMALTF
 40
25.4
  9
$DIMLFAC
 40
1.0
  9
$DIMTOFL
 70
     0
  9
$DIMTVP
 40
0.0
  9
$DIMTIX
 70
     0
  9
$DIMSOXD
 70
     0
  9
$DIMSAH
 70
     0
  9
$DIMBLK1
  1

  9
$DIMBLK2
  1

  9
$DIMSTYLE
  2
Standard
  9
$DIMCLRD
 70
     0
  9
$DIMCLRE
 70
     0
  9
$DIMCLRT
 70
     0
  9
$DIMTFAC
 40
1.0
  9
$DIMGAP
 40
0.09
  9
$DIMJUST
 70
     0
  9
$DIMSD1
 70
     0
  9
$DIMSD2
 70
     0
  9
$DIMTOLJ
 70
     1
  9
$DIMTZIN
 70
     0
  9
$DIMALTZ
 70
     0
  9
$DIMALTTZ
 70
     0
  9
$DIMUPT
 70
     0
  9
$DIMDEC
 70
     4
  9
$DIMTDEC
 70
     4
  9
$DIMALTU
 70
     2
  9
$DIMALTTD
 70
     2
  9
$DIMTXSTY
  7
Standard
  9
$DIMAUNIT
 70
     0
  9
$DIMADEC
 70
     0
  9
$DIMALTRND
 40
0.0
  9
$DIMAZIN
 70
     0
  9
$DIMDSEP
 70
    46
  9
$DIMATFIT
 70
     3
  9
$DIMFRAC
 70
     0
  9
$DIMLDRBLK
  1

  9
$DIMLUNIT
 70
     2
  9
$DIMLWD
 70
    -2
  9
$DIMLWE
 70
    -2
  9
$DIMTMOVE
 70
     0
  9
$DIMFXL
 40
1.0
  9
$DIMFXLON
 70
     0
  9
$DIMJOGANG
 40
0.7853981633974483
  9
$DIMTFILL
 70
     0
  9
$DIMTFILLCLR
 70
     0
  9
$DIMARCSYM
 70
     0
  9
$DIMLTYPE
  6

  9
$DIMLTEX1
  6

  9
$DIMLTEX2
  6

  9
$LUNITS
 70
     2
  9
$LUPREC
 70
     4
  9
$SKETCHINC
 40
0.1
  9
$FILLETRAD
 40
0.5
  9
$AUNITS
 70
     0
  9
$AUPREC
 70
     0
  9
$MENU
  1
.
  9
$ELEVATION
 40
0.0
  9
$PELEVATION
 40
0.0
  9
$THICKNESS
 40
0.0
  9
$LIMCHECK
 70
     0
  9
$CHAMFERA
 40
0.5
  9
$CHAMFERB
 40
0.5
  9
$CHAMFERC
 40
1.0
  9
$CHAMFERD
 40
0.0
  9
$SKPOLY
 70
     0
  9
$TDCREATE
 40
2457537.655728669
  9
$TDUCREATE
 40
2457537.322395335
  9
$TDUPDATE
 40
2457537.655728681
  9
$TDUUPDATE
 40
2457537.322395347
  9
$TDINDWG
 40
0.0000000116
  9
$TDUSRTIMER
 40
0.0000000116
  9
$USRTIMER
 70
     1
  9
$ANGBASE
 50
0.0
  9
$ANGDIR
 70
     0
  9
$PDMODE
 70
     0
  9
$PDSIZE
 40
0.0
  9
$PLINEWID
 40
0.0
  9
$SPLFRAME
 70
     0
  9
$SPLINETYPE
 70
     6
  9
$SPLINESEGS
 70
     8
  9
$HANDSEED
  5
20C
  9
$SURFTAB1
 70
     6
  9
$SURFTAB2
 70
     6
  9
$SURFTYPE
 70
     6
  9
$SURFU
 70
     6
  9
$SURFV
 70
     6
  9
$UCSBASE
  2

  9
$UCSNAME
  2

  9
$UCSORG
 10
0.0
 20
0.0
 30
0.0
  9
$UCSXDIR
 10
1.0
 20
0.0
 30
0.0
  9
$UCSYDIR
 10
0.0
 20
1.0
 30
0.0
  9
$UCSORTHOREF
  2

  9
$UCSORTHOVIEW
 70
     0
  9
$UCSORGTOP
 10
0.0
 20
0.0
 30
0.0
  9
$UCSORGBOTTOM
 10
0.0
 20
0.0
 30
0.0
  9
$UCSORGLEFT
 10
0.0
 20
0.0
 30
0.0
  9
$UCSORGRIGHT
 10
0.0
 20
0.0
 30
0.0
  9
$UCSORGFRONT
 10
0.0
 20
0.0
 30
0.0
  9
$UCSORGBACK
 10
0.0
 20
0.0
 30
0.0
  9
$PUCSBASE
  2

  9
$PUCSNAME
  2

  9
$PUCSORG
 10
0.0
 20
0.0
 30
0.0
  9
$PUCSXDIR
 10
1.0
 20
0.0
 30
0.0
  9
$PUCSYDIR
 10
0.0
 20
1.0
 30
0.0
  9
$PUCSORTHOREF
  2

  9
$PUCSORTHOVIEW
 70
     0
  9
$PUCSORGTOP
 10
0.0
 20
0.0
 30
0.0
  9
$PUCSORGBOTTOM
 10
0.0
 20
0.0
 30
0.0
  9
$PUCSORGLEFT
 10
0.0
 20
0.0
 30
0.0
  9
$PUCSORGRIGHT
 10
0.0
 20
0.0
 30
0.0
  9
$PUCSORGFRONT
 10
0.0
 20
0.0
 30
0.0
  9
$PUCSORGBACK
 10
0.0
 20
0.0
 30
0.0
  9
$USERI1
 70
     0
  9
$USERI2
 70
     0
  9
$USERI3
 70
     0
  9
$USERI4
 70
     0
  9
$USERI5
 70
     0
  9
$USERR1
 40
0.0
  9
$USERR2
 40
0.0
  9
$USERR3
 40
0.0
  9
$USERR4
 40
0.0
  9
$USERR5
 40
0.0
  9
$WORLDVIEW
 70
     1
  9
$SHADEDGE
 70
     3
  9
$SHADEDIF
 70
    70
  9
$TILEMODE
 70
     1
  9
$MAXACTVP
 70
    64
  9
$PINSBASE
 10
0.0
 20
0.0
 30
0.0
  9
$PLIMCHECK
 70
     0
  9
$PEXTMIN
 10
1.000000000000000E+20
 20
1.000000000000000E+20
 30
1.000000000000000E+20
  9
$PEXTMAX
 10
-1.000000000000000E+20
 20
-1.000000000000000E+20
 30
-1.000000000000000E+20
  9
$PLIMMIN
 10
0.0
 20
0.0
  9
$PLIMMAX
 10
12.0
 20
9.0
  9
$UNITMODE
 70
     0
  9
$VISRETAIN
 70
     1
  9
$PLINEGEN
 70
     0
  9
$PSLTSCALE
 70
     1
  9
$TREEDEPTH
 70
  3020
  9
$CMLSTYLE
  2
Standard
  9
$CMLJUST
 70
     0
  9
$CMLSCALE
 40
1.0
  9
$PROXYGRAPHICS
 70
     1
  9
$MEASUREMENT
 70
     0
  9
$CELWEIGHT
370
    -1
  9
$ENDCAPS
280
     0
  9
$JOINSTYLE
280
     0
  9
$LWDISPLAY
290
     0
  9
$INSUNITS
 70
     4
  9
$HYPERLINKBASE
  1

  9
$STYLESHEET
  1

  9
$XEDIT
290
     1
  9
$CEPSNTYPE
380
     0
  9
$PSTYLEMODE
290
     1
  9
$FINGERPRINTGUID
  2
{1B7E4BF0-2140-413C-BA7D-9E0103ACA170}
  9
$VERSIONGUID
  2
{FAEB1C32-E019-11D5-929B-00C0DF256EC4}
  9
$EXTNAMES
290
     1
  9
$PSVPSCALE
 40
0.0
  9
$OLESTARTUP
290
     0
  9
$SORTENTS
280
   127
  9
$INDEXCTL
280
     0
  9
$HIDETEXT
280
     1
  9
$XCLIPFRAME
290
     0
  9
$HALOGAP
280
     0
  9
$OBSCOLOR
 70
   257
  9
$OBSLTYPE
280
     0
  9
$INTERSECTIONDISPLAY
280
     0
  9
$INTERSECTIONCOLOR
 70
   257
  9
$DIMASSOC
280
     2
  9
$PROJECTNAME
  1

  9
$CAMERADISPLAY
290
     0
  9
$LENSLENGTH
 40
50.0
  9
$CAMERAHEIGHT
 40
0.0
  9
$STEPSPERSEC
 40
2.0
  9
$STEPSIZE
 40
6.0
  9
$3DDWFPREC
 40
2.0
  9
$PSOLWIDTH
 40
0.25
  9
$PSOLHEIGHT
 40
4.0
  9
$LOFTANG1
 40
1.570796326794897
  9
$LOFTANG2
 40
1.570796326794897
  9
$LOFTMAG1
 40
0.0
  9
$LOFTMAG2
 40
0.0
  9
$LOFTPARAM
 70
     7
  9
$LOFTNORMALS
280
     1
  9
$LATITUDE
 40
37.795
  9
$LONGITUDE
 40
-122.394
  9
$NORTHDIRECTION
 40
0.0
  9
$TIMEZONE
 70
 -8000
  9
$LIGHTGLYPHDISPLAY
280
     1
  9
$TILEMODELIGHTSYNCH
280
     1
  9
$SOLIDHIST
280
     1
  9
$SHOWHIST
280
     1
  9
$DWFFRAME
280
     2
  9
$DGNFRAME
280
     2
  9
$REALWORLDSCALE
290
     1
  9
$INTERFERECOLOR
 62
   256
  9
$CSHADOW
280
     0
  9
$SHADOWPLANELOCATION
 40
0.0
  0
ENDSEC
  0
SECTION
  2
CLASSES
  0
CLASS
  1
ACDBDICTIONARYWDFLT
  2
AcDbDictionaryWithDefault
  3
ObjectDBX Classes
 90
        0
 91
        3
280
     0
281
     0
  0
CLASS
  1
VISUALSTYLE
  2
AcDbVisualStyle
  3
ObjectDBX Classes
 90
     4095
 91
        3
280
     0
281
     0
  0
CLASS
  1
SCALE
  2
AcDbScale
  3
ObjectDBX Classes
 90
     1153
 91
        3
280
     0
281
     0
  0
ENDSEC
  0
SECTION
  2
TABLES
  0
TABLE
  2
VPORT
  5
8
330
0
100
AcDbSymbolTable
 70
     1
  0
VPORT
  5
29
330
8
100
AcDbSymbolTableRecord
100
AcDbViewportTableRecord
  2
*Active
 70
     0
 10
0.0
 20
0.0
 11
1.0
 21
1.0
 12
10.42990654205607
 22
4.5
 13
0.0
 23
0.0
 14
0.5
 24
0.5
 15
0.5
 25
0.5
 16
0.0
 26
0.0
 36
1.0
 17
0.0
 27
0.0
 37
0.0
 40
9.0
 41
1.972972972850329
 42
50.0
 43
0.0
 44
0.0
 50
0.0
 51
0.0
 71
     0
 72
   100
 73
     1
 74
     3
 75
     0
 76
     0
 77
     0
 78
     0
281
     0
 65
     1
110
0.0
120
0.0
130
0.0
111
1.0
121
0.0
131
0.0
112
0.0
122
1.0
132
0.0
 79
     0
146
0.0
 60
     3
 61
     5
292
     1
282
     1
141
0.0
142
0.0
 63
   256
  0
ENDTAB
  0
TABLE
  2
LTYPE
  5
5
330
0
100
AcDbSymbolTable
 70
     1
  0
LTYPE
  5
14
330
5
100
AcDbSymbolTableRecord
100
AcDbLinetypeTableRecord
  2
ByBlock
 70
     0
  3

 72
    65
 73
     0
 40
0.0
  0
LTYPE
  5
15
330
5
100
AcDbSymbolTableRecord
100
AcDbLinetypeTableRecord
  2
ByLayer
 70
     0
  3

 72
    65
 73
     0
 40
0.0
  0
LTYPE
  5
16
330
5
100
AcDbSymbolTableRecord
100
AcDbLinetypeTableRecord
  2
Continuous
 70
     0
  3
Solid line
 72
    65
 73
     0
 40
0.0
  0
ENDTAB
  0
TABLE
  2
LAYER
  5
2
330
0
100
AcDbSymbolTable
 70
     2
  0
LAYER
  5
10
330
2
100
AcDbSymbolTableRecord
100
AcDbLayerTableRecord
  2
0
 70
     0
 62
     7
  6
Continuous
370
    -3
390
F
347
0
  0
LAYER
  5
5E
330
2
100
AcDbSymbolTableRecord
100
AcDbLayerTableRecord
  2
layer 1
 70
     0
 62
     7
  6
Continuous
370
    -3
390
F
347
0
  0
ENDTAB
  0
TABLE
  2
STYLE
  5
3
330
0
100
AcDbSymbolTable
 70
     1
  0
STYLE
  5
11
330
3
100
AcDbSymbolTableRecord
100
AcDbTextStyleTableRecord
  2
Standard
 70
     0
 40
0.0
 41
1.0
 50
0.0
 71
     0
 42
0.2
  3
txt
  4

  0
ENDTAB
  0
TABLE
  2
VIEW
  5
6
330
0
100
AcDbSymbolTable
 70
     0
  0
ENDTAB
  0
TABLE
  2
UCS
  5
7
330
0
100
AcDbSymbolTable
 70
     0
  0
ENDTAB
  0
TABLE
  2
APPID
  5
9
330
0
100
AcDbSymbolTable
 70
     2
  0
APPID
  5
12
330
9
100
AcDbSymbolTableRecord
100
AcDbRegAppTableRecord
  2
ACAD
 70
     0
  0
APPID
  5
5D
330
9
100
AcDbSymbolTableRecord
100
AcDbRegAppTableRecord
  2
ODA
 70
     0
  0
ENDTAB
  0
TABLE
  2
DIMSTYLE
  5
A
330
0
100
AcDbSymbolTable
 70
     1
100
AcDbDimStyleTable
  0
DIMSTYLE
105
27
330
A
100
AcDbSymbolTableRecord
100
AcDbDimStyleTableRecord
  2
Standard
 70
     0
340
11
  0
ENDTAB
  0
TABLE
  2
BLOCK_RECORD
  5
1
330
0
100
AcDbSymbolTable
 70
     1
  0
BLOCK_RECORD
  5
1F
330
1
100
AcDbSymbolTableRecord
100
AcDbBlockTableRecord
  2
*Model_Space
340
22
 70
     0
280
     1
281
     0
  0
BLOCK_RECORD
  5
1B
330
1
100
AcDbSymbolTableRecord
100
AcDbBlockTableRecord
  2
*Paper_Space
340
1E
 70
     0
280
     1
281
     0
  0
BLOCK_RECORD
  5
23
330
1
100
AcDbSymbolTableRecord
100
AcDbBlockTableRecord
  2
*Paper_Space0
340
26
 70
     0
280
     1
281
     0
  0
ENDTAB
  0
ENDSEC
  0
SECTION
  2
BLOCKS
  0
BLOCK
  5
20
330
1F
100
AcDbEntity
  8
0
100
AcDbBlockBegin
  2
*Model_Space
 70
     0
 10
0.0
 20
0.0
 30
0.0
  3
*Model_Space
  1

  0
ENDBLK
  5
21
330
1F
100
AcDbEntity
  8
0
100
AcDbBlockEnd
  0
BLOCK
  5
1C
330
1B
100
AcDbEntity
 67
     1
  8
0
100
AcDbBlockBegin
  2
*Paper_Space
 70
     0
 10
0.0
 20
0.0
 30
0.0
  3
*Paper_Space
  1

  0
ENDBLK
  5
1D
330
1B
100
AcDbEntity
 67
     1
  8
0
100
AcDbBlockEnd
  0
BLOCK
  5
24
330
23
100
AcDbEntity
  8
0
100
AcDbBlockBegin
  2
*Paper_Space0
 70
     0
 10
0.0
 20
0.0
 30
0.0
  3
*Paper_Space0
  1

  0
ENDBLK
  5
25
330
23
100
AcDbEntity
  8
0
100
AcDbBlockEnd
  0
ENDSEC
  0
SECTION
  2
ENTITIES
  0
SPLINE
  5
5F
330
1F
100
AcDbEntity
  8
layer 1
370
     9
100
AcDbSpline
210
0.0
220
0.0
230
1.0
 70
    24
 71
     3
 72
     8
 73
     4
 74
     0
 42
0.0000000001
 43
0.0000000001
 40
0.0
 40
0.0
 40
0.0
 40
0.0
 40
1.0
 40
1.0
 40
1.0
 40
1.0
 10
17.66
 20
-9.9045
 30
0.0
 10
17.66
 20
-9.9045
 30
0.0
 10
17.66
 20
-30.5545
 30
0.0
 10
17.66
 20
-30.5545
 30
0.0
  0
SPLINE
  5
60
330
1F
100
AcDbEntity
  8
layer 1
370
     9
100
AcDbSpline
210
0.0
220
0.0
230
1.0
 70
    24
 71
     3
 72
     8
 73
     4
 74
     0
 42
0.0000000001
 43
0.0000000001
 40
0.0
 40
0.0
 40
0.0
 40
0.0
 40
1.0
 40
1.0
 40
1.0
 40
1.0
 10
11.6022
 20
-12.8044
 30
0.0
 10
11.6022
 20
-12.8044
 30
0.0
 10
11.6022
 20
-10.0046
 30
0.0
 10
11.6022
 20
-10.0046
 30
0.0
  0
SPLINE
  5
61
330
1F
100
AcDbEntity
  8
layer 1
370
     9
100
AcDbSpline
210
0.0
220
0.0
230
1.0
 70
    24
 71
     3
 72
     8
 73
     4
 74
     0
 42
0.0000000001
 43
0.0000000001
 40
0.0
 40
0.0
 40
0.0
 40
0.0
 40
1.0
 40
1.0
 40
1.0
 40
1.0
 10
-57.3973
 20
-10.0046
 30
0.0
 10
-57.3973
 20
-10.0046
 30
0.0
 10
11.6022
 20
-10.0046
 30
0.0
 10
11.6022
 20
-10.0046
 30
0.0
  0
SPLINE
  5
62
330
1F
100
AcDbEntity
  8
layer 1
370
     9
100
AcDbSpline
210
0.0
220
0.0
230
1.0
 70
    24
 71
     3
 72
     8
 73
     4
 74
     0
 42
0.0000000001
 43
0.0000000001
 40
0.0
 40
0.0
 40
0.0
 40
0.0
 40
1.0
 40
1.0
 40
1.0
 40
1.0
 10
-57.3973
 20
-10.0046
 30
0.0
 10
-57.3973
 20
-10.0046
 30
0.0
 10
-57.3973
 20
-12.8044
 30
0.0
 10
-57.3973
 20
-12.8044
 30
0.0
  0
SPLINE
  5
63
330
1F
100
AcDbEntity
  8
layer 1
370
     9
100
AcDbSpline
210
0.0
220
0.0
230
1.0
 70
    24
 71
     3
 72
     8
 73
     4
 74
     0
 42
0.0000000001
 43
0.0000000001
 40
0.0
 40
0.0
 40
0.0
 40
0.0
 40
1.0
 40
1.0
 40
1.0
 40
1.0
 10
-57.3973
 20
-12.8044
 30
0.0
 10
-57.3973
 20
-12.8044
 30
0.0
 10
11.6022
 20
-12.8044
 30
0.0
 10
11.6022
 20
-12.8044
 30
0.0
  0
SPLINE
  5
64
330
1F
100
AcDbEntity
  8
layer 1
370
     9
100
AcDbSpline
210
0.0
220
0.0
230
1.0
 70
    24
 71
     3
 72
     8
 73
     4
 74
     0
 42
0.0000000001
 43
0.0000000001
 40
0.0
 40
0.0
 40
0.0
 40
0.0
 40
1.0
 40
1.0
 40
1.0
 40
1.0
 10
11.6022
 20
-30.4544
 30
0.0
 10
11.6022
 20
-30.4544
 30
0.0
 10
11.6022
 20
-27.6546
 30
0.0
 10
11.6022
 20
-27.6546
 30
0.0
  0
SPLINE
  5
65
330
1F
100
AcDbEntity
  8
layer 1
370
     9
100
AcDbSpline
210
0.0
220
0.0
230
1.0
 70
    24
 71
     3
 72
     8
 73
     4
 74
     0
 42
0.0000000001
 43
0.0000000001
 40
0.0
 40
0.0
 40
0.0
 40
0.0
 40
1.0
 40
1.0
 40
1.0
 40
1.0
 10
-57.3973
 20
-27.6546
 30
0.0
 10
-57.3973
 20
-27.6546
 30
0.0
 10
11.6022
 20
-27.6546
 30
0.0
 10
11.6022
 20
-27.6546
 30
0.0
  0
SPLINE
  5
66
330
1F
100
AcDbEntity
  8
layer 1
370
     9
100
AcDbSpline
210
0.0
220
0.0
230
1.0
 70
    24
 71
     3
 72
     8
 73
     4
 74
     0
 42
0.0000000001
 43
0.0000000001
 40
0.0
 40
0.0
 40
0.0
 40
0.0
 40
1.0
 40
1.0
 40
1.0
 40
1.0
 10
-57.3973
 20
-27.6546
 30
0.0
 10
-57.3973
 20
-27.6546
 30
0.0
 10
-57.3973
 20
-30.4544
 30
0.0
 10
-57.3973
 20
-30.4544
 30
0.0
  0
SPLINE
  5
67
330
1F
100
AcDbEntity
  8
layer 1
370
     9
100
AcDbSpline
210
0.0
220
0.0
230
1.0
 70
    24
 71
     3
 72
     8
 73
     4
 74
     0
 42
0.0000000001
 43
0.0000000001
 40
0.0
 40
0.0
 40
0.0
 40
0.0
 40
1.0
 40
1.0
 40
1.0
 40
1.0
 10
-57.3973
 20
-30.4544
 30
0.0
 10
-57.3973
 20
-30.4544
 30
0.0
 10
11.6022
 20
-30.4544
 30
0.0
 10
11.6022
 20
-30.4544
 30
0.0
  0
SPLINE
  5
68
330
1F
100
AcDbEntity
  8
layer 1
370
     9
100
AcDbSpline
210
0.0
220
0.0
230
1.0
 70
    24
 71
     3
 72
     8
 73
     4
 74
     0
 42
0.0000000001
 43
0.0000000001
 40
0.0
 40
0.0
 40
0.0
 40
0.0
 40
1.0
 40
1.0
 40
1.0
 40
1.0
 10
-60.4551
 20
-6.9045
 30
0.0
 10
-60.4551
 20
-6.9045
 30
0.0
 10
14.66
 20
-6.9045
 30
0.0
 10
14.66
 20
-6.9045
 30
0.0
  0
SPLINE
  5
69
330
1F
100
AcDbEntity
  8
layer 1
370
     9
100
AcDbSpline
210
0.0
220
0.0
230
1.0
 70
     8
 71
     3
 72
    12
 73
     8
 74
     0
 42
0.0000000001
 43
0.0000000001
 40
0.0
 40
0.0
 40
0.0
 40
0.0
 40
0.5
 40
0.5
 40
0.5
 40
0.5
 40
1.0
 40
1.0
 40
1.0
 40
1.0
 10
17.66
 20
-9.9045
 30
0.0
 10
17.66
 20
-9.1089
 30
0.0
 10
17.3439
 20
-8.3458
 30
0.0
 10
16.7813
 20
-7.7832
 30
0.0
 10
16.7813
 20
-7.7832
 30
0.0
 10
16.2187
 20
-7.2206
 30
0.0
 10
15.4556
 20
-6.9046
 30
0.0
 10
14.66
 20
-6.9046
 30
0.0
  0
SPLINE
  5
6A
330
1F
100
AcDbEntity
  8
layer 1
370
     9
100
AcDbSpline
210
0.0
220
0.0
230
1.0
 70
     8
 71
     3
 72
    12
 73
     8
 74
     0
 42
0.0000000001
 43
0.0000000001
 40
0.0
 40
0.0
 40
0.0
 40
0.0
 40
0.5
 40
0.5
 40
0.5
 40
0.5
 40
1.0
 40
1.0
 40
1.0
 40
1.0
 10
14.66
 20
-33.5545
 30
0.0
 10
15.4556
 20
-33.5545
 30
0.0
 10
16.2187
 20
-33.2385
 30
0.0
 10
16.7813
 20
-32.6759
 30
0.0
 10
16.7813
 20
-32.6759
 30
0.0
 10
17.3439
 20
-32.1133
 30
0.0
 10
17.66
 20
-31.3502
 30
0.0
 10
17.66
 20
-30.5545
 30
0.0
  0
SPLINE
  5
6B
330
1F
100
AcDbEntity
  8
layer 1
370
     9
100
AcDbSpline
210
0.0
220
0.0
230
1.0
 70
    24
 71
     3
 72
     8
 73
     4
 74
     0
 42
0.0000000001
 43
0.0000000001
 40
0.0
 40
0.0
 40
0.0
 40
0.0
 40
1.0
 40
1.0
 40
1.0
 40
1.0
 10
-63.4551
 20
-30.5545
 30
0.0
 10
-63.4551
 20
-30.5545
 30
0.0
 10
-63.4551
 20
-9.9045
 30
0.0
 10
-63.4551
 20
-9.9045
 30
0.0
  0
SPLINE
  5
6C
330
1F
100
AcDbEntity
  8
layer 1
370
     9
100
AcDbSpline
210
0.0
220
0.0
230
1.0
 70
     8
 71
     3
 72
    12
 73
     8
 74
     0
 42
0.0000000001
 43
0.0000000001
 40
0.0
 40
0.0
 40
0.0
 40
0.0
 40
0.5
 40
0.5
 40
0.5
 40
0.5
 40
1.0
 40
1.0
 40
1.0
 40
1.0
 10
-60.4551
 20
-6.9046
 30
0.0
 10
-61.2507
 20
-6.9046
 30
0.0
 10
-62.0138
 20
-7.2206
 30
0.0
 10
-62.5764
 20
-7.7832
 30
0.0
 10
-62.5764
 20
-7.7832
 30
0.0
 10
-63.139
 20
-8.3458
 30
0.0
 10
-63.4551
 20
-9.1089
 30
0.0
 10
-63.4551
 20
-9.9045
 30
0.0
  0
SPLINE
  5
6D
330
1F
100
AcDbEntity
  8
layer 1
370
     9
100
AcDbSpline
210
0.0
220
0.0
230
1.0
 70
    24
 71
     3
 72
     8
 73
     4
 74
     0
 42
0.0000000001
 43
0.0000000001
 40
0.0
 40
0.0
 40
0.0
 40
0.0
 40
1.0
 40
1.0
 40
1.0
 40
1.0
 10
14.66
 20
-33.5545
 30
0.0
 10
14.66
 20
-33.5545
 30
0.0
 10
-60.4551
 20
-33.5545
 30
0.0
 10
-60.4551
 20
-33.5545
 30
0.0
  0
SPLINE
  5
6E
330
1F
100
AcDbEntity
  8
layer 1
370
     9
100
AcDbSpline
210
0.0
220
0.0
230
1.0
 70
     8
 71
     3
 72
     8
 73
     4
 74
     0
 42
0.0000000001
 43
0.0000000001
 40
0.0
 40
0.0
 40
0.0
 40
0.0
 40
1.0
 40
1.0
 40
1.0
 40
1.0
 10
-63.4551
 20
-30.5545
 30
0.0
 10
-63.4551
 20
-32.2114
 30
0.0
 10
-62.1119
 20
-33.5545
 30
0.0
 10
-60.4551
 20
-33.5545
 30
0.0
  0
SPLINE
  5
6F
330
1F
100
AcDbEntity
  8
layer 1
370
     9
100
AcDbSpline
210
0.0
220
0.0
230
1.0
 70
     8
 71
     3
 72
    20
 73
    16
 74
     0
 42
0.0000000001
 43
0.0000000001
 40
0.0
 40
0.0
 40
0.0
 40
0.0
 40
0.25
 40
0.25
 40
0.25
 40
0.25
 40
0.5
 40
0.5
 40
0.5
 40
0.5
 40
0.75
 40
0.75
 40
0.75
 40
0.75
 40
1.0
 40
1.0
 40
1.0
 40
1.0
 10
-14.9551
 20
-25.0546
 30
0.0
 10
-14.9551
 20
-25.883
 30
0.0
 10
-14.2835
 20
-26.5545
 30
0.0
 10
-13.4551
 20
-26.5545
 30
0.0
 10
-13.4551
 20
-26.5545
 30
0.0
 10
-12.6266
 20
-26.5546
 30
0.0
 10
-11.9551
 20
-25.883
 30
0.0
 10
-11.9551
 20
-25.0546
 30
0.0
 10
-11.9551
 20
-25.0546
 30
0.0
 10
-11.955
 20
-24.2261
 30
0.0
 10
-12.6266
 20
-23.5546
 30
0.0
 10
-13.455
 20
-23.5546
 30
0.0
 10
-13.455
 20
-23.5546
 30
0.0
 10
-14.2835
 20
-23.5545
 30
0.0
 10
-14.955
 20
-24.2261
 30
0.0
 10
-14.9551
 20
-25.0545
 30
0.0
  0
SPLINE
  5
70
330
1F
100
AcDbEntity
  8
layer 1
370
     9
100
AcDbSpline
210
0.0
220
0.0
230
1.0
 70
     8
 71
     3
 72
    20
 73
    16
 74
     0
 42
0.0000000001
 43
0.0000000001
 40
0.0
 40
0.0
 40
0.0
 40
0.0
 40
0.25
 40
0.25
 40
0.25
 40
0.25
 40
0.5
 40
0.5
 40
0.5
 40
0.5
 40
0.75
 40
0.75
 40
0.75
 40
0.75
 40
1.0
 40
1.0
 40
1.0
 40
1.0
 10
-47.9551
 20
-25.0546
 30
0.0
 10
-47.9551
 20
-25.883
 30
0.0
 10
-47.2835
 20
-26.5545
 30
0.0
 10
-46.4551
 20
-26.5545
 30
0.0
 10
-46.4551
 20
-26.5545
 30
0.0
 10
-45.6266
 20
-26.5546
 30
0.0
 10
-44.9551
 20
-25.883
 30
0.0
 10
-44.9551
 20
-25.0546
 30
0.0
 10
-44.9551
 20
-25.0546
 30
0.0
 10
-44.955
 20
-24.2261
 30
0.0
 10
-45.6266
 20
-23.5546
 30
0.0
 10
-46.455
 20
-23.5546
 30
0.0
 10
-46.455
 20
-23.5546
 30
0.0
 10
-47.2835
 20
-23.5545
 30
0.0
 10
-47.955
 20
-24.2261
 30
0.0
 10
-47.9551
 20
-25.0545
 30
0.0
  0
SPLINE
  5
71
330
1F
100
AcDbEntity
  8
layer 1
370
     9
100
AcDbSpline
210
0.0
220
0.0
230
1.0
 70
    24
 71
     3
 72
     8
 73
     4
 74
     0
 42
0.0000000001
 43
0.0000000001
 40
0.0
 40
0.0
 40
0.0
 40
0.0
 40
1.0
 40
1.0
 40
1.0
 40
1.0
 10
17.66
 20
-37.6461
 30
0.0
 10
17.66
 20
-37.6461
 30
0.0
 10
17.66
 20
-58.296
 30
0.0
 10
17.66
 20
-58.296
 30
0.0
  0
SPLINE
  5
72
330
1F
100
AcDbEntity
  8
layer 1
370
     9
100
AcDbSpline
210
0.0
220
0.0
230
1.0
 70
    24
 71
     3
 72
     8
 73
     4
 74
     0
 42
0.0000000001
 43
0.0000000001
 40
0.0
 40
0.0
 40
0.0
 40
0.0
 40
1.0
 40
1.0
 40
1.0
 40
1.0
 10
-57.3973
 20
-40.546
 30
0.0
 10
-57.3973
 20
-40.546
 30
0.0
 10
11.6022
 20
-40.546
 30
0.0
 10
11.6022
 20
-40.546
 30
0.0
  0
SPLINE
  5
73
330
1F
100
AcDbEntity
  8
layer 1
370
     9
100
AcDbSpline
210
0.0
220
0.0
230
1.0
 70
    24
 71
     3
 72
     8
 73
     4
 74
     0
 42
0.0000000001
 43
0.0000000001
 40
0.0
 40
0.0
 40
0.0
 40
0.0
 40
1.0
 40
1.0
 40
1.0
 40
1.0
 10
11.6022
 20
-40.546
 30
0.0
 10
11.6022
 20
-40.546
 30
0.0
 10
11.6022
 20
-37.7462
 30
0.0
 10
11.6022
 20
-37.7462
 30
0.0
  0
SPLINE
  5
74
330
1F
100
AcDbEntity
  8
layer 1
370
     9
100
AcDbSpline
210
0.0
220
0.0
230
1.0
 70
    24
 71
     3
 72
     8
 73
     4
 74
     0
 42
0.0000000001
 43
0.0000000001
 40
0.0
 40
0.0
 40
0.0
 40
0.0
 40
1.0
 40
1.0
 40
1.0
 40
1.0
 10
-57.3973
 20
-37.7462
 30
0.0
 10
-57.3973
 20
-37.7462
 30
0.0
 10
11.6022
 20
-37.7462
 30
0.0
 10
11.6022
 20
-37.7462
 30
0.0
  0
SPLINE
  5
75
330
1F
100
AcDbEntity
  8
layer 1
370
     9
100
AcDbSpline
210
0.0
220
0.0
230
1.0
 70
    24
 71
     3
 72
     8
 73
     4
 74
     0
 42
0.0000000001
 43
0.0000000001
 40
0.0
 40
0.0
 40
0.0
 40
0.0
 40
1.0
 40
1.0
 40
1.0
 40
1.0
 10
-57.3973
 20
-37.7462
 30
0.0
 10
-57.3973
 20
-37.7462
 30
0.0
 10
-57.3973
 20
-40.546
 30
0.0
 10
-57.3973
 20
-40.546
 30
0.0
  0
SPLINE
  5
76
330
1F
100
AcDbEntity
  8
layer 1
370
     9
100
AcDbSpline
210
0.0
220
0.0
230
1.0
 70
    27
 71
     3
 72
     8
 73
     4
 74
     0
 42
0.0000000001
 43
0.0000000001
 40
0.0
 40
0.0
 40
0.0
 40
0.0
 40
1.0
 40
1.0
 40
1.0
 40
1.0
 10
-57.3973
 20
-58.1959
 30
0.0
 10
-57.3973
 20
-58.1959
 30
0.0
 10
-57.3973
 20
-58.1959
 30
0.0
 10
-57.3973
 20
-58.1959
 30
0.0
  0
SPLINE
  5
77
330
1F
100
AcDbEntity
  8
layer 1
370
     9
100
AcDbSpline
210
0.0
220
0.0
230
1.0
 70
    24
 71
     3
 72
     8
 73
     4
 74
     0
 42
0.0000000001
 43
0.0000000001
 40
0.0
 40
0.0
 40
0.0
 40
0.0
 40
1.0
 40
1.0
 40
1.0
 40
1.0
 10
-57.3973
 20
-58.1959
 30
0.0
 10
-57.3973
 20
-58.1959
 30
0.0
 10
11.6022
 20
-58.1959
 30
0.0
 10
11.6022
 20
-58.1959
 30
0.0
  0
SPLINE
  5
78
330
1F
100
AcDbEntity
  8
layer 1
370
     9
100
AcDbSpline
210
0.0
220
0.0
230
1.0
 70
    27
 71
     3
 72
     8
 73
     4
 74
     0
 42
0.0000000001
 43
0.0000000001
 40
0.0
 40
0.0
 40
0.0
 40
0.0
 40
1.0
 40
1.0
 40
1.0
 40
1.0
 10
11.6022
 20
-58.1959
 30
0.0
 10
11.6022
 20
-58.1959
 30
0.0
 10
11.6022
 20
-58.1959
 30
0.0
 10
11.6022
 20
-58.1959
 30
0.0
  0
SPLINE
  5
79
330
1F
100
AcDbEntity
  8
layer 1
370
     9
100
AcDbSpline
210
0.0
220
0.0
230
1.0
 70
    24
 71
     3
 72
     8
 73
     4
 74
     0
 42
0.0000000001
 43
0.0000000001
 40
0.0
 40
0.0
 40
0.0
 40
0.0
 40
1.0
 40
1.0
 40
1.0
 40
1.0
 10
11.6022
 20
-58.1959
 30
0.0
 10
11.6022
 20
-58.1959
 30
0.0
 10
11.6022
 20
-55.3962
 30
0.0
 10
11.6022
 20
-55.3962
 30
0.0
  0
SPLINE
  5
7A
330
1F
100
AcDbEntity
  8
layer 1
370
     9
100
AcDbSpline
210
0.0
220
0.0
230
1.0
 70
    24
 71
     3
 72
     8
 73
     4
 74
     0
 42
0.0000000001
 43
0.0000000001
 40
0.0
 40
0.0
 40
0.0
 40
0.0
 40
1.0
 40
1.0
 40
1.0
 40
1.0
 10
-57.3973
 20
-55.3962
 30
0.0
 10
-57.3973
 20
-55.3962
 30
0.0
 10
11.6022
 20
-55.3962
 30
0.0
 10
11.6022
 20
-55.3962
 30
0.0
  0
SPLINE
  5
7B
330
1F
100
AcDbEntity
  8
layer 1
370
     9
100
AcDbSpline
210
0.0
220
0.0
230
1.0
 70
    24
 71
     3
 72
     8
 73
     4
 74
     0
 42
0.0000000001
 43
0.0000000001
 40
0.0
 40
0.0
 40
0.0
 40
0.0
 40
1.0
 40
1.0
 40
1.0
 40
1.0
 10
-57.3973
 20
-55.3962
 30
0.0
 10
-57.3973
 20
-55.3962
 30
0.0
 10
-57.3973
 20
-58.1959
 30
0.0
 10
-57.3973
 20
-58.1959
 30
0.0
  0
SPLINE
  5
7C
330
1F
100
AcDbEntity
  8
layer 1
370
     9
100
AcDbSpline
210
0.0
220
0.0
230
1.0
 70
    24
 71
     3
 72
     8
 73
     4
 74
     0
 42
0.0000000001
 43
0.0000000001
 40
0.0
 40
0.0
 40
0.0
 40
0.0
 40
1.0
 40
1.0
 40
1.0
 40
1.0
 10
-60.4551
 20
-34.6461
 30
0.0
 10
-60.4551
 20
-34.6461
 30
0.0
 10
14.66
 20
-34.6461
 30
0.0
 10
14.66
 20
-34.6461
 30
0.0
  0
SPLINE
  5
7D
330
1F
100
AcDbEntity
  8
layer 1
370
     9
100
AcDbSpline
210
0.0
220
0.0
230
1.0
 70
     8
 71
     3
 72
    12
 73
     8
 74
     0
 42
0.0000000001
 43
0.0000000001
 40
0.0
 40
0.0
 40
0.0
 40
0.0
 40
0.5
 40
0.5
 40
0.5
 40
0.5
 40
1.0
 40
1.0
 40
1.0
 40
1.0
 10
17.66
 20
-37.6461
 30
0.0
 10
17.66
 20
-36.8505
 30
0.0
 10
17.3439
 20
-36.0874
 30
0.0
 10
16.7813
 20
-35.5248
 30
0.0
 10
16.7813
 20
-35.5248
 30
0.0
 10
16.2187
 20
-34.9622
 30
0.0
 10
15.4556
 20
-34.6462
 30
0.0
 10
14.66
 20
-34.6462
 30
0.0
  0
SPLINE
  5
7E
330
1F
100
AcDbEntity
  8
layer 1
370
     9
100
AcDbSpline
210
0.0
220
0.0
230
1.0
 70
     8
 71
     3
 72
    12
 73
     8
 74
     0
 42
0.0000000001
 43
0.0000000001
 40
0.0
 40
0.0
 40
0.0
 40
0.0
 40
0.5
 40
0.5
 40
0.5
 40
0.5
 40
1.0
 40
1.0
 40
1.0
 40
1.0
 10
14.66
 20
-61.296
 30
0.0
 10
15.4556
 20
-61.296
 30
0.0
 10
16.2187
 20
-60.98
 30
0.0
 10
16.7813
 20
-60.4174
 30
0.0
 10
16.7813
 20
-60.4174
 30
0.0
 10
17.3439
 20
-59.8548
 30
0.0
 10
17.66
 20
-59.0917
 30
0.0
 10
17.66
 20
-58.296
 30
0.0
  0
SPLINE
  5
7F
330
1F
100
AcDbEntity
  8
layer 1
370
     9
100
AcDbSpline
210
0.0
220
0.0
230
1.0
 70
    27
 71
     3
 72
     8
 73
     4
 74
     0
 42
0.0000000001
 43
0.0000000001
 40
0.0
 40
0.0
 40
0.0
 40
0.0
 40
1.0
 40
1.0
 40
1.0
 40
1.0
 10
-63.4551
 20
-58.296
 30
0.0
 10
-63.4551
 20
-58.296
 30
0.0
 10
-63.4551
 20
-58.296
 30
0.0
 10
-63.4551
 20
-58.296
 30
0.0
  0
SPLINE
  5
80
330
1F
100
AcDbEntity
  8
layer 1
370
     9
100
AcDbSpline
210
0.0
220
0.0
230
1.0
 70
    24
 71
     3
 72
     8
 73
     4
 74
     0
 42
0.0000000001
 43
0.0000000001
 40
0.0
 40
0.0
 40
0.0
 40
0.0
 40
1.0
 40
1.0
 40
1.0
 40
1.0
 10
-63.4551
 20
-58.296
 30
0.0
 10
-63.4551
 20
-58.296
 30
0.0
 10
-63.4551
 20
-37.6461
 30
0.0
 10
-63.4551
 20
-37.6461
 30
0.0
  0
SPLINE
  5
81
330
1F
100
AcDbEntity
  8
layer 1
370
     9
100
AcDbSpline
210
0.0
220
0.0
230
1.0
 70
     8
 71
     3
 72
     8
 73
     4
 74
     0
 42
0.0000000001
 43
0.0000000001
 40
0.0
 40
0.0
 40
0.0
 40
0.0
 40
1.0
 40
1.0
 40
1.0
 40
1.0
 10
-60.4551
 20
-34.6462
 30
0.0
 10
-62.1119
 20
-34.6462
 30
0.0
 10
-63.455
 20
-35.9893
 30
0.0
 10
-63.4551
 20
-37.6461
 30
0.0
  0
SPLINE
  5
82
330
1F
100
AcDbEntity
  8
layer 1
370
     9
100
AcDbSpline
210
0.0
220
0.0
230
1.0
 70
    27
 71
     3
 72
     8
 73
     4
 74
     0
 42
0.0000000001
 43
0.0000000001
 40
0.0
 40
0.0
 40
0.0
 40
0.0
 40
1.0
 40
1.0
 40
1.0
 40
1.0
 10
-60.4551
 20
-61.296
 30
0.0
 10
-60.4551
 20
-61.296
 30
0.0
 10
-60.4551
 20
-61.296
 30
0.0
 10
-60.4551
 20
-61.296
 30
0.0
  0
SPLINE
  5
83
330
1F
100
AcDbEntity
  8
layer 1
370
     9
100
AcDbSpline
210
0.0
220
0.0
230
1.0
 70
    24
 71
     3
 72
     8
 73
     4
 74
     0
 42
0.0000000001
 43
0.0000000001
 40
0.0
 40
0.0
 40
0.0
 40
0.0
 40
1.0
 40
1.0
 40
1.0
 40
1.0
 10
14.66
 20
-61.296
 30
0.0
 10
14.66
 20
-61.296
 30
0.0
 10
-60.4551
 20
-61.296
 30
0.0
 10
-60.4551
 20
-61.296
 30
0.0
  0
SPLINE
  5
84
330
1F
100
AcDbEntity
  8
layer 1
370
     9
100
AcDbSpline
210
0.0
220
0.0
230
1.0
 70
     8
 71
     3
 72
     8
 73
     4
 74
     0
 42
0.0000000001
 43
0.0000000001
 40
0.0
 40
0.0
 40
0.0
 40
0.0
 40
1.0
 40
1.0
 40
1.0
 40
1.0
 10
-63.4551
 20
-58.296
 30
0.0
 10
-63.4551
 20
-59.9529
 30
0.0
 10
-62.1119
 20
-61.296
 30
0.0
 10
-60.4551
 20
-61.296
 30
0.0
  0
SPLINE
  5
85
330
1F
100
AcDbEntity
  8
layer 1
370
     9
100
AcDbSpline
210
0.0
220
0.0
230
1.0
 70
     8
 71
     3
 72
    20
 73
    16
 74
     0
 42
0.0000000001
 43
0.0000000001
 40
0.0
 40
0.0
 40
0.0
 40
0.0
 40
0.25
 40
0.25
 40
0.25
 40
0.25
 40
0.5
 40
0.5
 40
0.5
 40
0.5
 40
0.75
 40
0.75
 40
0.75
 40
0.75
 40
1.0
 40
1.0
 40
1.0
 40
1.0
 10
-14.9551
 20
-52.7962
 30
0.0
 10
-14.9551
 20
-53.6246
 30
0.0
 10
-14.2835
 20
-54.2961
 30
0.0
 10
-13.4551
 20
-54.2961
 30
0.0
 10
-13.4551
 20
-54.2961
 30
0.0
 10
-12.6266
 20
-54.2962
 30
0.0
 10
-11.9551
 20
-53.6246
 30
0.0
 10
-11.9551
 20
-52.7962
 30
0.0
 10
-11.9551
 20
-52.7962
 30
0.0
 10
-11.955
 20
-51.9677
 30
0.0
 10
-12.6266
 20
-51.2962
 30
0.0
 10
-13.455
 20
-51.2962
 30
0.0
 10
-13.455
 20
-51.2962
 30
0.0
 10
-14.2835
 20
-51.2961
 30
0.0
 10
-14.955
 20
-51.9677
 30
0.0
 10
-14.9551
 20
-52.7961
 30
0.0
  0
SPLINE
  5
86
330
1F
100
AcDbEntity
  8
layer 1
370
     9
100
AcDbSpline
210
0.0
220
0.0
230
1.0
 70
     8
 71
     3
 72
    20
 73
    16
 74
     0
 42
0.0000000001
 43
0.0000000001
 40
0.0
 40
0.0
 40
0.0
 40
0.0
 40
0.25
 40
0.25
 40
0.25
 40
0.25
 40
0.5
 40
0.5
 40
0.5
 40
0.5
 40
0.75
 40
0.75
 40
0.75
 40
0.75
 40
1.0
 40
1.0
 40
1.0
 40
1.0
 10
-47.9551
 20
-52.7962
 30
0.0
 10
-47.9551
 20
-53.6246
 30
0.0
 10
-47.2835
 20
-54.2961
 30
0.0
 10
-46.4551
 20
-54.2961
 30
0.0
 10
-46.4551
 20
-54.2961
 30
0.0
 10
-45.6266
 20
-54.2962
 30
0.0
 10
-44.9551
 20
-53.6246
 30
0.0
 10
-44.9551
 20
-52.7962
 30
0.0
 10
-44.9551
 20
-52.7962
 30
0.0
 10
-44.955
 20
-51.9677
 30
0.0
 10
-45.6266
 20
-51.2962
 30
0.0
 10
-46.455
 20
-51.2962
 30
0.0
 10
-46.455
 20
-51.2962
 30
0.0
 10
-47.2835
 20
-51.2961
 30
0.0
 10
-47.955
 20
-51.9677
 30
0.0
 10
-47.9551
 20
-52.7961
 30
0.0
  0
SPLINE
  5
87
330
1F
100
AcDbEntity
  8
layer 1
370
     9
100
AcDbSpline
210
0.0
220
0.0
230
1.0
 70
    27
 71
     3
 72
     8
 73
     4
 74
     0
 42
0.0000000001
 43
0.0000000001
 40
0.0
 40
0.0
 40
0.0
 40
0.0
 40
1.0
 40
1.0
 40
1.0
 40
1.0
 10
43.2762
 20
78.2778
 30
0.0
 10
43.2762
 20
78.2778
 30
0.0
 10
43.2762
 20
78.2778
 30
0.0
 10
43.2762
 20
78.2778
 30
0.0
  0
SPLINE
  5
88
330
1F
100
AcDbEntity
  8
layer 1
370
     9
100
AcDbSpline
210
0.0
220
0.0
230
1.0
 70
    24
 71
     3
 72
     8
 73
     4
 74
     0
 42
0.0000000001
 43
0.0000000001
 40
0.0
 40
0.0
 40
0.0
 40
0.0
 40
1.0
 40
1.0
 40
1.0
 40
1.0
 10
43.2762
 20
74.2778
 30
0.0
 10
43.2762
 20
74.2778
 30
0.0
 10
43.2762
 20
78.2778
 30
0.0
 10
43.2762
 20
78.2778
 30
0.0
  0
SPLINE
  5
89
330
1F
100
AcDbEntity
  8
layer 1
370
     9
100
AcDbSpline
210
0.0
220
0.0
230
1.0
 70
    27
 71
     3
 72
     8
 73
     4
 74
     0
 42
0.0000000001
 43
0.0000000001
 40
0.0
 40
0.0
 40
0.0
 40
0.0
 40
1.0
 40
1.0
 40
1.0
 40
1.0
 10
46.2762
 20
74.2778
 30
0.0
 10
46.2762
 20
74.2778
 30
0.0
 10
46.2762
 20
74.2778
 30
0.0
 10
46.2762
 20
74.2778
 30
0.0
  0
SPLINE
  5
8A
330
1F
100
AcDbEntity
  8
layer 1
370
     9
100
AcDbSpline
210
0.0
220
0.0
230
1.0
 70
    24
 71
     3
 72
     8
 73
     4
 74
     0
 42
0.0000000001
 43
0.0000000001
 40
0.0
 40
0.0
 40
0.0
 40
0.0
 40
1.0
 40
1.0
 40
1.0
 40
1.0
 10
43.2762
 20
74.2778
 30
0.0
 10
43.2762
 20
74.2778
 30
0.0
 10
46.2762
 20
74.2778
 30
0.0
 10
46.2762
 20
74.2778
 30
0.0
  0
SPLINE
  5
8B
330
1F
100
AcDbEntity
  8
layer 1
370
     9
100
AcDbSpline
210
0.0
220
0.0
230
1.0
 70
    27
 71
     3
 72
     8
 73
     4
 74
     0
 42
0.0000000001
 43
0.0000000001
 40
0.0
 40
0.0
 40
0.0
 40
0.0
 40
1.0
 40
1.0
 40
1.0
 40
1.0
 10
46.2762
 20
74.2778
 30
0.0
 10
46.2762
 20
74.2778
 30
0.0
 10
46.2762
 20
74.2778
 30
0.0
 10
46.2762
 20
74.2778
 30
0.0
  0
SPLINE
  5
8C
330
1F
100
AcDbEntity
  8
layer 1
370
     9
100
AcDbSpline
210
0.0
220
0.0
230
1.0
 70
    24
 71
     3
 72
     8
 73
     4
 74
     0
 42
0.0000000001
 43
0.0000000001
 40
0.0
 40
0.0
 40
0.0
 40
0.0
 40
1.0
 40
1.0
 40
1.0
 40
1.0
 10
46.2762
 20
74.2778
 30
0.0
 10
46.2762
 20
74.2778
 30
0.0
 10
46.2762
 20
67.2778
 30
0.0
 10
46.2762
 20
67.2778
 30
0.0
  0
SPLINE
  5
8D
330
1F
100
AcDbEntity
  8
layer 1
370
     9
100
AcDbSpline
210
0.0
220
0.0
230
1.0
 70
    27
 71
     3
 72
     8
 73
     4
 74
     0
 42
0.0000000001
 43
0.0000000001
 40
0.0
 40
0.0
 40
0.0
 40
0.0
 40
1.0
 40
1.0
 40
1.0
 40
1.0
 10
60.9262
 20
67.2778
 30
0.0
 10
60.9262
 20
67.2778
 30
0.0
 10
60.9262
 20
67.2778
 30
0.0
 10
60.9262
 20
67.2778
 30
0.0
  0
SPLINE
  5
8E
330
1F
100
AcDbEntity
  8
layer 1
370
     9
100
AcDbSpline
210
0.0
220
0.0
230
1.0
 70
    24
 71
     3
 72
     8
 73
     4
 74
     0
 42
0.0000000001
 43
0.0000000001
 40
0.0
 40
0.0
 40
0.0
 40
0.0
 40
1.0
 40
1.0
 40
1.0
 40
1.0
 10
60.9262
 20
67.2778
 30
0.0
 10
60.9262
 20
67.2778
 30
0.0
 10
46.2762
 20
67.2778
 30
0.0
 10
46.2762
 20
67.2778
 30
0.0
  0
SPLINE
  5
8F
330
1F
100
AcDbEntity
  8
layer 1
370
     9
100
AcDbSpline
210
0.0
220
0.0
230
1.0
 70
    27
 71
     3
 72
     8
 73
     4
 74
     0
 42
0.0000000001
 43
0.0000000001
 40
0.0
 40
0.0
 40
0.0
 40
0.0
 40
1.0
 40
1.0
 40
1.0
 40
1.0
 10
60.9262
 20
73.1478
 30
0.0
 10
60.9262
 20
73.1478
 30
0.0
 10
60.9262
 20
73.1478
 30
0.0
 10
60.9262
 20
73.1478
 30
0.0
  0
SPLINE
  5
90
330
1F
100
AcDbEntity
  8
layer 1
370
     9
100
AcDbSpline
210
0.0
220
0.0
230
1.0
 70
    24
 71
     3
 72
     8
 73
     4
 74
     0
 42
0.0000000001
 43
0.0000000001
 40
0.0
 40
0.0
 40
0.0
 40
0.0
 40
1.0
 40
1.0
 40
1.0
 40
1.0
 10
60.9262
 20
73.1478
 30
0.0
 10
60.9262
 20
73.1478
 30
0.0
 10
60.9262
 20
67.2778
 30
0.0
 10
60.9262
 20
67.2778
 30
0.0
  0
SPLINE
  5
91
330
1F
100
AcDbEntity
  8
layer 1
370
     9
100
AcDbSpline
210
0.0
220
0.0
230
1.0
 70
    27
 71
     3
 72
     8
 73
     4
 74
     0
 42
0.0000000001
 43
0.0000000001
 40
0.0
 40
0.0
 40
0.0
 40
0.0
 40
1.0
 40
1.0
 40
1.0
 40
1.0
 10
60.9262
 20
73.1478
 30
0.0
 10
60.9262
 20
73.1478
 30
0.0
 10
60.9262
 20
73.1478
 30
0.0
 10
60.9262
 20
73.1478
 30
0.0
  0
SPLINE
  5
92
330
1F
100
AcDbEntity
  8
layer 1
370
     9
100
AcDbSpline
210
0.0
220
0.0
230
1.0
 70
    24
 71
     3
 72
     8
 73
     4
 74
     0
 42
0.0000000001
 43
0.0000000001
 40
0.0
 40
0.0
 40
0.0
 40
0.0
 40
1.0
 40
1.0
 40
1.0
 40
1.0
 10
60.9262
 20
73.1478
 30
0.0
 10
60.9262
 20
73.1478
 30
0.0
 10
52.9262
 20
73.1478
 30
0.0
 10
52.9262
 20
73.1478
 30
0.0
  0
SPLINE
  5
93
330
1F
100
AcDbEntity
  8
layer 1
370
     9
100
AcDbSpline
210
0.0
220
0.0
230
1.0
 70
    27
 71
     3
 72
     8
 73
     4
 74
     0
 42
0.0000000001
 43
0.0000000001
 40
0.0
 40
0.0
 40
0.0
 40
0.0
 40
1.0
 40
1.0
 40
1.0
 40
1.0
 10
52.9262
 20
83.2778
 30
0.0
 10
52.9262
 20
83.2778
 30
0.0
 10
52.9262
 20
83.2778
 30
0.0
 10
52.9262
 20
83.2778
 30
0.0
  0
SPLINE
  5
94
330
1F
100
AcDbEntity
  8
layer 1
370
     9
100
AcDbSpline
210
0.0
220
0.0
230
1.0
 70
    24
 71
     3
 72
     8
 73
     4
 74
     0
 42
0.0000000001
 43
0.0000000001
 40
0.0
 40
0.0
 40
0.0
 40
0.0
 40
1.0
 40
1.0
 40
1.0
 40
1.0
 10
52.9262
 20
73.1478
 30
0.0
 10
52.9262
 20
73.1478
 30
0.0
 10
52.9262
 20
83.2778
 30
0.0
 10
52.9262
 20
83.2778
 30
0.0
  0
SPLINE
  5
95
330
1F
100
AcDbEntity
  8
layer 1
370
     9
100
AcDbSpline
210
0.0
220
0.0
230
1.0
 70
    27
 71
     3
 72
     8
 73
     4
 74
     0
 42
0.0000000001
 43
0.0000000001
 40
0.0
 40
0.0
 40
0.0
 40
0.0
 40
1.0
 40
1.0
 40
1.0
 40
1.0
 10
60.9262
 20
83.2778
 30
0.0
 10
60.9262
 20
83.2778
 30
0.0
 10
60.9262
 20
83.2778
 30
0.0
 10
60.9262
 20
83.2778
 30
0.0
  0
SPLINE
  5
96
330
1F
100
AcDbEntity
  8
layer 1
370
     9
100
AcDbSpline
210
0.0
220
0.0
230
1.0
 70
    24
 71
     3
 72
     8
 73
     4
 74
     0
 42
0.0000000001
 43
0.0000000001
 40
0.0
 40
0.0
 40
0.0
 40
0.0
 40
1.0
 40
1.0
 40
1.0
 40
1.0
 10
52.9262
 20
83.2778
 30
0.0
 10
52.9262
 20
83.2778
 30
0.0
 10
60.9262
 20
83.2778
 30
0.0
 10
60.9262
 20
83.2778
 30
0.0
  0
SPLINE
  5
97
330
1F
100
AcDbEntity
  8
layer 1
370
     9
100
AcDbSpline
210
0.0
220
0.0
230
1.0
 70
    27
 71
     3
 72
     8
 73
     4
 74
     0
 42
0.0000000001
 43
0.0000000001
 40
0.0
 40
0.0
 40
0.0
 40
0.0
 40
1.0
 40
1.0
 40
1.0
 40
1.0
 10
60.9262
 20
88.2779
 30
0.0
 10
60.9262
 20
88.2779
 30
0.0
 10
60.9262
 20
88.2779
 30
0.0
 10
60.9262
 20
88.2779
 30
0.0
  0
SPLINE
  5
98
330
1F
100
AcDbEntity
  8
layer 1
370
     9
100
AcDbSpline
210
0.0
220
0.0
230
1.0
 70
    24
 71
     3
 72
     8
 73
     4
 74
     0
 42
0.0000000001
 43
0.0000000001
 40
0.0
 40
0.0
 40
0.0
 40
0.0
 40
1.0
 40
1.0
 40
1.0
 40
1.0
 10
60.9262
 20
88.2779
 30
0.0
 10
60.9262
 20
88.2779
 30
0.0
 10
60.9262
 20
83.2778
 30
0.0
 10
60.9262
 20
83.2778
 30
0.0
  0
SPLINE
  5
99
330
1F
100
AcDbEntity
  8
layer 1
370
     9
100
AcDbSpline
210
0.0
220
0.0
230
1.0
 70
    27
 71
     3
 72
     8
 73
     4
 74
     0
 42
0.0000000001
 43
0.0000000001
 40
0.0
 40
0.0
 40
0.0
 40
0.0
 40
1.0
 40
1.0
 40
1.0
 40
1.0
 10
62.9262
 20
88.2779
 30
0.0
 10
62.9262
 20
88.2779
 30
0.0
 10
62.9262
 20
88.2779
 30
0.0
 10
62.9262
 20
88.2779
 30
0.0
  0
SPLINE
  5
9A
330
1F
100
AcDbEntity
  8
layer 1
370
     9
100
AcDbSpline
210
0.0
220
0.0
230
1.0
 70
    24
 71
     3
 72
     8
 73
     4
 74
     0
 42
0.0000000001
 43
0.0000000001
 40
0.0
 40
0.0
 40
0.0
 40
0.0
 40
1.0
 40
1.0
 40
1.0
 40
1.0
 10
60.9262
 20
88.2779
 30
0.0
 10
60.9262
 20
88.2779
 30
0.0
 10
62.9262
 20
88.2779
 30
0.0
 10
62.9262
 20
88.2779
 30
0.0
  0
SPLINE
  5
9B
330
1F
100
AcDbEntity
  8
layer 1
370
     9
100
AcDbSpline
210
0.0
220
0.0
230
1.0
 70
    27
 71
     3
 72
     8
 73
     4
 74
     0
 42
0.0000000001
 43
0.0000000001
 40
0.0
 40
0.0
 40
0.0
 40
0.0
 40
1.0
 40
1.0
 40
1.0
 40
1.0
 10
63.9262
 20
96.2779
 30
0.0
 10
63.9262
 20
96.2779
 30
0.0
 10
63.9262
 20
96.2779
 30
0.0
 10
63.9262
 20
96.2779
 30
0.0
  0
SPLINE
  5
9C
330
1F
100
AcDbEntity
  8
layer 1
370
     9
100
AcDbSpline
210
0.0
220
0.0
230
1.0
 70
    24
 71
     3
 72
     8
 73
     4
 74
     0
 42
0.0000000001
 43
0.0000000001
 40
0.0
 40
0.0
 40
0.0
 40
0.0
 40
1.0
 40
1.0
 40
1.0
 40
1.0
 10
63.9262
 20
89.2779
 30
0.0
 10
63.9262
 20
89.2779
 30
0.0
 10
63.9262
 20
96.2779
 30
0.0
 10
63.9262
 20
96.2779
 30
0.0
  0
SPLINE
  5
9D
330
1F
100
AcDbEntity
  8
layer 1
370
     9
100
AcDbSpline
210
0.0
220
0.0
230
1.0
 70
    27
 71
     3
 72
     8
 73
     4
 74
     0
 42
0.0000000001
 43
0.0000000001
 40
0.0
 40
0.0
 40
0.0
 40
0.0
 40
1.0
 40
1.0
 40
1.0
 40
1.0
 10
62.9262
 20
97.2779
 30
0.0
 10
62.9262
 20
97.2779
 30
0.0
 10
62.9262
 20
97.2779
 30
0.0
 10
62.9262
 20
97.2779
 30
0.0
  0
SPLINE
  5
9E
330
1F
100
AcDbEntity
  8
layer 1
370
     9
100
AcDbSpline
210
0.0
220
0.0
230
1.0
 70
    24
 71
     3
 72
     8
 73
     4
 74
     0
 42
0.0000000001
 43
0.0000000001
 40
0.0
 40
0.0
 40
0.0
 40
0.0
 40
1.0
 40
1.0
 40
1.0
 40
1.0
 10
62.9262
 20
97.2779
 30
0.0
 10
62.9262
 20
97.2779
 30
0.0
 10
60.9262
 20
97.2779
 30
0.0
 10
60.9262
 20
97.2779
 30
0.0
  0
SPLINE
  5
9F
330
1F
100
AcDbEntity
  8
layer 1
370
     9
100
AcDbSpline
210
0.0
220
0.0
230
1.0
 70
    27
 71
     3
 72
     8
 73
     4
 74
     0
 42
0.0000000001
 43
0.0000000001
 40
0.0
 40
0.0
 40
0.0
 40
0.0
 40
1.0
 40
1.0
 40
1.0
 40
1.0
 10
60.9262
 20
102.2778
 30
0.0
 10
60.9262
 20
102.2778
 30
0.0
 10
60.9262
 20
102.2778
 30
0.0
 10
60.9262
 20
102.2778
 30
0.0
  0
SPLINE
  5
A0
330
1F
100
AcDbEntity
  8
layer 1
370
     9
100
AcDbSpline
210
0.0
220
0.0
230
1.0
 70
    24
 71
     3
 72
     8
 73
     4
 74
     0
 42
0.0000000001
 43
0.0000000001
 40
0.0
 40
0.0
 40
0.0
 40
0.0
 40
1.0
 40
1.0
 40
1.0
 40
1.0
 10
60.9262
 20
102.2778
 30
0.0
 10
60.9262
 20
102.2778
 30
0.0
 10
60.9262
 20
97.2779
 30
0.0
 10
60.9262
 20
97.2779
 30
0.0
  0
SPLINE
  5
A1
330
1F
100
AcDbEntity
  8
layer 1
370
     9
100
AcDbSpline
210
0.0
220
0.0
230
1.0
 70
    27
 71
     3
 72
     8
 73
     4
 74
     0
 42
0.0000000001
 43
0.0000000001
 40
0.0
 40
0.0
 40
0.0
 40
0.0
 40
1.0
 40
1.0
 40
1.0
 40
1.0
 10
60.9262
 20
102.2778
 30
0.0
 10
60.9262
 20
102.2778
 30
0.0
 10
60.9262
 20
102.2778
 30
0.0
 10
60.9262
 20
102.2778
 30
0.0
  0
SPLINE
  5
A2
330
1F
100
AcDbEntity
  8
layer 1
370
     9
100
AcDbSpline
210
0.0
220
0.0
230
1.0
 70
    24
 71
     3
 72
     8
 73
     4
 74
     0
 42
0.0000000001
 43
0.0000000001
 40
0.0
 40
0.0
 40
0.0
 40
0.0
 40
1.0
 40
1.0
 40
1.0
 40
1.0
 10
60.9262
 20
102.2778
 30
0.0
 10
60.9262
 20
102.2778
 30
0.0
 10
52.9262
 20
102.2778
 30
0.0
 10
52.9262
 20
102.2778
 30
0.0
  0
SPLINE
  5
A3
330
1F
100
AcDbEntity
  8
layer 1
370
     9
100
AcDbSpline
210
0.0
220
0.0
230
1.0
 70
    27
 71
     3
 72
     8
 73
     4
 74
     0
 42
0.0000000001
 43
0.0000000001
 40
0.0
 40
0.0
 40
0.0
 40
0.0
 40
1.0
 40
1.0
 40
1.0
 40
1.0
 10
52.9262
 20
115.2778
 30
0.0
 10
52.9262
 20
115.2778
 30
0.0
 10
52.9262
 20
115.2778
 30
0.0
 10
52.9262
 20
115.2778
 30
0.0
  0
SPLINE
  5
A4
330
1F
100
AcDbEntity
  8
layer 1
370
     9
100
AcDbSpline
210
0.0
220
0.0
230
1.0
 70
    24
 71
     3
 72
     8
 73
     4
 74
     0
 42
0.0000000001
 43
0.0000000001
 40
0.0
 40
0.0
 40
0.0
 40
0.0
 40
1.0
 40
1.0
 40
1.0
 40
1.0
 10
52.9262
 20
102.2778
 30
0.0
 10
52.9262
 20
102.2778
 30
0.0
 10
52.9262
 20
115.2778
 30
0.0
 10
52.9262
 20
115.2778
 30
0.0
  0
SPLINE
  5
A5
330
1F
100
AcDbEntity
  8
layer 1
370
     9
100
AcDbSpline
210
0.0
220
0.0
230
1.0
 70
    27
 71
     3
 72
     8
 73
     4
 74
     0
 42
0.0000000001
 43
0.0000000001
 40
0.0
 40
0.0
 40
0.0
 40
0.0
 40
1.0
 40
1.0
 40
1.0
 40
1.0
 10
60.9262
 20
115.2778
 30
0.0
 10
60.9262
 20
115.2778
 30
0.0
 10
60.9262
 20
115.2778
 30
0.0
 10
60.9262
 20
115.2778
 30
0.0
  0
SPLINE
  5
A6
330
1F
100
AcDbEntity
  8
layer 1
370
     9
100
AcDbSpline
210
0.0
220
0.0
230
1.0
 70
    24
 71
     3
 72
     8
 73
     4
 74
     0
 42
0.0000000001
 43
0.0000000001
 40
0.0
 40
0.0
 40
0.0
 40
0.0
 40
1.0
 40
1.0
 40
1.0
 40
1.0
 10
52.9262
 20
115.2778
 30
0.0
 10
52.9262
 20
115.2778
 30
0.0
 10
60.9262
 20
115.2778
 30
0.0
 10
60.9262
 20
115.2778
 30
0.0
  0
SPLINE
  5
A7
330
1F
100
AcDbEntity
  8
layer 1
370
     9
100
AcDbSpline
210
0.0
220
0.0
230
1.0
 70
    27
 71
     3
 72
     8
 73
     4
 74
     0
 42
0.0000000001
 43
0.0000000001
 40
0.0
 40
0.0
 40
0.0
 40
0.0
 40
1.0
 40
1.0
 40
1.0
 40
1.0
 10
60.9262
 20
118.2778
 30
0.0
 10
60.9262
 20
118.2778
 30
0.0
 10
60.9262
 20
118.2778
 30
0.0
 10
60.9262
 20
118.2778
 30
0.0
  0
SPLINE
  5
A8
330
1F
100
AcDbEntity
  8
layer 1
370
     9
100
AcDbSpline
210
0.0
220
0.0
230
1.0
 70
    24
 71
     3
 72
     8
 73
     4
 74
     0
 42
0.0000000001
 43
0.0000000001
 40
0.0
 40
0.0
 40
0.0
 40
0.0
 40
1.0
 40
1.0
 40
1.0
 40
1.0
 10
60.9262
 20
115.2778
 30
0.0
 10
60.9262
 20
115.2778
 30
0.0
 10
60.9262
 20
118.2778
 30
0.0
 10
60.9262
 20
118.2778
 30
0.0
  0
SPLINE
  5
A9
330
1F
100
AcDbEntity
  8
layer 1
370
     9
100
AcDbSpline
210
0.0
220
0.0
230
1.0
 70
    27
 71
     3
 72
     8
 73
     4
 74
     0
 42
0.0000000001
 43
0.0000000001
 40
0.0
 40
0.0
 40
0.0
 40
0.0
 40
1.0
 40
1.0
 40
1.0
 40
1.0
 10
62.9262
 20
118.2778
 30
0.0
 10
62.9262
 20
118.2778
 30
0.0
 10
62.9262
 20
118.2778
 30
0.0
 10
62.9262
 20
118.2778
 30
0.0
  0
SPLINE
  5
AA
330
1F
100
AcDbEntity
  8
layer 1
370
     9
100
AcDbSpline
210
0.0
220
0.0
230
1.0
 70
    24
 71
     3
 72
     8
 73
     4
 74
     0
 42
0.0000000001
 43
0.0000000001
 40
0.0
 40
0.0
 40
0.0
 40
0.0
 40
1.0
 40
1.0
 40
1.0
 40
1.0
 10
60.9262
 20
118.2778
 30
0.0
 10
60.9262
 20
118.2778
 30
0.0
 10
62.9262
 20
118.2778
 30
0.0
 10
62.9262
 20
118.2778
 30
0.0
  0
SPLINE
  5
AB
330
1F
100
AcDbEntity
  8
layer 1
370
     9
100
AcDbSpline
210
0.0
220
0.0
230
1.0
 70
    27
 71
     3
 72
     8
 73
     4
 74
     0
 42
0.0000000001
 43
0.0000000001
 40
0.0
 40
0.0
 40
0.0
 40
0.0
 40
1.0
 40
1.0
 40
1.0
 40
1.0
 10
63.9262
 20
124.2778
 30
0.0
 10
63.9262
 20
124.2778
 30
0.0
 10
63.9262
 20
124.2778
 30
0.0
 10
63.9262
 20
124.2778
 30
0.0
  0
SPLINE
  5
AC
330
1F
100
AcDbEntity
  8
layer 1
370
     9
100
AcDbSpline
210
0.0
220
0.0
230
1.0
 70
    24
 71
     3
 72
     8
 73
     4
 74
     0
 42
0.0000000001
 43
0.0000000001
 40
0.0
 40
0.0
 40
0.0
 40
0.0
 40
1.0
 40
1.0
 40
1.0
 40
1.0
 10
63.9262
 20
119.2778
 30
0.0
 10
63.9262
 20
119.2778
 30
0.0
 10
63.9262
 20
124.2778
 30
0.0
 10
63.9262
 20
124.2778
 30
0.0
  0
SPLINE
  5
AD
330
1F
100
AcDbEntity
  8
layer 1
370
     9
100
AcDbSpline
210
0.0
220
0.0
230
1.0
 70
    27
 71
     3
 72
     8
 73
     4
 74
     0
 42
0.0000000001
 43
0.0000000001
 40
0.0
 40
0.0
 40
0.0
 40
0.0
 40
1.0
 40
1.0
 40
1.0
 40
1.0
 10
63.9262
 20
124.2778
 30
0.0
 10
63.9262
 20
124.2778
 30
0.0
 10
63.9262
 20
124.2778
 30
0.0
 10
63.9262
 20
124.2778
 30
0.0
  0
SPLINE
  5
AE
330
1F
100
AcDbEntity
  8
layer 1
370
     9
100
AcDbSpline
210
0.0
220
0.0
230
1.0
 70
    24
 71
     3
 72
     8
 73
     4
 74
     0
 42
0.0000000001
 43
0.0000000001
 40
0.0
 40
0.0
 40
0.0
 40
0.0
 40
1.0
 40
1.0
 40
1.0
 40
1.0
 10
63.9262
 20
124.2778
 30
0.0
 10
63.9262
 20
124.2778
 30
0.0
 10
60.9262
 20
124.2778
 30
0.0
 10
60.9262
 20
124.2778
 30
0.0
  0
SPLINE
  5
AF
330
1F
100
AcDbEntity
  8
layer 1
370
     9
100
AcDbSpline
210
0.0
220
0.0
230
1.0
 70
    27
 71
     3
 72
     8
 73
     4
 74
     0
 42
0.0000000001
 43
0.0000000001
 40
0.0
 40
0.0
 40
0.0
 40
0.0
 40
1.0
 40
1.0
 40
1.0
 40
1.0
 10
60.9262
 20
127.2778
 30
0.0
 10
60.9262
 20
127.2778
 30
0.0
 10
60.9262
 20
127.2778
 30
0.0
 10
60.9262
 20
127.2778
 30
0.0
  0
SPLINE
  5
B0
330
1F
100
AcDbEntity
  8
layer 1
370
     9
100
AcDbSpline
210
0.0
220
0.0
230
1.0
 70
    24
 71
     3
 72
     8
 73
     4
 74
     0
 42
0.0000000001
 43
0.0000000001
 40
0.0
 40
0.0
 40
0.0
 40
0.0
 40
1.0
 40
1.0
 40
1.0
 40
1.0
 10
60.9262
 20
124.2778
 30
0.0
 10
60.9262
 20
124.2778
 30
0.0
 10
60.9262
 20
127.2778
 30
0.0
 10
60.9262
 20
127.2778
 30
0.0
  0
SPLINE
  5
B1
330
1F
100
AcDbEntity
  8
layer 1
370
     9
100
AcDbSpline
210
0.0
220
0.0
230
1.0
 70
    27
 71
     3
 72
     8
 73
     4
 74
     0
 42
0.0000000001
 43
0.0000000001
 40
0.0
 40
0.0
 40
0.0
 40
0.0
 40
1.0
 40
1.0
 40
1.0
 40
1.0
 10
60.9262
 20
127.2778
 30
0.0
 10
60.9262
 20
127.2778
 30
0.0
 10
60.9262
 20
127.2778
 30
0.0
 10
60.9262
 20
127.2778
 30
0.0
  0
SPLINE
  5
B2
330
1F
100
AcDbEntity
  8
layer 1
370
     9
100
AcDbSpline
210
0.0
220
0.0
230
1.0
 70
    24
 71
     3
 72
     8
 73
     4
 74
     0
 42
0.0000000001
 43
0.0000000001
 40
0.0
 40
0.0
 40
0.0
 40
0.0
 40
1.0
 40
1.0
 40
1.0
 40
1.0
 10
60.9262
 20
127.2778
 30
0.0
 10
60.9262
 20
127.2778
 30
0.0
 10
46.2762
 20
127.2778
 30
0.0
 10
46.2762
 20
127.2778
 30
0.0
  0
SPLINE
  5
B3
330
1F
100
AcDbEntity
  8
layer 1
370
     9
100
AcDbSpline
210
0.0
220
0.0
230
1.0
 70
    27
 71
     3
 72
     8
 73
     4
 74
     0
 42
0.0000000001
 43
0.0000000001
 40
0.0
 40
0.0
 40
0.0
 40
0.0
 40
1.0
 40
1.0
 40
1.0
 40
1.0
 10
46.2762
 20
127.2778
 30
0.0
 10
46.2762
 20
127.2778
 30
0.0
 10
46.2762
 20
127.2778
 30
0.0
 10
46.2762
 20
127.2778
 30
0.0
  0
SPLINE
  5
B4
330
1F
100
AcDbEntity
  8
layer 1
370
     9
100
AcDbSpline
210
0.0
220
0.0
230
1.0
 70
    24
 71
     3
 72
     8
 73
     4
 74
     0
 42
0.0000000001
 43
0.0000000001
 40
0.0
 40
0.0
 40
0.0
 40
0.0
 40
1.0
 40
1.0
 40
1.0
 40
1.0
 10
46.2762
 20
127.2778
 30
0.0
 10
46.2762
 20
127.2778
 30
0.0
 10
46.2762
 20
120.2778
 30
0.0
 10
46.2762
 20
120.2778
 30
0.0
  0
SPLINE
  5
B5
330
1F
100
AcDbEntity
  8
layer 1
370
     9
100
AcDbSpline
210
0.0
220
0.0
230
1.0
 70
    27
 71
     3
 72
     8
 73
     4
 74
     0
 42
0.0000000001
 43
0.0000000001
 40
0.0
 40
0.0
 40
0.0
 40
0.0
 40
1.0
 40
1.0
 40
1.0
 40
1.0
 10
46.2762
 20
120.2778
 30
0.0
 10
46.2762
 20
120.2778
 30
0.0
 10
46.2762
 20
120.2778
 30
0.0
 10
46.2762
 20
120.2778
 30
0.0
  0
SPLINE
  5
B6
330
1F
100
AcDbEntity
  8
layer 1
370
     9
100
AcDbSpline
210
0.0
220
0.0
230
1.0
 70
    24
 71
     3
 72
     8
 73
     4
 74
     0
 42
0.0000000001
 43
0.0000000001
 40
0.0
 40
0.0
 40
0.0
 40
0.0
 40
1.0
 40
1.0
 40
1.0
 40
1.0
 10
46.2762
 20
120.2778
 30
0.0
 10
46.2762
 20
120.2778
 30
0.0
 10
43.2762
 20
120.2778
 30
0.0
 10
43.2762
 20
120.2778
 30
0.0
  0
SPLINE
  5
B7
330
1F
100
AcDbEntity
  8
layer 1
370
     9
100
AcDbSpline
210
0.0
220
0.0
230
1.0
 70
    27
 71
     3
 72
     8
 73
     4
 74
     0
 42
0.0000000001
 43
0.0000000001
 40
0.0
 40
0.0
 40
0.0
 40
0.0
 40
1.0
 40
1.0
 40
1.0
 40
1.0
 10
43.2762
 20
120.2778
 30
0.0
 10
43.2762
 20
120.2778
 30
0.0
 10
43.2762
 20
120.2778
 30
0.0
 10
43.2762
 20
120.2778
 30
0.0
  0
SPLINE
  5
B8
330
1F
100
AcDbEntity
  8
layer 1
370
     9
100
AcDbSpline
210
0.0
220
0.0
230
1.0
 70
    24
 71
     3
 72
     8
 73
     4
 74
     0
 42
0.0000000001
 43
0.0000000001
 40
0.0
 40
0.0
 40
0.0
 40
0.0
 40
1.0
 40
1.0
 40
1.0
 40
1.0
 10
43.2762
 20
116.2778
 30
0.0
 10
43.2762
 20
116.2778
 30
0.0
 10
43.2762
 20
120.2778
 30
0.0
 10
43.2762
 20
120.2778
 30
0.0
  0
SPLINE
  5
B9
330
1F
100
AcDbEntity
  8
layer 1
370
     9
100
AcDbSpline
210
0.0
220
0.0
230
1.0
 70
    27
 71
     3
 72
     8
 73
     4
 74
     0
 42
0.0000000001
 43
0.0000000001
 40
0.0
 40
0.0
 40
0.0
 40
0.0
 40
1.0
 40
1.0
 40
1.0
 40
1.0
 10
46.2762
 20
115.2778
 30
0.0
 10
46.2762
 20
115.2778
 30
0.0
 10
46.2762
 20
115.2778
 30
0.0
 10
46.2762
 20
115.2778
 30
0.0
  0
SPLINE
  5
BA
330
1F
100
AcDbEntity
  8
layer 1
370
     9
100
AcDbSpline
210
0.0
220
0.0
230
1.0
 70
    24
 71
     3
 72
     8
 73
     4
 74
     0
 42
0.0000000001
 43
0.0000000001
 40
0.0
 40
0.0
 40
0.0
 40
0.0
 40
1.0
 40
1.0
 40
1.0
 40
1.0
 10
44.2762
 20
115.2778
 30
0.0
 10
44.2762
 20
115.2778
 30
0.0
 10
46.2762
 20
115.2778
 30
0.0
 10
46.2762
 20
115.2778
 30
0.0
  0
SPLINE
  5
BB
330
1F
100
AcDbEntity
  8
layer 1
370
     9
100
AcDbSpline
210
0.0
220
0.0
230
1.0
 70
    27
 71
     3
 72
     8
 73
     4
 74
     0
 42
0.0000000001
 43
0.0000000001
 40
0.0
 40
0.0
 40
0.0
 40
0.0
 40
1.0
 40
1.0
 40
1.0
 40
1.0
 10
46.2762
 20
115.2778
 30
0.0
 10
46.2762
 20
115.2778
 30
0.0
 10
46.2762
 20
115.2778
 30
0.0
 10
46.2762
 20
115.2778
 30
0.0
  0
SPLINE
  5
BC
330
1F
100
AcDbEntity
  8
layer 1
370
     9
100
AcDbSpline
210
0.0
220
0.0
230
1.0
 70
    24
 71
     3
 72
     8
 73
     4
 74
     0
 42
0.0000000001
 43
0.0000000001
 40
0.0
 40
0.0
 40
0.0
 40
0.0
 40
1.0
 40
1.0
 40
1.0
 40
1.0
 10
46.2762
 20
115.2778
 30
0.0
 10
46.2762
 20
115.2778
 30
0.0
 10
46.2762
 20
79.2778
 30
0.0
 10
46.2762
 20
79.2778
 30
0.0
  0
SPLINE
  5
BD
330
1F
100
AcDbEntity
  8
layer 1
370
     9
100
AcDbSpline
210
0.0
220
0.0
230
1.0
 70
    27
 71
     3
 72
     8
 73
     4
 74
     0
 42
0.0000000001
 43
0.0000000001
 40
0.0
 40
0.0
 40
0.0
 40
0.0
 40
1.0
 40
1.0
 40
1.0
 40
1.0
 10
46.2762
 20
79.2778
 30
0.0
 10
46.2762
 20
79.2778
 30
0.0
 10
46.2762
 20
79.2778
 30
0.0
 10
46.2762
 20
79.2778
 30
0.0
  0
SPLINE
  5
BE
330
1F
100
AcDbEntity
  8
layer 1
370
     9
100
AcDbSpline
210
0.0
220
0.0
230
1.0
 70
    24
 71
     3
 72
     8
 73
     4
 74
     0
 42
0.0000000001
 43
0.0000000001
 40
0.0
 40
0.0
 40
0.0
 40
0.0
 40
1.0
 40
1.0
 40
1.0
 40
1.0
 10
46.2762
 20
79.2778
 30
0.0
 10
46.2762
 20
79.2778
 30
0.0
 10
44.2762
 20
79.2778
 30
0.0
 10
44.2762
 20
79.2778
 30
0.0
  0
SPLINE
  5
BF
330
1F
100
AcDbEntity
  8
layer 1
370
     9
100
AcDbSpline
210
0.0
220
0.0
230
1.0
 70
     8
 71
     3
 72
    12
 73
     8
 74
     0
 42
0.0000000001
 43
0.0000000001
 40
0.0
 40
0.0
 40
0.0
 40
0.0
 40
0.5
 40
0.5
 40
0.5
 40
0.5
 40
1.0
 40
1.0
 40
1.0
 40
1.0
 10
43.2762
 20
116.2778
 30
0.0
 10
43.2762
 20
116.0126
 30
0.0
 10
43.3815
 20
115.7583
 30
0.0
 10
43.569
 20
115.5707
 30
0.0
 10
43.569
 20
115.5707
 30
0.0
 10
43.7566
 20
115.3832
 30
0.0
 10
44.0109
 20
115.2779
 30
0.0
 10
44.2762
 20
115.2779
 30
0.0
  0
SPLINE
  5
C0
330
1F
100
AcDbEntity
  8
layer 1
370
     9
100
AcDbSpline
210
0.0
220
0.0
230
1.0
 70
     8
 71
     3
 72
    12
 73
     8
 74
     0
 42
0.0000000001
 43
0.0000000001
 40
0.0
 40
0.0
 40
0.0
 40
0.0
 40
0.5
 40
0.5
 40
0.5
 40
0.5
 40
1.0
 40
1.0
 40
1.0
 40
1.0
 10
62.9262
 20
118.2779
 30
0.0
 10
63.1914
 20
118.2779
 30
0.0
 10
63.4457
 20
118.3832
 30
0.0
 10
63.6333
 20
118.5707
 30
0.0
 10
63.6333
 20
118.5707
 30
0.0
 10
63.8208
 20
118.7583
 30
0.0
 10
63.9262
 20
119.0126
 30
0.0
 10
63.9262
 20
119.2779
 30
0.0
  0
SPLINE
  5
C1
330
1F
100
AcDbEntity
  8
layer 1
370
     9
100
AcDbSpline
210
0.0
220
0.0
230
1.0
 70
     8
 71
     3
 72
    12
 73
     8
 74
     0
 42
0.0000000001
 43
0.0000000001
 40
0.0
 40
0.0
 40
0.0
 40
0.0
 40
0.5
 40
0.5
 40
0.5
 40
0.5
 40
1.0
 40
1.0
 40
1.0
 40
1.0
 10
63.9262
 20
96.2778
 30
0.0
 10
63.9262
 20
96.5431
 30
0.0
 10
63.8208
 20
96.7974
 30
0.0
 10
63.6333
 20
96.985
 30
0.0
 10
63.6333
 20
96.985
 30
0.0
 10
63.4457
 20
97.1725
 30
0.0
 10
63.1914
 20
97.2778
 30
0.0
 10
62.9262
 20
97.2778
 30
0.0
  0
SPLINE
  5
C2
330
1F
100
AcDbEntity
  8
layer 1
370
     9
100
AcDbSpline
210
0.0
220
0.0
230
1.0
 70
     8
 71
     3
 72
    12
 73
     8
 74
     0
 42
0.0000000001
 43
0.0000000001
 40
0.0
 40
0.0
 40
0.0
 40
0.0
 40
0.5
 40
0.5
 40
0.5
 40
0.5
 40
1.0
 40
1.0
 40
1.0
 40
1.0
 10
62.9262
 20
88.2779
 30
0.0
 10
63.1914
 20
88.2779
 30
0.0
 10
63.4457
 20
88.3832
 30
0.0
 10
63.6333
 20
88.5707
 30
0.0
 10
63.6333
 20
88.5707
 30
0.0
 10
63.8208
 20
88.7583
 30
0.0
 10
63.9262
 20
89.0126
 30
0.0
 10
63.9262
 20
89.2779
 30
0.0
  0
SPLINE
  5
C3
330
1F
100
AcDbEntity
  8
layer 1
370
     9
100
AcDbSpline
210
0.0
220
0.0
230
1.0
 70
     8
 71
     3
 72
    12
 73
     8
 74
     0
 42
0.0000000001
 43
0.0000000001
 40
0.0
 40
0.0
 40
0.0
 40
0.0
 40
0.5
 40
0.5
 40
0.5
 40
0.5
 40
1.0
 40
1.0
 40
1.0
 40
1.0
 10
44.2762
 20
79.2778
 30
0.0
 10
44.0109
 20
79.2778
 30
0.0
 10
43.7566
 20
79.1725
 30
0.0
 10
43.569
 20
78.985
 30
0.0
 10
43.569
 20
78.985
 30
0.0
 10
43.3815
 20
78.7974
 30
0.0
 10
43.2762
 20
78.5431
 30
0.0
 10
43.2762
 20
78.2779
 30
0.0
  0
SPLINE
  5
C4
330
1F
100
AcDbEntity
  8
layer 1
370
     9
100
AcDbSpline
210
0.0
220
0.0
230
1.0
 70
    27
 71
     3
 72
     8
 73
     4
 74
     0
 42
0.0000000001
 43
0.0000000001
 40
0.0
 40
0.0
 40
0.0
 40
0.0
 40
1.0
 40
1.0
 40
1.0
 40
1.0
 10
41.3099
 20
79.2778
 30
0.0
 10
41.3099
 20
79.2778
 30
0.0
 10
41.3099
 20
79.2778
 30
0.0
 10
41.3099
 20
79.2778
 30
0.0
  0
SPLINE
  5
C5
330
1F
100
AcDbEntity
  8
layer 1
370
     9
100
AcDbSpline
210
0.0
220
0.0
230
1.0
 70
    24
 71
     3
 72
     8
 73
     4
 74
     0
 42
0.0000000001
 43
0.0000000001
 40
0.0
 40
0.0
 40
0.0
 40
0.0
 40
1.0
 40
1.0
 40
1.0
 40
1.0
 10
41.3099
 20
79.2778
 30
0.0
 10
41.3099
 20
79.2778
 30
0.0
 10
39.3099
 20
79.2778
 30
0.0
 10
39.3099
 20
79.2778
 30
0.0
  0
SPLINE
  5
C6
330
1F
100
AcDbEntity
  8
layer 1
370
     9
100
AcDbSpline
210
0.0
220
0.0
230
1.0
 70
    27
 71
     3
 72
     8
 73
     4
 74
     0
 42
0.0000000001
 43
0.0000000001
 40
0.0
 40
0.0
 40
0.0
 40
0.0
 40
1.0
 40
1.0
 40
1.0
 40
1.0
 10
39.3099
 20
115.2778
 30
0.0
 10
39.3099
 20
115.2778
 30
0.0
 10
39.3099
 20
115.2778
 30
0.0
 10
39.3099
 20
115.2778
 30
0.0
  0
SPLINE
  5
C7
330
1F
100
AcDbEntity
  8
layer 1
370
     9
100
AcDbSpline
210
0.0
220
0.0
230
1.0
 70
    24
 71
     3
 72
     8
 73
     4
 74
     0
 42
0.0000000001
 43
0.0000000001
 40
0.0
 40
0.0
 40
0.0
 40
0.0
 40
1.0
 40
1.0
 40
1.0
 40
1.0
 10
39.3099
 20
115.2778
 30
0.0
 10
39.3099
 20
115.2778
 30
0.0
 10
39.3099
 20
79.2778
 30
0.0
 10
39.3099
 20
79.2778
 30
0.0
  0
SPLINE
  5
C8
330
1F
100
AcDbEntity
  8
layer 1
370
     9
100
AcDbSpline
210
0.0
220
0.0
230
1.0
 70
    27
 71
     3
 72
     8
 73
     4
 74
     0
 42
0.0000000001
 43
0.0000000001
 40
0.0
 40
0.0
 40
0.0
 40
0.0
 40
1.0
 40
1.0
 40
1.0
 40
1.0
 10
41.3099
 20
115.2778
 30
0.0
 10
41.3099
 20
115.2778
 30
0.0
 10
41.3099
 20
115.2778
 30
0.0
 10
41.3099
 20
115.2778
 30
0.0
  0
SPLINE
  5
C9
330
1F
100
AcDbEntity
  8
layer 1
370
     9
100
AcDbSpline
210
0.0
220
0.0
230
1.0
 70
    24
 71
     3
 72
     8
 73
     4
 74
     0
 42
0.0000000001
 43
0.0000000001
 40
0.0
 40
0.0
 40
0.0
 40
0.0
 40
1.0
 40
1.0
 40
1.0
 40
1.0
 10
39.3099
 20
115.2778
 30
0.0
 10
39.3099
 20
115.2778
 30
0.0
 10
41.3099
 20
115.2778
 30
0.0
 10
41.3099
 20
115.2778
 30
0.0
  0
SPLINE
  5
CA
330
1F
100
AcDbEntity
  8
layer 1
370
     9
100
AcDbSpline
210
0.0
220
0.0
230
1.0
 70
    27
 71
     3
 72
     8
 73
     4
 74
     0
 42
0.0000000001
 43
0.0000000001
 40
0.0
 40
0.0
 40
0.0
 40
0.0
 40
1.0
 40
1.0
 40
1.0
 40
1.0
 10
42.3099
 20
120.2778
 30
0.0
 10
42.3099
 20
120.2778
 30
0.0
 10
42.3099
 20
120.2778
 30
0.0
 10
42.3099
 20
120.2778
 30
0.0
  0
SPLINE
  5
CB
330
1F
100
AcDbEntity
  8
layer 1
370
     9
100
AcDbSpline
210
0.0
220
0.0
230
1.0
 70
    24
 71
     3
 72
     8
 73
     4
 74
     0
 42
0.0000000001
 43
0.0000000001
 40
0.0
 40
0.0
 40
0.0
 40
0.0
 40
1.0
 40
1.0
 40
1.0
 40
1.0
 10
42.3099
 20
116.2778
 30
0.0
 10
42.3099
 20
116.2778
 30
0.0
 10
42.3099
 20
120.2778
 30
0.0
 10
42.3099
 20
120.2778
 30
0.0
  0
SPLINE
  5
CC
330
1F
100
AcDbEntity
  8
layer 1
370
     9
100
AcDbSpline
210
0.0
220
0.0
230
1.0
 70
    27
 71
     3
 72
     8
 73
     4
 74
     0
 42
0.0000000001
 43
0.0000000001
 40
0.0
 40
0.0
 40
0.0
 40
0.0
 40
1.0
 40
1.0
 40
1.0
 40
1.0
 10
42.3099
 20
120.2778
 30
0.0
 10
42.3099
 20
120.2778
 30
0.0
 10
42.3099
 20
120.2778
 30
0.0
 10
42.3099
 20
120.2778
 30
0.0
  0
SPLINE
  5
CD
330
1F
100
AcDbEntity
  8
layer 1
370
     9
100
AcDbSpline
210
0.0
220
0.0
230
1.0
 70
    24
 71
     3
 72
     8
 73
     4
 74
     0
 42
0.0000000001
 43
0.0000000001
 40
0.0
 40
0.0
 40
0.0
 40
0.0
 40
1.0
 40
1.0
 40
1.0
 40
1.0
 10
42.3099
 20
120.2778
 30
0.0
 10
42.3099
 20
120.2778
 30
0.0
 10
39.3099
 20
120.2778
 30
0.0
 10
39.3099
 20
120.2778
 30
0.0
  0
SPLINE
  5
CE
330
1F
100
AcDbEntity
  8
layer 1
370
     9
100
AcDbSpline
210
0.0
220
0.0
230
1.0
 70
    27
 71
     3
 72
     8
 73
     4
 74
     0
 42
0.0000000001
 43
0.0000000001
 40
0.0
 40
0.0
 40
0.0
 40
0.0
 40
1.0
 40
1.0
 40
1.0
 40
1.0
 10
39.3099
 20
127.2778
 30
0.0
 10
39.3099
 20
127.2778
 30
0.0
 10
39.3099
 20
127.2778
 30
0.0
 10
39.3099
 20
127.2778
 30
0.0
  0
SPLINE
  5
CF
330
1F
100
AcDbEntity
  8
layer 1
370
     9
100
AcDbSpline
210
0.0
220
0.0
230
1.0
 70
    24
 71
     3
 72
     8
 73
     4
 74
     0
 42
0.0000000001
 43
0.0000000001
 40
0.0
 40
0.0
 40
0.0
 40
0.0
 40
1.0
 40
1.0
 40
1.0
 40
1.0
 10
39.3099
 20
127.2778
 30
0.0
 10
39.3099
 20
127.2778
 30
0.0
 10
39.3099
 20
120.2778
 30
0.0
 10
39.3099
 20
120.2778
 30
0.0
  0
SPLINE
  5
D0
330
1F
100
AcDbEntity
  8
layer 1
370
     9
100
AcDbSpline
210
0.0
220
0.0
230
1.0
 70
    27
 71
     3
 72
     8
 73
     4
 74
     0
 42
0.0000000001
 43
0.0000000001
 40
0.0
 40
0.0
 40
0.0
 40
0.0
 40
1.0
 40
1.0
 40
1.0
 40
1.0
 10
39.3099
 20
127.2778
 30
0.0
 10
39.3099
 20
127.2778
 30
0.0
 10
39.3099
 20
127.2778
 30
0.0
 10
39.3099
 20
127.2778
 30
0.0
  0
SPLINE
  5
D1
330
1F
100
AcDbEntity
  8
layer 1
370
     9
100
AcDbSpline
210
0.0
220
0.0
230
1.0
 70
    24
 71
     3
 72
     8
 73
     4
 74
     0
 42
0.0000000001
 43
0.0000000001
 40
0.0
 40
0.0
 40
0.0
 40
0.0
 40
1.0
 40
1.0
 40
1.0
 40
1.0
 10
39.3099
 20
127.2778
 30
0.0
 10
39.3099
 20
127.2778
 30
0.0
 10
24.66
 20
127.2778
 30
0.0
 10
24.66
 20
127.2778
 30
0.0
  0
SPLINE
  5
D2
330
1F
100
AcDbEntity
  8
layer 1
370
     9
100
AcDbSpline
210
0.0
220
0.0
230
1.0
 70
    24
 71
     3
 72
     8
 73
     4
 74
     0
 42
0.0000000001
 43
0.0000000001
 40
0.0
 40
0.0
 40
0.0
 40
0.0
 40
1.0
 40
1.0
 40
1.0
 40
1.0
 10
24.66
 20
120.2778
 30
0.0
 10
24.66
 20
120.2778
 30
0.0
 10
24.66
 20
127.2778
 30
0.0
 10
24.66
 20
127.2778
 30
0.0
  0
SPLINE
  5
D3
330
1F
100
AcDbEntity
  8
layer 1
370
     9
100
AcDbSpline
210
0.0
220
0.0
230
1.0
 70
    24
 71
     3
 72
     8
 73
     4
 74
     0
 42
0.0000000001
 43
0.0000000001
 40
0.0
 40
0.0
 40
0.0
 40
0.0
 40
1.0
 40
1.0
 40
1.0
 40
1.0
 10
24.66
 20
120.2778
 30
0.0
 10
24.66
 20
120.2778
 30
0.0
 10
21.66
 20
120.2778
 30
0.0
 10
21.66
 20
120.2778
 30
0.0
  0
SPLINE
  5
D4
330
1F
100
AcDbEntity
  8
layer 1
370
     9
100
AcDbSpline
210
0.0
220
0.0
230
1.0
 70
    24
 71
     3
 72
     8
 73
     4
 74
     0
 42
0.0000000001
 43
0.0000000001
 40
0.0
 40
0.0
 40
0.0
 40
0.0
 40
1.0
 40
1.0
 40
1.0
 40
1.0
 10
21.66
 20
116.2778
 30
0.0
 10
21.66
 20
116.2778
 30
0.0
 10
21.66
 20
120.2778
 30
0.0
 10
21.66
 20
120.2778
 30
0.0
  0
SPLINE
  5
D5
330
1F
100
AcDbEntity
  8
layer 1
370
     9
100
AcDbSpline
210
0.0
220
0.0
230
1.0
 70
    24
 71
     3
 72
     8
 73
     4
 74
     0
 42
0.0000000001
 43
0.0000000001
 40
0.0
 40
0.0
 40
0.0
 40
0.0
 40
1.0
 40
1.0
 40
1.0
 40
1.0
 10
22.66
 20
115.2778
 30
0.0
 10
22.66
 20
115.2778
 30
0.0
 10
24.66
 20
115.2778
 30
0.0
 10
24.66
 20
115.2778
 30
0.0
  0
SPLINE
  5
D6
330
1F
100
AcDbEntity
  8
layer 1
370
     9
100
AcDbSpline
210
0.0
220
0.0
230
1.0
 70
    24
 71
     3
 72
     8
 73
     4
 74
     0
 42
0.0000000001
 43
0.0000000001
 40
0.0
 40
0.0
 40
0.0
 40
0.0
 40
1.0
 40
1.0
 40
1.0
 40
1.0
 10
24.66
 20
79.2778
 30
0.0
 10
24.66
 20
79.2778
 30
0.0
 10
24.66
 20
115.2778
 30
0.0
 10
24.66
 20
115.2778
 30
0.0
  0
SPLINE
  5
D7
330
1F
100
AcDbEntity
  8
layer 1
370
     9
100
AcDbSpline
210
0.0
220
0.0
230
1.0
 70
    24
 71
     3
 72
     8
 73
     4
 74
     0
 42
0.0000000001
 43
0.0000000001
 40
0.0
 40
0.0
 40
0.0
 40
0.0
 40
1.0
 40
1.0
 40
1.0
 40
1.0
 10
24.66
 20
79.2778
 30
0.0
 10
24.66
 20
79.2778
 30
0.0
 10
22.66
 20
79.2778
 30
0.0
 10
22.66
 20
79.2778
 30
0.0
  0
SPLINE
  5
D8
330
1F
100
AcDbEntity
  8
layer 1
370
     9
100
AcDbSpline
210
0.0
220
0.0
230
1.0
 70
    24
 71
     3
 72
     8
 73
     4
 74
     0
 42
0.0000000001
 43
0.0000000001
 40
0.0
 40
0.0
 40
0.0
 40
0.0
 40
1.0
 40
1.0
 40
1.0
 40
1.0
 10
21.66
 20
74.2778
 30
0.0
 10
21.66
 20
74.2778
 30
0.0
 10
21.66
 20
78.2778
 30
0.0
 10
21.66
 20
78.2778
 30
0.0
  0
SPLINE
  5
D9
330
1F
100
AcDbEntity
  8
layer 1
370
     9
100
AcDbSpline
210
0.0
220
0.0
230
1.0
 70
    24
 71
     3
 72
     8
 73
     4
 74
     0
 42
0.0000000001
 43
0.0000000001
 40
0.0
 40
0.0
 40
0.0
 40
0.0
 40
1.0
 40
1.0
 40
1.0
 40
1.0
 10
21.66
 20
74.2778
 30
0.0
 10
21.66
 20
74.2778
 30
0.0
 10
24.66
 20
74.2778
 30
0.0
 10
24.66
 20
74.2778
 30
0.0
  0
SPLINE
  5
DA
330
1F
100
AcDbEntity
  8
layer 1
370
     9
100
AcDbSpline
210
0.0
220
0.0
230
1.0
 70
    24
 71
     3
 72
     8
 73
     4
 74
     0
 42
0.0000000001
 43
0.0000000001
 40
0.0
 40
0.0
 40
0.0
 40
0.0
 40
1.0
 40
1.0
 40
1.0
 40
1.0
 10
24.66
 20
67.2778
 30
0.0
 10
24.66
 20
67.2778
 30
0.0
 10
24.66
 20
74.2778
 30
0.0
 10
24.66
 20
74.2778
 30
0.0
  0
SPLINE
  5
DB
330
1F
100
AcDbEntity
  8
layer 1
370
     9
100
AcDbSpline
210
0.0
220
0.0
230
1.0
 70
    27
 71
     3
 72
     8
 73
     4
 74
     0
 42
0.0000000001
 43
0.0000000001
 40
0.0
 40
0.0
 40
0.0
 40
0.0
 40
1.0
 40
1.0
 40
1.0
 40
1.0
 10
39.3099
 20
67.2778
 30
0.0
 10
39.3099
 20
67.2778
 30
0.0
 10
39.3099
 20
67.2778
 30
0.0
 10
39.3099
 20
67.2778
 30
0.0
  0
SPLINE
  5
DC
330
1F
100
AcDbEntity
  8
layer 1
370
     9
100
AcDbSpline
210
0.0
220
0.0
230
1.0
 70
    24
 71
     3
 72
     8
 73
     4
 74
     0
 42
0.0000000001
 43
0.0000000001
 40
0.0
 40
0.0
 40
0.0
 40
0.0
 40
1.0
 40
1.0
 40
1.0
 40
1.0
 10
39.3099
 20
67.2778
 30
0.0
 10
39.3099
 20
67.2778
 30
0.0
 10
24.66
 20
67.2778
 30
0.0
 10
24.66
 20
67.2778
 30
0.0
  0
SPLINE
  5
DD
330
1F
100
AcDbEntity
  8
layer 1
370
     9
100
AcDbSpline
210
0.0
220
0.0
230
1.0
 70
    27
 71
     3
 72
     8
 73
     4
 74
     0
 42
0.0000000001
 43
0.0000000001
 40
0.0
 40
0.0
 40
0.0
 40
0.0
 40
1.0
 40
1.0
 40
1.0
 40
1.0
 10
39.3099
 20
74.2778
 30
0.0
 10
39.3099
 20
74.2778
 30
0.0
 10
39.3099
 20
74.2778
 30
0.0
 10
39.3099
 20
74.2778
 30
0.0
  0
SPLINE
  5
DE
330
1F
100
AcDbEntity
  8
layer 1
370
     9
100
AcDbSpline
210
0.0
220
0.0
230
1.0
 70
    24
 71
     3
 72
     8
 73
     4
 74
     0
 42
0.0000000001
 43
0.0000000001
 40
0.0
 40
0.0
 40
0.0
 40
0.0
 40
1.0
 40
1.0
 40
1.0
 40
1.0
 10
39.3099
 20
74.2778
 30
0.0
 10
39.3099
 20
74.2778
 30
0.0
 10
39.3099
 20
67.2778
 30
0.0
 10
39.3099
 20
67.2778
 30
0.0
  0
SPLINE
  5
DF
330
1F
100
AcDbEntity
  8
layer 1
370
     9
100
AcDbSpline
210
0.0
220
0.0
230
1.0
 70
    27
 71
     3
 72
     8
 73
     4
 74
     0
 42
0.0000000001
 43
0.0000000001
 40
0.0
 40
0.0
 40
0.0
 40
0.0
 40
1.0
 40
1.0
 40
1.0
 40
1.0
 10
42.3099
 20
74.2778
 30
0.0
 10
42.3099
 20
74.2778
 30
0.0
 10
42.3099
 20
74.2778
 30
0.0
 10
42.3099
 20
74.2778
 30
0.0
  0
SPLINE
  5
E0
330
1F
100
AcDbEntity
  8
layer 1
370
     9
100
AcDbSpline
210
0.0
220
0.0
230
1.0
 70
    24
 71
     3
 72
     8
 73
     4
 74
     0
 42
0.0000000001
 43
0.0000000001
 40
0.0
 40
0.0
 40
0.0
 40
0.0
 40
1.0
 40
1.0
 40
1.0
 40
1.0
 10
39.3099
 20
74.2778
 30
0.0
 10
39.3099
 20
74.2778
 30
0.0
 10
42.3099
 20
74.2778
 30
0.0
 10
42.3099
 20
74.2778
 30
0.0
  0
SPLINE
  5
E1
330
1F
100
AcDbEntity
  8
layer 1
370
     9
100
AcDbSpline
210
0.0
220
0.0
230
1.0
 70
    27
 71
     3
 72
     8
 73
     4
 74
     0
 42
0.0000000001
 43
0.0000000001
 40
0.0
 40
0.0
 40
0.0
 40
0.0
 40
1.0
 40
1.0
 40
1.0
 40
1.0
 10
42.3099
 20
78.2778
 30
0.0
 10
42.3099
 20
78.2778
 30
0.0
 10
42.3099
 20
78.2778
 30
0.0
 10
42.3099
 20
78.2778
 30
0.0
  0
SPLINE
  5
E2
330
1F
100
AcDbEntity
  8
layer 1
370
     9
100
AcDbSpline
210
0.0
220
0.0
230
1.0
 70
    24
 71
     3
 72
     8
 73
     4
 74
     0
 42
0.0000000001
 43
0.0000000001
 40
0.0
 40
0.0
 40
0.0
 40
0.0
 40
1.0
 40
1.0
 40
1.0
 40
1.0
 10
42.3099
 20
74.2778
 30
0.0
 10
42.3099
 20
74.2778
 30
0.0
 10
42.3099
 20
78.2778
 30
0.0
 10
42.3099
 20
78.2778
 30
0.0
  0
SPLINE
  5
E3
330
1F
100
AcDbEntity
  8
layer 1
370
     9
100
AcDbSpline
210
0.0
220
0.0
230
1.0
 70
     8
 71
     3
 72
    12
 73
     8
 74
     0
 42
0.0000000001
 43
0.0000000001
 40
0.0
 40
0.0
 40
0.0
 40
0.0
 40
0.5
 40
0.5
 40
0.5
 40
0.5
 40
1.0
 40
1.0
 40
1.0
 40
1.0
 10
21.66
 20
116.2778
 30
0.0
 10
21.66
 20
116.0126
 30
0.0
 10
21.7653
 20
115.7583
 30
0.0
 10
21.9528
 20
115.5707
 30
0.0
 10
21.9528
 20
115.5707
 30
0.0
 10
22.1404
 20
115.3832
 30
0.0
 10
22.3947
 20
115.2779
 30
0.0
 10
22.66
 20
115.2779
 30
0.0
  0
SPLINE
  5
E4
330
1F
100
AcDbEntity
  8
layer 1
370
     9
100
AcDbSpline
210
0.0
220
0.0
230
1.0
 70
     8
 71
     3
 72
     8
 73
     4
 74
     0
 42
0.0000000001
 43
0.0000000001
 40
0.0
 40
0.0
 40
0.0
 40
0.0
 40
1.0
 40
1.0
 40
1.0
 40
1.0
 10
41.3099
 20
115.2779
 30
0.0
 10
41.8621
 20
115.2779
 30
0.0
 10
42.3098
 20
115.7256
 30
0.0
 10
42.3099
 20
116.2778
 30
0.0
  0
SPLINE
  5
E5
330
1F
100
AcDbEntity
  8
layer 1
370
     9
100
AcDbSpline
210
0.0
220
0.0
230
1.0
 70
     8
 71
     3
 72
    12
 73
     8
 74
     0
 42
0.0000000001
 43
0.0000000001
 40
0.0
 40
0.0
 40
0.0
 40
0.0
 40
0.5
 40
0.5
 40
0.5
 40
0.5
 40
1.0
 40
1.0
 40
1.0
 40
1.0
 10
22.66
 20
79.2778
 30
0.0
 10
22.3947
 20
79.2778
 30
0.0
 10
22.1404
 20
79.1725
 30
0.0
 10
21.9528
 20
78.985
 30
0.0
 10
21.9528
 20
78.985
 30
0.0
 10
21.7653
 20
78.7974
 30
0.0
 10
21.66
 20
78.5431
 30
0.0
 10
21.66
 20
78.2778
 30
0.0
  0
SPLINE
  5
E6
330
1F
100
AcDbEntity
  8
layer 1
370
     9
100
AcDbSpline
210
0.0
220
0.0
230
1.0
 70
     8
 71
     3
 72
    12
 73
     8
 74
     0
 42
0.0000000001
 43
0.0000000001
 40
0.0
 40
0.0
 40
0.0
 40
0.0
 40
0.5
 40
0.5
 40
0.5
 40
0.5
 40
1.0
 40
1.0
 40
1.0
 40
1.0
 10
42.3099
 20
78.2778
 30
0.0
 10
42.3099
 20
78.5431
 30
0.0
 10
42.2045
 20
78.7974
 30
0.0
 10
42.017
 20
78.985
 30
0.0
 10
42.017
 20
78.985
 30
0.0
 10
41.8294
 20
79.1725
 30
0.0
 10
41.5751
 20
79.2778
 30
0.0
 10
41.3099
 20
79.2778
 30
0.0
  0
SPLINE
  5
E7
330
1F
100
AcDbEntity
  8
layer 1
370
     9
100
AcDbSpline
210
0.0
220
0.0
230
1.0
 70
    27
 71
     3
 72
     8
 73
     4
 74
     0
 42
0.0000000001
 43
0.0000000001
 40
0.0
 40
0.0
 40
0.0
 40
0.0
 40
1.0
 40
1.0
 40
1.0
 40
1.0
 10
61.6924
 20
5.6958
 30
0.0
 10
61.6924
 20
5.6958
 30
0.0
 10
61.6924
 20
5.6958
 30
0.0
 10
61.6924
 20
5.6958
 30
0.0
  0
SPLINE
  5
E8
330
1F
100
AcDbEntity
  8
layer 1
370
     9
100
AcDbSpline
210
0.0
220
0.0
230
1.0
 70
    24
 71
     3
 72
     8
 73
     4
 74
     0
 42
0.0000000001
 43
0.0000000001
 40
0.0
 40
0.0
 40
0.0
 40
0.0
 40
1.0
 40
1.0
 40
1.0
 40
1.0
 10
61.6924
 20
5.6958
 30
0.0
 10
61.6924
 20
5.6958
 30
0.0
 10
61.6924
 20
1.6958
 30
0.0
 10
61.6924
 20
1.6958
 30
0.0
  0
SPLINE
  5
E9
330
1F
100
AcDbEntity
  8
layer 1
370
     9
100
AcDbSpline
210
0.0
220
0.0
230
1.0
 70
    27
 71
     3
 72
     8
 73
     4
 74
     0
 42
0.0000000001
 43
0.0000000001
 40
0.0
 40
0.0
 40
0.0
 40
0.0
 40
1.0
 40
1.0
 40
1.0
 40
1.0
 10
58.6924
 20
1.6958
 30
0.0
 10
58.6924
 20
1.6958
 30
0.0
 10
58.6924
 20
1.6958
 30
0.0
 10
58.6924
 20
1.6958
 30
0.0
  0
SPLINE
  5
EA
330
1F
100
AcDbEntity
  8
layer 1
370
     9
100
AcDbSpline
210
0.0
220
0.0
230
1.0
 70
    24
 71
     3
 72
     8
 73
     4
 74
     0
 42
0.0000000001
 43
0.0000000001
 40
0.0
 40
0.0
 40
0.0
 40
0.0
 40
1.0
 40
1.0
 40
1.0
 40
1.0
 10
61.6924
 20
1.6958
 30
0.0
 10
61.6924
 20
1.6958
 30
0.0
 10
58.6924
 20
1.6958
 30
0.0
 10
58.6924
 20
1.6958
 30
0.0
  0
SPLINE
  5
EB
330
1F
100
AcDbEntity
  8
layer 1
370
     9
100
AcDbSpline
210
0.0
220
0.0
230
1.0
 70
    27
 71
     3
 72
     8
 73
     4
 74
     0
 42
0.0000000001
 43
0.0000000001
 40
0.0
 40
0.0
 40
0.0
 40
0.0
 40
1.0
 40
1.0
 40
1.0
 40
1.0
 10
58.6924
 20
1.6958
 30
0.0
 10
58.6924
 20
1.6958
 30
0.0
 10
58.6924
 20
1.6958
 30
0.0
 10
58.6924
 20
1.6958
 30
0.0
  0
SPLINE
  5
EC
330
1F
100
AcDbEntity
  8
layer 1
370
     9
100
AcDbSpline
210
0.0
220
0.0
230
1.0
 70
    24
 71
     3
 72
     8
 73
     4
 74
     0
 42
0.0000000001
 43
0.0000000001
 40
0.0
 40
0.0
 40
0.0
 40
0.0
 40
1.0
 40
1.0
 40
1.0
 40
1.0
 10
58.6924
 20
-3.3042
 30
0.0
 10
58.6924
 20
-3.3042
 30
0.0
 10
58.6924
 20
1.6958
 30
0.0
 10
58.6924
 20
1.6958
 30
0.0
  0
SPLINE
  5
ED
330
1F
100
AcDbEntity
  8
layer 1
370
     9
100
AcDbSpline
210
0.0
220
0.0
230
1.0
 70
    27
 71
     3
 72
     8
 73
     4
 74
     0
 42
0.0000000001
 43
0.0000000001
 40
0.0
 40
0.0
 40
0.0
 40
0.0
 40
1.0
 40
1.0
 40
1.0
 40
1.0
 10
44.0424
 20
1.6958
 30
0.0
 10
44.0424
 20
1.6958
 30
0.0
 10
44.0424
 20
1.6958
 30
0.0
 10
44.0424
 20
1.6958
 30
0.0
  0
SPLINE
  5
EE
330
1F
100
AcDbEntity
  8
layer 1
370
     9
100
AcDbSpline
210
0.0
220
0.0
230
1.0
 70
    24
 71
     3
 72
     8
 73
     4
 74
     0
 42
0.0000000001
 43
0.0000000001
 40
0.0
 40
0.0
 40
0.0
 40
0.0
 40
1.0
 40
1.0
 40
1.0
 40
1.0
 10
44.0424
 20
1.6958
 30
0.0
 10
44.0424
 20
1.6958
 30
0.0
 10
44.0424
 20
-3.3042
 30
0.0
 10
44.0424
 20
-3.3042
 30
0.0
  0
SPLINE
  5
EF
330
1F
100
AcDbEntity
  8
layer 1
370
     9
100
AcDbSpline
210
0.0
220
0.0
230
1.0
 70
    27
 71
     3
 72
     8
 73
     4
 74
     0
 42
0.0000000001
 43
0.0000000001
 40
0.0
 40
0.0
 40
0.0
 40
0.0
 40
1.0
 40
1.0
 40
1.0
 40
1.0
 10
41.0424
 20
1.6958
 30
0.0
 10
41.0424
 20
1.6958
 30
0.0
 10
41.0424
 20
1.6958
 30
0.0
 10
41.0424
 20
1.6958
 30
0.0
  0
SPLINE
  5
F0
330
1F
100
AcDbEntity
  8
layer 1
370
     9
100
AcDbSpline
210
0.0
220
0.0
230
1.0
 70
    24
 71
     3
 72
     8
 73
     4
 74
     0
 42
0.0000000001
 43
0.0000000001
 40
0.0
 40
0.0
 40
0.0
 40
0.0
 40
1.0
 40
1.0
 40
1.0
 40
1.0
 10
44.0424
 20
1.6958
 30
0.0
 10
44.0424
 20
1.6958
 30
0.0
 10
41.0424
 20
1.6958
 30
0.0
 10
41.0424
 20
1.6958
 30
0.0
  0
SPLINE
  5
F1
330
1F
100
AcDbEntity
  8
layer 1
370
     9
100
AcDbSpline
210
0.0
220
0.0
230
1.0
 70
    27
 71
     3
 72
     8
 73
     4
 74
     0
 42
0.0000000001
 43
0.0000000001
 40
0.0
 40
0.0
 40
0.0
 40
0.0
 40
1.0
 40
1.0
 40
1.0
 40
1.0
 10
41.0424
 20
5.6958
 30
0.0
 10
41.0424
 20
5.6958
 30
0.0
 10
41.0424
 20
5.6958
 30
0.0
 10
41.0424
 20
5.6958
 30
0.0
  0
SPLINE
  5
F2
330
1F
100
AcDbEntity
  8
layer 1
370
     9
100
AcDbSpline
210
0.0
220
0.0
230
1.0
 70
    24
 71
     3
 72
     8
 73
     4
 74
     0
 42
0.0000000001
 43
0.0000000001
 40
0.0
 40
0.0
 40
0.0
 40
0.0
 40
1.0
 40
1.0
 40
1.0
 40
1.0
 10
41.0424
 20
5.6958
 30
0.0
 10
41.0424
 20
5.6958
 30
0.0
 10
41.0424
 20
1.6958
 30
0.0
 10
41.0424
 20
1.6958
 30
0.0
  0
SPLINE
  5
F3
330
1F
100
AcDbEntity
  8
layer 1
370
     9
100
AcDbSpline
210
0.0
220
0.0
230
1.0
 70
    27
 71
     3
 72
     8
 73
     4
 74
     0
 42
0.0000000001
 43
0.0000000001
 40
0.0
 40
0.0
 40
0.0
 40
0.0
 40
1.0
 40
1.0
 40
1.0
 40
1.0
 10
42.0424
 20
6.6958
 30
0.0
 10
42.0424
 20
6.6958
 30
0.0
 10
42.0424
 20
6.6958
 30
0.0
 10
42.0424
 20
6.6958
 30
0.0
  0
SPLINE
  5
F4
330
1F
100
AcDbEntity
  8
layer 1
370
     9
100
AcDbSpline
210
0.0
220
0.0
230
1.0
 70
    24
 71
     3
 72
     8
 73
     4
 74
     0
 42
0.0000000001
 43
0.0000000001
 40
0.0
 40
0.0
 40
0.0
 40
0.0
 40
1.0
 40
1.0
 40
1.0
 40
1.0
 10
42.0424
 20
6.6958
 30
0.0
 10
42.0424
 20
6.6958
 30
0.0
 10
44.0424
 20
6.6958
 30
0.0
 10
44.0424
 20
6.6958
 30
0.0
  0
SPLINE
  5
F5
330
1F
100
AcDbEntity
  8
layer 1
370
     9
100
AcDbSpline
210
0.0
220
0.0
230
1.0
 70
    27
 71
     3
 72
     8
 73
     4
 74
     0
 42
0.0000000001
 43
0.0000000001
 40
0.0
 40
0.0
 40
0.0
 40
0.0
 40
1.0
 40
1.0
 40
1.0
 40
1.0
 10
44.0424
 20
55.8109
 30
0.0
 10
44.0424
 20
55.8109
 30
0.0
 10
44.0424
 20
55.8109
 30
0.0
 10
44.0424
 20
55.8109
 30
0.0
  0
SPLINE
  5
F6
330
1F
100
AcDbEntity
  8
layer 1
370
     9
100
AcDbSpline
210
0.0
220
0.0
230
1.0
 70
    24
 71
     3
 72
     8
 73
     4
 74
     0
 42
0.0000000001
 43
0.0000000001
 40
0.0
 40
0.0
 40
0.0
 40
0.0
 40
1.0
 40
1.0
 40
1.0
 40
1.0
 10
44.0424
 20
55.8109
 30
0.0
 10
44.0424
 20
55.8109
 30
0.0
 10
44.0424
 20
6.6958
 30
0.0
 10
44.0424
 20
6.6958
 30
0.0
  0
SPLINE
  5
F7
330
1F
100
AcDbEntity
  8
layer 1
370
     9
100
AcDbSpline
210
0.0
220
0.0
230
1.0
 70
    27
 71
     3
 72
     8
 73
     4
 74
     0
 42
0.0000000001
 43
0.0000000001
 40
0.0
 40
0.0
 40
0.0
 40
0.0
 40
1.0
 40
1.0
 40
1.0
 40
1.0
 10
42.0424
 20
55.8109
 30
0.0
 10
42.0424
 20
55.8109
 30
0.0
 10
42.0424
 20
55.8109
 30
0.0
 10
42.0424
 20
55.8109
 30
0.0
  0
SPLINE
  5
F8
330
1F
100
AcDbEntity
  8
layer 1
370
     9
100
AcDbSpline
210
0.0
220
0.0
230
1.0
 70
    24
 71
     3
 72
     8
 73
     4
 74
     0
 42
0.0000000001
 43
0.0000000001
 40
0.0
 40
0.0
 40
0.0
 40
0.0
 40
1.0
 40
1.0
 40
1.0
 40
1.0
 10
44.0424
 20
55.8109
 30
0.0
 10
44.0424
 20
55.8109
 30
0.0
 10
42.0424
 20
55.8109
 30
0.0
 10
42.0424
 20
55.8109
 30
0.0
  0
SPLINE
  5
F9
330
1F
100
AcDbEntity
  8
layer 1
370
     9
100
AcDbSpline
210
0.0
220
0.0
230
1.0
 70
    27
 71
     3
 72
     8
 73
     4
 74
     0
 42
0.0000000001
 43
0.0000000001
 40
0.0
 40
0.0
 40
0.0
 40
0.0
 40
1.0
 40
1.0
 40
1.0
 40
1.0
 10
41.0424
 20
60.8109
 30
0.0
 10
41.0424
 20
60.8109
 30
0.0
 10
41.0424
 20
60.8109
 30
0.0
 10
41.0424
 20
60.8109
 30
0.0
  0
SPLINE
  5
FA
330
1F
100
AcDbEntity
  8
layer 1
370
     9
100
AcDbSpline
210
0.0
220
0.0
230
1.0
 70
    24
 71
     3
 72
     8
 73
     4
 74
     0
 42
0.0000000001
 43
0.0000000001
 40
0.0
 40
0.0
 40
0.0
 40
0.0
 40
1.0
 40
1.0
 40
1.0
 40
1.0
 10
41.0424
 20
60.8109
 30
0.0
 10
41.0424
 20
60.8109
 30
0.0
 10
41.0424
 20
56.8109
 30
0.0
 10
41.0424
 20
56.8109
 30
0.0
  0
SPLINE
  5
FB
330
1F
100
AcDbEntity
  8
layer 1
370
     9
100
AcDbSpline
210
0.0
220
0.0
230
1.0
 70
    27
 71
     3
 72
     8
 73
     4
 74
     0
 42
0.0000000001
 43
0.0000000001
 40
0.0
 40
0.0
 40
0.0
 40
0.0
 40
1.0
 40
1.0
 40
1.0
 40
1.0
 10
41.0424
 20
60.8109
 30
0.0
 10
41.0424
 20
60.8109
 30
0.0
 10
41.0424
 20
60.8109
 30
0.0
 10
41.0424
 20
60.8109
 30
0.0
  0
SPLINE
  5
FC
330
1F
100
AcDbEntity
  8
layer 1
370
     9
100
AcDbSpline
210
0.0
220
0.0
230
1.0
 70
    24
 71
     3
 72
     8
 73
     4
 74
     0
 42
0.0000000001
 43
0.0000000001
 40
0.0
 40
0.0
 40
0.0
 40
0.0
 40
1.0
 40
1.0
 40
1.0
 40
1.0
 10
41.0424
 20
60.8109
 30
0.0
 10
41.0424
 20
60.8109
 30
0.0
 10
44.0424
 20
60.8109
 30
0.0
 10
44.0424
 20
60.8109
 30
0.0
  0
SPLINE
  5
FD
330
1F
100
AcDbEntity
  8
layer 1
370
     9
100
AcDbSpline
210
0.0
220
0.0
230
1.0
 70
    27
 71
     3
 72
     8
 73
     4
 74
     0
 42
0.0000000001
 43
0.0000000001
 40
0.0
 40
0.0
 40
0.0
 40
0.0
 40
1.0
 40
1.0
 40
1.0
 40
1.0
 10
44.0424
 20
65.8109
 30
0.0
 10
44.0424
 20
65.8109
 30
0.0
 10
44.0424
 20
65.8109
 30
0.0
 10
44.0424
 20
65.8109
 30
0.0
  0
SPLINE
  5
FE
330
1F
100
AcDbEntity
  8
layer 1
370
     9
100
AcDbSpline
210
0.0
220
0.0
230
1.0
 70
    24
 71
     3
 72
     8
 73
     4
 74
     0
 42
0.0000000001
 43
0.0000000001
 40
0.0
 40
0.0
 40
0.0
 40
0.0
 40
1.0
 40
1.0
 40
1.0
 40
1.0
 10
44.0424
 20
65.8109
 30
0.0
 10
44.0424
 20
65.8109
 30
0.0
 10
44.0424
 20
60.8109
 30
0.0
 10
44.0424
 20
60.8109
 30
0.0
  0
SPLINE
  5
FF
330
1F
100
AcDbEntity
  8
layer 1
370
     9
100
AcDbSpline
210
0.0
220
0.0
230
1.0
 70
    27
 71
     3
 72
     8
 73
     4
 74
     0
 42
0.0000000001
 43
0.0000000001
 40
0.0
 40
0.0
 40
0.0
 40
0.0
 40
1.0
 40
1.0
 40
1.0
 40
1.0
 10
58.6924
 20
65.8109
 30
0.0
 10
58.6924
 20
65.8109
 30
0.0
 10
58.6924
 20
65.8109
 30
0.0
 10
58.6924
 20
65.8109
 30
0.0
  0
SPLINE
  5
100
330
1F
100
AcDbEntity
  8
layer 1
370
     9
100
AcDbSpline
210
0.0
220
0.0
230
1.0
 70
    24
 71
     3
 72
     8
 73
     4
 74
     0
 42
0.0000000001
 43
0.0000000001
 40
0.0
 40
0.0
 40
0.0
 40
0.0
 40
1.0
 40
1.0
 40
1.0
 40
1.0
 10
58.6924
 20
60.8109
 30
0.0
 10
58.6924
 20
60.8109
 30
0.0
 10
58.6924
 20
65.8109
 30
0.0
 10
58.6924
 20
65.8109
 30
0.0
  0
SPLINE
  5
101
330
1F
100
AcDbEntity
  8
layer 1
370
     9
100
AcDbSpline
210
0.0
220
0.0
230
1.0
 70
    27
 71
     3
 72
     8
 73
     4
 74
     0
 42
0.0000000001
 43
0.0000000001
 40
0.0
 40
0.0
 40
0.0
 40
0.0
 40
1.0
 40
1.0
 40
1.0
 40
1.0
 10
58.6924
 20
60.8109
 30
0.0
 10
58.6924
 20
60.8109
 30
0.0
 10
58.6924
 20
60.8109
 30
0.0
 10
58.6924
 20
60.8109
 30
0.0
  0
SPLINE
  5
102
330
1F
100
AcDbEntity
  8
layer 1
370
     9
100
AcDbSpline
210
0.0
220
0.0
230
1.0
 70
    24
 71
     3
 72
     8
 73
     4
 74
     0
 42
0.0000000001
 43
0.0000000001
 40
0.0
 40
0.0
 40
0.0
 40
0.0
 40
1.0
 40
1.0
 40
1.0
 40
1.0
 10
58.6924
 20
60.8109
 30
0.0
 10
58.6924
 20
60.8109
 30
0.0
 10
61.6924
 20
60.8109
 30
0.0
 10
61.6924
 20
60.8109
 30
0.0
  0
SPLINE
  5
103
330
1F
100
AcDbEntity
  8
layer 1
370
     9
100
AcDbSpline
210
0.0
220
0.0
230
1.0
 70
    27
 71
     3
 72
     8
 73
     4
 74
     0
 42
0.0000000001
 43
0.0000000001
 40
0.0
 40
0.0
 40
0.0
 40
0.0
 40
1.0
 40
1.0
 40
1.0
 40
1.0
 10
61.6924
 20
60.8109
 30
0.0
 10
61.6924
 20
60.8109
 30
0.0
 10
61.6924
 20
60.8109
 30
0.0
 10
61.6924
 20
60.8109
 30
0.0
  0
SPLINE
  5
104
330
1F
100
AcDbEntity
  8
layer 1
370
     9
100
AcDbSpline
210
0.0
220
0.0
230
1.0
 70
    24
 71
     3
 72
     8
 73
     4
 74
     0
 42
0.0000000001
 43
0.0000000001
 40
0.0
 40
0.0
 40
0.0
 40
0.0
 40
1.0
 40
1.0
 40
1.0
 40
1.0
 10
61.6924
 20
60.8109
 30
0.0
 10
61.6924
 20
60.8109
 30
0.0
 10
61.6924
 20
56.8109
 30
0.0
 10
61.6924
 20
56.8109
 30
0.0
  0
SPLINE
  5
105
330
1F
100
AcDbEntity
  8
layer 1
370
     9
100
AcDbSpline
210
0.0
220
0.0
230
1.0
 70
    27
 71
     3
 72
     8
 73
     4
 74
     0
 42
0.0000000001
 43
0.0000000001
 40
0.0
 40
0.0
 40
0.0
 40
0.0
 40
1.0
 40
1.0
 40
1.0
 40
1.0
 10
58.6924
 20
55.8109
 30
0.0
 10
58.6924
 20
55.8109
 30
0.0
 10
58.6924
 20
55.8109
 30
0.0
 10
58.6924
 20
55.8109
 30
0.0
  0
SPLINE
  5
106
330
1F
100
AcDbEntity
  8
layer 1
370
     9
100
AcDbSpline
210
0.0
220
0.0
230
1.0
 70
    24
 71
     3
 72
     8
 73
     4
 74
     0
 42
0.0000000001
 43
0.0000000001
 40
0.0
 40
0.0
 40
0.0
 40
0.0
 40
1.0
 40
1.0
 40
1.0
 40
1.0
 10
60.6924
 20
55.8109
 30
0.0
 10
60.6924
 20
55.8109
 30
0.0
 10
58.6924
 20
55.8109
 30
0.0
 10
58.6924
 20
55.8109
 30
0.0
  0
SPLINE
  5
107
330
1F
100
AcDbEntity
  8
layer 1
370
     9
100
AcDbSpline
210
0.0
220
0.0
230
1.0
 70
    27
 71
     3
 72
     8
 73
     4
 74
     0
 42
0.0000000001
 43
0.0000000001
 40
0.0
 40
0.0
 40
0.0
 40
0.0
 40
1.0
 40
1.0
 40
1.0
 40
1.0
 10
58.6924
 20
55.8109
 30
0.0
 10
58.6924
 20
55.8109
 30
0.0
 10
58.6924
 20
55.8109
 30
0.0
 10
58.6924
 20
55.8109
 30
0.0
  0
SPLINE
  5
108
330
1F
100
AcDbEntity
  8
layer 1
370
     9
100
AcDbSpline
210
0.0
220
0.0
230
1.0
 70
    24
 71
     3
 72
     8
 73
     4
 74
     0
 42
0.0000000001
 43
0.0000000001
 40
0.0
 40
0.0
 40
0.0
 40
0.0
 40
1.0
 40
1.0
 40
1.0
 40
1.0
 10
58.6924
 20
6.6958
 30
0.0
 10
58.6924
 20
6.6958
 30
0.0
 10
58.6924
 20
55.8109
 30
0.0
 10
58.6924
 20
55.8109
 30
0.0
  0
SPLINE
  5
109
330
1F
100
AcDbEntity
  8
layer 1
370
     9
100
AcDbSpline
210
0.0
220
0.0
230
1.0
 70
    27
 71
     3
 72
     8
 73
     4
 74
     0
 42
0.0000000001
 43
0.0000000001
 40
0.0
 40
0.0
 40
0.0
 40
0.0
 40
1.0
 40
1.0
 40
1.0
 40
1.0
 10
58.6924
 20
6.6958
 30
0.0
 10
58.6924
 20
6.6958
 30
0.0
 10
58.6924
 20
6.6958
 30
0.0
 10
58.6924
 20
6.6958
 30
0.0
  0
SPLINE
  5
10A
330
1F
100
AcDbEntity
  8
layer 1
370
     9
100
AcDbSpline
210
0.0
220
0.0
230
1.0
 70
    24
 71
     3
 72
     8
 73
     4
 74
     0
 42
0.0000000001
 43
0.0000000001
 40
0.0
 40
0.0
 40
0.0
 40
0.0
 40
1.0
 40
1.0
 40
1.0
 40
1.0
 10
58.6924
 20
6.6958
 30
0.0
 10
58.6924
 20
6.6958
 30
0.0
 10
60.6924
 20
6.6958
 30
0.0
 10
60.6924
 20
6.6958
 30
0.0
  0
SPLINE
  5
10B
330
1F
100
AcDbEntity
  8
layer 1
370
     9
100
AcDbSpline
210
0.0
220
0.0
230
1.0
 70
    27
 71
     3
 72
     8
 73
     4
 74
     0
 42
0.0000000001
 43
0.0000000001
 40
0.0
 40
0.0
 40
0.0
 40
0.0
 40
1.0
 40
1.0
 40
1.0
 40
1.0
 10
44.0424
 20
65.8109
 30
0.0
 10
44.0424
 20
65.8109
 30
0.0
 10
44.0424
 20
65.8109
 30
0.0
 10
44.0424
 20
65.8109
 30
0.0
  0
SPLINE
  5
10C
330
1F
100
AcDbEntity
  8
layer 1
370
     9
100
AcDbSpline
210
0.0
220
0.0
230
1.0
 70
    24
 71
     3
 72
     8
 73
     4
 74
     0
 42
0.0000000001
 43
0.0000000001
 40
0.0
 40
0.0
 40
0.0
 40
0.0
 40
1.0
 40
1.0
 40
1.0
 40
1.0
 10
58.6924
 20
65.8109
 30
0.0
 10
58.6924
 20
65.8109
 30
0.0
 10
44.0424
 20
65.8109
 30
0.0
 10
44.0424
 20
65.8109
 30
0.0
  0
SPLINE
  5
10D
330
1F
100
AcDbEntity
  8
layer 1
370
     9
100
AcDbSpline
210
0.0
220
0.0
230
1.0
 70
    27
 71
     3
 72
     8
 73
     4
 74
     0
 42
0.0000000001
 43
0.0000000001
 40
0.0
 40
0.0
 40
0.0
 40
0.0
 40
1.0
 40
1.0
 40
1.0
 40
1.0
 10
44.0424
 20
-3.3042
 30
0.0
 10
44.0424
 20
-3.3042
 30
0.0
 10
44.0424
 20
-3.3042
 30
0.0
 10
44.0424
 20
-3.3042
 30
0.0
  0
SPLINE
  5
10E
330
1F
100
AcDbEntity
  8
layer 1
370
     9
100
AcDbSpline
210
0.0
220
0.0
230
1.0
 70
    24
 71
     3
 72
     8
 73
     4
 74
     0
 42
0.0000000001
 43
0.0000000001
 40
0.0
 40
0.0
 40
0.0
 40
0.0
 40
1.0
 40
1.0
 40
1.0
 40
1.0
 10
58.6924
 20
-3.3042
 30
0.0
 10
58.6924
 20
-3.3042
 30
0.0
 10
44.0424
 20
-3.3042
 30
0.0
 10
44.0424
 20
-3.3042
 30
0.0
  0
SPLINE
  5
10F
330
1F
100
AcDbEntity
  8
layer 1
370
     9
100
AcDbSpline
210
0.0
220
0.0
230
1.0
 70
    11
 71
     3
 72
    20
 73
    16
 74
     0
 42
0.0000000001
 43
0.0000000001
 40
0.0
 40
0.0
 40
0.0
 40
0.0
 40
0.25
 40
0.25
 40
0.25
 40
0.25
 40
0.5
 40
0.5
 40
0.5
 40
0.5
 40
0.75
 40
0.75
 40
0.75
 40
0.75
 40
1.0
 40
1.0
 40
1.0
 40
1.0
 10
46.5424
 20
23.3109
 30
0.0
 10
45.7139
 20
23.3109
 30
0.0
 10
45.0424
 20
22.6393
 30
0.0
 10
45.0424
 20
21.8109
 30
0.0
 10
45.0424
 20
21.8109
 30
0.0
 10
45.0423
 20
20.9824
 30
0.0
 10
45.7139
 20
20.3109
 30
0.0
 10
46.5423
 20
20.3109
 30
0.0
 10
46.5423
 20
20.3109
 30
0.0
 10
47.3708
 20
20.3108
 30
0.0
 10
48.0423
 20
20.9824
 30
0.0
 10
48.0423
 20
21.8108
 30
0.0
 10
48.0423
 20
21.8108
 30
0.0
 10
48.0424
 20
22.6393
 30
0.0
 10
47.3708
 20
23.3108
 30
0.0
 10
46.5424
 20
23.3109
 30
0.0
  0
SPLINE
  5
110
330
1F
100
AcDbEntity
  8
layer 1
370
     9
100
AcDbSpline
210
0.0
220
0.0
230
1.0
 70
     8
 71
     3
 72
    20
 73
    16
 74
     0
 42
0.0000000001
 43
0.0000000001
 40
0.0
 40
0.0
 40
0.0
 40
0.0
 40
0.25
 40
0.25
 40
0.25
 40
0.25
 40
0.5
 40
0.5
 40
0.5
 40
0.5
 40
0.75
 40
0.75
 40
0.75
 40
0.75
 40
1.0
 40
1.0
 40
1.0
 40
1.0
 10
46.5423
 20
56.3109
 30
0.0
 10
45.7139
 20
56.3109
 30
0.0
 10
45.0424
 20
55.6393
 30
0.0
 10
45.0424
 20
54.8109
 30
0.0
 10
45.0424
 20
54.8109
 30
0.0
 10
45.0423
 20
53.9824
 30
0.0
 10
45.7139
 20
53.3109
 30
0.0
 10
46.5423
 20
53.3109
 30
0.0
 10
46.5423
 20
53.3109
 30
0.0
 10
47.3708
 20
53.3108
 30
0.0
 10
48.0423
 20
53.9824
 30
0.0
 10
48.0423
 20
54.8108
 30
0.0
 10
48.0423
 20
54.8108
 30
0.0
 10
48.0424
 20
55.6393
 30
0.0
 10
47.3708
 20
56.3108
 30
0.0
 10
46.5424
 20
56.3109
 30
0.0
  0
SPLINE
  5
111
330
1F
100
AcDbEntity
  8
layer 1
370
     9
100
AcDbSpline
210
0.0
220
0.0
230
1.0
 70
     8
 71
     3
 72
    12
 73
     8
 74
     0
 42
0.0000000001
 43
0.0000000001
 40
0.0
 40
0.0
 40
0.0
 40
0.0
 40
0.5
 40
0.5
 40
0.5
 40
0.5
 40
1.0
 40
1.0
 40
1.0
 40
1.0
 10
42.0424
 20
6.6958
 30
0.0
 10
41.7771
 20
6.6958
 30
0.0
 10
41.5228
 20
6.5905
 30
0.0
 10
41.3352
 20
6.403
 30
0.0
 10
41.3352
 20
6.403
 30
0.0
 10
41.1477
 20
6.2154
 30
0.0
 10
41.0424
 20
5.9611
 30
0.0
 10
41.0424
 20
5.6958
 30
0.0
  0
SPLINE
  5
112
330
1F
100
AcDbEntity
  8
layer 1
370
     9
100
AcDbSpline
210
0.0
220
0.0
230
1.0
 70
     8
 71
     3
 72
    12
 73
     8
 74
     0
 42
0.0000000001
 43
0.0000000001
 40
0.0
 40
0.0
 40
0.0
 40
0.0
 40
0.5
 40
0.5
 40
0.5
 40
0.5
 40
1.0
 40
1.0
 40
1.0
 40
1.0
 10
41.0424
 20
56.8109
 30
0.0
 10
41.0424
 20
56.5456
 30
0.0
 10
41.1477
 20
56.2913
 30
0.0
 10
41.3352
 20
56.1037
 30
0.0
 10
41.3352
 20
56.1037
 30
0.0
 10
41.5228
 20
55.9162
 30
0.0
 10
41.7771
 20
55.8109
 30
0.0
 10
42.0424
 20
55.8109
 30
0.0
  0
SPLINE
  5
113
330
1F
100
AcDbEntity
  8
layer 1
370
     9
100
AcDbSpline
210
0.0
220
0.0
230
1.0
 70
     8
 71
     3
 72
    12
 73
     8
 74
     0
 42
0.0000000001
 43
0.0000000001
 40
0.0
 40
0.0
 40
0.0
 40
0.0
 40
0.5
 40
0.5
 40
0.5
 40
0.5
 40
1.0
 40
1.0
 40
1.0
 40
1.0
 10
60.6924
 20
55.8109
 30
0.0
 10
60.9576
 20
55.8109
 30
0.0
 10
61.2119
 20
55.9162
 30
0.0
 10
61.3995
 20
56.1037
 30
0.0
 10
61.3995
 20
56.1037
 30
0.0
 10
61.587
 20
56.2913
 30
0.0
 10
61.6923
 20
56.5456
 30
0.0
 10
61.6923
 20
56.8109
 30
0.0
  0
SPLINE
  5
114
330
1F
100
AcDbEntity
  8
layer 1
370
     9
100
AcDbSpline
210
0.0
220
0.0
230
1.0
 70
     8
 71
     3
 72
     8
 73
     4
 74
     0
 42
0.0000000001
 43
0.0000000001
 40
0.0
 40
0.0
 40
0.0
 40
0.0
 40
1.0
 40
1.0
 40
1.0
 40
1.0
 10
61.6923
 20
5.6958
 30
0.0
 10
61.6923
 20
6.2481
 30
0.0
 10
61.2446
 20
6.6958
 30
0.0
 10
60.6924
 20
6.6958
 30
0.0
  0
SPLINE
  5
115
330
1F
100
AcDbEntity
  8
layer 1
370
     9
100
AcDbSpline
210
0.0
220
0.0
230
1.0
 70
    27
 71
     3
 72
     8
 73
     4
 74
     0
 42
0.0000000001
 43
0.0000000001
 40
0.0
 40
0.0
 40
0.0
 40
0.0
 40
1.0
 40
1.0
 40
1.0
 40
1.0
 10
22.7251
 20
-3.3042
 30
0.0
 10
22.7251
 20
-3.3042
 30
0.0
 10
22.7251
 20
-3.3042
 30
0.0
 10
22.7251
 20
-3.3042
 30
0.0
  0
SPLINE
  5
116
330
1F
100
AcDbEntity
  8
layer 1
370
     9
100
AcDbSpline
210
0.0
220
0.0
230
1.0
 70
    24
 71
     3
 72
     8
 73
     4
 74
     0
 42
0.0000000001
 43
0.0000000001
 40
0.0
 40
0.0
 40
0.0
 40
0.0
 40
1.0
 40
1.0
 40
1.0
 40
1.0
 10
37.3751
 20
-3.3042
 30
0.0
 10
37.3751
 20
-3.3042
 30
0.0
 10
22.7251
 20
-3.3042
 30
0.0
 10
22.7251
 20
-3.3042
 30
0.0
  0
SPLINE
  5
117
330
1F
100
AcDbEntity
  8
layer 1
370
     9
100
AcDbSpline
210
0.0
220
0.0
230
1.0
 70
    27
 71
     3
 72
     8
 73
     4
 74
     0
 42
0.0000000001
 43
0.0000000001
 40
0.0
 40
0.0
 40
0.0
 40
0.0
 40
1.0
 40
1.0
 40
1.0
 40
1.0
 10
37.3751
 20
6.6958
 30
0.0
 10
37.3751
 20
6.6958
 30
0.0
 10
37.3751
 20
6.6958
 30
0.0
 10
37.3751
 20
6.6958
 30
0.0
  0
SPLINE
  5
118
330
1F
100
AcDbEntity
  8
layer 1
370
     9
100
AcDbSpline
210
0.0
220
0.0
230
1.0
 70
    24
 71
     3
 72
     8
 73
     4
 74
     0
 42
0.0000000001
 43
0.0000000001
 40
0.0
 40
0.0
 40
0.0
 40
0.0
 40
1.0
 40
1.0
 40
1.0
 40
1.0
 10
39.3751
 20
6.6958
 30
0.0
 10
39.3751
 20
6.6958
 30
0.0
 10
37.3751
 20
6.6958
 30
0.0
 10
37.3751
 20
6.6958
 30
0.0
  0
SPLINE
  5
119
330
1F
100
AcDbEntity
  8
layer 1
370
     9
100
AcDbSpline
210
0.0
220
0.0
230
1.0
 70
    27
 71
     3
 72
     8
 73
     4
 74
     0
 42
0.0000000001
 43
0.0000000001
 40
0.0
 40
0.0
 40
0.0
 40
0.0
 40
1.0
 40
1.0
 40
1.0
 40
1.0
 10
37.3751
 20
55.8109
 30
0.0
 10
37.3751
 20
55.8109
 30
0.0
 10
37.3751
 20
55.8109
 30
0.0
 10
37.3751
 20
55.8109
 30
0.0
  0
SPLINE
  5
11A
330
1F
100
AcDbEntity
  8
layer 1
370
     9
100
AcDbSpline
210
0.0
220
0.0
230
1.0
 70
    24
 71
     3
 72
     8
 73
     4
 74
     0
 42
0.0000000001
 43
0.0000000001
 40
0.0
 40
0.0
 40
0.0
 40
0.0
 40
1.0
 40
1.0
 40
1.0
 40
1.0
 10
37.3751
 20
55.8109
 30
0.0
 10
37.3751
 20
55.8109
 30
0.0
 10
37.3751
 20
6.6958
 30
0.0
 10
37.3751
 20
6.6958
 30
0.0
  0
SPLINE
  5
11B
330
1F
100
AcDbEntity
  8
layer 1
370
     9
100
AcDbSpline
210
0.0
220
0.0
230
1.0
 70
    27
 71
     3
 72
     8
 73
     4
 74
     0
 42
0.0000000001
 43
0.0000000001
 40
0.0
 40
0.0
 40
0.0
 40
0.0
 40
1.0
 40
1.0
 40
1.0
 40
1.0
 10
37.3751
 20
55.8109
 30
0.0
 10
37.3751
 20
55.8109
 30
0.0
 10
37.3751
 20
55.8109
 30
0.0
 10
37.3751
 20
55.8109
 30
0.0
  0
SPLINE
  5
11C
330
1F
100
AcDbEntity
  8
layer 1
370
     9
100
AcDbSpline
210
0.0
220
0.0
230
1.0
 70
    24
 71
     3
 72
     8
 73
     4
 74
     0
 42
0.0000000001
 43
0.0000000001
 40
0.0
 40
0.0
 40
0.0
 40
0.0
 40
1.0
 40
1.0
 40
1.0
 40
1.0
 10
37.3751
 20
55.8109
 30
0.0
 10
37.3751
 20
55.8109
 30
0.0
 10
39.3751
 20
55.8109
 30
0.0
 10
39.3751
 20
55.8109
 30
0.0
  0
SPLINE
  5
11D
330
1F
100
AcDbEntity
  8
layer 1
370
     9
100
AcDbSpline
210
0.0
220
0.0
230
1.0
 70
    27
 71
     3
 72
     8
 73
     4
 74
     0
 42
0.0000000001
 43
0.0000000001
 40
0.0
 40
0.0
 40
0.0
 40
0.0
 40
1.0
 40
1.0
 40
1.0
 40
1.0
 10
40.3751
 20
60.8109
 30
0.0
 10
40.3751
 20
60.8109
 30
0.0
 10
40.3751
 20
60.8109
 30
0.0
 10
40.3751
 20
60.8109
 30
0.0
  0
SPLINE
  5
11E
330
1F
100
AcDbEntity
  8
layer 1
370
     9
100
AcDbSpline
210
0.0
220
0.0
230
1.0
 70
    24
 71
     3
 72
     8
 73
     4
 74
     0
 42
0.0000000001
 43
0.0000000001
 40
0.0
 40
0.0
 40
0.0
 40
0.0
 40
1.0
 40
1.0
 40
1.0
 40
1.0
 10
40.3751
 20
56.8109
 30
0.0
 10
40.3751
 20
56.8109
 30
0.0
 10
40.3751
 20
60.8109
 30
0.0
 10
40.3751
 20
60.8109
 30
0.0
  0
SPLINE
  5
11F
330
1F
100
AcDbEntity
  8
layer 1
370
     9
100
AcDbSpline
210
0.0
220
0.0
230
1.0
 70
    27
 71
     3
 72
     8
 73
     4
 74
     0
 42
0.0000000001
 43
0.0000000001
 40
0.0
 40
0.0
 40
0.0
 40
0.0
 40
1.0
 40
1.0
 40
1.0
 40
1.0
 10
37.3751
 20
60.8109
 30
0.0
 10
37.3751
 20
60.8109
 30
0.0
 10
37.3751
 20
60.8109
 30
0.0
 10
37.3751
 20
60.8109
 30
0.0
  0
SPLINE
  5
120
330
1F
100
AcDbEntity
  8
layer 1
370
     9
100
AcDbSpline
210
0.0
220
0.0
230
1.0
 70
    24
 71
     3
 72
     8
 73
     4
 74
     0
 42
0.0000000001
 43
0.0000000001
 40
0.0
 40
0.0
 40
0.0
 40
0.0
 40
1.0
 40
1.0
 40
1.0
 40
1.0
 10
40.3751
 20
60.8109
 30
0.0
 10
40.3751
 20
60.8109
 30
0.0
 10
37.3751
 20
60.8109
 30
0.0
 10
37.3751
 20
60.8109
 30
0.0
  0
SPLINE
  5
121
330
1F
100
AcDbEntity
  8
layer 1
370
     9
100
AcDbSpline
210
0.0
220
0.0
230
1.0
 70
    27
 71
     3
 72
     8
 73
     4
 74
     0
 42
0.0000000001
 43
0.0000000001
 40
0.0
 40
0.0
 40
0.0
 40
0.0
 40
1.0
 40
1.0
 40
1.0
 40
1.0
 10
37.3751
 20
65.8109
 30
0.0
 10
37.3751
 20
65.8109
 30
0.0
 10
37.3751
 20
65.8109
 30
0.0
 10
37.3751
 20
65.8109
 30
0.0
  0
SPLINE
  5
122
330
1F
100
AcDbEntity
  8
layer 1
370
     9
100
AcDbSpline
210
0.0
220
0.0
230
1.0
 70
    24
 71
     3
 72
     8
 73
     4
 74
     0
 42
0.0000000001
 43
0.0000000001
 40
0.0
 40
0.0
 40
0.0
 40
0.0
 40
1.0
 40
1.0
 40
1.0
 40
1.0
 10
37.3751
 20
65.8109
 30
0.0
 10
37.3751
 20
65.8109
 30
0.0
 10
37.3751
 20
60.8109
 30
0.0
 10
37.3751
 20
60.8109
 30
0.0
  0
SPLINE
  5
123
330
1F
100
AcDbEntity
  8
layer 1
370
     9
100
AcDbSpline
210
0.0
220
0.0
230
1.0
 70
    27
 71
     3
 72
     8
 73
     4
 74
     0
 42
0.0000000001
 43
0.0000000001
 40
0.0
 40
0.0
 40
0.0
 40
0.0
 40
1.0
 40
1.0
 40
1.0
 40
1.0
 10
22.7251
 20
65.8109
 30
0.0
 10
22.7251
 20
65.8109
 30
0.0
 10
22.7251
 20
65.8109
 30
0.0
 10
22.7251
 20
65.8109
 30
0.0
  0
SPLINE
  5
124
330
1F
100
AcDbEntity
  8
layer 1
370
     9
100
AcDbSpline
210
0.0
220
0.0
230
1.0
 70
    24
 71
     3
 72
     8
 73
     4
 74
     0
 42
0.0000000001
 43
0.0000000001
 40
0.0
 40
0.0
 40
0.0
 40
0.0
 40
1.0
 40
1.0
 40
1.0
 40
1.0
 10
37.3751
 20
65.8109
 30
0.0
 10
37.3751
 20
65.8109
 30
0.0
 10
22.7251
 20
65.8109
 30
0.0
 10
22.7251
 20
65.8109
 30
0.0
  0
SPLINE
  5
125
330
1F
100
AcDbEntity
  8
layer 1
370
     9
100
AcDbSpline
210
0.0
220
0.0
230
1.0
 70
    27
 71
     3
 72
     8
 73
     4
 74
     0
 42
0.0000000001
 43
0.0000000001
 40
0.0
 40
0.0
 40
0.0
 40
0.0
 40
1.0
 40
1.0
 40
1.0
 40
1.0
 10
22.7251
 20
65.8109
 30
0.0
 10
22.7251
 20
65.8109
 30
0.0
 10
22.7251
 20
65.8109
 30
0.0
 10
22.7251
 20
65.8109
 30
0.0
  0
SPLINE
  5
126
330
1F
100
AcDbEntity
  8
layer 1
370
     9
100
AcDbSpline
210
0.0
220
0.0
230
1.0
 70
    24
 71
     3
 72
     8
 73
     4
 74
     0
 42
0.0000000001
 43
0.0000000001
 40
0.0
 40
0.0
 40
0.0
 40
0.0
 40
1.0
 40
1.0
 40
1.0
 40
1.0
 10
22.7251
 20
60.8109
 30
0.0
 10
22.7251
 20
60.8109
 30
0.0
 10
22.7251
 20
65.8109
 30
0.0
 10
22.7251
 20
65.8109
 30
0.0
  0
SPLINE
  5
127
330
1F
100
AcDbEntity
  8
layer 1
370
     9
100
AcDbSpline
210
0.0
220
0.0
230
1.0
 70
    27
 71
     3
 72
     8
 73
     4
 74
     0
 42
0.0000000001
 43
0.0000000001
 40
0.0
 40
0.0
 40
0.0
 40
0.0
 40
1.0
 40
1.0
 40
1.0
 40
1.0
 10
19.7251
 20
60.8109
 30
0.0
 10
19.7251
 20
60.8109
 30
0.0
 10
19.7251
 20
60.8109
 30
0.0
 10
19.7251
 20
60.8109
 30
0.0
  0
SPLINE
  5
128
330
1F
100
AcDbEntity
  8
layer 1
370
     9
100
AcDbSpline
210
0.0
220
0.0
230
1.0
 70
    24
 71
     3
 72
     8
 73
     4
 74
     0
 42
0.0000000001
 43
0.0000000001
 40
0.0
 40
0.0
 40
0.0
 40
0.0
 40
1.0
 40
1.0
 40
1.0
 40
1.0
 10
22.7251
 20
60.8109
 30
0.0
 10
22.7251
 20
60.8109
 30
0.0
 10
19.7251
 20
60.8109
 30
0.0
 10
19.7251
 20
60.8109
 30
0.0
  0
SPLINE
  5
129
330
1F
100
AcDbEntity
  8
layer 1
370
     9
100
AcDbSpline
210
0.0
220
0.0
230
1.0
 70
    27
 71
     3
 72
     8
 73
     4
 74
     0
 42
0.0000000001
 43
0.0000000001
 40
0.0
 40
0.0
 40
0.0
 40
0.0
 40
1.0
 40
1.0
 40
1.0
 40
1.0
 10
19.7251
 20
60.8109
 30
0.0
 10
19.7251
 20
60.8109
 30
0.0
 10
19.7251
 20
60.8109
 30
0.0
 10
19.7251
 20
60.8109
 30
0.0
  0
SPLINE
  5
12A
330
1F
100
AcDbEntity
  8
layer 1
370
     9
100
AcDbSpline
210
0.0
220
0.0
230
1.0
 70
    24
 71
     3
 72
     8
 73
     4
 74
     0
 42
0.0000000001
 43
0.0000000001
 40
0.0
 40
0.0
 40
0.0
 40
0.0
 40
1.0
 40
1.0
 40
1.0
 40
1.0
 10
19.7251
 20
56.8109
 30
0.0
 10
19.7251
 20
56.8109
 30
0.0
 10
19.7251
 20
60.8109
 30
0.0
 10
19.7251
 20
60.8109
 30
0.0
  0
SPLINE
  5
12B
330
1F
100
AcDbEntity
  8
layer 1
370
     9
100
AcDbSpline
210
0.0
220
0.0
230
1.0
 70
    27
 71
     3
 72
     8
 73
     4
 74
     0
 42
0.0000000001
 43
0.0000000001
 40
0.0
 40
0.0
 40
0.0
 40
0.0
 40
1.0
 40
1.0
 40
1.0
 40
1.0
 10
20.7251
 20
55.8109
 30
0.0
 10
20.7251
 20
55.8109
 30
0.0
 10
20.7251
 20
55.8109
 30
0.0
 10
20.7251
 20
55.8109
 30
0.0
  0
SPLINE
  5
12C
330
1F
100
AcDbEntity
  8
layer 1
370
     9
100
AcDbSpline
210
0.0
220
0.0
230
1.0
 70
    24
 71
     3
 72
     8
 73
     4
 74
     0
 42
0.0000000001
 43
0.0000000001
 40
0.0
 40
0.0
 40
0.0
 40
0.0
 40
1.0
 40
1.0
 40
1.0
 40
1.0
 10
20.7251
 20
55.8109
 30
0.0
 10
20.7251
 20
55.8109
 30
0.0
 10
22.7251
 20
55.8109
 30
0.0
 10
22.7251
 20
55.8109
 30
0.0
  0
SPLINE
  5
12D
330
1F
100
AcDbEntity
  8
layer 1
370
     9
100
AcDbSpline
210
0.0
220
0.0
230
1.0
 70
    27
 71
     3
 72
     8
 73
     4
 74
     0
 42
0.0000000001
 43
0.0000000001
 40
0.0
 40
0.0
 40
0.0
 40
0.0
 40
1.0
 40
1.0
 40
1.0
 40
1.0
 10
22.7251
 20
55.8109
 30
0.0
 10
22.7251
 20
55.8109
 30
0.0
 10
22.7251
 20
55.8109
 30
0.0
 10
22.7251
 20
55.8109
 30
0.0
  0
SPLINE
  5
12E
330
1F
100
AcDbEntity
  8
layer 1
370
     9
100
AcDbSpline
210
0.0
220
0.0
230
1.0
 70
    24
 71
     3
 72
     8
 73
     4
 74
     0
 42
0.0000000001
 43
0.0000000001
 40
0.0
 40
0.0
 40
0.0
 40
0.0
 40
1.0
 40
1.0
 40
1.0
 40
1.0
 10
22.7251
 20
6.6958
 30
0.0
 10
22.7251
 20
6.6958
 30
0.0
 10
22.7251
 20
55.8109
 30
0.0
 10
22.7251
 20
55.8109
 30
0.0
  0
SPLINE
  5
12F
330
1F
100
AcDbEntity
  8
layer 1
370
     9
100
AcDbSpline
210
0.0
220
0.0
230
1.0
 70
    27
 71
     3
 72
     8
 73
     4
 74
     0
 42
0.0000000001
 43
0.0000000001
 40
0.0
 40
0.0
 40
0.0
 40
0.0
 40
1.0
 40
1.0
 40
1.0
 40
1.0
 10
20.7251
 20
6.6958
 30
0.0
 10
20.7251
 20
6.6958
 30
0.0
 10
20.7251
 20
6.6958
 30
0.0
 10
20.7251
 20
6.6958
 30
0.0
  0
SPLINE
  5
130
330
1F
100
AcDbEntity
  8
layer 1
370
     9
100
AcDbSpline
210
0.0
220
0.0
230
1.0
 70
    24
 71
     3
 72
     8
 73
     4
 74
     0
 42
0.0000000001
 43
0.0000000001
 40
0.0
 40
0.0
 40
0.0
 40
0.0
 40
1.0
 40
1.0
 40
1.0
 40
1.0
 10
22.7251
 20
6.6958
 30
0.0
 10
22.7251
 20
6.6958
 30
0.0
 10
20.7251
 20
6.6958
 30
0.0
 10
20.7251
 20
6.6958
 30
0.0
  0
SPLINE
  5
131
330
1F
100
AcDbEntity
  8
layer 1
370
     9
100
AcDbSpline
210
0.0
220
0.0
230
1.0
 70
    27
 71
     3
 72
     8
 73
     4
 74
     0
 42
0.0000000001
 43
0.0000000001
 40
0.0
 40
0.0
 40
0.0
 40
0.0
 40
1.0
 40
1.0
 40
1.0
 40
1.0
 10
19.7251
 20
5.6958
 30
0.0
 10
19.7251
 20
5.6958
 30
0.0
 10
19.7251
 20
5.6958
 30
0.0
 10
19.7251
 20
5.6958
 30
0.0
  0
SPLINE
  5
132
330
1F
100
AcDbEntity
  8
layer 1
370
     9
100
AcDbSpline
210
0.0
220
0.0
230
1.0
 70
    24
 71
     3
 72
     8
 73
     4
 74
     0
 42
0.0000000001
 43
0.0000000001
 40
0.0
 40
0.0
 40
0.0
 40
0.0
 40
1.0
 40
1.0
 40
1.0
 40
1.0
 10
19.7251
 20
1.6958
 30
0.0
 10
19.7251
 20
1.6958
 30
0.0
 10
19.7251
 20
5.6958
 30
0.0
 10
19.7251
 20
5.6958
 30
0.0
  0
SPLINE
  5
133
330
1F
100
AcDbEntity
  8
layer 1
370
     9
100
AcDbSpline
210
0.0
220
0.0
230
1.0
 70
    27
 71
     3
 72
     8
 73
     4
 74
     0
 42
0.0000000001
 43
0.0000000001
 40
0.0
 40
0.0
 40
0.0
 40
0.0
 40
1.0
 40
1.0
 40
1.0
 40
1.0
 10
19.7251
 20
1.6958
 30
0.0
 10
19.7251
 20
1.6958
 30
0.0
 10
19.7251
 20
1.6958
 30
0.0
 10
19.7251
 20
1.6958
 30
0.0
  0
SPLINE
  5
134
330
1F
100
AcDbEntity
  8
layer 1
370
     9
100
AcDbSpline
210
0.0
220
0.0
230
1.0
 70
    24
 71
     3
 72
     8
 73
     4
 74
     0
 42
0.0000000001
 43
0.0000000001
 40
0.0
 40
0.0
 40
0.0
 40
0.0
 40
1.0
 40
1.0
 40
1.0
 40
1.0
 10
19.7251
 20
1.6958
 30
0.0
 10
19.7251
 20
1.6958
 30
0.0
 10
22.7251
 20
1.6958
 30
0.0
 10
22.7251
 20
1.6958
 30
0.0
  0
SPLINE
  5
135
330
1F
100
AcDbEntity
  8
layer 1
370
     9
100
AcDbSpline
210
0.0
220
0.0
230
1.0
 70
    27
 71
     3
 72
     8
 73
     4
 74
     0
 42
0.0000000001
 43
0.0000000001
 40
0.0
 40
0.0
 40
0.0
 40
0.0
 40
1.0
 40
1.0
 40
1.0
 40
1.0
 10
22.7251
 20
1.6958
 30
0.0
 10
22.7251
 20
1.6958
 30
0.0
 10
22.7251
 20
1.6958
 30
0.0
 10
22.7251
 20
1.6958
 30
0.0
  0
SPLINE
  5
136
330
1F
100
AcDbEntity
  8
layer 1
370
     9
100
AcDbSpline
210
0.0
220
0.0
230
1.0
 70
    24
 71
     3
 72
     8
 73
     4
 74
     0
 42
0.0000000001
 43
0.0000000001
 40
0.0
 40
0.0
 40
0.0
 40
0.0
 40
1.0
 40
1.0
 40
1.0
 40
1.0
 10
22.7251
 20
-3.3042
 30
0.0
 10
22.7251
 20
-3.3042
 30
0.0
 10
22.7251
 20
1.6958
 30
0.0
 10
22.7251
 20
1.6958
 30
0.0
  0
SPLINE
  5
137
330
1F
100
AcDbEntity
  8
layer 1
370
     9
100
AcDbSpline
210
0.0
220
0.0
230
1.0
 70
    27
 71
     3
 72
     8
 73
     4
 74
     0
 42
0.0000000001
 43
0.0000000001
 40
0.0
 40
0.0
 40
0.0
 40
0.0
 40
1.0
 40
1.0
 40
1.0
 40
1.0
 10
37.3751
 20
1.6958
 30
0.0
 10
37.3751
 20
1.6958
 30
0.0
 10
37.3751
 20
1.6958
 30
0.0
 10
37.3751
 20
1.6958
 30
0.0
  0
SPLINE
  5
138
330
1F
100
AcDbEntity
  8
layer 1
370
     9
100
AcDbSpline
210
0.0
220
0.0
230
1.0
 70
    24
 71
     3
 72
     8
 73
     4
 74
     0
 42
0.0000000001
 43
0.0000000001
 40
0.0
 40
0.0
 40
0.0
 40
0.0
 40
1.0
 40
1.0
 40
1.0
 40
1.0
 10
37.3751
 20
1.6958
 30
0.0
 10
37.3751
 20
1.6958
 30
0.0
 10
37.3751
 20
-3.3042
 30
0.0
 10
37.3751
 20
-3.3042
 30
0.0
  0
SPLINE
  5
139
330
1F
100
AcDbEntity
  8
layer 1
370
     9
100
AcDbSpline
210
0.0
220
0.0
230
1.0
 70
    27
 71
     3
 72
     8
 73
     4
 74
     0
 42
0.0000000001
 43
0.0000000001
 40
0.0
 40
0.0
 40
0.0
 40
0.0
 40
1.0
 40
1.0
 40
1.0
 40
1.0
 10
37.3751
 20
1.6958
 30
0.0
 10
37.3751
 20
1.6958
 30
0.0
 10
37.3751
 20
1.6958
 30
0.0
 10
37.3751
 20
1.6958
 30
0.0
  0
SPLINE
  5
13A
330
1F
100
AcDbEntity
  8
layer 1
370
     9
100
AcDbSpline
210
0.0
220
0.0
230
1.0
 70
    24
 71
     3
 72
     8
 73
     4
 74
     0
 42
0.0000000001
 43
0.0000000001
 40
0.0
 40
0.0
 40
0.0
 40
0.0
 40
1.0
 40
1.0
 40
1.0
 40
1.0
 10
37.3751
 20
1.6958
 30
0.0
 10
37.3751
 20
1.6958
 30
0.0
 10
40.3751
 20
1.6958
 30
0.0
 10
40.3751
 20
1.6958
 30
0.0
  0
SPLINE
  5
13B
330
1F
100
AcDbEntity
  8
layer 1
370
     9
100
AcDbSpline
210
0.0
220
0.0
230
1.0
 70
    27
 71
     3
 72
     8
 73
     4
 74
     0
 42
0.0000000001
 43
0.0000000001
 40
0.0
 40
0.0
 40
0.0
 40
0.0
 40
1.0
 40
1.0
 40
1.0
 40
1.0
 10
40.3751
 20
5.6958
 30
0.0
 10
40.3751
 20
5.6958
 30
0.0
 10
40.3751
 20
5.6958
 30
0.0
 10
40.3751
 20
5.6958
 30
0.0
  0
SPLINE
  5
13C
330
1F
100
AcDbEntity
  8
layer 1
370
     9
100
AcDbSpline
210
0.0
220
0.0
230
1.0
 70
    24
 71
     3
 72
     8
 73
     4
 74
     0
 42
0.0000000001
 43
0.0000000001
 40
0.0
 40
0.0
 40
0.0
 40
0.0
 40
1.0
 40
1.0
 40
1.0
 40
1.0
 10
40.3751
 20
1.6958
 30
0.0
 10
40.3751
 20
1.6958
 30
0.0
 10
40.3751
 20
5.6958
 30
0.0
 10
40.3751
 20
5.6958
 30
0.0
  0
SPLINE
  5
13D
330
1F
100
AcDbEntity
  8
layer 1
370
     9
100
AcDbSpline
210
0.0
220
0.0
230
1.0
 70
     8
 71
     3
 72
    20
 73
    16
 74
     0
 42
0.0000000001
 43
0.0000000001
 40
0.0
 40
0.0
 40
0.0
 40
0.0
 40
0.25
 40
0.25
 40
0.25
 40
0.25
 40
0.5
 40
0.5
 40
0.5
 40
0.5
 40
0.75
 40
0.75
 40
0.75
 40
0.75
 40
1.0
 40
1.0
 40
1.0
 40
1.0
 10
25.225
 20
23.3109
 30
0.0
 10
24.3966
 20
23.3109
 30
0.0
 10
23.7251
 20
22.6393
 30
0.0
 10
23.7251
 20
21.8109
 30
0.0
 10
23.7251
 20
21.8109
 30
0.0
 10
23.725
 20
20.9824
 30
0.0
 10
24.3966
 20
20.3109
 30
0.0
 10
25.225
 20
20.3109
 30
0.0
 10
25.225
 20
20.3109
 30
0.0
 10
26.0535
 20
20.3108
 30
0.0
 10
26.725
 20
20.9824
 30
0.0
 10
26.725
 20
21.8108
 30
0.0
 10
26.725
 20
21.8108
 30
0.0
 10
26.7251
 20
22.6393
 30
0.0
 10
26.0535
 20
23.3108
 30
0.0
 10
25.2251
 20
23.3109
 30
0.0
  0
SPLINE
  5
13E
330
1F
100
AcDbEntity
  8
layer 1
370
     9
100
AcDbSpline
210
0.0
220
0.0
230
1.0
 70
    11
 71
     3
 72
    20
 73
    16
 74
     0
 42
0.0000000001
 43
0.0000000001
 40
0.0
 40
0.0
 40
0.0
 40
0.0
 40
0.25
 40
0.25
 40
0.25
 40
0.25
 40
0.5
 40
0.5
 40
0.5
 40
0.5
 40
0.75
 40
0.75
 40
0.75
 40
0.75
 40
1.0
 40
1.0
 40
1.0
 40
1.0
 10
25.2251
 20
56.3109
 30
0.0
 10
24.3966
 20
56.3109
 30
0.0
 10
23.7251
 20
55.6393
 30
0.0
 10
23.7251
 20
54.8109
 30
0.0
 10
23.7251
 20
54.8109
 30
0.0
 10
23.725
 20
53.9824
 30
0.0
 10
24.3966
 20
53.3109
 30
0.0
 10
25.225
 20
53.3109
 30
0.0
 10
25.225
 20
53.3109
 30
0.0
 10
26.0535
 20
53.3108
 30
0.0
 10
26.725
 20
53.9824
 30
0.0
 10
26.725
 20
54.8108
 30
0.0
 10
26.725
 20
54.8108
 30
0.0
 10
26.7251
 20
55.6393
 30
0.0
 10
26.0535
 20
56.3108
 30
0.0
 10
25.2251
 20
56.3109
 30
0.0
  0
SPLINE
  5
13F
330
1F
100
AcDbEntity
  8
layer 1
370
     9
100
AcDbSpline
210
0.0
220
0.0
230
1.0
 70
     8
 71
     3
 72
     8
 73
     4
 74
     0
 42
0.0000000001
 43
0.0000000001
 40
0.0
 40
0.0
 40
0.0
 40
0.0
 40
1.0
 40
1.0
 40
1.0
 40
1.0
 10
20.7251
 20
6.6958
 30
0.0
 10
20.1728
 20
6.6958
 30
0.0
 10
19.7251
 20
6.2481
 30
0.0
 10
19.7251
 20
5.6959
 30
0.0
  0
SPLINE
  5
140
330
1F
100
AcDbEntity
  8
layer 1
370
     9
100
AcDbSpline
210
0.0
220
0.0
230
1.0
 70
     8
 71
     3
 72
    12
 73
     8
 74
     0
 42
0.0000000001
 43
0.0000000001
 40
0.0
 40
0.0
 40
0.0
 40
0.0
 40
0.5
 40
0.5
 40
0.5
 40
0.5
 40
1.0
 40
1.0
 40
1.0
 40
1.0
 10
19.7251
 20
56.8109
 30
0.0
 10
19.7251
 20
56.5456
 30
0.0
 10
19.8304
 20
56.2913
 30
0.0
 10
20.0179
 20
56.1037
 30
0.0
 10
20.0179
 20
56.1037
 30
0.0
 10
20.2055
 20
55.9162
 30
0.0
 10
20.4598
 20
55.8109
 30
0.0
 10
20.7251
 20
55.8109
 30
0.0
  0
SPLINE
  5
141
330
1F
100
AcDbEntity
  8
layer 1
370
     9
100
AcDbSpline
210
0.0
220
0.0
230
1.0
 70
     8
 71
     3
 72
    12
 73
     8
 74
     0
 42
0.0000000001
 43
0.0000000001
 40
0.0
 40
0.0
 40
0.0
 40
0.0
 40
0.5
 40
0.5
 40
0.5
 40
0.5
 40
1.0
 40
1.0
 40
1.0
 40
1.0
 10
39.3751
 20
55.8109
 30
0.0
 10
39.6403
 20
55.8109
 30
0.0
 10
39.8946
 20
55.9162
 30
0.0
 10
40.0822
 20
56.1037
 30
0.0
 10
40.0822
 20
56.1037
 30
0.0
 10
40.2697
 20
56.2913
 30
0.0
 10
40.375
 20
56.5456
 30
0.0
 10
40.375
 20
56.8109
 30
0.0
  0
SPLINE
  5
142
330
1F
100
AcDbEntity
  8
layer 1
370
     9
100
AcDbSpline
210
0.0
220
0.0
230
1.0
 70
     8
 71
     3
 72
     8
 73
     4
 74
     0
 42
0.0000000001
 43
0.0000000001
 40
0.0
 40
0.0
 40
0.0
 40
0.0
 40
1.0
 40
1.0
 40
1.0
 40
1.0
 10
40.375
 20
5.6958
 30
0.0
 10
40.375
 20
6.2481
 30
0.0
 10
39.9273
 20
6.6958
 30
0.0
 10
39.3751
 20
6.6958
 30
0.0
  0
SPLINE
  5
143
330
1F
100
AcDbEntity
  8
layer 1
370
     9
100
AcDbSpline
210
0.0
220
0.0
230
1.0
 70
     8
 71
     3
 72
     8
 73
     4
 74
     0
 42
0.0000000001
 43
0.0000000001
 40
0.0
 40
0.0
 40
0.0
 40
0.0
 40
1.0
 40
1.0
 40
1.0
 40
1.0
 10
17.66
 20
55.9672
 30
0.0
 10
17.66
 20
56.3889
 30
0.0
 10
17.6066
 20
56.8089
 30
0.0
 10
17.5012
 20
57.2172
 30
0.0
  0
SPLINE
  5
144
330
1F
100
AcDbEntity
  8
layer 1
370
     9
100
AcDbSpline
210
0.0
220
0.0
230
1.0
 70
    24
 71
     3
 72
     8
 73
     4
 74
     0
 42
0.0000000001
 43
0.0000000001
 40
0.0
 40
0.0
 40
0.0
 40
0.0
 40
1.0
 40
1.0
 40
1.0
 40
1.0
 10
17.66
 20
55.9672
 30
0.0
 10
17.66
 20
55.9672
 30
0.0
 10
17.66
 20
-0.0327
 30
0.0
 10
17.66
 20
-0.0327
 30
0.0
  0
SPLINE
  5
145
330
1F
100
AcDbEntity
  8
layer 1
370
     9
100
AcDbSpline
210
0.0
220
0.0
230
1.0
 70
     8
 71
     3
 72
     8
 73
     4
 74
     0
 42
0.0000000001
 43
0.0000000001
 40
0.0
 40
0.0
 40
0.0
 40
0.0
 40
1.0
 40
1.0
 40
1.0
 40
1.0
 10
17.5012
 20
-1.2826
 30
0.0
 10
17.6066
 20
-0.8744
 30
0.0
 10
17.6599
 20
-0.4544
 30
0.0
 10
17.66
 20
-0.0327
 30
0.0
  0
SPLINE
  5
146
330
1F
100
AcDbEntity
  8
layer 1
370
     9
100
AcDbSpline
210
0.0
220
0.0
230
1.0
 70
    27
 71
     3
 72
     8
 73
     4
 74
     0
 42
0.0000000001
 43
0.0000000001
 40
0.0
 40
0.0
 40
0.0
 40
0.0
 40
1.0
 40
1.0
 40
1.0
 40
1.0
 10
10.66
 20
-5.0327
 30
0.0
 10
10.66
 20
-5.0327
 30
0.0
 10
10.66
 20
-5.0327
 30
0.0
 10
10.66
 20
-5.0327
 30
0.0
  0
SPLINE
  5
147
330
1F
100
AcDbEntity
  8
layer 1
370
     9
100
AcDbSpline
210
0.0
220
0.0
230
1.0
 70
    24
 71
     3
 72
     8
 73
     4
 74
     0
 42
0.0000000001
 43
0.0000000001
 40
0.0
 40
0.0
 40
0.0
 40
0.0
 40
1.0
 40
1.0
 40
1.0
 40
1.0
 10
10.66
 20
-5.0327
 30
0.0
 10
10.66
 20
-5.0327
 30
0.0
 10
-56.4551
 20
-5.0327
 30
0.0
 10
-56.4551
 20
-5.0327
 30
0.0
  0
SPLINE
  5
148
330
1F
100
AcDbEntity
  8
layer 1
370
     9
100
AcDbSpline
210
0.0
220
0.0
230
1.0
 70
     8
 71
     3
 72
     8
 73
     4
 74
     0
 42
0.0000000001
 43
0.0000000001
 40
0.0
 40
0.0
 40
0.0
 40
0.0
 40
1.0
 40
1.0
 40
1.0
 40
1.0
 10
-63.4551
 20
-0.0327
 30
0.0
 10
-63.4551
 20
-0.4543
 30
0.0
 10
-63.4017
 20
-0.8743
 30
0.0
 10
-63.2963
 20
-1.2826
 30
0.0
  0
SPLINE
  5
149
330
1F
100
AcDbEntity
  8
layer 1
370
     9
100
AcDbSpline
210
0.0
220
0.0
230
1.0
 70
    27
 71
     3
 72
     8
 73
     4
 74
     0
 42
0.0000000001
 43
0.0000000001
 40
0.0
 40
0.0
 40
0.0
 40
0.0
 40
1.0
 40
1.0
 40
1.0
 40
1.0
 10
-63.4551
 20
55.9672
 30
0.0
 10
-63.4551
 20
55.9672
 30
0.0
 10
-63.4551
 20
55.9672
 30
0.0
 10
-63.4551
 20
55.9672
 30
0.0
  0
SPLINE
  5
14A
330
1F
100
AcDbEntity
  8
layer 1
370
     9
100
AcDbSpline
210
0.0
220
0.0
230
1.0
 70
    24
 71
     3
 72
     8
 73
     4
 74
     0
 42
0.0000000001
 43
0.0000000001
 40
0.0
 40
0.0
 40
0.0
 40
0.0
 40
1.0
 40
1.0
 40
1.0
 40
1.0
 10
-63.4551
 20
-0.0327
 30
0.0
 10
-63.4551
 20
-0.0327
 30
0.0
 10
-63.4551
 20
55.9672
 30
0.0
 10
-63.4551
 20
55.9672
 30
0.0
  0
SPLINE
  5
14B
330
1F
100
AcDbEntity
  8
layer 1
370
     9
100
AcDbSpline
210
0.0
220
0.0
230
1.0
 70
     8
 71
     3
 72
     8
 73
     4
 74
     0
 42
0.0000000001
 43
0.0000000001
 40
0.0
 40
0.0
 40
0.0
 40
0.0
 40
1.0
 40
1.0
 40
1.0
 40
1.0
 10
-63.2963
 20
57.2172
 30
0.0
 10
-63.4017
 20
56.8089
 30
0.0
 10
-63.4551
 20
56.3889
 30
0.0
 10
-63.4551
 20
55.9672
 30
0.0
  0
SPLINE
  5
14C
330
1F
100
AcDbEntity
  8
layer 1
370
     9
100
AcDbSpline
210
0.0
220
0.0
230
1.0
 70
    24
 71
     3
 72
     8
 73
     4
 74
     0
 42
0.0000000001
 43
0.0000000001
 40
0.0
 40
0.0
 40
0.0
 40
0.0
 40
1.0
 40
1.0
 40
1.0
 40
1.0
 10
-56.4551
 20
60.9672
 30
0.0
 10
-56.4551
 20
60.9672
 30
0.0
 10
10.66
 20
60.9672
 30
0.0
 10
10.66
 20
60.9672
 30
0.0
  0
SPLINE
  5
14D
330
1F
100
AcDbEntity
  8
layer 1
370
     9
100
AcDbSpline
210
0.0
220
0.0
230
1.0
 70
    24
 71
     3
 72
     8
 73
     4
 74
     0
 42
0.0000000001
 43
0.0000000001
 40
0.0
 40
0.0
 40
0.0
 40
0.0
 40
1.0
 40
1.0
 40
1.0
 40
1.0
 10
11.66
 20
59.9672
 30
0.0
 10
11.66
 20
59.9672
 30
0.0
 10
11.66
 20
57.9672
 30
0.0
 10
11.66
 20
57.9672
 30
0.0
  0
SPLINE
  5
14E
330
1F
100
AcDbEntity
  8
layer 1
370
     9
100
AcDbSpline
210
0.0
220
0.0
230
1.0
 70
    24
 71
     3
 72
     8
 73
     4
 74
     0
 42
0.0000000001
 43
0.0000000001
 40
0.0
 40
0.0
 40
0.0
 40
0.0
 40
1.0
 40
1.0
 40
1.0
 40
1.0
 10
11.66
 20
57.9672
 30
0.0
 10
11.66
 20
57.9672
 30
0.0
 10
16.5329
 20
57.9672
 30
0.0
 10
16.5329
 20
57.9672
 30
0.0
  0
SPLINE
  5
14F
330
1F
100
AcDbEntity
  8
layer 1
370
     9
100
AcDbSpline
210
0.0
220
0.0
230
1.0
 70
    27
 71
     3
 72
     8
 73
     4
 74
     0
 42
0.0000000001
 43
0.0000000001
 40
0.0
 40
0.0
 40
0.0
 40
0.0
 40
1.0
 40
1.0
 40
1.0
 40
1.0
 10
16.5329
 20
-2.0327
 30
0.0
 10
16.5329
 20
-2.0327
 30
0.0
 10
16.5329
 20
-2.0327
 30
0.0
 10
16.5329
 20
-2.0327
 30
0.0
  0
SPLINE
  5
150
330
1F
100
AcDbEntity
  8
layer 1
370
     9
100
AcDbSpline
210
0.0
220
0.0
230
1.0
 70
    24
 71
     3
 72
     8
 73
     4
 74
     0
 42
0.0000000001
 43
0.0000000001
 40
0.0
 40
0.0
 40
0.0
 40
0.0
 40
1.0
 40
1.0
 40
1.0
 40
1.0
 10
16.5329
 20
-2.0327
 30
0.0
 10
16.5329
 20
-2.0327
 30
0.0
 10
11.66
 20
-2.0327
 30
0.0
 10
11.66
 20
-2.0327
 30
0.0
  0
SPLINE
  5
151
330
1F
100
AcDbEntity
  8
layer 1
370
     9
100
AcDbSpline
210
0.0
220
0.0
230
1.0
 70
    27
 71
     3
 72
     8
 73
     4
 74
     0
 42
0.0000000001
 43
0.0000000001
 40
0.0
 40
0.0
 40
0.0
 40
0.0
 40
1.0
 40
1.0
 40
1.0
 40
1.0
 10
11.66
 20
-2.0327
 30
0.0
 10
11.66
 20
-2.0327
 30
0.0
 10
11.66
 20
-2.0327
 30
0.0
 10
11.66
 20
-2.0327
 30
0.0
  0
SPLINE
  5
152
330
1F
100
AcDbEntity
  8
layer 1
370
     9
100
AcDbSpline
210
0.0
220
0.0
230
1.0
 70
    24
 71
     3
 72
     8
 73
     4
 74
     0
 42
0.0000000001
 43
0.0000000001
 40
0.0
 40
0.0
 40
0.0
 40
0.0
 40
1.0
 40
1.0
 40
1.0
 40
1.0
 10
11.66
 20
-2.0327
 30
0.0
 10
11.66
 20
-2.0327
 30
0.0
 10
11.66
 20
-4.0327
 30
0.0
 10
11.66
 20
-4.0327
 30
0.0
  0
SPLINE
  5
153
330
1F
100
AcDbEntity
  8
layer 1
370
     9
100
AcDbSpline
210
0.0
220
0.0
230
1.0
 70
    27
 71
     3
 72
     8
 73
     4
 74
     0
 42
0.0000000001
 43
0.0000000001
 40
0.0
 40
0.0
 40
0.0
 40
0.0
 40
1.0
 40
1.0
 40
1.0
 40
1.0
 10
-57.4551
 20
-2.0327
 30
0.0
 10
-57.4551
 20
-2.0327
 30
0.0
 10
-57.4551
 20
-2.0327
 30
0.0
 10
-57.4551
 20
-2.0327
 30
0.0
  0
SPLINE
  5
154
330
1F
100
AcDbEntity
  8
layer 1
370
     9
100
AcDbSpline
210
0.0
220
0.0
230
1.0
 70
    24
 71
     3
 72
     8
 73
     4
 74
     0
 42
0.0000000001
 43
0.0000000001
 40
0.0
 40
0.0
 40
0.0
 40
0.0
 40
1.0
 40
1.0
 40
1.0
 40
1.0
 10
-57.4551
 20
-4.0327
 30
0.0
 10
-57.4551
 20
-4.0327
 30
0.0
 10
-57.4551
 20
-2.0327
 30
0.0
 10
-57.4551
 20
-2.0327
 30
0.0
  0
SPLINE
  5
155
330
1F
100
AcDbEntity
  8
layer 1
370
     9
100
AcDbSpline
210
0.0
220
0.0
230
1.0
 70
    27
 71
     3
 72
     8
 73
     4
 74
     0
 42
0.0000000001
 43
0.0000000001
 40
0.0
 40
0.0
 40
0.0
 40
0.0
 40
1.0
 40
1.0
 40
1.0
 40
1.0
 10
-57.4551
 20
-2.0327
 30
0.0
 10
-57.4551
 20
-2.0327
 30
0.0
 10
-57.4551
 20
-2.0327
 30
0.0
 10
-57.4551
 20
-2.0327
 30
0.0
  0
SPLINE
  5
156
330
1F
100
AcDbEntity
  8
layer 1
370
     9
100
AcDbSpline
210
0.0
220
0.0
230
1.0
 70
    24
 71
     3
 72
     8
 73
     4
 74
     0
 42
0.0000000001
 43
0.0000000001
 40
0.0
 40
0.0
 40
0.0
 40
0.0
 40
1.0
 40
1.0
 40
1.0
 40
1.0
 10
-57.4551
 20
-2.0327
 30
0.0
 10
-57.4551
 20
-2.0327
 30
0.0
 10
-62.328
 20
-2.0327
 30
0.0
 10
-62.328
 20
-2.0327
 30
0.0
  0
SPLINE
  5
157
330
1F
100
AcDbEntity
  8
layer 1
370
     9
100
AcDbSpline
210
0.0
220
0.0
230
1.0
 70
    24
 71
     3
 72
     8
 73
     4
 74
     0
 42
0.0000000001
 43
0.0000000001
 40
0.0
 40
0.0
 40
0.0
 40
0.0
 40
1.0
 40
1.0
 40
1.0
 40
1.0
 10
-62.328
 20
57.9673
 30
0.0
 10
-62.328
 20
57.9673
 30
0.0
 10
-57.4551
 20
57.9672
 30
0.0
 10
-57.4551
 20
57.9672
 30
0.0
  0
SPLINE
  5
158
330
1F
100
AcDbEntity
  8
layer 1
370
     9
100
AcDbSpline
210
0.0
220
0.0
230
1.0
 70
    24
 71
     3
 72
     8
 73
     4
 74
     0
 42
0.0000000001
 43
0.0000000001
 40
0.0
 40
0.0
 40
0.0
 40
0.0
 40
1.0
 40
1.0
 40
1.0
 40
1.0
 10
-57.4551
 20
57.9672
 30
0.0
 10
-57.4551
 20
57.9672
 30
0.0
 10
-57.4551
 20
59.9672
 30
0.0
 10
-57.4551
 20
59.9672
 30
0.0
  0
SPLINE
  5
159
330
1F
100
AcDbEntity
  8
layer 1
370
     9
100
AcDbSpline
210
0.0
220
0.0
230
1.0
 70
    24
 71
     3
 72
     8
 73
     4
 74
     0
 42
0.0000000001
 43
0.0000000001
 40
0.0
 40
0.0
 40
0.0
 40
0.0
 40
1.0
 40
1.0
 40
1.0
 40
1.0
 10
-60.3549
 20
50.867
 30
0.0
 10
-60.3549
 20
50.867
 30
0.0
 10
-60.3549
 20
46.0674
 30
0.0
 10
-60.3549
 20
46.0674
 30
0.0
  0
SPLINE
  5
15A
330
1F
100
AcDbEntity
  8
layer 1
370
     9
100
AcDbSpline
210
0.0
220
0.0
230
1.0
 70
    24
 71
     3
 72
     8
 73
     4
 74
     0
 42
0.0000000001
 43
0.0000000001
 40
0.0
 40
0.0
 40
0.0
 40
0.0
 40
1.0
 40
1.0
 40
1.0
 40
1.0
 10
-60.3549
 20
46.0674
 30
0.0
 10
-60.3549
 20
46.0674
 30
0.0
 10
-57.5553
 20
46.0674
 30
0.0
 10
-57.5553
 20
46.0674
 30
0.0
  0
SPLINE
  5
15B
330
1F
100
AcDbEntity
  8
layer 1
370
     9
100
AcDbSpline
210
0.0
220
0.0
230
1.0
 70
    24
 71
     3
 72
     8
 73
     4
 74
     0
 42
0.0000000001
 43
0.0000000001
 40
0.0
 40
0.0
 40
0.0
 40
0.0
 40
1.0
 40
1.0
 40
1.0
 40
1.0
 10
-57.5553
 20
46.0674
 30
0.0
 10
-57.5553
 20
46.0674
 30
0.0
 10
-57.5553
 20
50.867
 30
0.0
 10
-57.5553
 20
50.867
 30
0.0
  0
SPLINE
  5
15C
330
1F
100
AcDbEntity
  8
layer 1
370
     9
100
AcDbSpline
210
0.0
220
0.0
230
1.0
 70
    24
 71
     3
 72
     8
 73
     4
 74
     0
 42
0.0000000001
 43
0.0000000001
 40
0.0
 40
0.0
 40
0.0
 40
0.0
 40
1.0
 40
1.0
 40
1.0
 40
1.0
 10
-57.5553
 20
50.867
 30
0.0
 10
-57.5553
 20
50.867
 30
0.0
 10
-60.3549
 20
50.867
 30
0.0
 10
-60.3549
 20
50.867
 30
0.0
  0
SPLINE
  5
15D
330
1F
100
AcDbEntity
  8
layer 1
370
     9
100
AcDbSpline
210
0.0
220
0.0
230
1.0
 70
    27
 71
     3
 72
     8
 73
     4
 74
     0
 42
0.0000000001
 43
0.0000000001
 40
0.0
 40
0.0
 40
0.0
 40
0.0
 40
1.0
 40
1.0
 40
1.0
 40
1.0
 10
-60.3549
 20
9.8671
 30
0.0
 10
-60.3549
 20
9.8671
 30
0.0
 10
-60.3549
 20
9.8671
 30
0.0
 10
-60.3549
 20
9.8671
 30
0.0
  0
SPLINE
  5
15E
330
1F
100
AcDbEntity
  8
layer 1
370
     9
100
AcDbSpline
210
0.0
220
0.0
230
1.0
 70
    24
 71
     3
 72
     8
 73
     4
 74
     0
 42
0.0000000001
 43
0.0000000001
 40
0.0
 40
0.0
 40
0.0
 40
0.0
 40
1.0
 40
1.0
 40
1.0
 40
1.0
 10
-60.3549
 20
9.8671
 30
0.0
 10
-60.3549
 20
9.8671
 30
0.0
 10
-60.3549
 20
5.0675
 30
0.0
 10
-60.3549
 20
5.0675
 30
0.0
  0
SPLINE
  5
15F
330
1F
100
AcDbEntity
  8
layer 1
370
     9
100
AcDbSpline
210
0.0
220
0.0
230
1.0
 70
    27
 71
     3
 72
     8
 73
     4
 74
     0
 42
0.0000000001
 43
0.0000000001
 40
0.0
 40
0.0
 40
0.0
 40
0.0
 40
1.0
 40
1.0
 40
1.0
 40
1.0
 10
-57.5553
 20
5.0675
 30
0.0
 10
-57.5553
 20
5.0675
 30
0.0
 10
-57.5553
 20
5.0675
 30
0.0
 10
-57.5553
 20
5.0675
 30
0.0
  0
SPLINE
  5
160
330
1F
100
AcDbEntity
  8
layer 1
370
     9
100
AcDbSpline
210
0.0
220
0.0
230
1.0
 70
    24
 71
     3
 72
     8
 73
     4
 74
     0
 42
0.0000000001
 43
0.0000000001
 40
0.0
 40
0.0
 40
0.0
 40
0.0
 40
1.0
 40
1.0
 40
1.0
 40
1.0
 10
-60.3549
 20
5.0675
 30
0.0
 10
-60.3549
 20
5.0675
 30
0.0
 10
-57.5553
 20
5.0675
 30
0.0
 10
-57.5553
 20
5.0675
 30
0.0
  0
SPLINE
  5
161
330
1F
100
AcDbEntity
  8
layer 1
370
     9
100
AcDbSpline
210
0.0
220
0.0
230
1.0
 70
    27
 71
     3
 72
     8
 73
     4
 74
     0
 42
0.0000000001
 43
0.0000000001
 40
0.0
 40
0.0
 40
0.0
 40
0.0
 40
1.0
 40
1.0
 40
1.0
 40
1.0
 10
-57.5553
 20
9.8671
 30
0.0
 10
-57.5553
 20
9.8671
 30
0.0
 10
-57.5553
 20
9.8671
 30
0.0
 10
-57.5553
 20
9.8671
 30
0.0
  0
SPLINE
  5
162
330
1F
100
AcDbEntity
  8
layer 1
370
     9
100
AcDbSpline
210
0.0
220
0.0
230
1.0
 70
    24
 71
     3
 72
     8
 73
     4
 74
     0
 42
0.0000000001
 43
0.0000000001
 40
0.0
 40
0.0
 40
0.0
 40
0.0
 40
1.0
 40
1.0
 40
1.0
 40
1.0
 10
-57.5553
 20
5.0675
 30
0.0
 10
-57.5553
 20
5.0675
 30
0.0
 10
-57.5553
 20
9.8671
 30
0.0
 10
-57.5553
 20
9.8671
 30
0.0
  0
SPLINE
  5
163
330
1F
100
AcDbEntity
  8
layer 1
370
     9
100
AcDbSpline
210
0.0
220
0.0
230
1.0
 70
    27
 71
     3
 72
     8
 73
     4
 74
     0
 42
0.0000000001
 43
0.0000000001
 40
0.0
 40
0.0
 40
0.0
 40
0.0
 40
1.0
 40
1.0
 40
1.0
 40
1.0
 10
-57.5553
 20
9.8671
 30
0.0
 10
-57.5553
 20
9.8671
 30
0.0
 10
-57.5553
 20
9.8671
 30
0.0
 10
-57.5553
 20
9.8671
 30
0.0
  0
SPLINE
  5
164
330
1F
100
AcDbEntity
  8
layer 1
370
     9
100
AcDbSpline
210
0.0
220
0.0
230
1.0
 70
    24
 71
     3
 72
     8
 73
     4
 74
     0
 42
0.0000000001
 43
0.0000000001
 40
0.0
 40
0.0
 40
0.0
 40
0.0
 40
1.0
 40
1.0
 40
1.0
 40
1.0
 10
-57.5553
 20
9.8671
 30
0.0
 10
-57.5553
 20
9.8671
 30
0.0
 10
-60.3549
 20
9.8671
 30
0.0
 10
-60.3549
 20
9.8671
 30
0.0
  0
SPLINE
  5
165
330
1F
100
AcDbEntity
  8
layer 1
370
     9
100
AcDbSpline
210
0.0
220
0.0
230
1.0
 70
    27
 71
     3
 72
     8
 73
     4
 74
     0
 42
0.0000000001
 43
0.0000000001
 40
0.0
 40
0.0
 40
0.0
 40
0.0
 40
1.0
 40
1.0
 40
1.0
 40
1.0
 10
11.7602
 20
9.8671
 30
0.0
 10
11.7602
 20
9.8671
 30
0.0
 10
11.7602
 20
9.8671
 30
0.0
 10
11.7602
 20
9.8671
 30
0.0
  0
SPLINE
  5
166
330
1F
100
AcDbEntity
  8
layer 1
370
     9
100
AcDbSpline
210
0.0
220
0.0
230
1.0
 70
    24
 71
     3
 72
     8
 73
     4
 74
     0
 42
0.0000000001
 43
0.0000000001
 40
0.0
 40
0.0
 40
0.0
 40
0.0
 40
1.0
 40
1.0
 40
1.0
 40
1.0
 10
11.7602
 20
9.8671
 30
0.0
 10
11.7602
 20
9.8671
 30
0.0
 10
11.7602
 20
5.0675
 30
0.0
 10
11.7602
 20
5.0675
 30
0.0
  0
SPLINE
  5
167
330
1F
100
AcDbEntity
  8
layer 1
370
     9
100
AcDbSpline
210
0.0
220
0.0
230
1.0
 70
    27
 71
     3
 72
     8
 73
     4
 74
     0
 42
0.0000000001
 43
0.0000000001
 40
0.0
 40
0.0
 40
0.0
 40
0.0
 40
1.0
 40
1.0
 40
1.0
 40
1.0
 10
14.5598
 20
5.0675
 30
0.0
 10
14.5598
 20
5.0675
 30
0.0
 10
14.5598
 20
5.0675
 30
0.0
 10
14.5598
 20
5.0675
 30
0.0
  0
SPLINE
  5
168
330
1F
100
AcDbEntity
  8
layer 1
370
     9
100
AcDbSpline
210
0.0
220
0.0
230
1.0
 70
    24
 71
     3
 72
     8
 73
     4
 74
     0
 42
0.0000000001
 43
0.0000000001
 40
0.0
 40
0.0
 40
0.0
 40
0.0
 40
1.0
 40
1.0
 40
1.0
 40
1.0
 10
14.5598
 20
5.0675
 30
0.0
 10
14.5598
 20
5.0675
 30
0.0
 10
11.7602
 20
5.0675
 30
0.0
 10
11.7602
 20
5.0675
 30
0.0
  0
SPLINE
  5
169
330
1F
100
AcDbEntity
  8
layer 1
370
     9
100
AcDbSpline
210
0.0
220
0.0
230
1.0
 70
    27
 71
     3
 72
     8
 73
     4
 74
     0
 42
0.0000000001
 43
0.0000000001
 40
0.0
 40
0.0
 40
0.0
 40
0.0
 40
1.0
 40
1.0
 40
1.0
 40
1.0
 10
14.5598
 20
9.8671
 30
0.0
 10
14.5598
 20
9.8671
 30
0.0
 10
14.5598
 20
9.8671
 30
0.0
 10
14.5598
 20
9.8671
 30
0.0
  0
SPLINE
  5
16A
330
1F
100
AcDbEntity
  8
layer 1
370
     9
100
AcDbSpline
210
0.0
220
0.0
230
1.0
 70
    24
 71
     3
 72
     8
 73
     4
 74
     0
 42
0.0000000001
 43
0.0000000001
 40
0.0
 40
0.0
 40
0.0
 40
0.0
 40
1.0
 40
1.0
 40
1.0
 40
1.0
 10
14.5598
 20
5.0675
 30
0.0
 10
14.5598
 20
5.0675
 30
0.0
 10
14.5598
 20
9.8671
 30
0.0
 10
14.5598
 20
9.8671
 30
0.0
  0
SPLINE
  5
16B
330
1F
100
AcDbEntity
  8
layer 1
370
     9
100
AcDbSpline
210
0.0
220
0.0
230
1.0
 70
    27
 71
     3
 72
     8
 73
     4
 74
     0
 42
0.0000000001
 43
0.0000000001
 40
0.0
 40
0.0
 40
0.0
 40
0.0
 40
1.0
 40
1.0
 40
1.0
 40
1.0
 10
14.5598
 20
9.8671
 30
0.0
 10
14.5598
 20
9.8671
 30
0.0
 10
14.5598
 20
9.8671
 30
0.0
 10
14.5598
 20
9.8671
 30
0.0
  0
SPLINE
  5
16C
330
1F
100
AcDbEntity
  8
layer 1
370
     9
100
AcDbSpline
210
0.0
220
0.0
230
1.0
 70
    24
 71
     3
 72
     8
 73
     4
 74
     0
 42
0.0000000001
 43
0.0000000001
 40
0.0
 40
0.0
 40
0.0
 40
0.0
 40
1.0
 40
1.0
 40
1.0
 40
1.0
 10
11.7602
 20
9.8671
 30
0.0
 10
11.7602
 20
9.8671
 30
0.0
 10
14.5598
 20
9.8671
 30
0.0
 10
14.5598
 20
9.8671
 30
0.0
  0
SPLINE
  5
16D
330
1F
100
AcDbEntity
  8
layer 1
370
     9
100
AcDbSpline
210
0.0
220
0.0
230
1.0
 70
    24
 71
     3
 72
     8
 73
     4
 74
     0
 42
0.0000000001
 43
0.0000000001
 40
0.0
 40
0.0
 40
0.0
 40
0.0
 40
1.0
 40
1.0
 40
1.0
 40
1.0
 10
14.5598
 20
46.0674
 30
0.0
 10
14.5598
 20
46.0674
 30
0.0
 10
14.5598
 20
50.867
 30
0.0
 10
14.5598
 20
50.867
 30
0.0
  0
SPLINE
  5
16E
330
1F
100
AcDbEntity
  8
layer 1
370
     9
100
AcDbSpline
210
0.0
220
0.0
230
1.0
 70
    24
 71
     3
 72
     8
 73
     4
 74
     0
 42
0.0000000001
 43
0.0000000001
 40
0.0
 40
0.0
 40
0.0
 40
0.0
 40
1.0
 40
1.0
 40
1.0
 40
1.0
 10
11.7602
 20
50.867
 30
0.0
 10
11.7602
 20
50.867
 30
0.0
 10
14.5598
 20
50.867
 30
0.0
 10
14.5598
 20
50.867
 30
0.0
  0
SPLINE
  5
16F
330
1F
100
AcDbEntity
  8
layer 1
370
     9
100
AcDbSpline
210
0.0
220
0.0
230
1.0
 70
    24
 71
     3
 72
     8
 73
     4
 74
     0
 42
0.0000000001
 43
0.0000000001
 40
0.0
 40
0.0
 40
0.0
 40
0.0
 40
1.0
 40
1.0
 40
1.0
 40
1.0
 10
11.7602
 20
50.867
 30
0.0
 10
11.7602
 20
50.867
 30
0.0
 10
11.7602
 20
46.0674
 30
0.0
 10
11.7602
 20
46.0674
 30
0.0
  0
SPLINE
  5
170
330
1F
100
AcDbEntity
  8
layer 1
370
     9
100
AcDbSpline
210
0.0
220
0.0
230
1.0
 70
    24
 71
     3
 72
     8
 73
     4
 74
     0
 42
0.0000000001
 43
0.0000000001
 40
0.0
 40
0.0
 40
0.0
 40
0.0
 40
1.0
 40
1.0
 40
1.0
 40
1.0
 10
14.5598
 20
46.0674
 30
0.0
 10
14.5598
 20
46.0674
 30
0.0
 10
11.7602
 20
46.0674
 30
0.0
 10
11.7602
 20
46.0674
 30
0.0
  0
SPLINE
  5
171
330
1F
100
AcDbEntity
  8
layer 1
370
     9
100
AcDbSpline
210
0.0
220
0.0
230
1.0
 70
    24
 71
     3
 72
     8
 73
     4
 74
     0
 42
0.0000000001
 43
0.0000000001
 40
0.0
 40
0.0
 40
0.0
 40
0.0
 40
1.0
 40
1.0
 40
1.0
 40
1.0
 10
-52.3549
 20
57.867
 30
0.0
 10
-52.3549
 20
57.867
 30
0.0
 10
-52.3549
 20
55.0674
 30
0.0
 10
-52.3549
 20
55.0674
 30
0.0
  0
SPLINE
  5
172
330
1F
100
AcDbEntity
  8
layer 1
370
     9
100
AcDbSpline
210
0.0
220
0.0
230
1.0
 70
    24
 71
     3
 72
     8
 73
     4
 74
     0
 42
0.0000000001
 43
0.0000000001
 40
0.0
 40
0.0
 40
0.0
 40
0.0
 40
1.0
 40
1.0
 40
1.0
 40
1.0
 10
-52.3549
 20
55.0674
 30
0.0
 10
-52.3549
 20
55.0674
 30
0.0
 10
-47.5553
 20
55.0674
 30
0.0
 10
-47.5553
 20
55.0674
 30
0.0
  0
SPLINE
  5
173
330
1F
100
AcDbEntity
  8
layer 1
370
     9
100
AcDbSpline
210
0.0
220
0.0
230
1.0
 70
    24
 71
     3
 72
     8
 73
     4
 74
     0
 42
0.0000000001
 43
0.0000000001
 40
0.0
 40
0.0
 40
0.0
 40
0.0
 40
1.0
 40
1.0
 40
1.0
 40
1.0
 10
-47.5553
 20
55.0674
 30
0.0
 10
-47.5553
 20
55.0674
 30
0.0
 10
-47.5553
 20
57.867
 30
0.0
 10
-47.5553
 20
57.867
 30
0.0
  0
SPLINE
  5
174
330
1F
100
AcDbEntity
  8
layer 1
370
     9
100
AcDbSpline
210
0.0
220
0.0
230
1.0
 70
    24
 71
     3
 72
     8
 73
     4
 74
     0
 42
0.0000000001
 43
0.0000000001
 40
0.0
 40
0.0
 40
0.0
 40
0.0
 40
1.0
 40
1.0
 40
1.0
 40
1.0
 10
-47.5553
 20
57.867
 30
0.0
 10
-47.5553
 20
57.867
 30
0.0
 10
-52.3549
 20
57.867
 30
0.0
 10
-52.3549
 20
57.867
 30
0.0
  0
SPLINE
  5
175
330
1F
100
AcDbEntity
  8
layer 1
370
     9
100
AcDbSpline
210
0.0
220
0.0
230
1.0
 70
    24
 71
     3
 72
     8
 73
     4
 74
     0
 42
0.0000000001
 43
0.0000000001
 40
0.0
 40
0.0
 40
0.0
 40
0.0
 40
1.0
 40
1.0
 40
1.0
 40
1.0
 10
1.7602
 20
57.867
 30
0.0
 10
1.7602
 20
57.867
 30
0.0
 10
1.7602
 20
55.0674
 30
0.0
 10
1.7602
 20
55.0674
 30
0.0
  0
SPLINE
  5
176
330
1F
100
AcDbEntity
  8
layer 1
370
     9
100
AcDbSpline
210
0.0
220
0.0
230
1.0
 70
    24
 71
     3
 72
     8
 73
     4
 74
     0
 42
0.0000000001
 43
0.0000000001
 40
0.0
 40
0.0
 40
0.0
 40
0.0
 40
1.0
 40
1.0
 40
1.0
 40
1.0
 10
1.7602
 20
55.0674
 30
0.0
 10
1.7602
 20
55.0674
 30
0.0
 10
6.5598
 20
55.0674
 30
0.0
 10
6.5598
 20
55.0674
 30
0.0
  0
SPLINE
  5
177
330
1F
100
AcDbEntity
  8
layer 1
370
     9
100
AcDbSpline
210
0.0
220
0.0
230
1.0
 70
    24
 71
     3
 72
     8
 73
     4
 74
     0
 42
0.0000000001
 43
0.0000000001
 40
0.0
 40
0.0
 40
0.0
 40
0.0
 40
1.0
 40
1.0
 40
1.0
 40
1.0
 10
6.5598
 20
55.0674
 30
0.0
 10
6.5598
 20
55.0674
 30
0.0
 10
6.5598
 20
57.867
 30
0.0
 10
6.5598
 20
57.867
 30
0.0
  0
SPLINE
  5
178
330
1F
100
AcDbEntity
  8
layer 1
370
     9
100
AcDbSpline
210
0.0
220
0.0
230
1.0
 70
    24
 71
     3
 72
     8
 73
     4
 74
     0
 42
0.0000000001
 43
0.0000000001
 40
0.0
 40
0.0
 40
0.0
 40
0.0
 40
1.0
 40
1.0
 40
1.0
 40
1.0
 10
6.5598
 20
57.867
 30
0.0
 10
6.5598
 20
57.867
 30
0.0
 10
1.7602
 20
57.867
 30
0.0
 10
1.7602
 20
57.867
 30
0.0
  0
SPLINE
  5
179
330
1F
100
AcDbEntity
  8
layer 1
370
     9
100
AcDbSpline
210
0.0
220
0.0
230
1.0
 70
    27
 71
     3
 72
     8
 73
     4
 74
     0
 42
0.0000000001
 43
0.0000000001
 40
0.0
 40
0.0
 40
0.0
 40
0.0
 40
1.0
 40
1.0
 40
1.0
 40
1.0
 10
6.5598
 20
0.8671
 30
0.0
 10
6.5598
 20
0.8671
 30
0.0
 10
6.5598
 20
0.8671
 30
0.0
 10
6.5598
 20
0.8671
 30
0.0
  0
SPLINE
  5
17A
330
1F
100
AcDbEntity
  8
layer 1
370
     9
100
AcDbSpline
210
0.0
220
0.0
230
1.0
 70
    24
 71
     3
 72
     8
 73
     4
 74
     0
 42
0.0000000001
 43
0.0000000001
 40
0.0
 40
0.0
 40
0.0
 40
0.0
 40
1.0
 40
1.0
 40
1.0
 40
1.0
 10
6.5598
 20
0.8671
 30
0.0
 10
6.5598
 20
0.8671
 30
0.0
 10
1.7602
 20
0.8671
 30
0.0
 10
1.7602
 20
0.8671
 30
0.0
  0
SPLINE
  5
17B
330
1F
100
AcDbEntity
  8
layer 1
370
     9
100
AcDbSpline
210
0.0
220
0.0
230
1.0
 70
    27
 71
     3
 72
     8
 73
     4
 74
     0
 42
0.0000000001
 43
0.0000000001
 40
0.0
 40
0.0
 40
0.0
 40
0.0
 40
1.0
 40
1.0
 40
1.0
 40
1.0
 10
1.7602
 20
0.8671
 30
0.0
 10
1.7602
 20
0.8671
 30
0.0
 10
1.7602
 20
0.8671
 30
0.0
 10
1.7602
 20
0.8671
 30
0.0
  0
SPLINE
  5
17C
330
1F
100
AcDbEntity
  8
layer 1
370
     9
100
AcDbSpline
210
0.0
220
0.0
230
1.0
 70
    24
 71
     3
 72
     8
 73
     4
 74
     0
 42
0.0000000001
 43
0.0000000001
 40
0.0
 40
0.0
 40
0.0
 40
0.0
 40
1.0
 40
1.0
 40
1.0
 40
1.0
 10
1.7602
 20
0.8671
 30
0.0
 10
1.7602
 20
0.8671
 30
0.0
 10
1.7602
 20
-1.9325
 30
0.0
 10
1.7602
 20
-1.9325
 30
0.0
  0
SPLINE
  5
17D
330
1F
100
AcDbEntity
  8
layer 1
370
     9
100
AcDbSpline
210
0.0
220
0.0
230
1.0
 70
    27
 71
     3
 72
     8
 73
     4
 74
     0
 42
0.0000000001
 43
0.0000000001
 40
0.0
 40
0.0
 40
0.0
 40
0.0
 40
1.0
 40
1.0
 40
1.0
 40
1.0
 10
6.5598
 20
-1.9325
 30
0.0
 10
6.5598
 20
-1.9325
 30
0.0
 10
6.5598
 20
-1.9325
 30
0.0
 10
6.5598
 20
-1.9325
 30
0.0
  0
SPLINE
  5
17E
330
1F
100
AcDbEntity
  8
layer 1
370
     9
100
AcDbSpline
210
0.0
220
0.0
230
1.0
 70
    24
 71
     3
 72
     8
 73
     4
 74
     0
 42
0.0000000001
 43
0.0000000001
 40
0.0
 40
0.0
 40
0.0
 40
0.0
 40
1.0
 40
1.0
 40
1.0
 40
1.0
 10
1.7602
 20
-1.9325
 30
0.0
 10
1.7602
 20
-1.9325
 30
0.0
 10
6.5598
 20
-1.9325
 30
0.0
 10
6.5598
 20
-1.9325
 30
0.0
  0
SPLINE
  5
17F
330
1F
100
AcDbEntity
  8
layer 1
370
     9
100
AcDbSpline
210
0.0
220
0.0
230
1.0
 70
    27
 71
     3
 72
     8
 73
     4
 74
     0
 42
0.0000000001
 43
0.0000000001
 40
0.0
 40
0.0
 40
0.0
 40
0.0
 40
1.0
 40
1.0
 40
1.0
 40
1.0
 10
6.5598
 20
0.8671
 30
0.0
 10
6.5598
 20
0.8671
 30
0.0
 10
6.5598
 20
0.8671
 30
0.0
 10
6.5598
 20
0.8671
 30
0.0
  0
SPLINE
  5
180
330
1F
100
AcDbEntity
  8
layer 1
370
     9
100
AcDbSpline
210
0.0
220
0.0
230
1.0
 70
    24
 71
     3
 72
     8
 73
     4
 74
     0
 42
0.0000000001
 43
0.0000000001
 40
0.0
 40
0.0
 40
0.0
 40
0.0
 40
1.0
 40
1.0
 40
1.0
 40
1.0
 10
6.5598
 20
-1.9325
 30
0.0
 10
6.5598
 20
-1.9325
 30
0.0
 10
6.5598
 20
0.8671
 30
0.0
 10
6.5598
 20
0.8671
 30
0.0
  0
SPLINE
  5
181
330
1F
100
AcDbEntity
  8
layer 1
370
     9
100
AcDbSpline
210
0.0
220
0.0
230
1.0
 70
    27
 71
     3
 72
     8
 73
     4
 74
     0
 42
0.0000000001
 43
0.0000000001
 40
0.0
 40
0.0
 40
0.0
 40
0.0
 40
1.0
 40
1.0
 40
1.0
 40
1.0
 10
-47.5553
 20
0.8671
 30
0.0
 10
-47.5553
 20
0.8671
 30
0.0
 10
-47.5553
 20
0.8671
 30
0.0
 10
-47.5553
 20
0.8671
 30
0.0
  0
SPLINE
  5
182
330
1F
100
AcDbEntity
  8
layer 1
370
     9
100
AcDbSpline
210
0.0
220
0.0
230
1.0
 70
    24
 71
     3
 72
     8
 73
     4
 74
     0
 42
0.0000000001
 43
0.0000000001
 40
0.0
 40
0.0
 40
0.0
 40
0.0
 40
1.0
 40
1.0
 40
1.0
 40
1.0
 10
-47.5553
 20
0.8671
 30
0.0
 10
-47.5553
 20
0.8671
 30
0.0
 10
-52.3549
 20
0.8671
 30
0.0
 10
-52.3549
 20
0.8671
 30
0.0
  0
SPLINE
  5
183
330
1F
100
AcDbEntity
  8
layer 1
370
     9
100
AcDbSpline
210
0.0
220
0.0
230
1.0
 70
    27
 71
     3
 72
     8
 73
     4
 74
     0
 42
0.0000000001
 43
0.0000000001
 40
0.0
 40
0.0
 40
0.0
 40
0.0
 40
1.0
 40
1.0
 40
1.0
 40
1.0
 10
-52.3549
 20
0.8671
 30
0.0
 10
-52.3549
 20
0.8671
 30
0.0
 10
-52.3549
 20
0.8671
 30
0.0
 10
-52.3549
 20
0.8671
 30
0.0
  0
SPLINE
  5
184
330
1F
100
AcDbEntity
  8
layer 1
370
     9
100
AcDbSpline
210
0.0
220
0.0
230
1.0
 70
    24
 71
     3
 72
     8
 73
     4
 74
     0
 42
0.0000000001
 43
0.0000000001
 40
0.0
 40
0.0
 40
0.0
 40
0.0
 40
1.0
 40
1.0
 40
1.0
 40
1.0
 10
-52.3549
 20
0.8671
 30
0.0
 10
-52.3549
 20
0.8671
 30
0.0
 10
-52.3549
 20
-1.9325
 30
0.0
 10
-52.3549
 20
-1.9325
 30
0.0
  0
SPLINE
  5
185
330
1F
100
AcDbEntity
  8
layer 1
370
     9
100
AcDbSpline
210
0.0
220
0.0
230
1.0
 70
    27
 71
     3
 72
     8
 73
     4
 74
     0
 42
0.0000000001
 43
0.0000000001
 40
0.0
 40
0.0
 40
0.0
 40
0.0
 40
1.0
 40
1.0
 40
1.0
 40
1.0
 10
-47.5553
 20
-1.9325
 30
0.0
 10
-47.5553
 20
-1.9325
 30
0.0
 10
-47.5553
 20
-1.9325
 30
0.0
 10
-47.5553
 20
-1.9325
 30
0.0
  0
SPLINE
  5
186
330
1F
100
AcDbEntity
  8
layer 1
370
     9
100
AcDbSpline
210
0.0
220
0.0
230
1.0
 70
    24
 71
     3
 72
     8
 73
     4
 74
     0
 42
0.0000000001
 43
0.0000000001
 40
0.0
 40
0.0
 40
0.0
 40
0.0
 40
1.0
 40
1.0
 40
1.0
 40
1.0
 10
-52.3549
 20
-1.9325
 30
0.0
 10
-52.3549
 20
-1.9325
 30
0.0
 10
-47.5553
 20
-1.9325
 30
0.0
 10
-47.5553
 20
-1.9325
 30
0.0
  0
SPLINE
  5
187
330
1F
100
AcDbEntity
  8
layer 1
370
     9
100
AcDbSpline
210
0.0
220
0.0
230
1.0
 70
    27
 71
     3
 72
     8
 73
     4
 74
     0
 42
0.0000000001
 43
0.0000000001
 40
0.0
 40
0.0
 40
0.0
 40
0.0
 40
1.0
 40
1.0
 40
1.0
 40
1.0
 10
-47.5553
 20
0.8671
 30
0.0
 10
-47.5553
 20
0.8671
 30
0.0
 10
-47.5553
 20
0.8671
 30
0.0
 10
-47.5553
 20
0.8671
 30
0.0
  0
SPLINE
  5
188
330
1F
100
AcDbEntity
  8
layer 1
370
     9
100
AcDbSpline
210
0.0
220
0.0
230
1.0
 70
    24
 71
     3
 72
     8
 73
     4
 74
     0
 42
0.0000000001
 43
0.0000000001
 40
0.0
 40
0.0
 40
0.0
 40
0.0
 40
1.0
 40
1.0
 40
1.0
 40
1.0
 10
-47.5553
 20
-1.9325
 30
0.0
 10
-47.5553
 20
-1.9325
 30
0.0
 10
-47.5553
 20
0.8671
 30
0.0
 10
-47.5553
 20
0.8671
 30
0.0
  0
SPLINE
  5
189
330
1F
100
AcDbEntity
  8
layer 1
370
     9
100
AcDbSpline
210
0.0
220
0.0
230
1.0
 70
    11
 71
     3
 72
    20
 73
    16
 74
     0
 42
0.0000000001
 43
0.0000000001
 40
0.0
 40
0.0
 40
0.0
 40
0.0
 40
0.25
 40
0.25
 40
0.25
 40
0.25
 40
0.5
 40
0.5
 40
0.5
 40
0.5
 40
0.75
 40
0.75
 40
0.75
 40
0.75
 40
1.0
 40
1.0
 40
1.0
 40
1.0
 10
10.0849
 20
36.8573
 30
0.0
 10
10.0849
 20
37.6857
 30
0.0
 10
9.4134
 20
38.3572
 30
0.0
 10
8.585
 20
38.3572
 30
0.0
 10
8.585
 20
38.3572
 30
0.0
 10
7.7565
 20
38.3573
 30
0.0
 10
7.085
 20
37.6857
 30
0.0
 10
7.0849
 20
36.8574
 30
0.0
 10
7.0849
 20
36.8574
 30
0.0
 10
7.0849
 20
36.0289
 30
0.0
 10
7.7565
 20
35.3574
 30
0.0
 10
8.5849
 20
35.3573
 30
0.0
 10
8.5849
 20
35.3573
 30
0.0
 10
9.4134
 20
35.3573
 30
0.0
 10
10.0849
 20
36.0289
 30
0.0
 10
10.0849
 20
36.8573
 30
0.0
  0
SPLINE
  5
18A
330
1F
100
AcDbEntity
  8
layer 1
370
     9
100
AcDbSpline
210
0.0
220
0.0
230
1.0
 70
    11
 71
     3
 72
    20
 73
    16
 74
     0
 42
0.0000000001
 43
0.0000000001
 40
0.0
 40
0.0
 40
0.0
 40
0.0
 40
0.25
 40
0.25
 40
0.25
 40
0.25
 40
0.5
 40
0.5
 40
0.5
 40
0.5
 40
0.75
 40
0.75
 40
0.75
 40
0.75
 40
1.0
 40
1.0
 40
1.0
 40
1.0
 10
10.0849
 20
8.9173
 30
0.0
 10
10.0849
 20
9.7458
 30
0.0
 10
9.4134
 20
10.4173
 30
0.0
 10
8.585
 20
10.4173
 30
0.0
 10
8.585
 20
10.4173
 30
0.0
 10
7.7565
 20
10.4174
 30
0.0
 10
7.085
 20
9.7458
 30
0.0
 10
7.0849
 20
8.9174
 30
0.0
 10
7.0849
 20
8.9174
 30
0.0
 10
7.0849
 20
8.0889
 30
0.0
 10
7.7565
 20
7.4174
 30
0.0
 10
8.5849
 20
7.4173
 30
0.0
 10
8.5849
 20
7.4173
 30
0.0
 10
9.4134
 20
7.4173
 30
0.0
 10
10.0849
 20
8.0889
 30
0.0
 10
10.0849
 20
8.9173
 30
0.0
  0
SPLINE
  5
18B
330
1F
100
AcDbEntity
  8
layer 1
370
     9
100
AcDbSpline
210
0.0
220
0.0
230
1.0
 70
    11
 71
     3
 72
    20
 73
    16
 74
     0
 42
0.0000000001
 43
0.0000000001
 40
0.0
 40
0.0
 40
0.0
 40
0.0
 40
0.25
 40
0.25
 40
0.25
 40
0.25
 40
0.5
 40
0.5
 40
0.5
 40
0.5
 40
0.75
 40
0.75
 40
0.75
 40
0.75
 40
1.0
 40
1.0
 40
1.0
 40
1.0
 10
-41.9851
 20
3.8373
 30
0.0
 10
-41.9851
 20
4.6658
 30
0.0
 10
-42.6566
 20
5.3373
 30
0.0
 10
-43.485
 20
5.3373
 30
0.0
 10
-43.485
 20
5.3373
 30
0.0
 10
-44.3135
 20
5.3374
 30
0.0
 10
-44.985
 20
4.6658
 30
0.0
 10
-44.9851
 20
3.8374
 30
0.0
 10
-44.9851
 20
3.8374
 30
0.0
 10
-44.9851
 20
3.0089
 30
0.0
 10
-44.3135
 20
2.3374
 30
0.0
 10
-43.4851
 20
2.3373
 30
0.0
 10
-43.4851
 20
2.3373
 30
0.0
 10
-42.6566
 20
2.3373
 30
0.0
 10
-41.9851
 20
3.0089
 30
0.0
 10
-41.9851
 20
3.8373
 30
0.0
  0
SPLINE
  5
18C
330
1F
100
AcDbEntity
  8
layer 1
370
     9
100
AcDbSpline
210
0.0
220
0.0
230
1.0
 70
    11
 71
     3
 72
    20
 73
    16
 74
     0
 42
0.0000000001
 43
0.0000000001
 40
0.0
 40
0.0
 40
0.0
 40
0.0
 40
0.25
 40
0.25
 40
0.25
 40
0.25
 40
0.5
 40
0.5
 40
0.5
 40
0.5
 40
0.75
 40
0.75
 40
0.75
 40
0.75
 40
1.0
 40
1.0
 40
1.0
 40
1.0
 10
-40.7151
 20
52.0972
 30
0.0
 10
-40.7151
 20
52.9257
 30
0.0
 10
-41.3866
 20
53.5972
 30
0.0
 10
-42.215
 20
53.5972
 30
0.0
 10
-42.215
 20
53.5972
 30
0.0
 10
-43.0435
 20
53.5973
 30
0.0
 10
-43.715
 20
52.9257
 30
0.0
 10
-43.7151
 20
52.0973
 30
0.0
 10
-43.7151
 20
52.0973
 30
0.0
 10
-43.7151
 20
51.2688
 30
0.0
 10
-43.0435
 20
50.5973
 30
0.0
 10
-42.2151
 20
50.5972
 30
0.0
 10
-42.2151
 20
50.5972
 30
0.0
 10
-41.3866
 20
50.5972
 30
0.0
 10
-40.7151
 20
51.2688
 30
0.0
 10
-40.7151
 20
52.0972
 30
0.0
  0
SPLINE
  5
18D
330
1F
100
AcDbEntity
  8
layer 1
370
     9
100
AcDbSpline
210
0.0
220
0.0
230
1.0
 70
     8
 71
     3
 72
     8
 73
     4
 74
     0
 42
0.0000000001
 43
0.0000000001
 40
0.0
 40
0.0
 40
0.0
 40
0.0
 40
1.0
 40
1.0
 40
1.0
 40
1.0
 10
11.66
 20
59.9672
 30
0.0
 10
11.66
 20
60.5195
 30
0.0
 10
11.2122
 20
60.9672
 30
0.0
 10
10.66
 20
60.9672
 30
0.0
  0
SPLINE
  5
18E
330
1F
100
AcDbEntity
  8
layer 1
370
     9
100
AcDbSpline
210
0.0
220
0.0
230
1.0
 70
     8
 71
     3
 72
     8
 73
     4
 74
     0
 42
0.0000000001
 43
0.0000000001
 40
0.0
 40
0.0
 40
0.0
 40
0.0
 40
1.0
 40
1.0
 40
1.0
 40
1.0
 10
17.5012
 20
57.2172
 30
0.0
 10
17.3872
 20
57.6588
 30
0.0
 10
16.9889
 20
57.9672
 30
0.0
 10
16.5329
 20
57.9672
 30
0.0
  0
SPLINE
  5
18F
330
1F
100
AcDbEntity
  8
layer 1
370
     9
100
AcDbSpline
210
0.0
220
0.0
230
1.0
 70
     8
 71
     3
 72
     8
 73
     4
 74
     0
 42
0.0000000001
 43
0.0000000001
 40
0.0
 40
0.0
 40
0.0
 40
0.0
 40
1.0
 40
1.0
 40
1.0
 40
1.0
 10
16.5329
 20
-2.0326
 30
0.0
 10
16.9889
 20
-2.0326
 30
0.0
 10
17.3872
 20
-1.7242
 30
0.0
 10
17.5012
 20
-1.2826
 30
0.0
  0
SPLINE
  5
190
330
1F
100
AcDbEntity
  8
layer 1
370
     9
100
AcDbSpline
210
0.0
220
0.0
230
1.0
 70
     8
 71
     3
 72
     8
 73
     4
 74
     0
 42
0.0000000001
 43
0.0000000001
 40
0.0
 40
0.0
 40
0.0
 40
0.0
 40
1.0
 40
1.0
 40
1.0
 40
1.0
 10
10.66
 20
-5.0326
 30
0.0
 10
11.2122
 20
-5.0326
 30
0.0
 10
11.6599
 20
-4.5849
 30
0.0
 10
11.66
 20
-4.0327
 30
0.0
  0
SPLINE
  5
191
330
1F
100
AcDbEntity
  8
layer 1
370
     9
100
AcDbSpline
210
0.0
220
0.0
230
1.0
 70
     8
 71
     3
 72
     8
 73
     4
 74
     0
 42
0.0000000001
 43
0.0000000001
 40
0.0
 40
0.0
 40
0.0
 40
0.0
 40
1.0
 40
1.0
 40
1.0
 40
1.0
 10
-63.2963
 20
-1.2826
 30
0.0
 10
-63.1823
 20
-1.7242
 30
0.0
 10
-62.784
 20
-2.0326
 30
0.0
 10
-62.328
 20
-2.0326
 30
0.0
  0
SPLINE
  5
192
330
1F
100
AcDbEntity
  8
layer 1
370
     9
100
AcDbSpline
210
0.0
220
0.0
230
1.0
 70
     8
 71
     3
 72
    12
 73
     8
 74
     0
 42
0.0000000001
 43
0.0000000001
 40
0.0
 40
0.0
 40
0.0
 40
0.0
 40
0.5
 40
0.5
 40
0.5
 40
0.5
 40
1.0
 40
1.0
 40
1.0
 40
1.0
 10
-57.4551
 20
-4.0327
 30
0.0
 10
-57.4551
 20
-4.2979
 30
0.0
 10
-57.3497
 20
-4.5522
 30
0.0
 10
-57.1622
 20
-4.7398
 30
0.0
 10
-57.1622
 20
-4.7398
 30
0.0
 10
-56.9746
 20
-4.9273
 30
0.0
 10
-56.7203
 20
-5.0326
 30
0.0
 10
-56.4551
 20
-5.0326
 30
0.0
  0
SPLINE
  5
193
330
1F
100
AcDbEntity
  8
layer 1
370
     9
100
AcDbSpline
210
0.0
220
0.0
230
1.0
 70
     8
 71
     3
 72
     8
 73
     4
 74
     0
 42
0.0000000001
 43
0.0000000001
 40
0.0
 40
0.0
 40
0.0
 40
0.0
 40
1.0
 40
1.0
 40
1.0
 40
1.0
 10
-62.328
 20
57.9672
 30
0.0
 10
-62.784
 20
57.9672
 30
0.0
 10
-63.1823
 20
57.6588
 30
0.0
 10
-63.2963
 20
57.2172
 30
0.0
  0
SPLINE
  5
194
330
1F
100
AcDbEntity
  8
layer 1
370
     9
100
AcDbSpline
210
0.0
220
0.0
230
1.0
 70
     8
 71
     3
 72
    12
 73
     8
 74
     0
 42
0.0000000001
 43
0.0000000001
 40
0.0
 40
0.0
 40
0.0
 40
0.0
 40
0.5
 40
0.5
 40
0.5
 40
0.5
 40
1.0
 40
1.0
 40
1.0
 40
1.0
 10
-56.4551
 20
60.9672
 30
0.0
 10
-56.7203
 20
60.9672
 30
0.0
 10
-56.9746
 20
60.8619
 30
0.0
 10
-57.1622
 20
60.6744
 30
0.0
 10
-57.1622
 20
60.6744
 30
0.0
 10
-57.3497
 20
60.4868
 30
0.0
 10
-57.4551
 20
60.2325
 30
0.0
 10
-57.4551
 20
59.9672
 30
0.0
  0
SPLINE
  5
195
330
1F
100
AcDbEntity
  8
layer 1
370
     9
100
AcDbSpline
210
0.0
220
0.0
230
1.0
 70
    24
 71
     3
 72
     8
 73
     4
 74
     0
 42
0.0000000001
 43
0.0000000001
 40
0.0
 40
0.0
 40
0.0
 40
0.0
 40
1.0
 40
1.0
 40
1.0
 40
1.0
 10
-48.1723
 20
72.1005
 30
0.0
 10
-48.1723
 20
72.1005
 30
0.0
 10
-53.2123
 20
72.1005
 30
0.0
 10
-53.2123
 20
72.1005
 30
0.0
  0
SPLINE
  5
196
330
1F
100
AcDbEntity
  8
layer 1
370
     9
100
AcDbSpline
210
0.0
220
0.0
230
1.0
 70
    24
 71
     3
 72
     8
 73
     4
 74
     0
 42
0.0000000001
 43
0.0000000001
 40
0.0
 40
0.0
 40
0.0
 40
0.0
 40
1.0
 40
1.0
 40
1.0
 40
1.0
 10
-56.5623
 20
73.1005
 30
0.0
 10
-56.5623
 20
73.1005
 30
0.0
 10
-53.2123
 20
73.1005
 30
0.0
 10
-53.2123
 20
73.1005
 30
0.0
  0
SPLINE
  5
197
330
1F
100
AcDbEntity
  8
layer 1
370
     9
100
AcDbSpline
210
0.0
220
0.0
230
1.0
 70
    24
 71
     3
 72
     8
 73
     4
 74
     0
 42
0.0000000001
 43
0.0000000001
 40
0.0
 40
0.0
 40
0.0
 40
0.0
 40
1.0
 40
1.0
 40
1.0
 40
1.0
 10
-53.2123
 20
73.1005
 30
0.0
 10
-53.2123
 20
73.1005
 30
0.0
 10
-53.2123
 20
72.1005
 30
0.0
 10
-53.2123
 20
72.1005
 30
0.0
  0
SPLINE
  5
198
330
1F
100
AcDbEntity
  8
layer 1
370
     9
100
AcDbSpline
210
0.0
220
0.0
230
1.0
 70
    24
 71
     3
 72
     8
 73
     4
 74
     0
 42
0.0000000001
 43
0.0000000001
 40
0.0
 40
0.0
 40
0.0
 40
0.0
 40
1.0
 40
1.0
 40
1.0
 40
1.0
 10
-48.1723
 20
72.1005
 30
0.0
 10
-48.1723
 20
72.1005
 30
0.0
 10
-48.1723
 20
80.1005
 30
0.0
 10
-48.1723
 20
80.1005
 30
0.0
  0
SPLINE
  5
199
330
1F
100
AcDbEntity
  8
layer 1
370
     9
100
AcDbSpline
210
0.0
220
0.0
230
1.0
 70
    24
 71
     3
 72
     8
 73
     4
 74
     0
 42
0.0000000001
 43
0.0000000001
 40
0.0
 40
0.0
 40
0.0
 40
0.0
 40
1.0
 40
1.0
 40
1.0
 40
1.0
 10
-48.1723
 20
80.1005
 30
0.0
 10
-48.1723
 20
80.1005
 30
0.0
 10
-53.2123
 20
80.1005
 30
0.0
 10
-53.2123
 20
80.1005
 30
0.0
  0
SPLINE
  5
19A
330
1F
100
AcDbEntity
  8
layer 1
370
     9
100
AcDbSpline
210
0.0
220
0.0
230
1.0
 70
    24
 71
     3
 72
     8
 73
     4
 74
     0
 42
0.0000000001
 43
0.0000000001
 40
0.0
 40
0.0
 40
0.0
 40
0.0
 40
1.0
 40
1.0
 40
1.0
 40
1.0
 10
-53.2123
 20
80.1005
 30
0.0
 10
-53.2123
 20
80.1005
 30
0.0
 10
-53.2123
 20
79.1005
 30
0.0
 10
-53.2123
 20
79.1005
 30
0.0
  0
SPLINE
  5
19B
330
1F
100
AcDbEntity
  8
layer 1
370
     9
100
AcDbSpline
210
0.0
220
0.0
230
1.0
 70
    24
 71
     3
 72
     8
 73
     4
 74
     0
 42
0.0000000001
 43
0.0000000001
 40
0.0
 40
0.0
 40
0.0
 40
0.0
 40
1.0
 40
1.0
 40
1.0
 40
1.0
 10
-53.2123
 20
79.1005
 30
0.0
 10
-53.2123
 20
79.1005
 30
0.0
 10
-56.5623
 20
79.1005
 30
0.0
 10
-56.5623
 20
79.1005
 30
0.0
  0
SPLINE
  5
19C
330
1F
100
AcDbEntity
  8
layer 1
370
     9
100
AcDbSpline
210
0.0
220
0.0
230
1.0
 70
    24
 71
     3
 72
     8
 73
     4
 74
     0
 42
0.0000000001
 43
0.0000000001
 40
0.0
 40
0.0
 40
0.0
 40
0.0
 40
1.0
 40
1.0
 40
1.0
 40
1.0
 10
-57.5623
 20
78.1005
 30
0.0
 10
-57.5623
 20
78.1005
 30
0.0
 10
-57.5623
 20
74.1005
 30
0.0
 10
-57.5623
 20
74.1005
 30
0.0
  0
SPLINE
  5
19D
330
1F
100
AcDbEntity
  8
layer 1
370
     9
100
AcDbSpline
210
0.0
220
0.0
230
1.0
 70
     8
 71
     3
 72
    12
 73
     8
 74
     0
 42
0.0000000001
 43
0.0000000001
 40
0.0
 40
0.0
 40
0.0
 40
0.0
 40
0.5
 40
0.5
 40
0.5
 40
0.5
 40
1.0
 40
1.0
 40
1.0
 40
1.0
 10
-56.5623
 20
79.1005
 30
0.0
 10
-56.8275
 20
79.1005
 30
0.0
 10
-57.0818
 20
78.9951
 30
0.0
 10
-57.2694
 20
78.8076
 30
0.0
 10
-57.2694
 20
78.8076
 30
0.0
 10
-57.4569
 20
78.6201
 30
0.0
 10
-57.5623
 20
78.3657
 30
0.0
 10
-57.5623
 20
78.1005
 30
0.0
  0
SPLINE
  5
19E
330
1F
100
AcDbEntity
  8
layer 1
370
     9
100
AcDbSpline
210
0.0
220
0.0
230
1.0
 70
     8
 71
     3
 72
    12
 73
     8
 74
     0
 42
0.0000000001
 43
0.0000000001
 40
0.0
 40
0.0
 40
0.0
 40
0.0
 40
0.5
 40
0.5
 40
0.5
 40
0.5
 40
1.0
 40
1.0
 40
1.0
 40
1.0
 10
-57.5623
 20
74.1005
 30
0.0
 10
-57.5623
 20
73.8353
 30
0.0
 10
-57.4569
 20
73.5809
 30
0.0
 10
-57.2694
 20
73.3934
 30
0.0
 10
-57.2694
 20
73.3934
 30
0.0
 10
-57.0818
 20
73.2059
 30
0.0
 10
-56.8275
 20
73.1005
 30
0.0
 10
-56.5623
 20
73.1005
 30
0.0
  0
SPLINE
  5
19F
330
1F
100
AcDbEntity
  8
layer 1
370
     9
100
AcDbSpline
210
0.0
220
0.0
230
1.0
 70
    24
 71
     3
 72
     8
 73
     4
 74
     0
 42
0.0000000001
 43
0.0000000001
 40
0.0
 40
0.0
 40
0.0
 40
0.0
 40
1.0
 40
1.0
 40
1.0
 40
1.0
 10
-48.1723
 20
103.1005
 30
0.0
 10
-48.1723
 20
103.1005
 30
0.0
 10
-53.2123
 20
103.1005
 30
0.0
 10
-53.2123
 20
103.1005
 30
0.0
  0
SPLINE
  5
1A0
330
1F
100
AcDbEntity
  8
layer 1
370
     9
100
AcDbSpline
210
0.0
220
0.0
230
1.0
 70
    24
 71
     3
 72
     8
 73
     4
 74
     0
 42
0.0000000001
 43
0.0000000001
 40
0.0
 40
0.0
 40
0.0
 40
0.0
 40
1.0
 40
1.0
 40
1.0
 40
1.0
 10
-56.5623
 20
104.1005
 30
0.0
 10
-56.5623
 20
104.1005
 30
0.0
 10
-53.2123
 20
104.1005
 30
0.0
 10
-53.2123
 20
104.1005
 30
0.0
  0
SPLINE
  5
1A1
330
1F
100
AcDbEntity
  8
layer 1
370
     9
100
AcDbSpline
210
0.0
220
0.0
230
1.0
 70
    24
 71
     3
 72
     8
 73
     4
 74
     0
 42
0.0000000001
 43
0.0000000001
 40
0.0
 40
0.0
 40
0.0
 40
0.0
 40
1.0
 40
1.0
 40
1.0
 40
1.0
 10
-53.2123
 20
104.1005
 30
0.0
 10
-53.2123
 20
104.1005
 30
0.0
 10
-53.2123
 20
103.1005
 30
0.0
 10
-53.2123
 20
103.1005
 30
0.0
  0
SPLINE
  5
1A2
330
1F
100
AcDbEntity
  8
layer 1
370
     9
100
AcDbSpline
210
0.0
220
0.0
230
1.0
 70
    24
 71
     3
 72
     8
 73
     4
 74
     0
 42
0.0000000001
 43
0.0000000001
 40
0.0
 40
0.0
 40
0.0
 40
0.0
 40
1.0
 40
1.0
 40
1.0
 40
1.0
 10
-48.1723
 20
103.1005
 30
0.0
 10
-48.1723
 20
103.1005
 30
0.0
 10
-48.1723
 20
111.1005
 30
0.0
 10
-48.1723
 20
111.1005
 30
0.0
  0
SPLINE
  5
1A3
330
1F
100
AcDbEntity
  8
layer 1
370
     9
100
AcDbSpline
210
0.0
220
0.0
230
1.0
 70
    24
 71
     3
 72
     8
 73
     4
 74
     0
 42
0.0000000001
 43
0.0000000001
 40
0.0
 40
0.0
 40
0.0
 40
0.0
 40
1.0
 40
1.0
 40
1.0
 40
1.0
 10
-48.1723
 20
111.1005
 30
0.0
 10
-48.1723
 20
111.1005
 30
0.0
 10
-53.2123
 20
111.1005
 30
0.0
 10
-53.2123
 20
111.1005
 30
0.0
  0
SPLINE
  5
1A4
330
1F
100
AcDbEntity
  8
layer 1
370
     9
100
AcDbSpline
210
0.0
220
0.0
230
1.0
 70
    24
 71
     3
 72
     8
 73
     4
 74
     0
 42
0.0000000001
 43
0.0000000001
 40
0.0
 40
0.0
 40
0.0
 40
0.0
 40
1.0
 40
1.0
 40
1.0
 40
1.0
 10
-53.2123
 20
111.1005
 30
0.0
 10
-53.2123
 20
111.1005
 30
0.0
 10
-53.2123
 20
110.1005
 30
0.0
 10
-53.2123
 20
110.1005
 30
0.0
  0
SPLINE
  5
1A5
330
1F
100
AcDbEntity
  8
layer 1
370
     9
100
AcDbSpline
210
0.0
220
0.0
230
1.0
 70
    24
 71
     3
 72
     8
 73
     4
 74
     0
 42
0.0000000001
 43
0.0000000001
 40
0.0
 40
0.0
 40
0.0
 40
0.0
 40
1.0
 40
1.0
 40
1.0
 40
1.0
 10
-53.2123
 20
110.1005
 30
0.0
 10
-53.2123
 20
110.1005
 30
0.0
 10
-56.5623
 20
110.1005
 30
0.0
 10
-56.5623
 20
110.1005
 30
0.0
  0
SPLINE
  5
1A6
330
1F
100
AcDbEntity
  8
layer 1
370
     9
100
AcDbSpline
210
0.0
220
0.0
230
1.0
 70
    24
 71
     3
 72
     8
 73
     4
 74
     0
 42
0.0000000001
 43
0.0000000001
 40
0.0
 40
0.0
 40
0.0
 40
0.0
 40
1.0
 40
1.0
 40
1.0
 40
1.0
 10
-57.5623
 20
109.1005
 30
0.0
 10
-57.5623
 20
109.1005
 30
0.0
 10
-57.5623
 20
105.1005
 30
0.0
 10
-57.5623
 20
105.1005
 30
0.0
  0
SPLINE
  5
1A7
330
1F
100
AcDbEntity
  8
layer 1
370
     9
100
AcDbSpline
210
0.0
220
0.0
230
1.0
 70
     8
 71
     3
 72
    12
 73
     8
 74
     0
 42
0.0000000001
 43
0.0000000001
 40
0.0
 40
0.0
 40
0.0
 40
0.0
 40
0.5
 40
0.5
 40
0.5
 40
0.5
 40
1.0
 40
1.0
 40
1.0
 40
1.0
 10
-56.5623
 20
110.1005
 30
0.0
 10
-56.8275
 20
110.1005
 30
0.0
 10
-57.0818
 20
109.9951
 30
0.0
 10
-57.2694
 20
109.8076
 30
0.0
 10
-57.2694
 20
109.8076
 30
0.0
 10
-57.4569
 20
109.6201
 30
0.0
 10
-57.5623
 20
109.3657
 30
0.0
 10
-57.5623
 20
109.1005
 30
0.0
  0
SPLINE
  5
1A8
330
1F
100
AcDbEntity
  8
layer 1
370
     9
100
AcDbSpline
210
0.0
220
0.0
230
1.0
 70
     8
 71
     3
 72
    12
 73
     8
 74
     0
 42
0.0000000001
 43
0.0000000001
 40
0.0
 40
0.0
 40
0.0
 40
0.0
 40
0.5
 40
0.5
 40
0.5
 40
0.5
 40
1.0
 40
1.0
 40
1.0
 40
1.0
 10
-57.5623
 20
105.1005
 30
0.0
 10
-57.5623
 20
104.8353
 30
0.0
 10
-57.4569
 20
104.5809
 30
0.0
 10
-57.2694
 20
104.3934
 30
0.0
 10
-57.2694
 20
104.3934
 30
0.0
 10
-57.0818
 20
104.2059
 30
0.0
 10
-56.8275
 20
104.1005
 30
0.0
 10
-56.5623
 20
104.1005
 30
0.0
  0
SPLINE
  5
1A9
330
1F
100
AcDbEntity
  8
layer 1
370
     9
100
AcDbSpline
210
0.0
220
0.0
230
1.0
 70
     8
 71
     3
 72
     8
 73
     4
 74
     0
 42
0.0000000001
 43
0.0000000001
 40
0.0
 40
0.0
 40
0.0
 40
0.0
 40
1.0
 40
1.0
 40
1.0
 40
1.0
 10
-63.4551
 20
67.2778
 30
0.0
 10
-63.4551
 20
66.8562
 30
0.0
 10
-63.4017
 20
66.4362
 30
0.0
 10
-63.2963
 20
66.0279
 30
0.0
  0
SPLINE
  5
1AA
330
1F
100
AcDbEntity
  8
layer 1
370
     9
100
AcDbSpline
210
0.0
220
0.0
230
1.0
 70
    24
 71
     3
 72
     8
 73
     4
 74
     0
 42
0.0000000001
 43
0.0000000001
 40
0.0
 40
0.0
 40
0.0
 40
0.0
 40
1.0
 40
1.0
 40
1.0
 40
1.0
 10
-56.4551
 20
62.2778
 30
0.0
 10
-56.4551
 20
62.2778
 30
0.0
 10
10.66
 20
62.2778
 30
0.0
 10
10.66
 20
62.2778
 30
0.0
  0
SPLINE
  5
1AB
330
1F
100
AcDbEntity
  8
layer 1
370
     9
100
AcDbSpline
210
0.0
220
0.0
230
1.0
 70
     8
 71
     3
 72
     8
 73
     4
 74
     0
 42
0.0000000001
 43
0.0000000001
 40
0.0
 40
0.0
 40
0.0
 40
0.0
 40
1.0
 40
1.0
 40
1.0
 40
1.0
 10
17.5012
 20
66.0279
 30
0.0
 10
17.6066
 20
66.4361
 30
0.0
 10
17.6599
 20
66.8561
 30
0.0
 10
17.66
 20
67.2778
 30
0.0
  0
SPLINE
  5
1AC
330
1F
100
AcDbEntity
  8
layer 1
370
     9
100
AcDbSpline
210
0.0
220
0.0
230
1.0
 70
    24
 71
     3
 72
     8
 73
     4
 74
     0
 42
0.0000000001
 43
0.0000000001
 40
0.0
 40
0.0
 40
0.0
 40
0.0
 40
1.0
 40
1.0
 40
1.0
 40
1.0
 10
17.66
 20
67.2778
 30
0.0
 10
17.66
 20
67.2778
 30
0.0
 10
17.66
 20
123.2778
 30
0.0
 10
17.66
 20
123.2778
 30
0.0
  0
SPLINE
  5
1AD
330
1F
100
AcDbEntity
  8
layer 1
370
     9
100
AcDbSpline
210
0.0
220
0.0
230
1.0
 70
     8
 71
     3
 72
     8
 73
     4
 74
     0
 42
0.0000000001
 43
0.0000000001
 40
0.0
 40
0.0
 40
0.0
 40
0.0
 40
1.0
 40
1.0
 40
1.0
 40
1.0
 10
17.66
 20
123.2778
 30
0.0
 10
17.66
 20
123.6995
 30
0.0
 10
17.6066
 20
124.1195
 30
0.0
 10
17.5012
 20
124.5278
 30
0.0
  0
SPLINE
  5
1AE
330
1F
100
AcDbEntity
  8
layer 1
370
     9
100
AcDbSpline
210
0.0
220
0.0
230
1.0
 70
    24
 71
     3
 72
     8
 73
     4
 74
     0
 42
0.0000000001
 43
0.0000000001
 40
0.0
 40
0.0
 40
0.0
 40
0.0
 40
1.0
 40
1.0
 40
1.0
 40
1.0
 10
10.66
 20
128.2779
 30
0.0
 10
10.66
 20
128.2779
 30
0.0
 10
-56.4551
 20
128.2778
 30
0.0
 10
-56.4551
 20
128.2778
 30
0.0
  0
SPLINE
  5
1AF
330
1F
100
AcDbEntity
  8
layer 1
370
     9
100
AcDbSpline
210
0.0
220
0.0
230
1.0
 70
     8
 71
     3
 72
     8
 73
     4
 74
     0
 42
0.0000000001
 43
0.0000000001
 40
0.0
 40
0.0
 40
0.0
 40
0.0
 40
1.0
 40
1.0
 40
1.0
 40
1.0
 10
-63.2963
 20
124.5278
 30
0.0
 10
-63.4017
 20
124.1195
 30
0.0
 10
-63.4551
 20
123.6995
 30
0.0
 10
-63.4551
 20
123.2778
 30
0.0
  0
SPLINE
  5
1B0
330
1F
100
AcDbEntity
  8
layer 1
370
     9
100
AcDbSpline
210
0.0
220
0.0
230
1.0
 70
    24
 71
     3
 72
     8
 73
     4
 74
     0
 42
0.0000000001
 43
0.0000000001
 40
0.0
 40
0.0
 40
0.0
 40
0.0
 40
1.0
 40
1.0
 40
1.0
 40
1.0
 10
-62.4551
 20
113.2778
 30
0.0
 10
-62.4551
 20
113.2778
 30
0.0
 10
-46.34
 20
113.2778
 30
0.0
 10
-46.34
 20
113.2778
 30
0.0
  0
SPLINE
  5
1B1
330
1F
100
AcDbEntity
  8
layer 1
370
     9
100
AcDbSpline
210
0.0
220
0.0
230
1.0
 70
    24
 71
     3
 72
     8
 73
     4
 74
     0
 42
0.0000000001
 43
0.0000000001
 40
0.0
 40
0.0
 40
0.0
 40
0.0
 40
1.0
 40
1.0
 40
1.0
 40
1.0
 10
-46.34
 20
113.2778
 30
0.0
 10
-46.34
 20
113.2778
 30
0.0
 10
-46.34
 20
100.2779
 30
0.0
 10
-46.34
 20
100.2779
 30
0.0
  0
SPLINE
  5
1B2
330
1F
100
AcDbEntity
  8
layer 1
370
     9
100
AcDbSpline
210
0.0
220
0.0
230
1.0
 70
    24
 71
     3
 72
     8
 73
     4
 74
     0
 42
0.0000000001
 43
0.0000000001
 40
0.0
 40
0.0
 40
0.0
 40
0.0
 40
1.0
 40
1.0
 40
1.0
 40
1.0
 10
-62.4551
 20
81.2778
 30
0.0
 10
-62.4551
 20
81.2778
 30
0.0
 10
-44.84
 20
81.2778
 30
0.0
 10
-44.84
 20
81.2778
 30
0.0
  0
SPLINE
  5
1B3
330
1F
100
AcDbEntity
  8
layer 1
370
     9
100
AcDbSpline
210
0.0
220
0.0
230
1.0
 70
    24
 71
     3
 72
     8
 73
     4
 74
     0
 42
0.0000000001
 43
0.0000000001
 40
0.0
 40
0.0
 40
0.0
 40
0.0
 40
1.0
 40
1.0
 40
1.0
 40
1.0
 10
-45.4215
 20
71.1478
 30
0.0
 10
-45.4215
 20
71.1478
 30
0.0
 10
-62.4551
 20
71.1478
 30
0.0
 10
-62.4551
 20
71.1478
 30
0.0
  0
SPLINE
  5
1B4
330
1F
100
AcDbEntity
  8
layer 1
370
     9
100
AcDbSpline
210
0.0
220
0.0
230
1.0
 70
    24
 71
     3
 72
     8
 73
     4
 74
     0
 42
0.0000000001
 43
0.0000000001
 40
0.0
 40
0.0
 40
0.0
 40
0.0
 40
1.0
 40
1.0
 40
1.0
 40
1.0
 10
-57.4551
 20
127.2778
 30
0.0
 10
-57.4551
 20
127.2778
 30
0.0
 10
-57.4551
 20
125.2778
 30
0.0
 10
-57.4551
 20
125.2778
 30
0.0
  0
SPLINE
  5
1B5
330
1F
100
AcDbEntity
  8
layer 1
370
     9
100
AcDbSpline
210
0.0
220
0.0
230
1.0
 70
    24
 71
     3
 72
     8
 73
     4
 74
     0
 42
0.0000000001
 43
0.0000000001
 40
0.0
 40
0.0
 40
0.0
 40
0.0
 40
1.0
 40
1.0
 40
1.0
 40
1.0
 10
-57.4551
 20
125.2778
 30
0.0
 10
-57.4551
 20
125.2778
 30
0.0
 10
-62.328
 20
125.2778
 30
0.0
 10
-62.328
 20
125.2778
 30
0.0
  0
SPLINE
  5
1B6
330
1F
100
AcDbEntity
  8
layer 1
370
     9
100
AcDbSpline
210
0.0
220
0.0
230
1.0
 70
    24
 71
     3
 72
     8
 73
     4
 74
     0
 42
0.0000000001
 43
0.0000000001
 40
0.0
 40
0.0
 40
0.0
 40
0.0
 40
1.0
 40
1.0
 40
1.0
 40
1.0
 10
-62.328
 20
65.2778
 30
0.0
 10
-62.328
 20
65.2778
 30
0.0
 10
-57.4551
 20
65.2778
 30
0.0
 10
-57.4551
 20
65.2778
 30
0.0
  0
SPLINE
  5
1B7
330
1F
100
AcDbEntity
  8
layer 1
370
     9
100
AcDbSpline
210
0.0
220
0.0
230
1.0
 70
    24
 71
     3
 72
     8
 73
     4
 74
     0
 42
0.0000000001
 43
0.0000000001
 40
0.0
 40
0.0
 40
0.0
 40
0.0
 40
1.0
 40
1.0
 40
1.0
 40
1.0
 10
-57.4551
 20
65.2778
 30
0.0
 10
-57.4551
 20
65.2778
 30
0.0
 10
-57.4551
 20
63.2778
 30
0.0
 10
-57.4551
 20
63.2778
 30
0.0
  0
SPLINE
  5
1B8
330
1F
100
AcDbEntity
  8
layer 1
370
     9
100
AcDbSpline
210
0.0
220
0.0
230
1.0
 70
    24
 71
     3
 72
     8
 73
     4
 74
     0
 42
0.0000000001
 43
0.0000000001
 40
0.0
 40
0.0
 40
0.0
 40
0.0
 40
1.0
 40
1.0
 40
1.0
 40
1.0
 10
11.66
 20
63.2778
 30
0.0
 10
11.66
 20
63.2778
 30
0.0
 10
11.66
 20
65.2778
 30
0.0
 10
11.66
 20
65.2778
 30
0.0
  0
SPLINE
  5
1B9
330
1F
100
AcDbEntity
  8
layer 1
370
     9
100
AcDbSpline
210
0.0
220
0.0
230
1.0
 70
    24
 71
     3
 72
     8
 73
     4
 74
     0
 42
0.0000000001
 43
0.0000000001
 40
0.0
 40
0.0
 40
0.0
 40
0.0
 40
1.0
 40
1.0
 40
1.0
 40
1.0
 10
11.66
 20
65.2778
 30
0.0
 10
11.66
 20
65.2778
 30
0.0
 10
16.5329
 20
65.2779
 30
0.0
 10
16.5329
 20
65.2779
 30
0.0
  0
SPLINE
  5
1BA
330
1F
100
AcDbEntity
  8
layer 1
370
     9
100
AcDbSpline
210
0.0
220
0.0
230
1.0
 70
    24
 71
     3
 72
     8
 73
     4
 74
     0
 42
0.0000000001
 43
0.0000000001
 40
0.0
 40
0.0
 40
0.0
 40
0.0
 40
1.0
 40
1.0
 40
1.0
 40
1.0
 10
16.5329
 20
125.2778
 30
0.0
 10
16.5329
 20
125.2778
 30
0.0
 10
11.66
 20
125.2778
 30
0.0
 10
11.66
 20
125.2778
 30
0.0
  0
SPLINE
  5
1BB
330
1F
100
AcDbEntity
  8
layer 1
370
     9
100
AcDbSpline
210
0.0
220
0.0
230
1.0
 70
    24
 71
     3
 72
     8
 73
     4
 74
     0
 42
0.0000000001
 43
0.0000000001
 40
0.0
 40
0.0
 40
0.0
 40
0.0
 40
1.0
 40
1.0
 40
1.0
 40
1.0
 10
11.66
 20
125.2778
 30
0.0
 10
11.66
 20
125.2778
 30
0.0
 10
11.66
 20
127.2778
 30
0.0
 10
11.66
 20
127.2778
 30
0.0
  0
SPLINE
  5
1BC
330
1F
100
AcDbEntity
  8
layer 1
370
     9
100
AcDbSpline
210
0.0
220
0.0
230
1.0
 70
    24
 71
     3
 72
     8
 73
     4
 74
     0
 42
0.0000000001
 43
0.0000000001
 40
0.0
 40
0.0
 40
0.0
 40
0.0
 40
1.0
 40
1.0
 40
1.0
 40
1.0
 10
-31.34
 20
69.6478
 30
0.0
 10
-31.34
 20
69.6478
 30
0.0
 10
-31.34
 20
72.7778
 30
0.0
 10
-31.34
 20
72.7778
 30
0.0
  0
SPLINE
  5
1BD
330
1F
100
AcDbEntity
  8
layer 1
370
     9
100
AcDbSpline
210
0.0
220
0.0
230
1.0
 70
    24
 71
     3
 72
     8
 73
     4
 74
     0
 42
0.0000000001
 43
0.0000000001
 40
0.0
 40
0.0
 40
0.0
 40
0.0
 40
1.0
 40
1.0
 40
1.0
 40
1.0
 10
-31.34
 20
72.7778
 30
0.0
 10
-31.34
 20
72.7778
 30
0.0
 10
7.66
 20
72.7778
 30
0.0
 10
7.66
 20
72.7778
 30
0.0
  0
SPLINE
  5
1BE
330
1F
100
AcDbEntity
  8
layer 1
370
     9
100
AcDbSpline
210
0.0
220
0.0
230
1.0
 70
    24
 71
     3
 72
     8
 73
     4
 74
     0
 42
0.0000000001
 43
0.0000000001
 40
0.0
 40
0.0
 40
0.0
 40
0.0
 40
1.0
 40
1.0
 40
1.0
 40
1.0
 10
7.66
 20
72.7778
 30
0.0
 10
7.66
 20
72.7778
 30
0.0
 10
7.66
 20
69.6478
 30
0.0
 10
7.66
 20
69.6478
 30
0.0
  0
SPLINE
  5
1BF
330
1F
100
AcDbEntity
  8
layer 1
370
     9
100
AcDbSpline
210
0.0
220
0.0
230
1.0
 70
    24
 71
     3
 72
     8
 73
     4
 74
     0
 42
0.0000000001
 43
0.0000000001
 40
0.0
 40
0.0
 40
0.0
 40
0.0
 40
1.0
 40
1.0
 40
1.0
 40
1.0
 10
7.66
 20
69.6478
 30
0.0
 10
7.66
 20
69.6478
 30
0.0
 10
-31.34
 20
69.6478
 30
0.0
 10
-31.34
 20
69.6478
 30
0.0
  0
SPLINE
  5
1C0
330
1F
100
AcDbEntity
  8
layer 1
370
     9
100
AcDbSpline
210
0.0
220
0.0
230
1.0
 70
    24
 71
     3
 72
     8
 73
     4
 74
     0
 42
0.0000000001
 43
0.0000000001
 40
0.0
 40
0.0
 40
0.0
 40
0.0
 40
1.0
 40
1.0
 40
1.0
 40
1.0
 10
-34.34
 20
116.7778
 30
0.0
 10
-34.34
 20
116.7778
 30
0.0
 10
-34.34
 20
111.7778
 30
0.0
 10
-34.34
 20
111.7778
 30
0.0
  0
SPLINE
  5
1C1
330
1F
100
AcDbEntity
  8
layer 1
370
     9
100
AcDbSpline
210
0.0
220
0.0
230
1.0
 70
    24
 71
     3
 72
     8
 73
     4
 74
     0
 42
0.0000000001
 43
0.0000000001
 40
0.0
 40
0.0
 40
0.0
 40
0.0
 40
1.0
 40
1.0
 40
1.0
 40
1.0
 10
-34.34
 20
111.7778
 30
0.0
 10
-34.34
 20
111.7778
 30
0.0
 10
-44.34
 20
111.7778
 30
0.0
 10
-44.34
 20
111.7778
 30
0.0
  0
SPLINE
  5
1C2
330
1F
100
AcDbEntity
  8
layer 1
370
     9
100
AcDbSpline
210
0.0
220
0.0
230
1.0
 70
    24
 71
     3
 72
     8
 73
     4
 74
     0
 42
0.0000000001
 43
0.0000000001
 40
0.0
 40
0.0
 40
0.0
 40
0.0
 40
1.0
 40
1.0
 40
1.0
 40
1.0
 10
-44.34
 20
111.7778
 30
0.0
 10
-44.34
 20
111.7778
 30
0.0
 10
-44.34
 20
117.7778
 30
0.0
 10
-44.34
 20
117.7778
 30
0.0
  0
SPLINE
  5
1C3
330
1F
100
AcDbEntity
  8
layer 1
370
     9
100
AcDbSpline
210
0.0
220
0.0
230
1.0
 70
    24
 71
     3
 72
     8
 73
     4
 74
     0
 42
0.0000000001
 43
0.0000000001
 40
0.0
 40
0.0
 40
0.0
 40
0.0
 40
1.0
 40
1.0
 40
1.0
 40
1.0
 10
-44.34
 20
117.7778
 30
0.0
 10
-44.34
 20
117.7778
 30
0.0
 10
-40.84
 20
117.7778
 30
0.0
 10
-40.84
 20
117.7778
 30
0.0
  0
SPLINE
  5
1C4
330
1F
100
AcDbEntity
  8
layer 1
370
     9
100
AcDbSpline
210
0.0
220
0.0
230
1.0
 70
    24
 71
     3
 72
     8
 73
     4
 74
     0
 42
0.0000000001
 43
0.0000000001
 40
0.0
 40
0.0
 40
0.0
 40
0.0
 40
1.0
 40
1.0
 40
1.0
 40
1.0
 10
-40.34
 20
118.2778
 30
0.0
 10
-40.34
 20
118.2778
 30
0.0
 10
-40.34
 20
121.2778
 30
0.0
 10
-40.34
 20
121.2778
 30
0.0
  0
SPLINE
  5
1C5
330
1F
100
AcDbEntity
  8
layer 1
370
     9
100
AcDbSpline
210
0.0
220
0.0
230
1.0
 70
    24
 71
     3
 72
     8
 73
     4
 74
     0
 42
0.0000000001
 43
0.0000000001
 40
0.0
 40
0.0
 40
0.0
 40
0.0
 40
1.0
 40
1.0
 40
1.0
 40
1.0
 10
-40.34
 20
121.2778
 30
0.0
 10
-40.34
 20
121.2778
 30
0.0
 10
7.66
 20
121.2778
 30
0.0
 10
7.66
 20
121.2778
 30
0.0
  0
SPLINE
  5
1C6
330
1F
100
AcDbEntity
  8
layer 1
370
     9
100
AcDbSpline
210
0.0
220
0.0
230
1.0
 70
    24
 71
     3
 72
     8
 73
     4
 74
     0
 42
0.0000000001
 43
0.0000000001
 40
0.0
 40
0.0
 40
0.0
 40
0.0
 40
1.0
 40
1.0
 40
1.0
 40
1.0
 10
7.66
 20
121.2778
 30
0.0
 10
7.66
 20
121.2778
 30
0.0
 10
7.66
 20
117.2778
 30
0.0
 10
7.66
 20
117.2778
 30
0.0
  0
SPLINE
  5
1C7
330
1F
100
AcDbEntity
  8
layer 1
370
     9
100
AcDbSpline
210
0.0
220
0.0
230
1.0
 70
    24
 71
     3
 72
     8
 73
     4
 74
     0
 42
0.0000000001
 43
0.0000000001
 40
0.0
 40
0.0
 40
0.0
 40
0.0
 40
1.0
 40
1.0
 40
1.0
 40
1.0
 10
7.66
 20
117.2778
 30
0.0
 10
7.66
 20
117.2778
 30
0.0
 10
-33.84
 20
117.2778
 30
0.0
 10
-33.84
 20
117.2778
 30
0.0
  0
SPLINE
  5
1C8
330
1F
100
AcDbEntity
  8
layer 1
370
     9
100
AcDbSpline
210
0.0
220
0.0
230
1.0
 70
    24
 71
     3
 72
     8
 73
     4
 74
     0
 42
0.0000000001
 43
0.0000000001
 40
0.0
 40
0.0
 40
0.0
 40
0.0
 40
1.0
 40
1.0
 40
1.0
 40
1.0
 10
4.46
 20
91.7779
 30
0.0
 10
4.46
 20
91.7779
 30
0.0
 10
4.46
 20
100.7778
 30
0.0
 10
4.46
 20
100.7778
 30
0.0
  0
SPLINE
  5
1C9
330
1F
100
AcDbEntity
  8
layer 1
370
     9
100
AcDbSpline
210
0.0
220
0.0
230
1.0
 70
    24
 71
     3
 72
     8
 73
     4
 74
     0
 42
0.0000000001
 43
0.0000000001
 40
0.0
 40
0.0
 40
0.0
 40
0.0
 40
1.0
 40
1.0
 40
1.0
 40
1.0
 10
4.46
 20
100.7778
 30
0.0
 10
4.46
 20
100.7778
 30
0.0
 10
10.46
 20
100.7778
 30
0.0
 10
10.46
 20
100.7778
 30
0.0
  0
SPLINE
  5
1CA
330
1F
100
AcDbEntity
  8
layer 1
370
     9
100
AcDbSpline
210
0.0
220
0.0
230
1.0
 70
    24
 71
     3
 72
     8
 73
     4
 74
     0
 42
0.0000000001
 43
0.0000000001
 40
0.0
 40
0.0
 40
0.0
 40
0.0
 40
1.0
 40
1.0
 40
1.0
 40
1.0
 10
10.46
 20
100.7778
 30
0.0
 10
10.46
 20
100.7778
 30
0.0
 10
10.46
 20
91.7779
 30
0.0
 10
10.46
 20
91.7779
 30
0.0
  0
SPLINE
  5
1CB
330
1F
100
AcDbEntity
  8
layer 1
370
     9
100
AcDbSpline
210
0.0
220
0.0
230
1.0
 70
    24
 71
     3
 72
     8
 73
     4
 74
     0
 42
0.0000000001
 43
0.0000000001
 40
0.0
 40
0.0
 40
0.0
 40
0.0
 40
1.0
 40
1.0
 40
1.0
 40
1.0
 10
10.46
 20
91.7779
 30
0.0
 10
10.46
 20
91.7779
 30
0.0
 10
4.46
 20
91.7779
 30
0.0
 10
4.46
 20
91.7779
 30
0.0
  0
SPLINE
  5
1CC
330
1F
100
AcDbEntity
  8
layer 1
370
     9
100
AcDbSpline
210
0.0
220
0.0
230
1.0
 70
    24
 71
     3
 72
     8
 73
     4
 74
     0
 42
0.0000000001
 43
0.0000000001
 40
0.0
 40
0.0
 40
0.0
 40
0.0
 40
1.0
 40
1.0
 40
1.0
 40
1.0
 10
-60.3549
 20
86.378
 30
0.0
 10
-60.3549
 20
86.378
 30
0.0
 10
-60.3549
 20
95.1777
 30
0.0
 10
-60.3549
 20
95.1777
 30
0.0
  0
SPLINE
  5
1CD
330
1F
100
AcDbEntity
  8
layer 1
370
     9
100
AcDbSpline
210
0.0
220
0.0
230
1.0
 70
    24
 71
     3
 72
     8
 73
     4
 74
     0
 42
0.0000000001
 43
0.0000000001
 40
0.0
 40
0.0
 40
0.0
 40
0.0
 40
1.0
 40
1.0
 40
1.0
 40
1.0
 10
-60.3549
 20
95.1777
 30
0.0
 10
-60.3549
 20
95.1777
 30
0.0
 10
-57.5553
 20
95.1777
 30
0.0
 10
-57.5553
 20
95.1777
 30
0.0
  0
SPLINE
  5
1CE
330
1F
100
AcDbEntity
  8
layer 1
370
     9
100
AcDbSpline
210
0.0
220
0.0
230
1.0
 70
    24
 71
     3
 72
     8
 73
     4
 74
     0
 42
0.0000000001
 43
0.0000000001
 40
0.0
 40
0.0
 40
0.0
 40
0.0
 40
1.0
 40
1.0
 40
1.0
 40
1.0
 10
-57.5553
 20
95.1777
 30
0.0
 10
-57.5553
 20
95.1777
 30
0.0
 10
-57.5553
 20
86.378
 30
0.0
 10
-57.5553
 20
86.378
 30
0.0
  0
SPLINE
  5
1CF
330
1F
100
AcDbEntity
  8
layer 1
370
     9
100
AcDbSpline
210
0.0
220
0.0
230
1.0
 70
    24
 71
     3
 72
     8
 73
     4
 74
     0
 42
0.0000000001
 43
0.0000000001
 40
0.0
 40
0.0
 40
0.0
 40
0.0
 40
1.0
 40
1.0
 40
1.0
 40
1.0
 10
-57.5553
 20
86.378
 30
0.0
 10
-57.5553
 20
86.378
 30
0.0
 10
-60.3549
 20
86.378
 30
0.0
 10
-60.3549
 20
86.378
 30
0.0
  0
SPLINE
  5
1D0
330
1F
100
AcDbEntity
  8
layer 1
370
     9
100
AcDbSpline
210
0.0
220
0.0
230
1.0
 70
    24
 71
     3
 72
     8
 73
     4
 74
     0
 42
0.0000000001
 43
0.0000000001
 40
0.0
 40
0.0
 40
0.0
 40
0.0
 40
1.0
 40
1.0
 40
1.0
 40
1.0
 10
-60.3549
 20
116.378
 30
0.0
 10
-60.3549
 20
116.378
 30
0.0
 10
-60.3549
 20
122.1776
 30
0.0
 10
-60.3549
 20
122.1776
 30
0.0
  0
SPLINE
  5
1D1
330
1F
100
AcDbEntity
  8
layer 1
370
     9
100
AcDbSpline
210
0.0
220
0.0
230
1.0
 70
    24
 71
     3
 72
     8
 73
     4
 74
     0
 42
0.0000000001
 43
0.0000000001
 40
0.0
 40
0.0
 40
0.0
 40
0.0
 40
1.0
 40
1.0
 40
1.0
 40
1.0
 10
-60.3549
 20
122.1776
 30
0.0
 10
-60.3549
 20
122.1776
 30
0.0
 10
-57.5553
 20
122.1776
 30
0.0
 10
-57.5553
 20
122.1776
 30
0.0
  0
SPLINE
  5
1D2
330
1F
100
AcDbEntity
  8
layer 1
370
     9
100
AcDbSpline
210
0.0
220
0.0
230
1.0
 70
    24
 71
     3
 72
     8
 73
     4
 74
     0
 42
0.0000000001
 43
0.0000000001
 40
0.0
 40
0.0
 40
0.0
 40
0.0
 40
1.0
 40
1.0
 40
1.0
 40
1.0
 10
-57.5553
 20
122.1776
 30
0.0
 10
-57.5553
 20
122.1776
 30
0.0
 10
-57.5553
 20
116.378
 30
0.0
 10
-57.5553
 20
116.378
 30
0.0
  0
SPLINE
  5
1D3
330
1F
100
AcDbEntity
  8
layer 1
370
     9
100
AcDbSpline
210
0.0
220
0.0
230
1.0
 70
    24
 71
     3
 72
     8
 73
     4
 74
     0
 42
0.0000000001
 43
0.0000000001
 40
0.0
 40
0.0
 40
0.0
 40
0.0
 40
1.0
 40
1.0
 40
1.0
 40
1.0
 10
-57.5553
 20
116.378
 30
0.0
 10
-57.5553
 20
116.378
 30
0.0
 10
-60.3549
 20
116.378
 30
0.0
 10
-60.3549
 20
116.378
 30
0.0
  0
SPLINE
  5
1D4
330
1F
100
AcDbEntity
  8
layer 1
370
     9
100
AcDbSpline
210
0.0
220
0.0
230
1.0
 70
    24
 71
     3
 72
     8
 73
     4
 74
     0
 42
0.0000000001
 43
0.0000000001
 40
0.0
 40
0.0
 40
0.0
 40
0.0
 40
1.0
 40
1.0
 40
1.0
 40
1.0
 10
11.7602
 20
113.378
 30
0.0
 10
11.7602
 20
113.378
 30
0.0
 10
11.7602
 20
118.1776
 30
0.0
 10
11.7602
 20
118.1776
 30
0.0
  0
SPLINE
  5
1D5
330
1F
100
AcDbEntity
  8
layer 1
370
     9
100
AcDbSpline
210
0.0
220
0.0
230
1.0
 70
    24
 71
     3
 72
     8
 73
     4
 74
     0
 42
0.0000000001
 43
0.0000000001
 40
0.0
 40
0.0
 40
0.0
 40
0.0
 40
1.0
 40
1.0
 40
1.0
 40
1.0
 10
14.5598
 20
118.1776
 30
0.0
 10
14.5598
 20
118.1776
 30
0.0
 10
11.7602
 20
118.1776
 30
0.0
 10
11.7602
 20
118.1776
 30
0.0
  0
SPLINE
  5
1D6
330
1F
100
AcDbEntity
  8
layer 1
370
     9
100
AcDbSpline
210
0.0
220
0.0
230
1.0
 70
    24
 71
     3
 72
     8
 73
     4
 74
     0
 42
0.0000000001
 43
0.0000000001
 40
0.0
 40
0.0
 40
0.0
 40
0.0
 40
1.0
 40
1.0
 40
1.0
 40
1.0
 10
14.5598
 20
118.1776
 30
0.0
 10
14.5598
 20
118.1776
 30
0.0
 10
14.5598
 20
113.378
 30
0.0
 10
14.5598
 20
113.378
 30
0.0
  0
SPLINE
  5
1D7
330
1F
100
AcDbEntity
  8
layer 1
370
     9
100
AcDbSpline
210
0.0
220
0.0
230
1.0
 70
    24
 71
     3
 72
     8
 73
     4
 74
     0
 42
0.0000000001
 43
0.0000000001
 40
0.0
 40
0.0
 40
0.0
 40
0.0
 40
1.0
 40
1.0
 40
1.0
 40
1.0
 10
11.7602
 20
113.378
 30
0.0
 10
11.7602
 20
113.378
 30
0.0
 10
14.5598
 20
113.378
 30
0.0
 10
14.5598
 20
113.378
 30
0.0
  0
SPLINE
  5
1D8
330
1F
100
AcDbEntity
  8
layer 1
370
     9
100
AcDbSpline
210
0.0
220
0.0
230
1.0
 70
    24
 71
     3
 72
     8
 73
     4
 74
     0
 42
0.0000000001
 43
0.0000000001
 40
0.0
 40
0.0
 40
0.0
 40
0.0
 40
1.0
 40
1.0
 40
1.0
 40
1.0
 10
11.7602
 20
72.378
 30
0.0
 10
11.7602
 20
72.378
 30
0.0
 10
11.7602
 20
77.1776
 30
0.0
 10
11.7602
 20
77.1776
 30
0.0
  0
SPLINE
  5
1D9
330
1F
100
AcDbEntity
  8
layer 1
370
     9
100
AcDbSpline
210
0.0
220
0.0
230
1.0
 70
    24
 71
     3
 72
     8
 73
     4
 74
     0
 42
0.0000000001
 43
0.0000000001
 40
0.0
 40
0.0
 40
0.0
 40
0.0
 40
1.0
 40
1.0
 40
1.0
 40
1.0
 10
14.5598
 20
77.1776
 30
0.0
 10
14.5598
 20
77.1776
 30
0.0
 10
11.7602
 20
77.1776
 30
0.0
 10
11.7602
 20
77.1776
 30
0.0
  0
SPLINE
  5
1DA
330
1F
100
AcDbEntity
  8
layer 1
370
     9
100
AcDbSpline
210
0.0
220
0.0
230
1.0
 70
    24
 71
     3
 72
     8
 73
     4
 74
     0
 42
0.0000000001
 43
0.0000000001
 40
0.0
 40
0.0
 40
0.0
 40
0.0
 40
1.0
 40
1.0
 40
1.0
 40
1.0
 10
14.5598
 20
77.1776
 30
0.0
 10
14.5598
 20
77.1776
 30
0.0
 10
14.5598
 20
72.378
 30
0.0
 10
14.5598
 20
72.378
 30
0.0
  0
SPLINE
  5
1DB
330
1F
100
AcDbEntity
  8
layer 1
370
     9
100
AcDbSpline
210
0.0
220
0.0
230
1.0
 70
    24
 71
     3
 72
     8
 73
     4
 74
     0
 42
0.0000000001
 43
0.0000000001
 40
0.0
 40
0.0
 40
0.0
 40
0.0
 40
1.0
 40
1.0
 40
1.0
 40
1.0
 10
11.7602
 20
72.378
 30
0.0
 10
11.7602
 20
72.378
 30
0.0
 10
14.5598
 20
72.378
 30
0.0
 10
14.5598
 20
72.378
 30
0.0
  0
SPLINE
  5
1DC
330
1F
100
AcDbEntity
  8
layer 1
370
     9
100
AcDbSpline
210
0.0
220
0.0
230
1.0
 70
    24
 71
     3
 72
     8
 73
     4
 74
     0
 42
0.0000000001
 43
0.0000000001
 40
0.0
 40
0.0
 40
0.0
 40
0.0
 40
1.0
 40
1.0
 40
1.0
 40
1.0
 10
-47.5553
 20
122.378
 30
0.0
 10
-47.5553
 20
122.378
 30
0.0
 10
-52.3549
 20
122.378
 30
0.0
 10
-52.3549
 20
122.378
 30
0.0
  0
SPLINE
  5
1DD
330
1F
100
AcDbEntity
  8
layer 1
370
     9
100
AcDbSpline
210
0.0
220
0.0
230
1.0
 70
    24
 71
     3
 72
     8
 73
     4
 74
     0
 42
0.0000000001
 43
0.0000000001
 40
0.0
 40
0.0
 40
0.0
 40
0.0
 40
1.0
 40
1.0
 40
1.0
 40
1.0
 10
-52.3549
 20
122.378
 30
0.0
 10
-52.3549
 20
122.378
 30
0.0
 10
-52.3549
 20
125.1776
 30
0.0
 10
-52.3549
 20
125.1776
 30
0.0
  0
SPLINE
  5
1DE
330
1F
100
AcDbEntity
  8
layer 1
370
     9
100
AcDbSpline
210
0.0
220
0.0
230
1.0
 70
    24
 71
     3
 72
     8
 73
     4
 74
     0
 42
0.0000000001
 43
0.0000000001
 40
0.0
 40
0.0
 40
0.0
 40
0.0
 40
1.0
 40
1.0
 40
1.0
 40
1.0
 10
-52.3549
 20
125.1776
 30
0.0
 10
-52.3549
 20
125.1776
 30
0.0
 10
-47.5553
 20
125.1776
 30
0.0
 10
-47.5553
 20
125.1776
 30
0.0
  0
SPLINE
  5
1DF
330
1F
100
AcDbEntity
  8
layer 1
370
     9
100
AcDbSpline
210
0.0
220
0.0
230
1.0
 70
    24
 71
     3
 72
     8
 73
     4
 74
     0
 42
0.0000000001
 43
0.0000000001
 40
0.0
 40
0.0
 40
0.0
 40
0.0
 40
1.0
 40
1.0
 40
1.0
 40
1.0
 10
-47.5553
 20
125.1776
 30
0.0
 10
-47.5553
 20
125.1776
 30
0.0
 10
-47.5553
 20
122.378
 30
0.0
 10
-47.5553
 20
122.378
 30
0.0
  0
SPLINE
  5
1E0
330
1F
100
AcDbEntity
  8
layer 1
370
     9
100
AcDbSpline
210
0.0
220
0.0
230
1.0
 70
    24
 71
     3
 72
     8
 73
     4
 74
     0
 42
0.0000000001
 43
0.0000000001
 40
0.0
 40
0.0
 40
0.0
 40
0.0
 40
1.0
 40
1.0
 40
1.0
 40
1.0
 10
6.5598
 20
122.378
 30
0.0
 10
6.5598
 20
122.378
 30
0.0
 10
1.7602
 20
122.378
 30
0.0
 10
1.7602
 20
122.378
 30
0.0
  0
SPLINE
  5
1E1
330
1F
100
AcDbEntity
  8
layer 1
370
     9
100
AcDbSpline
210
0.0
220
0.0
230
1.0
 70
    24
 71
     3
 72
     8
 73
     4
 74
     0
 42
0.0000000001
 43
0.0000000001
 40
0.0
 40
0.0
 40
0.0
 40
0.0
 40
1.0
 40
1.0
 40
1.0
 40
1.0
 10
1.7602
 20
122.378
 30
0.0
 10
1.7602
 20
122.378
 30
0.0
 10
1.7602
 20
125.1776
 30
0.0
 10
1.7602
 20
125.1776
 30
0.0
  0
SPLINE
  5
1E2
330
1F
100
AcDbEntity
  8
layer 1
370
     9
100
AcDbSpline
210
0.0
220
0.0
230
1.0
 70
    24
 71
     3
 72
     8
 73
     4
 74
     0
 42
0.0000000001
 43
0.0000000001
 40
0.0
 40
0.0
 40
0.0
 40
0.0
 40
1.0
 40
1.0
 40
1.0
 40
1.0
 10
1.7602
 20
125.1776
 30
0.0
 10
1.7602
 20
125.1776
 30
0.0
 10
6.5598
 20
125.1776
 30
0.0
 10
6.5598
 20
125.1776
 30
0.0
  0
SPLINE
  5
1E3
330
1F
100
AcDbEntity
  8
layer 1
370
     9
100
AcDbSpline
210
0.0
220
0.0
230
1.0
 70
    24
 71
     3
 72
     8
 73
     4
 74
     0
 42
0.0000000001
 43
0.0000000001
 40
0.0
 40
0.0
 40
0.0
 40
0.0
 40
1.0
 40
1.0
 40
1.0
 40
1.0
 10
6.5598
 20
125.1776
 30
0.0
 10
6.5598
 20
125.1776
 30
0.0
 10
6.5598
 20
122.378
 30
0.0
 10
6.5598
 20
122.378
 30
0.0
  0
SPLINE
  5
1E4
330
1F
100
AcDbEntity
  8
layer 1
370
     9
100
AcDbSpline
210
0.0
220
0.0
230
1.0
 70
    24
 71
     3
 72
     8
 73
     4
 74
     0
 42
0.0000000001
 43
0.0000000001
 40
0.0
 40
0.0
 40
0.0
 40
0.0
 40
1.0
 40
1.0
 40
1.0
 40
1.0
 10
1.7602
 20
65.378
 30
0.0
 10
1.7602
 20
65.378
 30
0.0
 10
1.7602
 20
68.1776
 30
0.0
 10
1.7602
 20
68.1776
 30
0.0
  0
SPLINE
  5
1E5
330
1F
100
AcDbEntity
  8
layer 1
370
     9
100
AcDbSpline
210
0.0
220
0.0
230
1.0
 70
    24
 71
     3
 72
     8
 73
     4
 74
     0
 42
0.0000000001
 43
0.0000000001
 40
0.0
 40
0.0
 40
0.0
 40
0.0
 40
1.0
 40
1.0
 40
1.0
 40
1.0
 10
1.7602
 20
68.1776
 30
0.0
 10
1.7602
 20
68.1776
 30
0.0
 10
6.5598
 20
68.1776
 30
0.0
 10
6.5598
 20
68.1776
 30
0.0
  0
SPLINE
  5
1E6
330
1F
100
AcDbEntity
  8
layer 1
370
     9
100
AcDbSpline
210
0.0
220
0.0
230
1.0
 70
    24
 71
     3
 72
     8
 73
     4
 74
     0
 42
0.0000000001
 43
0.0000000001
 40
0.0
 40
0.0
 40
0.0
 40
0.0
 40
1.0
 40
1.0
 40
1.0
 40
1.0
 10
6.5598
 20
68.1776
 30
0.0
 10
6.5598
 20
68.1776
 30
0.0
 10
6.5598
 20
65.378
 30
0.0
 10
6.5598
 20
65.378
 30
0.0
  0
SPLINE
  5
1E7
330
1F
100
AcDbEntity
  8
layer 1
370
     9
100
AcDbSpline
210
0.0
220
0.0
230
1.0
 70
    24
 71
     3
 72
     8
 73
     4
 74
     0
 42
0.0000000001
 43
0.0000000001
 40
0.0
 40
0.0
 40
0.0
 40
0.0
 40
1.0
 40
1.0
 40
1.0
 40
1.0
 10
6.5598
 20
65.378
 30
0.0
 10
6.5598
 20
65.378
 30
0.0
 10
1.7602
 20
65.378
 30
0.0
 10
1.7602
 20
65.378
 30
0.0
  0
SPLINE
  5
1E8
330
1F
100
AcDbEntity
  8
layer 1
370
     9
100
AcDbSpline
210
0.0
220
0.0
230
1.0
 70
    24
 71
     3
 72
     8
 73
     4
 74
     0
 42
0.0000000001
 43
0.0000000001
 40
0.0
 40
0.0
 40
0.0
 40
0.0
 40
1.0
 40
1.0
 40
1.0
 40
1.0
 10
-52.3549
 20
65.378
 30
0.0
 10
-52.3549
 20
65.378
 30
0.0
 10
-52.3549
 20
68.1776
 30
0.0
 10
-52.3549
 20
68.1776
 30
0.0
  0
SPLINE
  5
1E9
330
1F
100
AcDbEntity
  8
layer 1
370
     9
100
AcDbSpline
210
0.0
220
0.0
230
1.0
 70
    24
 71
     3
 72
     8
 73
     4
 74
     0
 42
0.0000000001
 43
0.0000000001
 40
0.0
 40
0.0
 40
0.0
 40
0.0
 40
1.0
 40
1.0
 40
1.0
 40
1.0
 10
-52.3549
 20
68.1776
 30
0.0
 10
-52.3549
 20
68.1776
 30
0.0
 10
-47.5553
 20
68.1776
 30
0.0
 10
-47.5553
 20
68.1776
 30
0.0
  0
SPLINE
  5
1EA
330
1F
100
AcDbEntity
  8
layer 1
370
     9
100
AcDbSpline
210
0.0
220
0.0
230
1.0
 70
    24
 71
     3
 72
     8
 73
     4
 74
     0
 42
0.0000000001
 43
0.0000000001
 40
0.0
 40
0.0
 40
0.0
 40
0.0
 40
1.0
 40
1.0
 40
1.0
 40
1.0
 10
-47.5553
 20
68.1776
 30
0.0
 10
-47.5553
 20
68.1776
 30
0.0
 10
-47.5553
 20
65.378
 30
0.0
 10
-47.5553
 20
65.378
 30
0.0
  0
SPLINE
  5
1EB
330
1F
100
AcDbEntity
  8
layer 1
370
     9
100
AcDbSpline
210
0.0
220
0.0
230
1.0
 70
    24
 71
     3
 72
     8
 73
     4
 74
     0
 42
0.0000000001
 43
0.0000000001
 40
0.0
 40
0.0
 40
0.0
 40
0.0
 40
1.0
 40
1.0
 40
1.0
 40
1.0
 10
-47.5553
 20
65.378
 30
0.0
 10
-47.5553
 20
65.378
 30
0.0
 10
-52.3549
 20
65.378
 30
0.0
 10
-52.3549
 20
65.378
 30
0.0
  0
SPLINE
  5
1EC
330
1F
100
AcDbEntity
  8
layer 1
370
     9
100
AcDbSpline
210
0.0
220
0.0
230
1.0
 70
    24
 71
     3
 72
     8
 73
     4
 74
     0
 42
0.0000000001
 43
0.0000000001
 40
0.0
 40
0.0
 40
0.0
 40
0.0
 40
1.0
 40
1.0
 40
1.0
 40
1.0
 10
-48.1627
 20
116.4456
 30
0.0
 10
-48.1627
 20
116.4456
 30
0.0
 10
-54.1627
 20
116.4456
 30
0.0
 10
-54.1627
 20
116.4456
 30
0.0
  0
SPLINE
  5
1ED
330
1F
100
AcDbEntity
  8
layer 1
370
     9
100
AcDbSpline
210
0.0
220
0.0
230
1.0
 70
    24
 71
     3
 72
     8
 73
     4
 74
     0
 42
0.0000000001
 43
0.0000000001
 40
0.0
 40
0.0
 40
0.0
 40
0.0
 40
1.0
 40
1.0
 40
1.0
 40
1.0
 10
-54.1627
 20
116.4456
 30
0.0
 10
-54.1627
 20
116.4456
 30
0.0
 10
-54.1627
 20
119.4456
 30
0.0
 10
-54.1627
 20
119.4456
 30
0.0
  0
SPLINE
  5
1EE
330
1F
100
AcDbEntity
  8
layer 1
370
     9
100
AcDbSpline
210
0.0
220
0.0
230
1.0
 70
    24
 71
     3
 72
     8
 73
     4
 74
     0
 42
0.0000000001
 43
0.0000000001
 40
0.0
 40
0.0
 40
0.0
 40
0.0
 40
1.0
 40
1.0
 40
1.0
 40
1.0
 10
-54.1627
 20
119.4456
 30
0.0
 10
-54.1627
 20
119.4456
 30
0.0
 10
-48.1627
 20
119.4456
 30
0.0
 10
-48.1627
 20
119.4456
 30
0.0
  0
SPLINE
  5
1EF
330
1F
100
AcDbEntity
  8
layer 1
370
     9
100
AcDbSpline
210
0.0
220
0.0
230
1.0
 70
    24
 71
     3
 72
     8
 73
     4
 74
     0
 42
0.0000000001
 43
0.0000000001
 40
0.0
 40
0.0
 40
0.0
 40
0.0
 40
1.0
 40
1.0
 40
1.0
 40
1.0
 10
-48.1627
 20
119.4456
 30
0.0
 10
-48.1627
 20
119.4456
 30
0.0
 10
-48.1627
 20
116.4456
 30
0.0
 10
-48.1627
 20
116.4456
 30
0.0
  0
SPLINE
  5
1F0
330
1F
100
AcDbEntity
  8
layer 1
370
     9
100
AcDbSpline
210
0.0
220
0.0
230
1.0
 70
     8
 71
     3
 72
    12
 73
     8
 74
     0
 42
0.0000000001
 43
0.0000000001
 40
0.0
 40
0.0
 40
0.0
 40
0.0
 40
0.5
 40
0.5
 40
0.5
 40
0.5
 40
1.0
 40
1.0
 40
1.0
 40
1.0
 10
-44.9374
 20
70.7728
 30
0.0
 10
-44.7486
 20
70.0415
 30
0.0
 10
-44.0454
 20
69.5646
 30
0.0
 10
-43.296
 20
69.6598
 30
0.0
 10
-43.296
 20
69.6598
 30
0.0
 10
-42.5467
 20
69.755
 30
0.0
 10
-41.9851
 20
70.3925
 30
0.0
 10
-41.9851
 20
71.1478
 30
0.0
  0
SPLINE
  5
1F1
330
1F
100
AcDbEntity
  8
layer 1
370
     9
100
AcDbSpline
210
0.0
220
0.0
230
1.0
 70
     8
 71
     3
 72
    12
 73
     8
 74
     0
 42
0.0000000001
 43
0.0000000001
 40
0.0
 40
0.0
 40
0.0
 40
0.0
 40
0.5
 40
0.5
 40
0.5
 40
0.5
 40
1.0
 40
1.0
 40
1.0
 40
1.0
 10
-41.9851
 20
71.1478
 30
0.0
 10
-41.9851
 20
71.5923
 30
0.0
 10
-42.1821
 20
72.0138
 30
0.0
 10
-42.5231
 20
72.2988
 30
0.0
 10
-42.5231
 20
72.2988
 30
0.0
 10
-42.8641
 20
72.5838
 30
0.0
 10
-43.3139
 20
72.7029
 30
0.0
 10
-43.7513
 20
72.624
 30
0.0
  0
SPLINE
  5
1F2
330
1F
100
AcDbEntity
  8
layer 1
370
     9
100
AcDbSpline
210
0.0
220
0.0
230
1.0
 70
    11
 71
     3
 72
    20
 73
    16
 74
     0
 42
0.0000000001
 43
0.0000000001
 40
0.0
 40
0.0
 40
0.0
 40
0.0
 40
0.25
 40
0.25
 40
0.25
 40
0.25
 40
0.5
 40
0.5
 40
0.5
 40
0.5
 40
0.75
 40
0.75
 40
0.75
 40
0.75
 40
1.0
 40
1.0
 40
1.0
 40
1.0
 10
10.0849
 20
76.2278
 30
0.0
 10
10.0849
 20
77.0563
 30
0.0
 10
9.4134
 20
77.7278
 30
0.0
 10
8.585
 20
77.7278
 30
0.0
 10
8.585
 20
77.7278
 30
0.0
 10
7.7565
 20
77.7279
 30
0.0
 10
7.085
 20
77.0563
 30
0.0
 10
7.0849
 20
76.2279
 30
0.0
 10
7.0849
 20
76.2279
 30
0.0
 10
7.0849
 20
75.3994
 30
0.0
 10
7.7565
 20
74.7279
 30
0.0
 10
8.5849
 20
74.7278
 30
0.0
 10
8.5849
 20
74.7278
 30
0.0
 10
9.4134
 20
74.7278
 30
0.0
 10
10.0849
 20
75.3994
 30
0.0
 10
10.0849
 20
76.2278
 30
0.0
  0
SPLINE
  5
1F3
330
1F
100
AcDbEntity
  8
layer 1
370
     9
100
AcDbSpline
210
0.0
220
0.0
230
1.0
 70
    11
 71
     3
 72
    20
 73
    16
 74
     0
 42
0.0000000001
 43
0.0000000001
 40
0.0
 40
0.0
 40
0.0
 40
0.0
 40
0.25
 40
0.25
 40
0.25
 40
0.25
 40
0.5
 40
0.5
 40
0.5
 40
0.5
 40
0.75
 40
0.75
 40
0.75
 40
0.75
 40
1.0
 40
1.0
 40
1.0
 40
1.0
 10
10.0849
 20
104.1678
 30
0.0
 10
10.0849
 20
104.9963
 30
0.0
 10
9.4134
 20
105.6678
 30
0.0
 10
8.585
 20
105.6678
 30
0.0
 10
8.585
 20
105.6678
 30
0.0
 10
7.7565
 20
105.6679
 30
0.0
 10
7.085
 20
104.9963
 30
0.0
 10
7.0849
 20
104.1679
 30
0.0
 10
7.0849
 20
104.1679
 30
0.0
 10
7.0849
 20
103.3394
 30
0.0
 10
7.7565
 20
102.6679
 30
0.0
 10
8.5849
 20
102.6678
 30
0.0
 10
8.5849
 20
102.6678
 30
0.0
 10
9.4134
 20
102.6678
 30
0.0
 10
10.0849
 20
103.3394
 30
0.0
 10
10.0849
 20
104.1678
 30
0.0
  0
SPLINE
  5
1F4
330
1F
100
AcDbEntity
  8
layer 1
370
     9
100
AcDbSpline
210
0.0
220
0.0
230
1.0
 70
     8
 71
     3
 72
    12
 73
     8
 74
     0
 42
0.0000000001
 43
0.0000000001
 40
0.0
 40
0.0
 40
0.0
 40
0.0
 40
0.5
 40
0.5
 40
0.5
 40
0.5
 40
1.0
 40
1.0
 40
1.0
 40
1.0
 10
-44.34
 20
73.1161
 30
0.0
 10
-44.34
 20
72.968
 30
0.0
 10
-44.2744
 20
72.8274
 30
0.0
 10
-44.1607
 20
72.7324
 30
0.0
 10
-44.1607
 20
72.7324
 30
0.0
 10
-44.047
 20
72.6374
 30
0.0
 10
-43.8971
 20
72.5977
 30
0.0
 10
-43.7513
 20
72.624
 30
0.0
  0
SPLINE
  5
1F5
330
1F
100
AcDbEntity
  8
layer 1
370
     9
100
AcDbSpline
210
0.0
220
0.0
230
1.0
 70
     8
 71
     3
 72
     8
 73
     4
 74
     0
 42
0.0000000001
 43
0.0000000001
 40
0.0
 40
0.0
 40
0.0
 40
0.0
 40
1.0
 40
1.0
 40
1.0
 40
1.0
 10
-44.9374
 20
70.7728
 30
0.0
 10
-44.9944
 20
70.9936
 30
0.0
 10
-45.1935
 20
71.1478
 30
0.0
 10
-45.4215
 20
71.1478
 30
0.0
  0
SPLINE
  5
1F6
330
1F
100
AcDbEntity
  8
layer 1
370
     9
100
AcDbSpline
210
0.0
220
0.0
230
1.0
 70
    24
 71
     3
 72
     8
 73
     4
 74
     0
 42
0.0000000001
 43
0.0000000001
 40
0.0
 40
0.0
 40
0.0
 40
0.0
 40
1.0
 40
1.0
 40
1.0
 40
1.0
 10
-44.34
 20
80.7778
 30
0.0
 10
-44.34
 20
80.7778
 30
0.0
 10
-44.34
 20
73.1161
 30
0.0
 10
-44.34
 20
73.1161
 30
0.0
  0
SPLINE
  5
1F7
330
1F
100
AcDbEntity
  8
layer 1
370
     9
100
AcDbSpline
210
0.0
220
0.0
230
1.0
 70
     8
 71
     3
 72
    12
 73
     8
 74
     0
 42
0.0000000001
 43
0.0000000001
 40
0.0
 40
0.0
 40
0.0
 40
0.0
 40
0.5
 40
0.5
 40
0.5
 40
0.5
 40
1.0
 40
1.0
 40
1.0
 40
1.0
 10
-44.34
 20
80.7778
 30
0.0
 10
-44.34
 20
80.9105
 30
0.0
 10
-44.3927
 20
81.0376
 30
0.0
 10
-44.4865
 20
81.1314
 30
0.0
 10
-44.4865
 20
81.1314
 30
0.0
 10
-44.5803
 20
81.2252
 30
0.0
 10
-44.7074
 20
81.2778
 30
0.0
 10
-44.84
 20
81.2778
 30
0.0
  0
SPLINE
  5
1F8
330
1F
100
AcDbEntity
  8
layer 1
370
     9
100
AcDbSpline
210
0.0
220
0.0
230
1.0
 70
     8
 71
     3
 72
     8
 73
     4
 74
     0
 42
0.0000000001
 43
0.0000000001
 40
0.0
 40
0.0
 40
0.0
 40
0.0
 40
1.0
 40
1.0
 40
1.0
 40
1.0
 10
-40.84
 20
117.7779
 30
0.0
 10
-40.5639
 20
117.7779
 30
0.0
 10
-40.3401
 20
118.0017
 30
0.0
 10
-40.34
 20
118.2778
 30
0.0
  0
SPLINE
  5
1F9
330
1F
100
AcDbEntity
  8
layer 1
370
     9
100
AcDbSpline
210
0.0
220
0.0
230
1.0
 70
     8
 71
     3
 72
    12
 73
     8
 74
     0
 42
0.0000000001
 43
0.0000000001
 40
0.0
 40
0.0
 40
0.0
 40
0.0
 40
0.5
 40
0.5
 40
0.5
 40
0.5
 40
1.0
 40
1.0
 40
1.0
 40
1.0
 10
-33.84
 20
117.2778
 30
0.0
 10
-33.9727
 20
117.2778
 30
0.0
 10
-34.0998
 20
117.2252
 30
0.0
 10
-34.1936
 20
117.1314
 30
0.0
 10
-34.1936
 20
117.1314
 30
0.0
 10
-34.2874
 20
117.0376
 30
0.0
 10
-34.34
 20
116.9105
 30
0.0
 10
-34.34
 20
116.7779
 30
0.0
  0
SPLINE
  5
1FA
330
1F
100
AcDbEntity
  8
layer 1
370
     9
100
AcDbSpline
210
0.0
220
0.0
230
1.0
 70
    24
 71
     3
 72
     8
 73
     4
 74
     0
 42
0.0000000001
 43
0.0000000001
 40
0.0
 40
0.0
 40
0.0
 40
0.0
 40
1.0
 40
1.0
 40
1.0
 40
1.0
 10
-63.4551
 20
123.2778
 30
0.0
 10
-63.4551
 20
123.2778
 30
0.0
 10
-63.4551
 20
114.2778
 30
0.0
 10
-63.4551
 20
114.2778
 30
0.0
  0
SPLINE
  5
1FB
330
1F
100
AcDbEntity
  8
layer 1
370
     9
100
AcDbSpline
210
0.0
220
0.0
230
1.0
 70
     8
 71
     3
 72
    12
 73
     8
 74
     0
 42
0.0000000001
 43
0.0000000001
 40
0.0
 40
0.0
 40
0.0
 40
0.0
 40
0.5
 40
0.5
 40
0.5
 40
0.5
 40
1.0
 40
1.0
 40
1.0
 40
1.0
 10
-63.4551
 20
114.2779
 30
0.0
 10
-63.4551
 20
114.0126
 30
0.0
 10
-63.3497
 20
113.7583
 30
0.0
 10
-63.1622
 20
113.5707
 30
0.0
 10
-63.1622
 20
113.5707
 30
0.0
 10
-62.9746
 20
113.3832
 30
0.0
 10
-62.7203
 20
113.2779
 30
0.0
 10
-62.4551
 20
113.2779
 30
0.0
  0
SPLINE
  5
1FC
330
1F
100
AcDbEntity
  8
layer 1
370
     9
100
AcDbSpline
210
0.0
220
0.0
230
1.0
 70
    24
 71
     3
 72
     8
 73
     4
 74
     0
 42
0.0000000001
 43
0.0000000001
 40
0.0
 40
0.0
 40
0.0
 40
0.0
 40
1.0
 40
1.0
 40
1.0
 40
1.0
 10
-46.34
 20
100.2779
 30
0.0
 10
-46.34
 20
100.2779
 30
0.0
 10
-62.4551
 20
100.2779
 30
0.0
 10
-62.4551
 20
100.2779
 30
0.0
  0
SPLINE
  5
1FD
330
1F
100
AcDbEntity
  8
layer 1
370
     9
100
AcDbSpline
210
0.0
220
0.0
230
1.0
 70
     8
 71
     3
 72
    12
 73
     8
 74
     0
 42
0.0000000001
 43
0.0000000001
 40
0.0
 40
0.0
 40
0.0
 40
0.0
 40
0.5
 40
0.5
 40
0.5
 40
0.5
 40
1.0
 40
1.0
 40
1.0
 40
1.0
 10
-62.4551
 20
100.2778
 30
0.0
 10
-62.7203
 20
100.2778
 30
0.0
 10
-62.9746
 20
100.1725
 30
0.0
 10
-63.1622
 20
99.985
 30
0.0
 10
-63.1622
 20
99.985
 30
0.0
 10
-63.3497
 20
99.7974
 30
0.0
 10
-63.4551
 20
99.5431
 30
0.0
 10
-63.4551
 20
99.2779
 30
0.0
  0
SPLINE
  5
1FE
330
1F
100
AcDbEntity
  8
layer 1
370
     9
100
AcDbSpline
210
0.0
220
0.0
230
1.0
 70
    24
 71
     3
 72
     8
 73
     4
 74
     0
 42
0.0000000001
 43
0.0000000001
 40
0.0
 40
0.0
 40
0.0
 40
0.0
 40
1.0
 40
1.0
 40
1.0
 40
1.0
 10
-63.4551
 20
99.2779
 30
0.0
 10
-63.4551
 20
99.2779
 30
0.0
 10
-63.4551
 20
82.2778
 30
0.0
 10
-63.4551
 20
82.2778
 30
0.0
  0
SPLINE
  5
1FF
330
1F
100
AcDbEntity
  8
layer 1
370
     9
100
AcDbSpline
210
0.0
220
0.0
230
1.0
 70
     8
 71
     3
 72
    12
 73
     8
 74
     0
 42
0.0000000001
 43
0.0000000001
 40
0.0
 40
0.0
 40
0.0
 40
0.0
 40
0.5
 40
0.5
 40
0.5
 40
0.5
 40
1.0
 40
1.0
 40
1.0
 40
1.0
 10
-63.4551
 20
82.2778
 30
0.0
 10
-63.4551
 20
82.0126
 30
0.0
 10
-63.3497
 20
81.7583
 30
0.0
 10
-63.1622
 20
81.5707
 30
0.0
 10
-63.1622
 20
81.5707
 30
0.0
 10
-62.9746
 20
81.3832
 30
0.0
 10
-62.7203
 20
81.2779
 30
0.0
 10
-62.4551
 20
81.2779
 30
0.0
  0
SPLINE
  5
200
330
1F
100
AcDbEntity
  8
layer 1
370
     9
100
AcDbSpline
210
0.0
220
0.0
230
1.0
 70
    24
 71
     3
 72
     8
 73
     4
 74
     0
 42
0.0000000001
 43
0.0000000001
 40
0.0
 40
0.0
 40
0.0
 40
0.0
 40
1.0
 40
1.0
 40
1.0
 40
1.0
 10
-63.4551
 20
70.1478
 30
0.0
 10
-63.4551
 20
70.1478
 30
0.0
 10
-63.4551
 20
67.2778
 30
0.0
 10
-63.4551
 20
67.2778
 30
0.0
  0
SPLINE
  5
201
330
1F
100
AcDbEntity
  8
layer 1
370
     9
100
AcDbSpline
210
0.0
220
0.0
230
1.0
 70
     8
 71
     3
 72
    12
 73
     8
 74
     0
 42
0.0000000001
 43
0.0000000001
 40
0.0
 40
0.0
 40
0.0
 40
0.0
 40
0.5
 40
0.5
 40
0.5
 40
0.5
 40
1.0
 40
1.0
 40
1.0
 40
1.0
 10
-62.4551
 20
71.1478
 30
0.0
 10
-62.7203
 20
71.1478
 30
0.0
 10
-62.9746
 20
71.0425
 30
0.0
 10
-63.1622
 20
70.855
 30
0.0
 10
-63.1622
 20
70.855
 30
0.0
 10
-63.3497
 20
70.6674
 30
0.0
 10
-63.4551
 20
70.4131
 30
0.0
 10
-63.4551
 20
70.1478
 30
0.0
  0
SPLINE
  5
202
330
1F
100
AcDbEntity
  8
layer 1
370
     9
100
AcDbSpline
210
0.0
220
0.0
230
1.0
 70
     8
 71
     3
 72
    12
 73
     8
 74
     0
 42
0.0000000001
 43
0.0000000001
 40
0.0
 40
0.0
 40
0.0
 40
0.0
 40
0.5
 40
0.5
 40
0.5
 40
0.5
 40
1.0
 40
1.0
 40
1.0
 40
1.0
 10
11.66
 20
127.2779
 30
0.0
 10
11.66
 20
127.5431
 30
0.0
 10
11.5546
 20
127.7974
 30
0.0
 10
11.3671
 20
127.985
 30
0.0
 10
11.3671
 20
127.985
 30
0.0
 10
11.1795
 20
128.1725
 30
0.0
 10
10.9252
 20
128.2778
 30
0.0
 10
10.66
 20
128.2778
 30
0.0
  0
SPLINE
  5
203
330
1F
100
AcDbEntity
  8
layer 1
370
     9
100
AcDbSpline
210
0.0
220
0.0
230
1.0
 70
     8
 71
     3
 72
     8
 73
     4
 74
     0
 42
0.0000000001
 43
0.0000000001
 40
0.0
 40
0.0
 40
0.0
 40
0.0
 40
1.0
 40
1.0
 40
1.0
 40
1.0
 10
17.5012
 20
124.5278
 30
0.0
 10
17.3872
 20
124.9694
 30
0.0
 10
16.9889
 20
125.2778
 30
0.0
 10
16.5329
 20
125.2778
 30
0.0
  0
SPLINE
  5
204
330
1F
100
AcDbEntity
  8
layer 1
370
     9
100
AcDbSpline
210
0.0
220
0.0
230
1.0
 70
     8
 71
     3
 72
     8
 73
     4
 74
     0
 42
0.0000000001
 43
0.0000000001
 40
0.0
 40
0.0
 40
0.0
 40
0.0
 40
1.0
 40
1.0
 40
1.0
 40
1.0
 10
16.5329
 20
65.2779
 30
0.0
 10
16.9889
 20
65.2779
 30
0.0
 10
17.3872
 20
65.5863
 30
0.0
 10
17.5012
 20
66.0279
 30
0.0
  0
SPLINE
  5
205
330
1F
100
AcDbEntity
  8
layer 1
370
     9
100
AcDbSpline
210
0.0
220
0.0
230
1.0
 70
     8
 71
     3
 72
     8
 73
     4
 74
     0
 42
0.0000000001
 43
0.0000000001
 40
0.0
 40
0.0
 40
0.0
 40
0.0
 40
1.0
 40
1.0
 40
1.0
 40
1.0
 10
10.66
 20
62.2779
 30
0.0
 10
11.2122
 20
62.2779
 30
0.0
 10
11.6599
 20
62.7256
 30
0.0
 10
11.66
 20
63.2778
 30
0.0
  0
SPLINE
  5
206
330
1F
100
AcDbEntity
  8
layer 1
370
     9
100
AcDbSpline
210
0.0
220
0.0
230
1.0
 70
     8
 71
     3
 72
     8
 73
     4
 74
     0
 42
0.0000000001
 43
0.0000000001
 40
0.0
 40
0.0
 40
0.0
 40
0.0
 40
1.0
 40
1.0
 40
1.0
 40
1.0
 10
-63.2963
 20
66.0279
 30
0.0
 10
-63.1823
 20
65.5863
 30
0.0
 10
-62.784
 20
65.2779
 30
0.0
 10
-62.328
 20
65.2779
 30
0.0
  0
SPLINE
  5
207
330
1F
100
AcDbEntity
  8
layer 1
370
     9
100
AcDbSpline
210
0.0
220
0.0
230
1.0
 70
     8
 71
     3
 72
    12
 73
     8
 74
     0
 42
0.0000000001
 43
0.0000000001
 40
0.0
 40
0.0
 40
0.0
 40
0.0
 40
0.5
 40
0.5
 40
0.5
 40
0.5
 40
1.0
 40
1.0
 40
1.0
 40
1.0
 10
-57.4551
 20
63.2778
 30
0.0
 10
-57.4551
 20
63.0126
 30
0.0
 10
-57.3497
 20
62.7583
 30
0.0
 10
-57.1622
 20
62.5707
 30
0.0
 10
-57.1622
 20
62.5707
 30
0.0
 10
-56.9746
 20
62.3832
 30
0.0
 10
-56.7203
 20
62.2779
 30
0.0
 10
-56.4551
 20
62.2779
 30
0.0
  0
SPLINE
  5
208
330
1F
100
AcDbEntity
  8
layer 1
370
     9
100
AcDbSpline
210
0.0
220
0.0
230
1.0
 70
     8
 71
     3
 72
     8
 73
     4
 74
     0
 42
0.0000000001
 43
0.0000000001
 40
0.0
 40
0.0
 40
0.0
 40
0.0
 40
1.0
 40
1.0
 40
1.0
 40
1.0
 10
-62.328
 20
125.2778
 30
0.0
 10
-62.784
 20
125.2778
 30
0.0
 10
-63.1823
 20
124.9694
 30
0.0
 10
-63.2963
 20
124.5278
 30
0.0
  0
SPLINE
  5
209
330
1F
100
AcDbEntity
  8
layer 1
370
     9
100
AcDbSpline
210
0.0
220
0.0
230
1.0
 70
     8
 71
     3
 72
    12
 73
     8
 74
     0
 42
0.0000000001
 43
0.0000000001
 40
0.0
 40
0.0
 40
0.0
 40
0.0
 40
0.5
 40
0.5
 40
0.5
 40
0.5
 40
1.0
 40
1.0
 40
1.0
 40
1.0
 10
-56.4551
 20
128.2778
 30
0.0
 10
-56.7203
 20
128.2778
 30
0.0
 10
-56.9746
 20
128.1725
 30
0.0
 10
-57.1622
 20
127.985
 30
0.0
 10
-57.1622
 20
127.985
 30
0.0
 10
-57.3497
 20
127.7974
 30
0.0
 10
-57.4551
 20
127.5431
 30
0.0
 10
-57.4551
 20
127.2779
 30
0.0
  0
ENDSEC
  0
SECTION
  2
OBJECTS
  0
DICTIONARY
  5
C
330
0
100
AcDbDictionary
281
     1
  3
ACAD_GROUP
350
D
  3
ACAD_LAYOUT
350
1A
  3
ACAD_MLEADERSTYLE
350
20B
  3
ACAD_MLINESTYLE
350
17
  3
ACAD_PLOTSETTINGS
350
19
  3
ACAD_PLOTSTYLENAME
350
E
  3
ACAD_SCALELIST
350
3B
  3
ACAD_TABLESTYLE
350
20A
  3
ACAD_VISUALSTYLE
350
2A
  0
DICTIONARY
  5
D
102
{ACAD_REACTORS
330
C
102
}
330
C
100
AcDbDictionary
281
     1
  0
DICTIONARY
  5
1A
102
{ACAD_REACTORS
330
C
102
}
330
C
100
AcDbDictionary
281
     1
  3
Layout1
350
1E
  3
Layout2
350
26
  3
Model
350
22
  0
DICTIONARY
  5
20B
102
{ACAD_REACTORS
330
C
102
}
330
C
100
AcDbDictionary
281
     1
  0
DICTIONARY
  5
17
102
{ACAD_REACTORS
330
C
102
}
330
C
100
AcDbDictionary
281
     1
  3
Standard
350
18
  0
DICTIONARY
  5
19
102
{ACAD_REACTORS
330
C
102
}
330
C
100
AcDbDictionary
281
     1
  0
ACDBDICTIONARYWDFLT
  5
E
102
{ACAD_REACTORS
330
C
102
}
330
C
100
AcDbDictionary
281
     1
  3
Normal
350
F
100
AcDbDictionaryWithDefault
340
F
  0
DICTIONARY
  5
3B
102
{ACAD_REACTORS
330
C
102
}
330
C
100
AcDbDictionary
281
     1
  3
A0
350
3C
  3
A1
350
3D
  3
A2
350
3E
  3
A3
350
3F
  3
A4
350
40
  3
A5
350
41
  3
A6
350
42
  3
A7
350
43
  3
A8
350
44
  3
A9
350
45
  3
B0
350
46
  3
B1
350
47
  3
B2
350
48
  3
B3
350
49
  3
B4
350
4A
  3
B5
350
4B
  3
B6
350
4C
  3
B7
350
4D
  3
B8
350
4E
  3
B9
350
4F
  3
C0
350
50
  3
C1
350
51
  3
C2
350
52
  3
C3
350
53
  3
C4
350
54
  3
C5
350
55
  3
C6
350
56
  3
C7
350
57
  3
C8
350
58
  3
C9
350
59
  3
D0
350
5A
  3
D1
350
5B
  3
D2
350
5C
  0
DICTIONARY
  5
20A
102
{ACAD_REACTORS
330
C
102
}
330
C
100
AcDbDictionary
281
     1
  0
DICTIONARY
  5
2A
102
{ACAD_REACTORS
330
C
102
}
330
C
100
AcDbDictionary
281
     1
  3
2dWireframe
350
2F
  3
3D Hidden
350
31
  3
3dWireframe
350
30
  3
Basic
350
32
  3
Brighten
350
36
  3
ColorChange
350
3A
  3
Conceptual
350
34
  3
Dim
350
35
  3
Facepattern
350
39
  3
Flat
350
2B
  3
FlatWithEdges
350
2C
  3
Gouraud
350
2D
  3
GouraudWithEdges
350
2E
  3
Linepattern
350
38
  3
Realistic
350
33
  3
Thicken
350
37
  0
LAYOUT
  5
1E
102
{ACAD_REACTORS
330
1A
102
}
330
1A
100
AcDbPlotSettings
  1

  2
none_device
  4

  6

 40
0.0
 41
0.0
 42
0.0
 43
0.0
 44
0.0
 45
0.0
 46
0.0
 47
0.0
 48
0.0
 49
0.0
140
0.0
141
0.0
142
1.0
143
1.0
 70
   688
 72
     0
 73
     0
 74
     5
  7

 75
    16
 76
     0
 77
     2
 78
   300
147
1.0
148
0.0
149
0.0
100
AcDbLayout
  1
Layout1
 70
     1
 71
     1
 10
0.0
 20
0.0
 11
12.0
 21
9.0
 12
0.0
 22
0.0
 32
0.0
 14
1.000000000000000E+20
 24
1.000000000000000E+20
 34
1.000000000000000E+20
 15
-1.000000000000000E+20
 25
-1.000000000000000E+20
 35
-1.000000000000000E+20
146
0.0
 13
0.0
 23
0.0
 33
0.0
 16
1.0
 26
0.0
 36
0.0
 17
0.0
 27
1.0
 37
0.0
 76
     0
330
1B
  0
LAYOUT
  5
26
102
{ACAD_REACTORS
330
1A
102
}
330
1A
100
AcDbPlotSettings
  1

  2
none_device
  4

  6

 40
0.0
 41
0.0
 42
0.0
 43
0.0
 44
0.0
 45
0.0
 46
0.0
 47
0.0
 48
0.0
 49
0.0
140
0.0
141
0.0
142
1.0
143
1.0
 70
   688
 72
     0
 73
     0
 74
     5
  7

 75
    16
 76
     0
 77
     2
 78
   300
147
1.0
148
0.0
149
0.0
100
AcDbLayout
  1
Layout2
 70
     1
 71
     2
 10
0.0
 20
0.0
 11
0.0
 21
0.0
 12
0.0
 22
0.0
 32
0.0
 14
0.0
 24
0.0
 34
0.0
 15
0.0
 25
0.0
 35
0.0
146
0.0
 13
0.0
 23
0.0
 33
0.0
 16
1.0
 26
0.0
 36
0.0
 17
0.0
 27
1.0
 37
0.0
 76
     0
330
23
  0
LAYOUT
  5
22
102
{ACAD_REACTORS
330
1A
102
}
330
1A
100
AcDbPlotSettings
  1

  2
none_device
  4

  6

 40
0.0
 41
0.0
 42
0.0
 43
0.0
 44
0.0
 45
0.0
 46
0.0
 47
0.0
 48
0.0
 49
0.0
140
0.0
141
0.0
142
1.0
143
1.0
 70
  1712
 72
     0
 73
     0
 74
     0
  7

 75
     0
 76
     0
 77
     2
 78
   300
147
1.0
148
0.0
149
0.0
100
AcDbLayout
  1
Model
 70
     1
 71
     0
 10
0.0
 20
0.0
 11
12.0
 21
9.0
 12
0.0
 22
0.0
 32
0.0
 14
-63.4932
 24
-61.3341
 34
0.0
 15
63.9643
 25
128.3159
 35
0.0
146
0.0
 13
0.0
 23
0.0
 33
0.0
 16
1.0
 26
0.0
 36
0.0
 17
0.0
 27
1.0
 37
0.0
 76
     0
330
1F
331
29
  0
MLINESTYLE
  5
18
102
{ACAD_REACTORS
330
17
102
}
330
17
100
AcDbMlineStyle
  2
Standard
 70
     0
  3

 62
   256
 51
90.0
 52
90.0
 71
     2
 49
0.5
 62
   256
  6
BYLAYER
 49
-0.5
 62
   256
  6
BYLAYER
  0
ACDBPLACEHOLDER
  5
F
102
{ACAD_REACTORS
330
E
102
}
330
E
  0
SCALE
  5
3C
102
{ACAD_REACTORS
330
3B
102
}
330
3B
100
AcDbScale
 70
     0
300
1:1
140
1.0
141
1.0
290
     1
  0
SCALE
  5
3D
102
{ACAD_REACTORS
330
3B
102
}
330
3B
100
AcDbScale
 70
     0
300
1:2
140
1.0
141
2.0
290
     0
  0
SCALE
  5
3E
102
{ACAD_REACTORS
330
3B
102
}
330
3B
100
AcDbScale
 70
     0
300
1:4
140
1.0
141
4.0
290
     0
  0
SCALE
  5
3F
102
{ACAD_REACTORS
330
3B
102
}
330
3B
100
AcDbScale
 70
     0
300
1:5
140
1.0
141
5.0
290
     0
  0
SCALE
  5
40
102
{ACAD_REACTORS
330
3B
102
}
330
3B
100
AcDbScale
 70
     0
300
1:8
140
1.0
141
8.0
290
     0
  0
SCALE
  5
41
102
{ACAD_REACTORS
330
3B
102
}
330
3B
100
AcDbScale
 70
     0
300
1:10
140
1.0
141
10.0
290
     0
  0
SCALE
  5
42
102
{ACAD_REACTORS
330
3B
102
}
330
3B
100
AcDbScale
 70
     0
300
1:16
140
1.0
141
16.0
290
     0
  0
SCALE
  5
43
102
{ACAD_REACTORS
330
3B
102
}
330
3B
100
AcDbScale
 70
     0
300
1:20
140
1.0
141
20.0
290
     0
  0
SCALE
  5
44
102
{ACAD_REACTORS
330
3B
102
}
330
3B
100
AcDbScale
 70
     0
300
1:30
140
1.0
141
30.0
290
     0
  0
SCALE
  5
45
102
{ACAD_REACTORS
330
3B
102
}
330
3B
100
AcDbScale
 70
     0
300
1:40
140
1.0
141
40.0
290
     0
  0
SCALE
  5
46
102
{ACAD_REACTORS
330
3B
102
}
330
3B
100
AcDbScale
 70
     0
300
1:50
140
1.0
141
50.0
290
     0
  0
SCALE
  5
47
102
{ACAD_REACTORS
330
3B
102
}
330
3B
100
AcDbScale
 70
     0
300
1:100
140
1.0
141
100.0
290
     0
  0
SCALE
  5
48
102
{ACAD_REACTORS
330
3B
102
}
330
3B
100
AcDbScale
 70
     0
300
2:1
140
2.0
141
1.0
290
     0
  0
SCALE
  5
49
102
{ACAD_REACTORS
330
3B
102
}
330
3B
100
AcDbScale
 70
     0
300
4:1
140
4.0
141
1.0
290
     0
  0
SCALE
  5
4A
102
{ACAD_REACTORS
330
3B
102
}
330
3B
100
AcDbScale
 70
     0
300
8:1
140
8.0
141
1.0
290
     0
  0
SCALE
  5
4B
102
{ACAD_REACTORS
330
3B
102
}
330
3B
100
AcDbScale
 70
     0
300
10:1
140
10.0
141
1.0
290
     0
  0
SCALE
  5
4C
102
{ACAD_REACTORS
330
3B
102
}
330
3B
100
AcDbScale
 70
     0
300
100:1
140
100.0
141
1.0
290
     0
  0
SCALE
  5
4D
102
{ACAD_REACTORS
330
3B
102
}
330
3B
100
AcDbScale
 70
     0
300
1/128" = 1'-0"
140
0.0078125
141
12.0
290
     0
  0
SCALE
  5
4E
102
{ACAD_REACTORS
330
3B
102
}
330
3B
100
AcDbScale
 70
     0
300
1/64" = 1'-0"
140
0.015625
141
12.0
290
     0
  0
SCALE
  5
4F
102
{ACAD_REACTORS
330
3B
102
}
330
3B
100
AcDbScale
 70
     0
300
1/32" = 1'-0"
140
0.03125
141
12.0
290
     0
  0
SCALE
  5
50
102
{ACAD_REACTORS
330
3B
102
}
330
3B
100
AcDbScale
 70
     0
300
1/16" = 1'-0"
140
0.0625
141
12.0
290
     0
  0
SCALE
  5
51
102
{ACAD_REACTORS
330
3B
102
}
330
3B
100
AcDbScale
 70
     0
300
3/32" = 1'-0"
140
0.09375
141
12.0
290
     0
  0
SCALE
  5
52
102
{ACAD_REACTORS
330
3B
102
}
330
3B
100
AcDbScale
 70
     0
300
1/8" = 1'-0"
140
0.125
141
12.0
290
     0
  0
SCALE
  5
53
102
{ACAD_REACTORS
330
3B
102
}
330
3B
100
AcDbScale
 70
     0
300
3/16" = 1'-0"
140
0.1875
141
12.0
290
     0
  0
SCALE
  5
54
102
{ACAD_REACTORS
330
3B
102
}
330
3B
100
AcDbScale
 70
     0
300
1/4" = 1'-0"
140
0.25
141
12.0
290
     0
  0
SCALE
  5
55
102
{ACAD_REACTORS
330
3B
102
}
330
3B
100
AcDbScale
 70
     0
300
3/8" = 1'-0"
140
0.375
141
12.0
290
     0
  0
SCALE
  5
56
102
{ACAD_REACTORS
330
3B
102
}
330
3B
100
AcDbScale
 70
     0
300
1/2" = 1'-0"
140
0.5
141
12.0
290
     0
  0
SCALE
  5
57
102
{ACAD_REACTORS
330
3B
102
}
330
3B
100
AcDbScale
 70
     0
300
3/4" = 1'-0"
140
0.75
141
12.0
290
     0
  0
SCALE
  5
58
102
{ACAD_REACTORS
330
3B
102
}
330
3B
100
AcDbScale
 70
     0
300
1" = 1'-0"
140
1.0
141
12.0
290
     0
  0
SCALE
  5
59
102
{ACAD_REACTORS
330
3B
102
}
330
3B
100
AcDbScale
 70
     0
300
1-1/2" = 1'-0"
140
1.5
141
12.0
290
     0
  0
SCALE
  5
5A
102
{ACAD_REACTORS
330
3B
102
}
330
3B
100
AcDbScale
 70
     0
300
3" = 1'-0"
140
3.0
141
12.0
290
     0
  0
SCALE
  5
5B
102
{ACAD_REACTORS
330
3B
102
}
330
3B
100
AcDbScale
 70
     0
300
6" = 1'-0"
140
6.0
141
12.0
290
     0
  0
SCALE
  5
5C
102
{ACAD_REACTORS
330
3B
102
}
330
3B
100
AcDbScale
 70
     0
300
1'-0" = 1'-0"
140
12.0
141
12.0
290
     0
  0
VISUALSTYLE
  5
2F
102
{ACAD_REACTORS
330
2A
102
}
330
2A
100
AcDbVisualStyle
  2
2dWireframe
 70
     4
 71
     0
 72
     2
 73
     0
 90
        0
 40
-0.6
 41
-30.0
 62
     5
 63
     7
421
 16777215
 74
     1
 91
        4
 64
     7
 65
   257
 75
     1
175
     1
 42
1.0
 92
        0
 66
   257
 43
1.0
 76
     1
 77
     6
 78
     2
 67
     7
 79
     5
170
     0
171
     0
290
     0
174
     0
 93
        1
 44
0.0
173
     0
291
     0
 45
0.0
  0
VISUALSTYLE
  5
31
102
{ACAD_REACTORS
330
2A
102
}
330
2A
100
AcDbVisualStyle
  2
3D Hidden
 70
     6
 71
     1
 72
     2
 73
     2
 90
        0
 40
-0.6
 41
-30.0
 62
     5
 63
     7
421
 16777215
 74
     2
 91
        2
 64
     7
 65
   257
 75
     2
175
     1
 42
40.0
 92
        0
 66
   257
 43
1.0
 76
     1
 77
     6
 78
     2
 67
     7
 79
     3
170
     0
171
     0
290
     0
174
     0
 93
        1
 44
0.0
173
     0
291
     0
 45
0.0
  0
VISUALSTYLE
  5
30
102
{ACAD_REACTORS
330
2A
102
}
330
2A
100
AcDbVisualStyle
  2
3dWireframe
 70
     5
 71
     0
 72
     2
 73
     0
 90
        0
 40
-0.6
 41
-30.0
 62
     5
 63
     7
421
 16777215
 74
     1
 91
        4
 64
     7
 65
   257
 75
     1
175
     1
 42
1.0
 92
        0
 66
   257
 43
1.0
 76
     1
 77
     6
 78
     2
 67
     7
 79
     5
170
     0
171
     0
290
     0
174
     0
 93
        1
 44
0.0
173
     0
291
     0
 45
0.0
  0
VISUALSTYLE
  5
32
102
{ACAD_REACTORS
330
2A
102
}
330
2A
100
AcDbVisualStyle
  2
Basic
 70
     7
 71
     1
 72
     0
 73
     1
 90
        0
 40
-0.6
 41
-30.0
 62
     5
 63
     7
421
 16777215
 74
     0
 91
        4
 64
     7
 65
   257
 75
     1
175
     1
 42
1.0
 92
        8
 66
     7
 43
1.0
 76
     1
 77
     6
 78
     2
 67
     7
 79
     5
170
     0
171
     0
290
     0
174
     0
 93
        1
 44
0.0
173
     0
291
     1
 45
0.0
  0
VISUALSTYLE
  5
36
102
{ACAD_REACTORS
330
2A
102
}
330
2A
100
AcDbVisualStyle
  2
Brighten
 70
    12
 71
     2
 72
     2
 73
     0
 90
        0
 40
-0.6
 41
-30.0
 62
     5
 63
     7
421
 16777215
 74
     1
 91
        4
 64
     7
 65
   257
 75
     1
175
     1
 42
1.0
 92
        8
 66
     7
 43
1.0
 76
     1
 77
     6
 78
     2
 67
     7
 79
     5
170
     0
171
     0
290
     0
174
     0
 93
        1
 44
50.0
173
     0
291
     1
 45
0.0
  0
VISUALSTYLE
  5
3A
102
{ACAD_REACTORS
330
2A
102
}
330
2A
100
AcDbVisualStyle
  2
ColorChange
 70
    16
 71
     2
 72
     2
 73
     3
 90
        0
 40
-0.6
 41
-30.0
 62
     5
 63
     8
421
  8421504
 74
     1
 91
        4
 64
     7
 65
   257
 75
     1
175
     1
 42
1.0
 92
        8
 66
     8
424
  8421504
 43
1.0
 76
     1
 77
     6
 78
     2
 67
     7
 79
     5
170
     0
171
     0
290
     0
174
     0
 93
        1
 44
0.0
173
     0
291
     1
 45
0.0
  0
VISUALSTYLE
  5
34
102
{ACAD_REACTORS
330
2A
102
}
330
2A
100
AcDbVisualStyle
  2
Conceptual
 70
     9
 71
     3
 72
     2
 73
     0
 90
        0
 40
-0.6
 41
-30.0
 62
     5
 63
     7
421
 16777215
 74
     2
 91
        2
 64
     7
 65
   257
 75
     1
175
     1
 42
40.0
 92
        8
 66
     7
 43
1.0
 76
     1
 77
     6
 78
     2
 67
     7
 79
     3
170
     0
171
     0
290
     0
174
     0
 93
        1
 44
0.0
173
     0
291
     0
 45
0.0
  0
VISUALSTYLE
  5
35
102
{ACAD_REACTORS
330
2A
102
}
330
2A
100
AcDbVisualStyle
  2
Dim
 70
    11
 71
     2
 72
     2
 73
     0
 90
        0
 40
-0.6
 41
-30.0
 62
     5
 63
     7
421
 16777215
 74
     1
 91
        4
 64
     7
 65
   257
 75
     1
175
     1
 42
1.0
 92
        8
 66
     7
 43
1.0
 76
     1
 77
     6
 78
     2
 67
     7
 79
     5
170
     0
171
     0
290
     0
174
     0
 93
        1
 44
-50.0
173
     0
291
     1
 45
0.0
  0
VISUALSTYLE
  5
39
102
{ACAD_REACTORS
330
2A
102
}
330
2A
100
AcDbVisualStyle
  2
Facepattern
 70
    15
 71
     2
 72
     2
 73
     0
 90
        0
 40
-0.6
 41
-30.0
 62
     5
 63
     7
421
 16777215
 74
     1
 91
        4
 64
     7
 65
   257
 75
     1
175
     1
 42
1.0
 92
        8
 66
     7
 43
1.0
 76
     1
 77
     6
 78
     2
 67
     7
 79
     5
170
     0
171
     0
290
     0
174
     0
 93
        1
 44
0.0
173
     0
291
     1
 45
0.0
  0
VISUALSTYLE
  5
2B
102
{ACAD_REACTORS
330
2A
102
}
330
2A
100
AcDbVisualStyle
  2
Flat
 70
     0
 71
     2
 72
     1
 73
     1
 90
        2
 40
-0.6
 41
30.0
 62
     5
 63
     7
421
 16777215
 74
     0
 91
        4
 64
     7
 65
   257
 75
     1
175
     1
 42
1.0
 92
        8
 66
     7
 43
1.0
 76
     1
 77
     6
 78
     2
 67
     7
 79
     5
170
     0
171
     0
290
     0
174
     0
 93
       13
 44
0.0
173
     0
291
     1
 45
0.0
  0
VISUALSTYLE
  5
2C
102
{ACAD_REACTORS
330
2A
102
}
330
2A
100
AcDbVisualStyle
  2
FlatWithEdges
 70
     1
 71
     2
 72
     1
 73
     1
 90
        2
 40
-0.6
 41
30.0
 62
     5
 63
     7
421
 16777215
 74
     1
 91
        4
 64
     7
 65
   257
 75
     1
175
     1
 42
1.0
 92
        0
 66
   257
 43
1.0
 76
     1
 77
     6
 78
     2
 67
     7
 79
     5
170
     0
171
     0
290
     0
174
     0
 93
       13
 44
0.0
173
     0
291
     1
 45
0.0
  0
VISUALSTYLE
  5
2D
102
{ACAD_REACTORS
330
2A
102
}
330
2A
100
AcDbVisualStyle
  2
Gouraud
 70
     2
 71
     2
 72
     2
 73
     1
 90
        2
 40
-0.6
 41
30.0
 62
     5
 63
     7
421
 16777215
 74
     0
 91
        4
 64
     7
 65
   257
 75
     1
175
     1
 42
1.0
 92
        0
 66
     7
 43
1.0
 76
     1
 77
     6
 78
     2
 67
     7
 79
     5
170
     0
171
     0
290
     0
174
     0
 93
       13
 44
0.0
173
     0
291
     1
 45
0.0
  0
VISUALSTYLE
  5
2E
102
{ACAD_REACTORS
330
2A
102
}
330
2A
100
AcDbVisualStyle
  2
GouraudWithEdges
 70
     3
 71
     2
 72
     2
 73
     1
 90
        2
 40
-0.6
 41
30.0
 62
     5
 63
     7
421
 16777215
 74
     1
 91
        4
 64
     7
 65
   257
 75
     1
175
     1
 42
1.0
 92
        0
 66
   257
 43
1.0
 76
     1
 77
     6
 78
     2
 67
     7
 79
     5
170
     0
171
     0
290
     0
174
     0
 93
       13
 44
0.0
173
     0
291
     1
 45
0.0
  0
VISUALSTYLE
  5
38
102
{ACAD_REACTORS
330
2A
102
}
330
2A
100
AcDbVisualStyle
  2
Linepattern
 70
    14
 71
     2
 72
     2
 73
     0
 90
        0
 40
-0.6
 41
-30.0
 62
     5
 63
     7
421
 16777215
 74
     1
 91
        4
 64
     7
 65
   257
 75
     7
175
     7
 42
1.0
 92
        8
 66
     7
 43
1.0
 76
     1
 77
     6
 78
     2
 67
     7
 79
     5
170
     0
171
     0
290
     0
174
     0
 93
        1
 44
0.0
173
     0
291
     1
 45
0.0
  0
VISUALSTYLE
  5
33
102
{ACAD_REACTORS
330
2A
102
}
330
2A
100
AcDbVisualStyle
  2
Realistic
 70
     8
 71
     2
 72
     2
 73
     0
 90
        0
 40
-0.6
 41
-30.0
 62
     5
 63
     7
421
 16777215
 74
     1
 91
        0
 64
     7
 65
   257
 75
     1
175
     1
 42
1.0
 92
        8
 66
     8
424
  7895160
 43
1.0
 76
     1
 77
     6
 78
     2
 67
     7
 79
     5
170
     0
171
     0
290
     0
174
     0
 93
       13
 44
0.0
173
     0
291
     0
 45
0.0
  0
VISUALSTYLE
  5
37
102
{ACAD_REACTORS
330
2A
102
}
330
2A
100
AcDbVisualStyle
  2
Thicken
 70
    13
 71
     2
 72
     2
 73
     0
 90
        0
 40
-0.6
 41
-30.0
 62
     5
 63
     7
421
 16777215
 74
     1
 91
        4
 64
     7
 65
   257
 75
     1
175
     1
 42
1.0
 92
       12
 66
     7
 43
1.0
 76
     1
 77
     6
 78
     2
 67
     7
 79
     5
170
     0
171
     0
290
     0
174
     0
 93
        1
 44
0.0
173
     0
291
     1
 45
0.0
  0
ENDSEC
  0
EOF
