  0
SECTION
  2
HEADER
  9
$ACADVER
  1
AC1009
  0
ENDSEC
  0
SECTION
  2
ENTITIES
  0
POLYLINE
  5
90
  8
Layer_0
  62
0
  70
1
  66
1
  10
0
  20
0
  30
0
  0
VERTEX
  5
90
  8
Layer_0
  10
114.21912
  20
256.28271
  0
VERTEX
  5
91
  8
Layer_0
  10
134.21912
  20
256.28271
  0
VERTEX
  5
92
  8
Layer_0
  10
134.21915
  20
276.28271
  0
VERTEX
  5
93
  8
Layer_0
  10
114.21915
  20
276.28271
  0
VERTEX
  5
94
  8
Layer_0
  10
114.21912
  20
256.28271
  0
SEQEND
  0
POLYLINE
  5
96
  8
Layer_0
  62
0
  70
1
  66
1
  10
0
  20
0
  30
0
  0
VERTEX
  5
96
  8
Layer_0
  10
168.66153
  20
343.45999
  0
VERTEX
  5
97
  8
Layer_0
  10
168.6615
  20
323.45999
  0
VERTEX
  5
98
  8
Layer_0
  10
188.66153
  20
323.45999
  0
VERTEX
  5
99
  8
Layer_0
  10
188.66153
  20
343.45999
  0
VERTEX
  5
9a
  8
Layer_0
  10
168.66153
  20
343.45999
  0
SEQEND
  0
POLYLINE
  5
9c
  8
Layer_0
  62
0
  70
1
  66
1
  10
0
  20
0
  30
0
  0
VERTEX
  5
9c
  8
Layer_0
  10
178
  20
257.54004
  0
VERTEX
  5
9d
  8
Layer_0
  10
198.00003
  20
257.54004
  0
VERTEX
  5
9e
  8
Layer_0
  10
198.00003
  20
277.54001
  0
VERTEX
  5
9f
  8
Layer_0
  10
178
  20
277.54004
  0
VERTEX
  5
a0
  8
Layer_0
  10
178
  20
257.54004
  0
SEQEND
  0
POLYLINE
  5
a2
  8
Layer_0
  62
0
  70
1
  66
1
  10
0
  20
0
  30
0
  0
VERTEX
  5
a2
  8
Layer_0
  10
157
  20
255.54004
  0
VERTEX
  5
a3
  8
Layer_0
  10
177
  20
255.54001
  0
VERTEX
  5
a4
  8
Layer_0
  10
177.00003
  20
275.54001
  0
VERTEX
  5
a5
  8
Layer_0
  10
157.00003
  20
275.54004
  0
VERTEX
  5
a6
  8
Layer_0
  10
157
  20
255.54004
  0
SEQEND
  0
POLYLINE
  5
a8
  8
Layer_0
  62
0
  70
1
  66
1
  10
0
  20
0
  30
0
  0
VERTEX
  5
a8
  8
Layer_0
  10
179
  20
322.54007
  0
VERTEX
  5
a9
  8
Layer_0
  10
179
  20
302.54007
  0
VERTEX
  5
aa
  8
Layer_0
  10
198.99997
  20
302.54004
  0
VERTEX
  5
ab
  8
Layer_0
  10
199.00003
  20
322.54004
  0
VERTEX
  5
ac
  8
Layer_0
  10
179
  20
322.54007
  0
SEQEND
  0
POLYLINE
  5
ae
  8
Layer_0
  62
0
  70
1
  66
1
  10
0
  20
0
  30
0
  0
VERTEX
  5
ae
  8
Layer_0
  10
178.00003
  20
319.54004
  0
VERTEX
  5
af
  8
Layer_0
  10
158
  20
319.54004
  0
VERTEX
  5
b0
  8
Layer_0
  10
158
  20
299.54007
  0
VERTEX
  5
b1
  8
Layer_0
  10
178.00003
  20
299.54004
  0
VERTEX
  5
b2
  8
Layer_0
  10
178.00003
  20
319.54004
  0
SEQEND
  0
POLYLINE
  5
b4
  8
Layer_0
  62
0
  70
1
  66
1
  10
0
  20
0
  30
0
  0
VERTEX
  5
b4
  8
Layer_0
  10
152.23404
  20
297.61636
  0
VERTEX
  5
b5
  8
Layer_0
  10
152.23404
  20
317.61636
  0
VERTEX
  5
b6
  8
Layer_0
  10
132.23404
  20
317.61639
  0
VERTEX
  5
b7
  8
Layer_0
  10
132.23404
  20
297.61639
  0
VERTEX
  5
b8
  8
Layer_0
  10
152.23404
  20
297.61636
  0
SEQEND
  0
POLYLINE
  5
ba
  8
Layer_0
  62
0
  70
1
  66
1
  10
0
  20
0
  30
0
  0
VERTEX
  5
ba
  8
Layer_0
  10
129
  20
278
  0
VERTEX
  5
bb
  8
Layer_0
  10
129
  20
298
  0
VERTEX
  5
bc
  8
Layer_0
  10
109
  20
298
  0
VERTEX
  5
bd
  8
Layer_0
  10
109
  20
278
  0
VERTEX
  5
be
  8
Layer_0
  10
129
  20
278
  0
SEQEND
  0
POLYLINE
  5
c0
  8
Layer_0
  62
0
  70
1
  66
1
  10
0
  20
0
  30
0
  0
VERTEX
  5
c0
  8
Layer_0
  10
179.00003
  20
281.54007
  0
VERTEX
  5
c1
  8
Layer_0
  10
199.00003
  20
281.54004
  0
VERTEX
  5
c2
  8
Layer_0
  10
199.00003
  20
301.54004
  0
VERTEX
  5
c3
  8
Layer_0
  10
179.00003
  20
301.54007
  0
VERTEX
  5
c4
  8
Layer_0
  10
179.00003
  20
281.54007
  0
SEQEND
  0
POLYLINE
  5
c6
  8
Layer_0
  62
0
  70
1
  66
1
  10
0
  20
0
  30
0
  0
VERTEX
  5
c6
  8
Layer_0
  10
110.00003
  20
320.25
  0
VERTEX
  5
c7
  8
Layer_0
  10
130.00003
  20
320.25
  0
VERTEX
  5
c8
  8
Layer_0
  10
130.00003
  20
340.25
  0
VERTEX
  5
c9
  8
Layer_0
  10
110.00003
  20
340.25
  0
VERTEX
  5
ca
  8
Layer_0
  10
110.00003
  20
320.25
  0
SEQEND
  0
POLYLINE
  5
cc
  8
Layer_0
  62
0
  70
1
  66
1
  10
0
  20
0
  30
0
  0
VERTEX
  5
cc
  8
Layer_0
  10
110.00003
  20
319.75
  0
VERTEX
  5
cd
  8
Layer_0
  10
110.00003
  20
299.75
  0
VERTEX
  5
ce
  8
Layer_0
  10
130.00003
  20
299.75
  0
VERTEX
  5
cf
  8
Layer_0
  10
130.00003
  20
319.75
  0
VERTEX
  5
d0
  8
Layer_0
  10
110.00003
  20
319.75
  0
SEQEND
  0
POLYLINE
  5
d2
  8
Layer_0
  62
0
  70
1
  66
1
  10
0
  20
0
  30
0
  0
VERTEX
  5
d2
  8
Layer_0
  10
178.00003
  20
278.54004
  0
VERTEX
  5
d3
  8
Layer_0
  10
178.00003
  20
298.54004
  0
VERTEX
  5
d4
  8
Layer_0
  10
158.00003
  20
298.54007
  0
VERTEX
  5
d5
  8
Layer_0
  10
158.00003
  20
278.54007
  0
VERTEX
  5
d6
  8
Layer_0
  10
178.00003
  20
278.54004
  0
SEQEND
  0
POLYLINE
  5
d8
  8
Layer_0
  62
0
  70
1
  66
1
  10
0
  20
0
  30
0
  0
VERTEX
  5
d8
  8
Layer_0
  10
135.21915
  20
276.28271
  0
VERTEX
  5
d9
  8
Layer_0
  10
135.21915
  20
256.28271
  0
VERTEX
  5
da
  8
Layer_0
  10
155.21915
  20
256.28271
  0
VERTEX
  5
db
  8
Layer_0
  10
155.21915
  20
276.28271
  0
VERTEX
  5
dc
  8
Layer_0
  10
135.21915
  20
276.28271
  0
SEQEND
  0
POLYLINE
  5
de
  8
Layer_0
  62
0
  70
1
  66
1
  10
0
  20
0
  30
0
  0
VERTEX
  5
de
  8
Layer_0
  10
152.20425
  20
276.94904
  0
VERTEX
  5
df
  8
Layer_0
  10
152.20425
  20
296.94904
  0
VERTEX
  5
e0
  8
Layer_0
  10
132.20425
  20
296.94907
  0
VERTEX
  5
e1
  8
Layer_0
  10
132.20425
  20
276.94907
  0
VERTEX
  5
e2
  8
Layer_0
  10
152.20425
  20
276.94904
  0
SEQEND
  0
POLYLINE
  5
e4
  8
Layer_0
  62
0
  70
1
  66
1
  10
0
  20
0
  30
0
  0
VERTEX
  5
e4
  8
Layer_0
  10
138.28201
  20
291.94907
  0
VERTEX
  5
e5
  8
Layer_0
  10
138.28201
  20
281.94907
  0
VERTEX
  5
e6
  8
Layer_0
  10
139.60535
  20
281.94907
  0
VERTEX
  5
e7
  8
Layer_0
  10
139.60535
  20
286.66257
  0
VERTEX
  5
e8
  8
Layer_0
  10
144.80316
  20
286.66257
  0
VERTEX
  5
e9
  8
Layer_0
  10
144.80316
  20
281.94907
  0
VERTEX
  5
ea
  8
Layer_0
  10
146.1265
  20
281.94907
  0
VERTEX
  5
eb
  8
Layer_0
  10
146.1265
  20
291.94907
  0
VERTEX
  5
ec
  8
Layer_0
  10
144.80316
  20
291.94907
  0
VERTEX
  5
ed
  8
Layer_0
  10
144.80316
  20
287.84265
  0
VERTEX
  5
ee
  8
Layer_0
  10
139.60535
  20
287.84265
  0
VERTEX
  5
ef
  8
Layer_0
  10
139.60535
  20
291.94907
  0
VERTEX
  5
f0
  8
Layer_0
  10
138.28201
  20
291.94907
  0
SEQEND
  0
POLYLINE
  5
f2
  8
Layer_0
  62
0
  70
1
  66
1
  10
0
  20
0
  30
0
  0
VERTEX
  5
f2
  8
Layer_0
  10
120.00687
  20
335.42737
  0
VERTEX
  5
f3
  8
Layer_0
  10
120.12186
  20
335.42627
  0
VERTEX
  5
f4
  8
Layer_0
  10
120.23575
  20
335.42279
  0
VERTEX
  5
f5
  8
Layer_0
  10
120.34879
  20
335.41705
  0
VERTEX
  5
f6
  8
Layer_0
  10
120.46085
  20
335.409
  0
VERTEX
  5
f7
  8
Layer_0
  10
120.57211
  20
335.39868
  0
VERTEX
  5
f8
  8
Layer_0
  10
120.68216
  20
335.38599
  0
VERTEX
  5
f9
  8
Layer_0
  10
120.79141
  20
335.37109
  0
VERTEX
  5
fa
  8
Layer_0
  10
120.89975
  20
335.35388
  0
VERTEX
  5
fb
  8
Layer_0
  10
121.00705
  20
335.33429
  0
VERTEX
  5
fc
  8
Layer_0
  10
121.11343
  20
335.3125
  0
VERTEX
  5
fd
  8
Layer_0
  10
121.21896
  20
335.28839
  0
VERTEX
  5
fe
  8
Layer_0
  10
121.32339
  20
335.26196
  0
VERTEX
  5
ff
  8
Layer_0
  10
121.42691
  20
335.23322
  0
VERTEX
  5
100
  8
Layer_0
  10
121.52951
  20
335.20221
  0
VERTEX
  5
101
  8
Layer_0
  10
121.6312
  20
335.16888
  0
VERTEX
  5
102
  8
Layer_0
  10
121.7319
  20
335.1333
  0
VERTEX
  5
103
  8
Layer_0
  10
121.83163
  20
335.0954
  0
VERTEX
  5
104
  8
Layer_0
  10
121.93045
  20
335.05518
  0
VERTEX
  5
105
  8
Layer_0
  10
122.02835
  20
335.0127
  0
VERTEX
  5
106
  8
Layer_0
  10
122.12527
  20
334.9679
  0
VERTEX
  5
107
  8
Layer_0
  10
122.22122
  20
334.92078
  0
VERTEX
  5
108
  8
Layer_0
  10
122.31625
  20
334.87137
  0
VERTEX
  5
109
  8
Layer_0
  10
122.41031
  20
334.8197
  0
VERTEX
  5
10a
  8
Layer_0
  10
122.50345
  20
334.76569
  0
VERTEX
  5
10b
  8
Layer_0
  10
122.59531
  20
334.70969
  0
VERTEX
  5
10c
  8
Layer_0
  10
122.68509
  20
334.65179
  0
VERTEX
  5
10d
  8
Layer_0
  10
122.77316
  20
334.59213
  0
VERTEX
  5
10e
  8
Layer_0
  10
122.85934
  20
334.53064
  0
VERTEX
  5
10f
  8
Layer_0
  10
122.94388
  20
334.46738
  0
VERTEX
  5
110
  8
Layer_0
  10
123.02634
  20
334.40222
  0
VERTEX
  5
111
  8
Layer_0
  10
123.10709
  20
334.33533
  0
VERTEX
  5
112
  8
Layer_0
  10
123.18607
  20
334.2666
  0
VERTEX
  5
113
  8
Layer_0
  10
123.26303
  20
334.19608
  0
VERTEX
  5
114
  8
Layer_0
  10
123.33823
  20
334.12372
  0
VERTEX
  5
115
  8
Layer_0
  10
123.41165
  20
334.04956
  0
VERTEX
  5
116
  8
Layer_0
  10
123.48318
  20
333.97357
  0
VERTEX
  5
117
  8
Layer_0
  10
123.55283
  20
333.89578
  0
VERTEX
  5
118
  8
Layer_0
  10
123.62076
  20
333.81619
  0
VERTEX
  5
119
  8
Layer_0
  10
123.6868
  20
333.7348
  0
VERTEX
  5
11a
  8
Layer_0
  10
123.75101
  20
333.65155
  0
VERTEX
  5
11b
  8
Layer_0
  10
123.81339
  20
333.56653
  0
VERTEX
  5
11c
  8
Layer_0
  10
123.87387
  20
333.47968
  0
VERTEX
  5
11d
  8
Layer_0
  10
123.93259
  20
333.39102
  0
VERTEX
  5
11e
  8
Layer_0
  10
123.98947
  20
333.30054
  0
VERTEX
  5
11f
  8
Layer_0
  10
124.04446
  20
333.20825
  0
VERTEX
  5
120
  8
Layer_0
  10
124.09763
  20
333.1142
  0
VERTEX
  5
121
  8
Layer_0
  10
124.14896
  20
333.01825
  0
VERTEX
  5
122
  8
Layer_0
  10
124.19852
  20
332.92053
  0
VERTEX
  5
123
  8
Layer_0
  10
124.24619
  20
332.82141
  0
VERTEX
  5
124
  8
Layer_0
  10
124.29166
  20
332.7211
  0
VERTEX
  5
125
  8
Layer_0
  10
124.33524
  20
332.61972
  0
VERTEX
  5
126
  8
Layer_0
  10
124.37674
  20
332.51724
  0
VERTEX
  5
127
  8
Layer_0
  10
124.41629
  20
332.4137
  0
VERTEX
  5
128
  8
Layer_0
  10
124.45364
  20
332.30896
  0
VERTEX
  5
129
  8
Layer_0
  10
124.48911
  20
332.20319
  0
VERTEX
  5
12a
  8
Layer_0
  10
124.52261
  20
332.09631
  0
VERTEX
  5
12b
  8
Layer_0
  10
124.55392
  20
331.98834
  0
VERTEX
  5
12c
  8
Layer_0
  10
124.58328
  20
331.87924
  0
VERTEX
  5
12d
  8
Layer_0
  10
124.61075
  20
331.76907
  0
VERTEX
  5
12e
  8
Layer_0
  10
124.63596
  20
331.65778
  0
VERTEX
  5
12f
  8
Layer_0
  10
124.65927
  20
331.54535
  0
VERTEX
  5
130
  8
Layer_0
  10
124.68051
  20
331.43188
  0
VERTEX
  5
131
  8
Layer_0
  10
124.69974
  20
331.31726
  0
VERTEX
  5
132
  8
Layer_0
  10
124.71695
  20
331.2016
  0
VERTEX
  5
133
  8
Layer_0
  10
124.73215
  20
331.08478
  0
VERTEX
  5
134
  8
Layer_0
  10
124.74533
  20
330.96689
  0
VERTEX
  5
135
  8
Layer_0
  10
124.75644
  20
330.8479
  0
VERTEX
  5
136
  8
Layer_0
  10
124.76559
  20
330.72778
  0
VERTEX
  5
137
  8
Layer_0
  10
124.77774
  20
330.48425
  0
VERTEX
  5
138
  8
Layer_0
  10
124.78079
  20
330.36087
  0
VERTEX
  5
139
  8
Layer_0
  10
124.78079
  20
330.1102
  0
VERTEX
  5
13a
  8
Layer_0
  10
124.7775
  20
329.98508
  0
VERTEX
  5
13b
  8
Layer_0
  10
124.77219
  20
329.86108
  0
VERTEX
  5
13c
  8
Layer_0
  10
124.76468
  20
329.73822
  0
VERTEX
  5
13d
  8
Layer_0
  10
124.75516
  20
329.61652
  0
VERTEX
  5
13e
  8
Layer_0
  10
124.74338
  20
329.49585
  0
VERTEX
  5
13f
  8
Layer_0
  10
124.72952
  20
329.37631
  0
VERTEX
  5
140
  8
Layer_0
  10
124.71365
  20
329.25793
  0
VERTEX
  5
141
  8
Layer_0
  10
124.69547
  20
329.14059
  0
VERTEX
  5
142
  8
Layer_0
  10
124.6752
  20
329.02441
  0
VERTEX
  5
143
  8
Layer_0
  10
124.65292
  20
328.90936
  0
VERTEX
  5
144
  8
Layer_0
  10
124.62827
  20
328.79535
  0
VERTEX
  5
145
  8
Layer_0
  10
124.60159
  20
328.68253
  0
VERTEX
  5
146
  8
Layer_0
  10
124.57285
  20
328.5708
  0
VERTEX
  5
147
  8
Layer_0
  10
124.54196
  20
328.46014
  0
VERTEX
  5
148
  8
Layer_0
  10
124.50888
  20
328.35065
  0
VERTEX
  5
149
  8
Layer_0
  10
124.47379
  20
328.24225
  0
VERTEX
  5
14a
  8
Layer_0
  10
124.43643
  20
328.13501
  0
VERTEX
  5
14b
  8
Layer_0
  10
124.397
  20
328.02881
  0
VERTEX
  5
14c
  8
Layer_0
  10
124.35544
  20
327.92377
  0
VERTEX
  5
14d
  8
Layer_0
  10
124.31168
  20
327.81982
  0
VERTEX
  5
14e
  8
Layer_0
  10
124.2659
  20
327.71698
  0
VERTEX
  5
14f
  8
Layer_0
  10
124.21793
  20
327.6153
  0
VERTEX
  5
150
  8
Layer_0
  10
124.16782
  20
327.51468
  0
VERTEX
  5
151
  8
Layer_0
  10
124.11588
  20
327.41565
  0
VERTEX
  5
152
  8
Layer_0
  10
124.06192
  20
327.31866
  0
VERTEX
  5
153
  8
Layer_0
  10
124.00632
  20
327.22366
  0
VERTEX
  5
154
  8
Layer_0
  10
123.94901
  20
327.13068
  0
VERTEX
  5
155
  8
Layer_0
  10
123.88992
  20
327.03979
  0
VERTEX
  5
156
  8
Layer_0
  10
123.82889
  20
326.95087
  0
VERTEX
  5
157
  8
Layer_0
  10
123.7662
  20
326.86398
  0
VERTEX
  5
158
  8
Layer_0
  10
123.70181
  20
326.77911
  0
VERTEX
  5
159
  8
Layer_0
  10
123.63547
  20
326.69629
  0
VERTEX
  5
15a
  8
Layer_0
  10
123.56741
  20
326.61548
  0
VERTEX
  5
15b
  8
Layer_0
  10
123.49771
  20
326.53674
  0
VERTEX
  5
15c
  8
Layer_0
  10
123.42606
  20
326.45993
  0
VERTEX
  5
15d
  8
Layer_0
  10
123.35263
  20
326.38519
  0
VERTEX
  5
15e
  8
Layer_0
  10
123.2775
  20
326.3125
  0
VERTEX
  5
15f
  8
Layer_0
  10
123.20059
  20
326.24182
  0
VERTEX
  5
160
  8
Layer_0
  10
123.12192
  20
326.17316
  0
VERTEX
  5
161
  8
Layer_0
  10
123.04147
  20
326.10651
  0
VERTEX
  5
162
  8
Layer_0
  10
122.9592
  20
326.04193
  0
VERTEX
  5
163
  8
Layer_0
  10
122.87515
  20
325.97934
  0
VERTEX
  5
164
  8
Layer_0
  10
122.78946
  20
325.91876
  0
VERTEX
  5
165
  8
Layer_0
  10
122.70181
  20
325.86023
  0
VERTEX
  5
166
  8
Layer_0
  10
122.61246
  20
325.80377
  0
VERTEX
  5
167
  8
Layer_0
  10
122.52133
  20
325.74927
  0
VERTEX
  5
168
  8
Layer_0
  10
122.42844
  20
325.69681
  0
VERTEX
  5
169
  8
Layer_0
  10
122.33444
  20
325.64642
  0
VERTEX
  5
16a
  8
Layer_0
  10
122.23959
  20
325.59821
  0
VERTEX
  5
16b
  8
Layer_0
  10
122.14432
  20
325.55212
  0
VERTEX
  5
16c
  8
Layer_0
  10
122.04831
  20
325.50818
  0
VERTEX
  5
16d
  8
Layer_0
  10
121.95181
  20
325.4664
  0
VERTEX
  5
16e
  8
Layer_0
  10
121.85458
  20
325.42676
  0
VERTEX
  5
16f
  8
Layer_0
  10
121.75681
  20
325.38922
  0
VERTEX
  5
170
  8
Layer_0
  10
121.65848
  20
325.35385
  0
VERTEX
  5
171
  8
Layer_0
  10
121.55936
  20
325.32062
  0
VERTEX
  5
172
  8
Layer_0
  10
121.45969
  20
325.28955
  0
VERTEX
  5
173
  8
Layer_0
  10
121.35953
  20
325.26062
  0
VERTEX
  5
174
  8
Layer_0
  10
121.25858
  20
325.23383
  0
VERTEX
  5
175
  8
Layer_0
  10
121.15701
  20
325.20917
  0
VERTEX
  5
176
  8
Layer_0
  10
121.05496
  20
325.18665
  0
VERTEX
  5
177
  8
Layer_0
  10
120.95224
  20
325.16629
  0
VERTEX
  5
178
  8
Layer_0
  10
120.84891
  20
325.14807
  0
VERTEX
  5
179
  8
Layer_0
  10
120.7449
  20
325.13202
  0
VERTEX
  5
17a
  8
Layer_0
  10
120.64041
  20
325.11804
  0
VERTEX
  5
17b
  8
Layer_0
  10
120.53519
  20
325.10626
  0
VERTEX
  5
17c
  8
Layer_0
  10
120.42941
  20
325.09662
  0
VERTEX
  5
17d
  8
Layer_0
  10
120.32297
  20
325.08911
  0
VERTEX
  5
17e
  8
Layer_0
  10
120.21591
  20
325.08374
  0
VERTEX
  5
17f
  8
Layer_0
  10
120.10831
  20
325.08057
  0
VERTEX
  5
180
  8
Layer_0
  10
120.00003
  20
325.07947
  0
VERTEX
  5
181
  8
Layer_0
  10
119.88297
  20
325.08069
  0
VERTEX
  5
182
  8
Layer_0
  10
119.76675
  20
325.08423
  0
VERTEX
  5
183
  8
Layer_0
  10
119.6517
  20
325.09015
  0
VERTEX
  5
184
  8
Layer_0
  10
119.53769
  20
325.09845
  0
VERTEX
  5
185
  8
Layer_0
  10
119.42474
  20
325.10913
  0
VERTEX
  5
186
  8
Layer_0
  10
119.31277
  20
325.12213
  0
VERTEX
  5
187
  8
Layer_0
  10
119.20187
  20
325.13751
  0
VERTEX
  5
188
  8
Layer_0
  10
119.09213
  20
325.15527
  0
VERTEX
  5
189
  8
Layer_0
  10
118.98325
  20
325.17542
  0
VERTEX
  5
18a
  8
Layer_0
  10
118.87546
  20
325.19791
  0
VERTEX
  5
18b
  8
Layer_0
  10
118.76883
  20
325.22281
  0
VERTEX
  5
18c
  8
Layer_0
  10
118.66306
  20
325.25
  0
VERTEX
  5
18d
  8
Layer_0
  10
118.55841
  20
325.2796
  0
VERTEX
  5
18e
  8
Layer_0
  10
118.4548
  20
325.31158
  0
VERTEX
  5
18f
  8
Layer_0
  10
118.35226
  20
325.34595
  0
VERTEX
  5
190
  8
Layer_0
  10
118.25076
  20
325.38263
  0
VERTEX
  5
191
  8
Layer_0
  10
118.15027
  20
325.42175
  0
VERTEX
  5
192
  8
Layer_0
  10
118.05084
  20
325.4632
  0
VERTEX
  5
193
  8
Layer_0
  10
117.95245
  20
325.50702
  0
VERTEX
  5
194
  8
Layer_0
  10
117.85513
  20
325.55319
  0
VERTEX
  5
195
  8
Layer_0
  10
117.75882
  20
325.60175
  0
VERTEX
  5
196
  8
Layer_0
  10
117.66354
  20
325.65265
  0
VERTEX
  5
197
  8
Layer_0
  10
117.56934
  20
325.70593
  0
VERTEX
  5
198
  8
Layer_0
  10
117.47617
  20
325.7616
  0
VERTEX
  5
199
  8
Layer_0
  10
117.38449
  20
325.81934
  0
VERTEX
  5
19a
  8
Layer_0
  10
117.29462
  20
325.87878
  0
VERTEX
  5
19b
  8
Layer_0
  10
117.2066
  20
325.93994
  0
VERTEX
  5
19c
  8
Layer_0
  10
117.12051
  20
326.00281
  0
VERTEX
  5
19d
  8
Layer_0
  10
117.03632
  20
326.06744
  0
VERTEX
  5
19e
  8
Layer_0
  10
116.95389
  20
326.13379
  0
VERTEX
  5
19f
  8
Layer_0
  10
116.87341
  20
326.2019
  0
VERTEX
  5
1a0
  8
Layer_0
  10
116.79486
  20
326.27173
  0
VERTEX
  5
1a1
  8
Layer_0
  10
116.71805
  20
326.34323
  0
VERTEX
  5
1a2
  8
Layer_0
  10
116.64316
  20
326.4165
  0
VERTEX
  5
1a3
  8
Layer_0
  10
116.57025
  20
326.49152
  0
VERTEX
  5
1a4
  8
Layer_0
  10
116.49899
  20
326.56824
  0
VERTEX
  5
1a5
  8
Layer_0
  10
116.42972
  20
326.64667
  0
VERTEX
  5
1a6
  8
Layer_0
  10
116.36234
  20
326.72687
  0
VERTEX
  5
1a7
  8
Layer_0
  10
116.29681
  20
326.80878
  0
VERTEX
  5
1a8
  8
Layer_0
  10
116.23318
  20
326.89243
  0
VERTEX
  5
1a9
  8
Layer_0
  10
116.17139
  20
326.97778
  0
VERTEX
  5
1aa
  8
Layer_0
  10
116.11145
  20
327.06488
  0
VERTEX
  5
1ab
  8
Layer_0
  10
116.05344
  20
327.15375
  0
VERTEX
  5
1ac
  8
Layer_0
  10
115.99728
  20
327.24432
  0
VERTEX
  5
1ad
  8
Layer_0
  10
115.94296
  20
327.33658
  0
VERTEX
  5
1ae
  8
Layer_0
  10
115.89053
  20
327.4306
  0
VERTEX
  5
1af
  8
Layer_0
  10
115.83997
  20
327.52637
  0
VERTEX
  5
1b0
  8
Layer_0
  10
115.79129
  20
327.62384
  0
VERTEX
  5
1b1
  8
Layer_0
  10
115.6998
  20
327.82147
  0
VERTEX
  5
1b2
  8
Layer_0
  10
115.65701
  20
327.92096
  0
VERTEX
  5
1b3
  8
Layer_0
  10
115.61624
  20
328.021
  0
VERTEX
  5
1b4
  8
Layer_0
  10
115.54059
  20
328.22238
  0
VERTEX
  5
1b5
  8
Layer_0
  10
115.5058
  20
328.32382
  0
VERTEX
  5
1b6
  8
Layer_0
  10
115.44214
  20
328.52808
  0
VERTEX
  5
1b7
  8
Layer_0
  10
115.41327
  20
328.63092
  0
VERTEX
  5
1b8
  8
Layer_0
  10
115.36154
  20
328.83801
  0
VERTEX
  5
1b9
  8
Layer_0
  10
115.33865
  20
328.94226
  0
VERTEX
  5
1ba
  8
Layer_0
  10
115.31778
  20
329.047
  0
VERTEX
  5
1bb
  8
Layer_0
  10
115.29889
  20
329.15222
  0
VERTEX
  5
1bc
  8
Layer_0
  10
115.28198
  20
329.25787
  0
VERTEX
  5
1bd
  8
Layer_0
  10
115.26706
  20
329.36407
  0
VERTEX
  5
1be
  8
Layer_0
  10
115.24319
  20
329.57779
  0
VERTEX
  5
1bf
  8
Layer_0
  10
115.23425
  20
329.68536
  0
VERTEX
  5
1c0
  8
Layer_0
  10
115.22729
  20
329.7934
  0
VERTEX
  5
1c1
  8
Layer_0
  10
115.2193
  20
330.01093
  0
VERTEX
  5
1c2
  8
Layer_0
  10
115.21832
  20
330.12042
  0
VERTEX
  5
1c3
  8
Layer_0
  10
115.2207
  20
330.32605
  0
VERTEX
  5
1c4
  8
Layer_0
  10
115.22763
  20
330.52786
  0
VERTEX
  5
1c5
  8
Layer_0
  10
115.23923
  20
330.72595
  0
VERTEX
  5
1c6
  8
Layer_0
  10
115.25543
  20
330.92029
  0
VERTEX
  5
1c7
  8
Layer_0
  10
115.27643
  20
331.1109
  0
VERTEX
  5
1c8
  8
Layer_0
  10
115.30188
  20
331.29773
  0
VERTEX
  5
1c9
  8
Layer_0
  10
115.33206
  20
331.48077
  0
VERTEX
  5
1ca
  8
Layer_0
  10
115.36694
  20
331.66016
  0
VERTEX
  5
1cb
  8
Layer_0
  10
115.40634
  20
331.83569
  0
VERTEX
  5
1cc
  8
Layer_0
  10
115.45044
  20
332.00751
  0
VERTEX
  5
1cd
  8
Layer_0
  10
115.49924
  20
332.1756
  0
VERTEX
  5
1ce
  8
Layer_0
  10
115.55258
  20
332.33987
  0
VERTEX
  5
1cf
  8
Layer_0
  10
115.61057
  20
332.50043
  0
VERTEX
  5
1d0
  8
Layer_0
  10
115.67325
  20
332.65723
  0
VERTEX
  5
1d1
  8
Layer_0
  10
115.74057
  20
332.8103
  0
VERTEX
  5
1d2
  8
Layer_0
  10
115.81253
  20
332.95959
  0
VERTEX
  5
1d3
  8
Layer_0
  10
115.88913
  20
333.1051
  0
VERTEX
  5
1d4
  8
Layer_0
  10
115.97037
  20
333.24689
  0
VERTEX
  5
1d5
  8
Layer_0
  10
116.05624
  20
333.38495
  0
VERTEX
  5
1d6
  8
Layer_0
  10
116.14679
  20
333.51923
  0
VERTEX
  5
1d7
  8
Layer_0
  10
116.24197
  20
333.64972
  0
VERTEX
  5
1d8
  8
Layer_0
  10
116.34174
  20
333.77649
  0
VERTEX
  5
1d9
  8
Layer_0
  10
116.44623
  20
333.89954
  0
VERTEX
  5
1da
  8
Layer_0
  10
116.5553
  20
334.01877
  0
VERTEX
  5
1db
  8
Layer_0
  10
116.66815
  20
334.13373
  0
VERTEX
  5
1dc
  8
Layer_0
  10
116.78354
  20
334.24377
  0
VERTEX
  5
1dd
  8
Layer_0
  10
116.9017
  20
334.34894
  0
VERTEX
  5
1de
  8
Layer_0
  10
117.02252
  20
334.44916
  0
VERTEX
  5
1df
  8
Layer_0
  10
117.14615
  20
334.54456
  0
VERTEX
  5
1e0
  8
Layer_0
  10
117.27237
  20
334.63501
  0
VERTEX
  5
1e1
  8
Layer_0
  10
117.40134
  20
334.72064
  0
VERTEX
  5
1e2
  8
Layer_0
  10
117.53305
  20
334.80133
  0
VERTEX
  5
1e3
  8
Layer_0
  10
117.66739
  20
334.87714
  0
VERTEX
  5
1e4
  8
Layer_0
  10
117.80444
  20
334.94806
  0
VERTEX
  5
1e5
  8
Layer_0
  10
117.94427
  20
335.0141
  0
VERTEX
  5
1e6
  8
Layer_0
  10
118.08667
  20
335.07523
  0
VERTEX
  5
1e7
  8
Layer_0
  10
118.23181
  20
335.13147
  0
VERTEX
  5
1e8
  8
Layer_0
  10
118.3797
  20
335.1828
  0
VERTEX
  5
1e9
  8
Layer_0
  10
118.53024
  20
335.22931
  0
VERTEX
  5
1ea
  8
Layer_0
  10
118.6835
  20
335.27087
  0
VERTEX
  5
1eb
  8
Layer_0
  10
118.83951
  20
335.30756
  0
VERTEX
  5
1ec
  8
Layer_0
  10
118.99814
  20
335.33936
  0
VERTEX
  5
1ed
  8
Layer_0
  10
119.15952
  20
335.36621
  0
VERTEX
  5
1ee
  8
Layer_0
  10
119.32358
  20
335.38824
  0
VERTEX
  5
1ef
  8
Layer_0
  10
119.49039
  20
335.40536
  0
VERTEX
  5
1f0
  8
Layer_0
  10
119.65982
  20
335.41757
  0
VERTEX
  5
1f1
  8
Layer_0
  10
119.832
  20
335.42493
  0
VERTEX
  5
1f2
  8
Layer_0
  10
120.00687
  20
335.42737
  0
SEQEND
  0
POLYLINE
  5
1f4
  8
Layer_0
  62
0
  70
1
  66
1
  10
0
  20
0
  30
0
  0
VERTEX
  5
1f4
  8
Layer_0
  10
120.0137
  20
334.28821
  0
VERTEX
  5
1f5
  8
Layer_0
  10
120.17722
  20
334.28473
  0
VERTEX
  5
1f6
  8
Layer_0
  10
120.33804
  20
334.27429
  0
VERTEX
  5
1f7
  8
Layer_0
  10
120.49612
  20
334.2569
  0
VERTEX
  5
1f8
  8
Layer_0
  10
120.65152
  20
334.23248
  0
VERTEX
  5
1f9
  8
Layer_0
  10
120.80417
  20
334.20117
  0
VERTEX
  5
1fa
  8
Layer_0
  10
120.95419
  20
334.16287
  0
VERTEX
  5
1fb
  8
Layer_0
  10
121.10147
  20
334.11761
  0
VERTEX
  5
1fc
  8
Layer_0
  10
121.24619
  20
334.0654
  0
VERTEX
  5
1fd
  8
Layer_0
  10
121.38797
  20
334.00616
  0
VERTEX
  5
1fe
  8
Layer_0
  10
121.52719
  20
333.94006
  0
VERTEX
  5
1ff
  8
Layer_0
  10
121.66367
  20
333.86694
  0
VERTEX
  5
200
  8
Layer_0
  10
121.79745
  20
333.78687
  0
VERTEX
  5
201
  8
Layer_0
  10
121.92728
  20
333.70044
  0
VERTEX
  5
202
  8
Layer_0
  10
122.05173
  20
333.6084
  0
VERTEX
  5
203
  8
Layer_0
  10
122.11197
  20
333.56018
  0
VERTEX
  5
204
  8
Layer_0
  10
122.22855
  20
333.45959
  0
VERTEX
  5
205
  8
Layer_0
  10
122.33975
  20
333.35327
  0
VERTEX
  5
206
  8
Layer_0
  10
122.44565
  20
333.24127
  0
VERTEX
  5
207
  8
Layer_0
  10
122.54636
  20
333.12366
  0
VERTEX
  5
208
  8
Layer_0
  10
122.59457
  20
333.06268
  0
VERTEX
  5
209
  8
Layer_0
  10
122.68735
  20
332.93646
  0
VERTEX
  5
20a
  8
Layer_0
  10
122.73154
  20
332.87122
  0
VERTEX
  5
20b
  8
Layer_0
  10
122.81638
  20
332.73654
  0
VERTEX
  5
20c
  8
Layer_0
  10
122.8566
  20
332.66702
  0
VERTEX
  5
20d
  8
Layer_0
  10
122.93338
  20
332.5238
  0
VERTEX
  5
20e
  8
Layer_0
  10
123.00479
  20
332.37485
  0
VERTEX
  5
20f
  8
Layer_0
  10
123.07071
  20
332.22092
  0
VERTEX
  5
210
  8
Layer_0
  10
123.13095
  20
332.06268
  0
VERTEX
  5
211
  8
Layer_0
  10
123.18533
  20
331.90015
  0
VERTEX
  5
212
  8
Layer_0
  10
123.23404
  20
331.73328
  0
VERTEX
  5
213
  8
Layer_0
  10
123.27707
  20
331.5621
  0
VERTEX
  5
214
  8
Layer_0
  10
123.31436
  20
331.3866
  0
VERTEX
  5
215
  8
Layer_0
  10
123.34586
  20
331.20682
  0
VERTEX
  5
216
  8
Layer_0
  10
123.37173
  20
331.02271
  0
VERTEX
  5
217
  8
Layer_0
  10
123.39169
  20
330.83429
  0
VERTEX
  5
218
  8
Layer_0
  10
123.40604
  20
330.6416
  0
VERTEX
  5
219
  8
Layer_0
  10
123.41464
  20
330.44455
  0
VERTEX
  5
21a
  8
Layer_0
  10
123.41751
  20
330.24319
  0
VERTEX
  5
21b
  8
Layer_0
  10
123.41586
  20
330.08386
  0
VERTEX
  5
21c
  8
Layer_0
  10
123.4108
  20
329.92755
  0
VERTEX
  5
21d
  8
Layer_0
  10
123.40244
  20
329.77435
  0
VERTEX
  5
21e
  8
Layer_0
  10
123.39072
  20
329.62418
  0
VERTEX
  5
21f
  8
Layer_0
  10
123.37564
  20
329.47705
  0
VERTEX
  5
220
  8
Layer_0
  10
123.35721
  20
329.33301
  0
VERTEX
  5
221
  8
Layer_0
  10
123.33542
  20
329.19196
  0
VERTEX
  5
222
  8
Layer_0
  10
123.31027
  20
329.05402
  0
VERTEX
  5
223
  8
Layer_0
  10
123.28177
  20
328.91913
  0
VERTEX
  5
224
  8
Layer_0
  10
123.24997
  20
328.78729
  0
VERTEX
  5
225
  8
Layer_0
  10
123.21475
  20
328.65851
  0
VERTEX
  5
226
  8
Layer_0
  10
123.17618
  20
328.53278
  0
VERTEX
  5
227
  8
Layer_0
  10
123.13443
  20
328.4101
  0
VERTEX
  5
228
  8
Layer_0
  10
123.08908
  20
328.29047
  0
VERTEX
  5
229
  8
Layer_0
  10
123.0405
  20
328.17389
  0
VERTEX
  5
22a
  8
Layer_0
  10
122.98862
  20
328.06042
  0
VERTEX
  5
22b
  8
Layer_0
  10
122.9332
  20
327.94995
  0
VERTEX
  5
22c
  8
Layer_0
  10
122.87454
  20
327.84253
  0
VERTEX
  5
22d
  8
Layer_0
  10
122.81265
  20
327.73822
  0
VERTEX
  5
22e
  8
Layer_0
  10
122.74722
  20
327.6369
  0
VERTEX
  5
22f
  8
Layer_0
  10
122.67856
  20
327.53867
  0
VERTEX
  5
230
  8
Layer_0
  10
122.60648
  20
327.44348
  0
VERTEX
  5
231
  8
Layer_0
  10
122.53116
  20
327.35138
  0
VERTEX
  5
232
  8
Layer_0
  10
122.4523
  20
327.2623
  0
VERTEX
  5
233
  8
Layer_0
  10
122.37094
  20
327.17657
  0
VERTEX
  5
234
  8
Layer_0
  10
122.28775
  20
327.09451
  0
VERTEX
  5
235
  8
Layer_0
  10
122.20273
  20
327.01611
  0
VERTEX
  5
236
  8
Layer_0
  10
122.11588
  20
326.94135
  0
VERTEX
  5
237
  8
Layer_0
  10
122.02719
  20
326.87018
  0
VERTEX
  5
238
  8
Layer_0
  10
121.93668
  20
326.80273
  0
VERTEX
  5
239
  8
Layer_0
  10
121.84427
  20
326.73889
  0
VERTEX
  5
23a
  8
Layer_0
  10
121.75009
  20
326.67871
  0
VERTEX
  5
23b
  8
Layer_0
  10
121.65408
  20
326.62216
  0
VERTEX
  5
23c
  8
Layer_0
  10
121.55618
  20
326.56927
  0
VERTEX
  5
23d
  8
Layer_0
  10
121.45645
  20
326.52002
  0
VERTEX
  5
23e
  8
Layer_0
  10
121.35489
  20
326.47443
  0
VERTEX
  5
23f
  8
Layer_0
  10
121.25162
  20
326.4325
  0
VERTEX
  5
240
  8
Layer_0
  10
121.14633
  20
326.39423
  0
VERTEX
  5
241
  8
Layer_0
  10
121.03928
  20
326.35956
  0
VERTEX
  5
242
  8
Layer_0
  10
120.93045
  20
326.32855
  0
VERTEX
  5
243
  8
Layer_0
  10
120.81967
  20
326.30118
  0
VERTEX
  5
244
  8
Layer_0
  10
120.70712
  20
326.27747
  0
VERTEX
  5
245
  8
Layer_0
  10
120.5928
  20
326.25745
  0
VERTEX
  5
246
  8
Layer_0
  10
120.47647
  20
326.24103
  0
VERTEX
  5
247
  8
Layer_0
  10
120.35837
  20
326.22824
  0
VERTEX
  5
248
  8
Layer_0
  10
120.23856
  20
326.21912
  0
VERTEX
  5
249
  8
Layer_0
  10
120.11685
  20
326.21368
  0
VERTEX
  5
24a
  8
Layer_0
  10
119.99319
  20
326.21182
  0
VERTEX
  5
24b
  8
Layer_0
  10
119.87186
  20
326.21362
  0
VERTEX
  5
24c
  8
Layer_0
  10
119.75223
  20
326.21906
  0
VERTEX
  5
24d
  8
Layer_0
  10
119.63425
  20
326.22809
  0
VERTEX
  5
24e
  8
Layer_0
  10
119.5181
  20
326.24072
  0
VERTEX
  5
24f
  8
Layer_0
  10
119.40359
  20
326.25696
  0
VERTEX
  5
250
  8
Layer_0
  10
119.29083
  20
326.27686
  0
VERTEX
  5
251
  8
Layer_0
  10
119.17978
  20
326.30029
  0
VERTEX
  5
252
  8
Layer_0
  10
119.07043
  20
326.32739
  0
VERTEX
  5
253
  8
Layer_0
  10
118.9628
  20
326.35809
  0
VERTEX
  5
254
  8
Layer_0
  10
118.8569
  20
326.3924
  0
VERTEX
  5
255
  8
Layer_0
  10
118.75272
  20
326.43036
  0
VERTEX
  5
256
  8
Layer_0
  10
118.65027
  20
326.47186
  0
VERTEX
  5
257
  8
Layer_0
  10
118.54962
  20
326.51706
  0
VERTEX
  5
258
  8
Layer_0
  10
118.4505
  20
326.5658
  0
VERTEX
  5
259
  8
Layer_0
  10
118.35318
  20
326.61816
  0
VERTEX
  5
25a
  8
Layer_0
  10
118.25763
  20
326.67416
  0
VERTEX
  5
25b
  8
Layer_0
  10
118.1637
  20
326.73376
  0
VERTEX
  5
25c
  8
Layer_0
  10
118.07153
  20
326.79697
  0
VERTEX
  5
25d
  8
Layer_0
  10
117.98114
  20
326.86377
  0
VERTEX
  5
25e
  8
Layer_0
  10
117.89236
  20
326.9342
  0
VERTEX
  5
25f
  8
Layer_0
  10
117.80533
  20
327.00827
  0
VERTEX
  5
260
  8
Layer_0
  10
117.72006
  20
327.08591
  0
VERTEX
  5
261
  8
Layer_0
  10
117.63654
  20
327.16721
  0
VERTEX
  5
262
  8
Layer_0
  10
117.5546
  20
327.25208
  0
VERTEX
  5
263
  8
Layer_0
  10
117.47528
  20
327.34009
  0
VERTEX
  5
264
  8
Layer_0
  10
117.39932
  20
327.43076
  0
VERTEX
  5
265
  8
Layer_0
  10
117.32678
  20
327.52411
  0
VERTEX
  5
266
  8
Layer_0
  10
117.2576
  20
327.62012
  0
VERTEX
  5
267
  8
Layer_0
  10
117.1918
  20
327.71881
  0
VERTEX
  5
268
  8
Layer_0
  10
117.12936
  20
327.82013
  0
VERTEX
  5
269
  8
Layer_0
  10
117.07028
  20
327.92413
  0
VERTEX
  5
26a
  8
Layer_0
  10
117.01456
  20
328.03082
  0
VERTEX
  5
26b
  8
Layer_0
  10
116.96225
  20
328.14017
  0
VERTEX
  5
26c
  8
Layer_0
  10
116.91336
  20
328.25217
  0
VERTEX
  5
26d
  8
Layer_0
  10
116.86777
  20
328.36682
  0
VERTEX
  5
26e
  8
Layer_0
  10
116.82559
  20
328.48413
  0
VERTEX
  5
26f
  8
Layer_0
  10
116.78687
  20
328.60419
  0
VERTEX
  5
270
  8
Layer_0
  10
116.75134
  20
328.72681
  0
VERTEX
  5
271
  8
Layer_0
  10
116.71927
  20
328.85214
  0
VERTEX
  5
272
  8
Layer_0
  10
116.69061
  20
328.98013
  0
VERTEX
  5
273
  8
Layer_0
  10
116.66528
  20
329.11078
  0
VERTEX
  5
274
  8
Layer_0
  10
116.64334
  20
329.24408
  0
VERTEX
  5
275
  8
Layer_0
  10
116.62485
  20
329.3801
  0
VERTEX
  5
276
  8
Layer_0
  10
116.60956
  20
329.51874
  0
VERTEX
  5
277
  8
Layer_0
  10
116.59778
  20
329.66003
  0
VERTEX
  5
278
  8
Layer_0
  10
116.58932
  20
329.80402
  0
VERTEX
  5
279
  8
Layer_0
  10
116.58435
  20
329.95068
  0
VERTEX
  5
27a
  8
Layer_0
  10
116.58258
  20
330.09995
  0
VERTEX
  5
27b
  8
Layer_0
  10
116.58435
  20
330.28586
  0
VERTEX
  5
27c
  8
Layer_0
  10
116.5896
  20
330.46729
  0
VERTEX
  5
27d
  8
Layer_0
  10
116.59842
  20
330.64423
  0
VERTEX
  5
27e
  8
Layer_0
  10
116.61075
  20
330.81665
  0
VERTEX
  5
27f
  8
Layer_0
  10
116.62656
  20
330.98462
  0
VERTEX
  5
280
  8
Layer_0
  10
116.6459
  20
331.14807
  0
VERTEX
  5
281
  8
Layer_0
  10
116.66873
  20
331.30707
  0
VERTEX
  5
282
  8
Layer_0
  10
116.6951
  20
331.46155
  0
VERTEX
  5
283
  8
Layer_0
  10
116.72501
  20
331.61157
  0
VERTEX
  5
284
  8
Layer_0
  10
116.75845
  20
331.75708
  0
VERTEX
  5
285
  8
Layer_0
  10
116.79535
  20
331.89807
  0
VERTEX
  5
286
  8
Layer_0
  10
116.83582
  20
332.03461
  0
VERTEX
  5
287
  8
Layer_0
  10
116.87985
  20
332.16669
  0
VERTEX
  5
288
  8
Layer_0
  10
116.92728
  20
332.29425
  0
VERTEX
  5
289
  8
Layer_0
  10
116.97824
  20
332.41733
  0
VERTEX
  5
28a
  8
Layer_0
  10
117.03281
  20
332.53592
  0
VERTEX
  5
28b
  8
Layer_0
  10
117.09079
  20
332.65002
  0
VERTEX
  5
28c
  8
Layer_0
  10
117.15234
  20
332.75958
  0
VERTEX
  5
28d
  8
Layer_0
  10
117.2175
  20
332.86475
  0
VERTEX
  5
28e
  8
Layer_0
  10
117.28598
  20
332.96533
  0
VERTEX
  5
28f
  8
Layer_0
  10
117.35812
  20
333.06149
  0
VERTEX
  5
290
  8
Layer_0
  10
117.43378
  20
333.15317
  0
VERTEX
  5
291
  8
Layer_0
  10
117.51291
  20
333.24036
  0
VERTEX
  5
292
  8
Layer_0
  10
117.59552
  20
333.323
  0
VERTEX
  5
293
  8
Layer_0
  10
117.6806
  20
333.40173
  0
VERTEX
  5
294
  8
Layer_0
  10
117.76706
  20
333.47717
  0
VERTEX
  5
295
  8
Layer_0
  10
117.85489
  20
333.54919
  0
VERTEX
  5
296
  8
Layer_0
  10
117.94409
  20
333.61792
  0
VERTEX
  5
297
  8
Layer_0
  10
118.03461
  20
333.68329
  0
VERTEX
  5
298
  8
Layer_0
  10
118.12653
  20
333.7453
  0
VERTEX
  5
299
  8
Layer_0
  10
118.21979
  20
333.80392
  0
VERTEX
  5
29a
  8
Layer_0
  10
118.31442
  20
333.85922
  0
VERTEX
  5
29b
  8
Layer_0
  10
118.41043
  20
333.91119
  0
VERTEX
  5
29c
  8
Layer_0
  10
118.50778
  20
333.95978
  0
VERTEX
  5
29d
  8
Layer_0
  10
118.60648
  20
334.005
  0
VERTEX
  5
29e
  8
Layer_0
  10
118.70654
  20
334.04691
  0
VERTEX
  5
29f
  8
Layer_0
  10
118.80811
  20
334.08545
  0
VERTEX
  5
2a0
  8
Layer_0
  10
118.9108
  20
334.12064
  0
VERTEX
  5
2a1
  8
Layer_0
  10
119.01495
  20
334.15247
  0
VERTEX
  5
2a2
  8
Layer_0
  10
119.12051
  20
334.18097
  0
VERTEX
  5
2a3
  8
Layer_0
  10
119.22739
  20
334.20609
  0
VERTEX
  5
2a4
  8
Layer_0
  10
119.33563
  20
334.22787
  0
VERTEX
  5
2a5
  8
Layer_0
  10
119.44528
  20
334.24634
  0
VERTEX
  5
2a6
  8
Layer_0
  10
119.55618
  20
334.26141
  0
VERTEX
  5
2a7
  8
Layer_0
  10
119.66849
  20
334.27313
  0
VERTEX
  5
2a8
  8
Layer_0
  10
119.78226
  20
334.28152
  0
VERTEX
  5
2a9
  8
Layer_0
  10
119.89737
  20
334.28656
  0
VERTEX
  5
2aa
  8
Layer_0
  10
120.0137
  20
334.28821
  0
SEQEND
  0
POLYLINE
  5
2ac
  8
Layer_0
  62
0
  70
1
  66
1
  10
0
  20
0
  30
0
  0
VERTEX
  5
2ac
  8
Layer_0
  10
185.0607
  20
296.54007
  0
VERTEX
  5
2ad
  8
Layer_0
  10
185.0607
  20
286.54007
  0
VERTEX
  5
2ae
  8
Layer_0
  10
186.3295
  20
286.54007
  0
VERTEX
  5
2af
  8
Layer_0
  10
186.3295
  20
294.39819
  0
VERTEX
  5
2b0
  8
Layer_0
  10
191.58188
  20
286.54004
  0
VERTEX
  5
2b1
  8
Layer_0
  10
192.93936
  20
286.54004
  0
VERTEX
  5
2b2
  8
Layer_0
  10
192.93936
  20
296.54004
  0
VERTEX
  5
2b3
  8
Layer_0
  10
191.67056
  20
296.54004
  0
VERTEX
  5
2b4
  8
Layer_0
  10
191.67056
  20
288.68875
  0
VERTEX
  5
2b5
  8
Layer_0
  10
186.41818
  20
296.54007
  0
VERTEX
  5
2b6
  8
Layer_0
  10
185.0607
  20
296.54007
  0
SEQEND
  0
POLYLINE
  5
2b8
  8
Layer_0
  62
0
  70
1
  66
1
  10
0
  20
0
  30
0
  0
VERTEX
  5
2b8
  8
Layer_0
  10
144.12695
  20
307.93695
  0
VERTEX
  5
2b9
  8
Layer_0
  10
144.24155
  20
307.99646
  0
VERTEX
  5
2ba
  8
Layer_0
  10
144.35129
  20
308.05899
  0
VERTEX
  5
2bb
  8
Layer_0
  10
144.45609
  20
308.12454
  0
VERTEX
  5
2bc
  8
Layer_0
  10
144.55594
  20
308.19315
  0
VERTEX
  5
2bd
  8
Layer_0
  10
144.65085
  20
308.26477
  0
VERTEX
  5
2be
  8
Layer_0
  10
144.74088
  20
308.33942
  0
VERTEX
  5
2bf
  8
Layer_0
  10
144.82596
  20
308.41711
  0
VERTEX
  5
2c0
  8
Layer_0
  10
144.90616
  20
308.49783
  0
VERTEX
  5
2c1
  8
Layer_0
  10
144.98132
  20
308.58157
  0
VERTEX
  5
2c2
  8
Layer_0
  10
145.05161
  20
308.66833
  0
VERTEX
  5
2c3
  8
Layer_0
  10
145.11697
  20
308.75818
  0
VERTEX
  5
2c4
  8
Layer_0
  10
145.17743
  20
308.85101
  0
VERTEX
  5
2c5
  8
Layer_0
  10
145.23297
  20
308.94589
  0
VERTEX
  5
2c6
  8
Layer_0
  10
145.28372
  20
309.04181
  0
VERTEX
  5
2c7
  8
Layer_0
  10
145.32962
  20
309.13879
  0
VERTEX
  5
2c8
  8
Layer_0
  10
145.3707
  20
309.23679
  0
VERTEX
  5
2c9
  8
Layer_0
  10
145.40695
  20
309.33585
  0
VERTEX
  5
2ca
  8
Layer_0
  10
145.43832
  20
309.43594
  0
VERTEX
  5
2cb
  8
Layer_0
  10
145.46494
  20
309.53708
  0
VERTEX
  5
2cc
  8
Layer_0
  10
145.48669
  20
309.63925
  0
VERTEX
  5
2cd
  8
Layer_0
  10
145.50357
  20
309.74249
  0
VERTEX
  5
2ce
  8
Layer_0
  10
145.51563
  20
309.84674
  0
VERTEX
  5
2cf
  8
Layer_0
  10
145.52289
  20
309.95203
  0
VERTEX
  5
2d0
  8
Layer_0
  10
145.5253
  20
310.05838
  0
VERTEX
  5
2d1
  8
Layer_0
  10
145.52258
  20
310.17279
  0
VERTEX
  5
2d2
  8
Layer_0
  10
145.5144
  20
310.28644
  0
VERTEX
  5
2d3
  8
Layer_0
  10
145.50076
  20
310.39923
  0
VERTEX
  5
2d4
  8
Layer_0
  10
145.48172
  20
310.51123
  0
VERTEX
  5
2d5
  8
Layer_0
  10
145.45721
  20
310.62244
  0
VERTEX
  5
2d6
  8
Layer_0
  10
145.42725
  20
310.73285
  0
VERTEX
  5
2d7
  8
Layer_0
  10
145.39185
  20
310.84241
  0
VERTEX
  5
2d8
  8
Layer_0
  10
145.35101
  20
310.95123
  0
VERTEX
  5
2d9
  8
Layer_0
  10
145.30466
  20
311.05917
  0
VERTEX
  5
2da
  8
Layer_0
  10
145.25293
  20
311.16638
  0
VERTEX
  5
2db
  8
Layer_0
  10
145.19574
  20
311.27274
  0
VERTEX
  5
2dc
  8
Layer_0
  10
145.13309
  20
311.3783
  0
VERTEX
  5
2dd
  8
Layer_0
  10
145.06561
  20
311.48117
  0
VERTEX
  5
2de
  8
Layer_0
  10
144.99402
  20
311.57953
  0
VERTEX
  5
2df
  8
Layer_0
  10
144.91821
  20
311.67331
  0
VERTEX
  5
2e0
  8
Layer_0
  10
144.83826
  20
311.76254
  0
VERTEX
  5
2e1
  8
Layer_0
  10
144.75412
  20
311.84726
  0
VERTEX
  5
2e2
  8
Layer_0
  10
144.66583
  20
311.9274
  0
VERTEX
  5
2e3
  8
Layer_0
  10
144.57339
  20
312.00302
  0
VERTEX
  5
2e4
  8
Layer_0
  10
144.47678
  20
312.0741
  0
VERTEX
  5
2e5
  8
Layer_0
  10
144.37592
  20
312.14056
  0
VERTEX
  5
2e6
  8
Layer_0
  10
144.27094
  20
312.20255
  0
VERTEX
  5
2e7
  8
Layer_0
  10
144.1618
  20
312.25995
  0
VERTEX
  5
2e8
  8
Layer_0
  10
144.04849
  20
312.31281
  0
VERTEX
  5
2e9
  8
Layer_0
  10
143.99002
  20
312.33759
  0
VERTEX
  5
2ea
  8
Layer_0
  10
143.86832
  20
312.38397
  0
VERTEX
  5
2eb
  8
Layer_0
  10
143.74033
  20
312.42612
  0
VERTEX
  5
2ec
  8
Layer_0
  10
143.60605
  20
312.46408
  0
VERTEX
  5
2ed
  8
Layer_0
  10
143.46545
  20
312.4978
  0
VERTEX
  5
2ee
  8
Layer_0
  10
143.31854
  20
312.52728
  0
VERTEX
  5
2ef
  8
Layer_0
  10
143.16544
  20
312.55261
  0
VERTEX
  5
2f0
  8
Layer_0
  10
143.00586
  20
312.57367
  0
VERTEX
  5
2f1
  8
Layer_0
  10
142.84009
  20
312.59055
  0
VERTEX
  5
2f2
  8
Layer_0
  10
142.66806
  20
312.60321
  0
VERTEX
  5
2f3
  8
Layer_0
  10
142.48956
  20
312.61163
  0
VERTEX
  5
2f4
  8
Layer_0
  10
142.30493
  20
312.61584
  0
VERTEX
  5
2f5
  8
Layer_0
  10
138.45847
  20
312.61636
  0
VERTEX
  5
2f6
  8
Layer_0
  10
138.45847
  20
302.61636
  0
VERTEX
  5
2f7
  8
Layer_0
  10
142.27155
  20
302.61636
  0
VERTEX
  5
2f8
  8
Layer_0
  10
142.42865
  20
302.61752
  0
VERTEX
  5
2f9
  8
Layer_0
  10
142.58163
  20
302.621
  0
VERTEX
  5
2fa
  8
Layer_0
  10
142.7305
  20
302.6268
  0
VERTEX
  5
2fb
  8
Layer_0
  10
142.87524
  20
302.63492
  0
VERTEX
  5
2fc
  8
Layer_0
  10
143.01584
  20
302.64539
  0
VERTEX
  5
2fd
  8
Layer_0
  10
143.15234
  20
302.65814
  0
VERTEX
  5
2fe
  8
Layer_0
  10
143.2847
  20
302.67322
  0
VERTEX
  5
2ff
  8
Layer_0
  10
143.41306
  20
302.69067
  0
VERTEX
  5
300
  8
Layer_0
  10
143.53714
  20
302.71036
  0
VERTEX
  5
301
  8
Layer_0
  10
143.6571
  20
302.73242
  0
VERTEX
  5
302
  8
Layer_0
  10
143.77304
  20
302.75677
  0
VERTEX
  5
303
  8
Layer_0
  10
143.8848
  20
302.78348
  0
VERTEX
  5
304
  8
Layer_0
  10
143.99295
  20
302.81244
  0
VERTEX
  5
305
  8
Layer_0
  10
144.09805
  20
302.84363
  0
VERTEX
  5
306
  8
Layer_0
  10
144.20007
  20
302.87708
  0
VERTEX
  5
307
  8
Layer_0
  10
144.29898
  20
302.91272
  0
VERTEX
  5
308
  8
Layer_0
  10
144.39484
  20
302.95059
  0
VERTEX
  5
309
  8
Layer_0
  10
144.48761
  20
302.99066
  0
VERTEX
  5
30a
  8
Layer_0
  10
144.5773
  20
303.03299
  0
VERTEX
  5
30b
  8
Layer_0
  10
144.66397
  20
303.07758
  0
VERTEX
  5
30c
  8
Layer_0
  10
144.7475
  20
303.12433
  0
VERTEX
  5
30d
  8
Layer_0
  10
144.82791
  20
303.17334
  0
VERTEX
  5
30e
  8
Layer_0
  10
144.90533
  20
303.22458
  0
VERTEX
  5
30f
  8
Layer_0
  10
144.97961
  20
303.27802
  0
VERTEX
  5
310
  8
Layer_0
  10
145.05142
  20
303.3345
  0
VERTEX
  5
311
  8
Layer_0
  10
145.12125
  20
303.39484
  0
VERTEX
  5
312
  8
Layer_0
  10
145.18915
  20
303.45901
  0
VERTEX
  5
313
  8
Layer_0
  10
145.2551
  20
303.52701
  0
VERTEX
  5
314
  8
Layer_0
  10
145.31912
  20
303.59885
  0
VERTEX
  5
315
  8
Layer_0
  10
145.38123
  20
303.6745
  0
VERTEX
  5
316
  8
Layer_0
  10
145.44131
  20
303.75403
  0
VERTEX
  5
317
  8
Layer_0
  10
145.4996
  20
303.8374
  0
VERTEX
  5
318
  8
Layer_0
  10
145.55579
  20
303.92456
  0
VERTEX
  5
319
  8
Layer_0
  10
145.61008
  20
304.01556
  0
VERTEX
  5
31a
  8
Layer_0
  10
145.66248
  20
304.11047
  0
VERTEX
  5
31b
  8
Layer_0
  10
145.71289
  20
304.20914
  0
VERTEX
  5
31c
  8
Layer_0
  10
145.76028
  20
304.31042
  0
VERTEX
  5
31d
  8
Layer_0
  10
145.80356
  20
304.41312
  0
VERTEX
  5
31e
  8
Layer_0
  10
145.84268
  20
304.51715
  0
VERTEX
  5
31f
  8
Layer_0
  10
145.87772
  20
304.62259
  0
VERTEX
  5
320
  8
Layer_0
  10
145.90866
  20
304.72937
  0
VERTEX
  5
321
  8
Layer_0
  10
145.93542
  20
304.83755
  0
VERTEX
  5
322
  8
Layer_0
  10
145.9581
  20
304.94708
  0
VERTEX
  5
323
  8
Layer_0
  10
145.97672
  20
305.05804
  0
VERTEX
  5
324
  8
Layer_0
  10
145.99109
  20
305.17029
  0
VERTEX
  5
325
  8
Layer_0
  10
146.00134
  20
305.28397
  0
VERTEX
  5
326
  8
Layer_0
  10
146.00757
  20
305.39899
  0
VERTEX
  5
327
  8
Layer_0
  10
146.00961
  20
305.51541
  0
VERTEX
  5
328
  8
Layer_0
  10
146.00876
  20
305.58777
  0
VERTEX
  5
329
  8
Layer_0
  10
146.00201
  20
305.73007
  0
VERTEX
  5
32a
  8
Layer_0
  10
145.98843
  20
305.86914
  0
VERTEX
  5
32b
  8
Layer_0
  10
145.96811
  20
306.005
  0
VERTEX
  5
32c
  8
Layer_0
  10
145.94107
  20
306.13763
  0
VERTEX
  5
32d
  8
Layer_0
  10
145.90714
  20
306.26706
  0
VERTEX
  5
32e
  8
Layer_0
  10
145.86664
  20
306.39325
  0
VERTEX
  5
32f
  8
Layer_0
  10
145.81912
  20
306.51624
  0
VERTEX
  5
330
  8
Layer_0
  10
145.76492
  20
306.63599
  0
VERTEX
  5
331
  8
Layer_0
  10
145.70404
  20
306.7525
  0
VERTEX
  5
332
  8
Layer_0
  10
145.6362
  20
306.86584
  0
VERTEX
  5
333
  8
Layer_0
  10
145.56177
  20
306.97595
  0
VERTEX
  5
334
  8
Layer_0
  10
145.48053
  20
307.08252
  0
VERTEX
  5
335
  8
Layer_0
  10
145.39343
  20
307.18417
  0
VERTEX
  5
336
  8
Layer_0
  10
145.30048
  20
307.28064
  0
VERTEX
  5
337
  8
Layer_0
  10
145.20172
  20
307.37186
  0
VERTEX
  5
338
  8
Layer_0
  10
145.09711
  20
307.45789
  0
VERTEX
  5
339
  8
Layer_0
  10
144.98669
  20
307.5387
  0
VERTEX
  5
33a
  8
Layer_0
  10
144.87057
  20
307.61432
  0
VERTEX
  5
33b
  8
Layer_0
  10
144.81015
  20
307.65015
  0
VERTEX
  5
33c
  8
Layer_0
  10
144.68524
  20
307.71793
  0
VERTEX
  5
33d
  8
Layer_0
  10
144.55435
  20
307.78052
  0
VERTEX
  5
33e
  8
Layer_0
  10
144.41769
  20
307.83789
  0
VERTEX
  5
33f
  8
Layer_0
  10
144.27524
  20
307.89001
  0
VERTEX
  5
340
  8
Layer_0
  10
144.12695
  20
307.93695
  0
SEQEND
  0
POLYLINE
  5
342
  8
Layer_0
  62
0
  70
1
  66
1
  10
0
  20
0
  30
0
  0
VERTEX
  5
342
  8
Layer_0
  10
139.7818
  20
311.43628
  0
VERTEX
  5
343
  8
Layer_0
  10
141.78043
  20
311.43628
  0
VERTEX
  5
344
  8
Layer_0
  10
142.03995
  20
311.43408
  0
VERTEX
  5
345
  8
Layer_0
  10
142.35516
  20
311.42438
  0
VERTEX
  5
346
  8
Layer_0
  10
142.6351
  20
311.40692
  0
VERTEX
  5
347
  8
Layer_0
  10
142.82196
  20
311.38867
  0
VERTEX
  5
348
  8
Layer_0
  10
142.98895
  20
311.36612
  0
VERTEX
  5
349
  8
Layer_0
  10
143.13617
  20
311.33917
  0
VERTEX
  5
34a
  8
Layer_0
  10
143.26358
  20
311.30786
  0
VERTEX
  5
34b
  8
Layer_0
  10
143.33817
  20
311.28436
  0
VERTEX
  5
34c
  8
Layer_0
  10
143.40921
  20
311.25775
  0
VERTEX
  5
34d
  8
Layer_0
  10
143.47745
  20
311.22784
  0
VERTEX
  5
34e
  8
Layer_0
  10
143.54282
  20
311.19458
  0
VERTEX
  5
34f
  8
Layer_0
  10
143.60532
  20
311.15799
  0
VERTEX
  5
350
  8
Layer_0
  10
143.66501
  20
311.1181
  0
VERTEX
  5
351
  8
Layer_0
  10
143.72195
  20
311.07492
  0
VERTEX
  5
352
  8
Layer_0
  10
143.77588
  20
311.02838
  0
VERTEX
  5
353
  8
Layer_0
  10
143.82706
  20
310.97858
  0
VERTEX
  5
354
  8
Layer_0
  10
143.87543
  20
310.92542
  0
VERTEX
  5
355
  8
Layer_0
  10
143.92084
  20
310.86896
  0
VERTEX
  5
356
  8
Layer_0
  10
143.96353
  20
310.8092
  0
VERTEX
  5
357
  8
Layer_0
  10
144.00317
  20
310.74628
  0
VERTEX
  5
358
  8
Layer_0
  10
144.05667
  20
310.64853
  0
VERTEX
  5
359
  8
Layer_0
  10
144.10266
  20
310.54703
  0
VERTEX
  5
35a
  8
Layer_0
  10
144.1412
  20
310.44183
  0
VERTEX
  5
35b
  8
Layer_0
  10
144.17239
  20
310.33289
  0
VERTEX
  5
35c
  8
Layer_0
  10
144.19595
  20
310.22021
  0
VERTEX
  5
35d
  8
Layer_0
  10
144.21216
  20
310.10382
  0
VERTEX
  5
35e
  8
Layer_0
  10
144.22083
  20
309.98364
  0
VERTEX
  5
35f
  8
Layer_0
  10
144.22202
  20
309.85803
  0
VERTEX
  5
360
  8
Layer_0
  10
144.21536
  20
309.73135
  0
VERTEX
  5
361
  8
Layer_0
  10
144.20071
  20
309.6102
  0
VERTEX
  5
362
  8
Layer_0
  10
144.17804
  20
309.49457
  0
VERTEX
  5
363
  8
Layer_0
  10
144.14746
  20
309.38452
  0
VERTEX
  5
364
  8
Layer_0
  10
144.12253
  20
309.31424
  0
VERTEX
  5
365
  8
Layer_0
  10
144.09409
  20
309.2464
  0
VERTEX
  5
366
  8
Layer_0
  10
144.06216
  20
309.18103
  0
VERTEX
  5
367
  8
Layer_0
  10
144.02661
  20
309.1181
  0
VERTEX
  5
368
  8
Layer_0
  10
143.98758
  20
309.05768
  0
VERTEX
  5
369
  8
Layer_0
  10
143.94492
  20
308.99973
  0
VERTEX
  5
36a
  8
Layer_0
  10
143.89883
  20
308.94449
  0
VERTEX
  5
36b
  8
Layer_0
  10
143.84927
  20
308.892
  0
VERTEX
  5
36c
  8
Layer_0
  10
143.79623
  20
308.84225
  0
VERTEX
  5
36d
  8
Layer_0
  10
143.73978
  20
308.79529
  0
VERTEX
  5
36e
  8
Layer_0
  10
143.67984
  20
308.75104
  0
VERTEX
  5
36f
  8
Layer_0
  10
143.61658
  20
308.70953
  0
VERTEX
  5
370
  8
Layer_0
  10
143.54965
  20
308.67078
  0
VERTEX
  5
371
  8
Layer_0
  10
143.47934
  20
308.63477
  0
VERTEX
  5
372
  8
Layer_0
  10
143.36743
  20
308.58594
  0
VERTEX
  5
373
  8
Layer_0
  10
143.24777
  20
308.54327
  0
VERTEX
  5
374
  8
Layer_0
  10
143.13895
  20
308.5119
  0
VERTEX
  5
375
  8
Layer_0
  10
143.0253
  20
308.48712
  0
VERTEX
  5
376
  8
Layer_0
  10
142.89609
  20
308.466
  0
VERTEX
  5
377
  8
Layer_0
  10
142.69958
  20
308.44345
  0
VERTEX
  5
378
  8
Layer_0
  10
142.47546
  20
308.42737
  0
VERTEX
  5
379
  8
Layer_0
  10
142.15634
  20
308.41626
  0
VERTEX
  5
37a
  8
Layer_0
  10
139.7818
  20
308.41446
  0
VERTEX
  5
37b
  8
Layer_0
  10
139.7818
  20
311.43628
  0
SEQEND
  0
POLYLINE
  5
37d
  8
Layer_0
  62
0
  70
1
  66
1
  10
0
  20
0
  30
0
  0
VERTEX
  5
37d
  8
Layer_0
  10
139.7818
  20
307.23438
  0
VERTEX
  5
37e
  8
Layer_0
  10
142.09421
  20
307.23438
  0
VERTEX
  5
37f
  8
Layer_0
  10
142.25024
  20
307.23322
  0
VERTEX
  5
380
  8
Layer_0
  10
142.54376
  20
307.22394
  0
VERTEX
  5
381
  8
Layer_0
  10
142.74762
  20
307.21088
  0
VERTEX
  5
382
  8
Layer_0
  10
142.93747
  20
307.1926
  0
VERTEX
  5
383
  8
Layer_0
  10
143.11343
  20
307.1691
  0
VERTEX
  5
384
  8
Layer_0
  10
143.27536
  20
307.14038
  0
VERTEX
  5
385
  8
Layer_0
  10
143.42334
  20
307.10641
  0
VERTEX
  5
386
  8
Layer_0
  10
143.55737
  20
307.06726
  0
VERTEX
  5
387
  8
Layer_0
  10
143.6405
  20
307.03769
  0
VERTEX
  5
388
  8
Layer_0
  10
143.72061
  20
307.00473
  0
VERTEX
  5
389
  8
Layer_0
  10
143.79758
  20
306.96835
  0
VERTEX
  5
38a
  8
Layer_0
  10
143.87152
  20
306.92856
  0
VERTEX
  5
38b
  8
Layer_0
  10
143.94235
  20
306.88535
  0
VERTEX
  5
38c
  8
Layer_0
  10
144.01013
  20
306.83875
  0
VERTEX
  5
38d
  8
Layer_0
  10
144.0748
  20
306.7887
  0
VERTEX
  5
38e
  8
Layer_0
  10
144.13647
  20
306.73529
  0
VERTEX
  5
38f
  8
Layer_0
  10
144.19492
  20
306.67847
  0
VERTEX
  5
390
  8
Layer_0
  10
144.2504
  20
306.61816
  0
VERTEX
  5
391
  8
Layer_0
  10
144.3028
  20
306.5545
  0
VERTEX
  5
392
  8
Layer_0
  10
144.35205
  20
306.48743
  0
VERTEX
  5
393
  8
Layer_0
  10
144.3978
  20
306.41766
  0
VERTEX
  5
394
  8
Layer_0
  10
144.43961
  20
306.34583
  0
VERTEX
  5
395
  8
Layer_0
  10
144.47739
  20
306.27194
  0
VERTEX
  5
396
  8
Layer_0
  10
144.51123
  20
306.19601
  0
VERTEX
  5
397
  8
Layer_0
  10
144.54105
  20
306.11807
  0
VERTEX
  5
398
  8
Layer_0
  10
144.56693
  20
306.03809
  0
VERTEX
  5
399
  8
Layer_0
  10
144.58881
  20
305.95605
  0
VERTEX
  5
39a
  8
Layer_0
  10
144.60675
  20
305.87201
  0
VERTEX
  5
39b
  8
Layer_0
  10
144.62064
  20
305.78592
  0
VERTEX
  5
39c
  8
Layer_0
  10
144.63058
  20
305.69775
  0
VERTEX
  5
39d
  8
Layer_0
  10
144.6366
  20
305.6076
  0
VERTEX
  5
39e
  8
Layer_0
  10
144.63821
  20
305.47583
  0
VERTEX
  5
39f
  8
Layer_0
  10
144.63309
  20
305.35938
  0
VERTEX
  5
3a0
  8
Layer_0
  10
144.62173
  20
305.24646
  0
VERTEX
  5
3a1
  8
Layer_0
  10
144.60422
  20
305.13702
  0
VERTEX
  5
3a2
  8
Layer_0
  10
144.5806
  20
305.03119
  0
VERTEX
  5
3a3
  8
Layer_0
  10
144.55072
  20
304.92877
  0
VERTEX
  5
3a4
  8
Layer_0
  10
144.51465
  20
304.82993
  0
VERTEX
  5
3a5
  8
Layer_0
  10
144.47235
  20
304.73459
  0
VERTEX
  5
3a6
  8
Layer_0
  10
144.42404
  20
304.64285
  0
VERTEX
  5
3a7
  8
Layer_0
  10
144.35355
  20
304.52847
  0
VERTEX
  5
3a8
  8
Layer_0
  10
144.27701
  20
304.42374
  0
VERTEX
  5
3a9
  8
Layer_0
  10
144.21564
  20
304.35153
  0
VERTEX
  5
3aa
  8
Layer_0
  10
144.15085
  20
304.28476
  0
VERTEX
  5
3ab
  8
Layer_0
  10
144.08258
  20
304.22342
  0
VERTEX
  5
3ac
  8
Layer_0
  10
144.01099
  20
304.16751
  0
VERTEX
  5
3ad
  8
Layer_0
  10
143.93594
  20
304.11707
  0
VERTEX
  5
3ae
  8
Layer_0
  10
143.8295
  20
304.05643
  0
VERTEX
  5
3af
  8
Layer_0
  10
143.71463
  20
304.00183
  0
VERTEX
  5
3b0
  8
Layer_0
  10
143.59146
  20
303.95334
  0
VERTEX
  5
3b1
  8
Layer_0
  10
143.46002
  20
303.91092
  0
VERTEX
  5
3b2
  8
Layer_0
  10
143.28387
  20
303.86639
  0
VERTEX
  5
3b3
  8
Layer_0
  10
143.12613
  20
303.83655
  0
VERTEX
  5
3b4
  8
Layer_0
  10
142.92386
  20
303.81509
  0
VERTEX
  5
3b5
  8
Layer_0
  10
142.5683
  20
303.79944
  0
VERTEX
  5
3b6
  8
Layer_0
  10
139.7818
  20
303.79645
  0
VERTEX
  5
3b7
  8
Layer_0
  10
139.7818
  20
307.23438
  0
SEQEND
  0
POLYLINE
  5
3b9
  8
Layer_0
  62
0
  70
1
  66
1
  10
0
  20
0
  30
0
  0
VERTEX
  5
3b9
  8
Layer_0
  10
121.94681
  20
289.9509
  0
VERTEX
  5
3ba
  8
Layer_0
  10
121.88666
  20
290.12866
  0
VERTEX
  5
3bb
  8
Layer_0
  10
121.82211
  20
290.29819
  0
VERTEX
  5
3bc
  8
Layer_0
  10
121.7533
  20
290.4595
  0
VERTEX
  5
3bd
  8
Layer_0
  10
121.68008
  20
290.61258
  0
VERTEX
  5
3be
  8
Layer_0
  10
121.64175
  20
290.686
  0
VERTEX
  5
3bf
  8
Layer_0
  10
121.5621
  20
290.82669
  0
VERTEX
  5
3c0
  8
Layer_0
  10
121.47784
  20
290.95914
  0
VERTEX
  5
3c1
  8
Layer_0
  10
121.43414
  20
291.02225
  0
VERTEX
  5
3c2
  8
Layer_0
  10
121.38937
  20
291.08334
  0
VERTEX
  5
3c3
  8
Layer_0
  10
121.34351
  20
291.14233
  0
VERTEX
  5
3c4
  8
Layer_0
  10
121.29651
  20
291.19928
  0
VERTEX
  5
3c5
  8
Layer_0
  10
121.24847
  20
291.25418
  0
VERTEX
  5
3c6
  8
Layer_0
  10
121.19934
  20
291.30701
  0
VERTEX
  5
3c7
  8
Layer_0
  10
121.14911
  20
291.35779
  0
VERTEX
  5
3c8
  8
Layer_0
  10
121.09778
  20
291.40649
  0
VERTEX
  5
3c9
  8
Layer_0
  10
121.04535
  20
291.45316
  0
VERTEX
  5
3ca
  8
Layer_0
  10
120.99185
  20
291.49771
  0
VERTEX
  5
3cb
  8
Layer_0
  10
120.93726
  20
291.54025
  0
VERTEX
  5
3cc
  8
Layer_0
  10
120.88159
  20
291.5809
  0
VERTEX
  5
3cd
  8
Layer_0
  10
120.82465
  20
291.61978
  0
VERTEX
  5
3ce
  8
Layer_0
  10
120.76651
  20
291.65695
  0
VERTEX
  5
3cf
  8
Layer_0
  10
120.70721
  20
291.69241
  0
VERTEX
  5
3d0
  8
Layer_0
  10
120.64682
  20
291.72614
  0
VERTEX
  5
3d1
  8
Layer_0
  10
120.58511
  20
291.75809
  0
VERTEX
  5
3d2
  8
Layer_0
  10
120.45831
  20
291.81693
  0
VERTEX
  5
3d3
  8
Layer_0
  10
120.39304
  20
291.84369
  0
VERTEX
  5
3d4
  8
Layer_0
  10
120.25919
  20
291.89212
  0
VERTEX
  5
3d5
  8
Layer_0
  10
120.12036
  20
291.93359
  0
VERTEX
  5
3d6
  8
Layer_0
  10
119.97693
  20
291.96817
  0
VERTEX
  5
3d7
  8
Layer_0
  10
119.82877
  20
291.99582
  0
VERTEX
  5
3d8
  8
Layer_0
  10
119.67587
  20
292.01657
  0
VERTEX
  5
3d9
  8
Layer_0
  10
119.51819
  20
292.03043
  0
VERTEX
  5
3da
  8
Layer_0
  10
119.3558
  20
292.03732
  0
VERTEX
  5
3db
  8
Layer_0
  10
119.17752
  20
292.03726
  0
VERTEX
  5
3dc
  8
Layer_0
  10
118.99057
  20
292.02957
  0
VERTEX
  5
3dd
  8
Layer_0
  10
118.89911
  20
292.02286
  0
VERTEX
  5
3de
  8
Layer_0
  10
118.80902
  20
292.01425
  0
VERTEX
  5
3df
  8
Layer_0
  10
118.72009
  20
292.00363
  0
VERTEX
  5
3e0
  8
Layer_0
  10
118.63263
  20
291.99118
  0
VERTEX
  5
3e1
  8
Layer_0
  10
118.54645
  20
291.97684
  0
VERTEX
  5
3e2
  8
Layer_0
  10
118.46149
  20
291.96048
  0
VERTEX
  5
3e3
  8
Layer_0
  10
118.3779
  20
291.94226
  0
VERTEX
  5
3e4
  8
Layer_0
  10
118.29575
  20
291.92215
  0
VERTEX
  5
3e5
  8
Layer_0
  10
118.21469
  20
291.90005
  0
VERTEX
  5
3e6
  8
Layer_0
  10
118.13507
  20
291.87607
  0
VERTEX
  5
3e7
  8
Layer_0
  10
118.05673
  20
291.85019
  0
VERTEX
  5
3e8
  8
Layer_0
  10
117.97974
  20
291.82236
  0
VERTEX
  5
3e9
  8
Layer_0
  10
117.90405
  20
291.79263
  0
VERTEX
  5
3ea
  8
Layer_0
  10
117.82965
  20
291.76096
  0
VERTEX
  5
3eb
  8
Layer_0
  10
117.75659
  20
291.72739
  0
VERTEX
  5
3ec
  8
Layer_0
  10
117.68484
  20
291.69193
  0
VERTEX
  5
3ed
  8
Layer_0
  10
117.61444
  20
291.65451
  0
VERTEX
  5
3ee
  8
Layer_0
  10
117.54529
  20
291.61517
  0
VERTEX
  5
3ef
  8
Layer_0
  10
117.47748
  20
291.57391
  0
VERTEX
  5
3f0
  8
Layer_0
  10
117.41101
  20
291.53076
  0
VERTEX
  5
3f1
  8
Layer_0
  10
117.34583
  20
291.48569
  0
VERTEX
  5
3f2
  8
Layer_0
  10
117.22
  20
291.39096
  0
VERTEX
  5
3f3
  8
Layer_0
  10
117.15948
  20
291.34164
  0
VERTEX
  5
3f4
  8
Layer_0
  10
117.10052
  20
291.29099
  0
VERTEX
  5
3f5
  8
Layer_0
  10
116.98749
  20
291.18576
  0
VERTEX
  5
3f6
  8
Layer_0
  10
116.93338
  20
291.1312
  0
VERTEX
  5
3f7
  8
Layer_0
  10
116.8299
  20
291.01804
  0
VERTEX
  5
3f8
  8
Layer_0
  10
116.78058
  20
290.9595
  0
VERTEX
  5
3f9
  8
Layer_0
  10
116.68671
  20
290.8385
  0
VERTEX
  5
3fa
  8
Layer_0
  10
116.64221
  20
290.77603
  0
VERTEX
  5
3fb
  8
Layer_0
  10
116.59927
  20
290.71225
  0
VERTEX
  5
3fc
  8
Layer_0
  10
116.55792
  20
290.64713
  0
VERTEX
  5
3fd
  8
Layer_0
  10
116.51819
  20
290.58072
  0
VERTEX
  5
3fe
  8
Layer_0
  10
116.48004
  20
290.51297
  0
VERTEX
  5
3ff
  8
Layer_0
  10
116.44351
  20
290.44394
  0
VERTEX
  5
400
  8
Layer_0
  10
116.40857
  20
290.37357
  0
VERTEX
  5
401
  8
Layer_0
  10
116.37524
  20
290.30191
  0
VERTEX
  5
402
  8
Layer_0
  10
116.31332
  20
290.1546
  0
VERTEX
  5
403
  8
Layer_0
  10
116.25784
  20
290.00204
  0
VERTEX
  5
404
  8
Layer_0
  10
116.20773
  20
289.84647
  0
VERTEX
  5
405
  8
Layer_0
  10
116.16196
  20
289.69003
  0
VERTEX
  5
406
  8
Layer_0
  10
116.12057
  20
289.53287
  0
VERTEX
  5
407
  8
Layer_0
  10
116.08356
  20
289.37488
  0
VERTEX
  5
408
  8
Layer_0
  10
116.05084
  20
289.21603
  0
VERTEX
  5
409
  8
Layer_0
  10
116.02252
  20
289.05643
  0
VERTEX
  5
40a
  8
Layer_0
  10
115.99854
  20
288.89603
  0
VERTEX
  5
40b
  8
Layer_0
  10
115.97894
  20
288.7348
  0
VERTEX
  5
40c
  8
Layer_0
  10
115.96368
  20
288.57278
  0
VERTEX
  5
40d
  8
Layer_0
  10
115.95276
  20
288.40994
  0
VERTEX
  5
40e
  8
Layer_0
  10
115.94623
  20
288.24631
  0
VERTEX
  5
40f
  8
Layer_0
  10
115.94406
  20
288.08185
  0
VERTEX
  5
410
  8
Layer_0
  10
115.94666
  20
287.87149
  0
VERTEX
  5
411
  8
Layer_0
  10
115.95438
  20
287.66568
  0
VERTEX
  5
412
  8
Layer_0
  10
115.96732
  20
287.46432
  0
VERTEX
  5
413
  8
Layer_0
  10
115.98538
  20
287.26749
  0
VERTEX
  5
414
  8
Layer_0
  10
116.00861
  20
287.0751
  0
VERTEX
  5
415
  8
Layer_0
  10
116.03699
  20
286.88727
  0
VERTEX
  5
416
  8
Layer_0
  10
116.07056
  20
286.70395
  0
VERTEX
  5
417
  8
Layer_0
  10
116.10928
  20
286.52509
  0
VERTEX
  5
418
  8
Layer_0
  10
116.15317
  20
286.35074
  0
VERTEX
  5
419
  8
Layer_0
  10
116.20224
  20
286.18091
  0
VERTEX
  5
41a
  8
Layer_0
  10
116.25641
  20
286.01553
  0
VERTEX
  5
41b
  8
Layer_0
  10
116.31583
  20
285.85471
  0
VERTEX
  5
41c
  8
Layer_0
  10
116.38065
  20
285.69943
  0
VERTEX
  5
41d
  8
Layer_0
  10
116.4512
  20
285.55087
  0
VERTEX
  5
41e
  8
Layer_0
  10
116.5275
  20
285.40897
  0
VERTEX
  5
41f
  8
Layer_0
  10
116.56778
  20
285.34055
  0
VERTEX
  5
420
  8
Layer_0
  10
116.65268
  20
285.20865
  0
VERTEX
  5
421
  8
Layer_0
  10
116.6973
  20
285.14523
  0
VERTEX
  5
422
  8
Layer_0
  10
116.74341
  20
285.08347
  0
VERTEX
  5
423
  8
Layer_0
  10
116.79077
  20
285.02338
  0
VERTEX
  5
424
  8
Layer_0
  10
116.83966
  20
284.96494
  0
VERTEX
  5
425
  8
Layer_0
  10
116.89001
  20
284.90817
  0
VERTEX
  5
426
  8
Layer_0
  10
116.94174
  20
284.85309
  0
VERTEX
  5
427
  8
Layer_0
  10
116.99493
  20
284.79968
  0
VERTEX
  5
428
  8
Layer_0
  10
117.04956
  20
284.74792
  0
VERTEX
  5
429
  8
Layer_0
  10
117.10562
  20
284.69785
  0
VERTEX
  5
42a
  8
Layer_0
  10
117.16312
  20
284.64944
  0
VERTEX
  5
42b
  8
Layer_0
  10
117.22205
  20
284.60272
  0
VERTEX
  5
42c
  8
Layer_0
  10
117.28241
  20
284.55765
  0
VERTEX
  5
42d
  8
Layer_0
  10
117.34415
  20
284.51425
  0
VERTEX
  5
42e
  8
Layer_0
  10
117.40738
  20
284.4725
  0
VERTEX
  5
42f
  8
Layer_0
  10
117.53769
  20
284.39407
  0
VERTEX
  5
430
  8
Layer_0
  10
117.6702
  20
284.32217
  0
VERTEX
  5
431
  8
Layer_0
  10
117.8046
  20
284.25681
  0
VERTEX
  5
432
  8
Layer_0
  10
117.94067
  20
284.19797
  0
VERTEX
  5
433
  8
Layer_0
  10
118.07861
  20
284.14566
  0
VERTEX
  5
434
  8
Layer_0
  10
118.21841
  20
284.09991
  0
VERTEX
  5
435
  8
Layer_0
  10
118.35986
  20
284.06067
  0
VERTEX
  5
436
  8
Layer_0
  10
118.50323
  20
284.02798
  0
VERTEX
  5
437
  8
Layer_0
  10
118.64838
  20
284.00186
  0
VERTEX
  5
438
  8
Layer_0
  10
118.79529
  20
283.98224
  0
VERTEX
  5
439
  8
Layer_0
  10
118.94403
  20
283.96915
  0
VERTEX
  5
43a
  8
Layer_0
  10
119.09457
  20
283.96262
  0
VERTEX
  5
43b
  8
Layer_0
  10
119.26266
  20
283.96292
  0
VERTEX
  5
43c
  8
Layer_0
  10
119.35349
  20
283.96628
  0
VERTEX
  5
43d
  8
Layer_0
  10
119.44315
  20
283.97183
  0
VERTEX
  5
43e
  8
Layer_0
  10
119.53171
  20
283.97961
  0
VERTEX
  5
43f
  8
Layer_0
  10
119.61905
  20
283.98965
  0
VERTEX
  5
440
  8
Layer_0
  10
119.70514
  20
284.00189
  0
VERTEX
  5
441
  8
Layer_0
  10
119.7901
  20
284.01636
  0
VERTEX
  5
442
  8
Layer_0
  10
119.87396
  20
284.03308
  0
VERTEX
  5
443
  8
Layer_0
  10
119.95648
  20
284.05197
  0
VERTEX
  5
444
  8
Layer_0
  10
120.0379
  20
284.07315
  0
VERTEX
  5
445
  8
Layer_0
  10
120.11819
  20
284.09653
  0
VERTEX
  5
446
  8
Layer_0
  10
120.19714
  20
284.1221
  0
VERTEX
  5
447
  8
Layer_0
  10
120.27499
  20
284.14993
  0
VERTEX
  5
448
  8
Layer_0
  10
120.35165
  20
284.17999
  0
VERTEX
  5
449
  8
Layer_0
  10
120.42715
  20
284.21225
  0
VERTEX
  5
44a
  8
Layer_0
  10
120.5014
  20
284.2468
  0
VERTEX
  5
44b
  8
Layer_0
  10
120.57455
  20
284.28351
  0
VERTEX
  5
44c
  8
Layer_0
  10
120.64645
  20
284.32248
  0
VERTEX
  5
44d
  8
Layer_0
  10
120.71722
  20
284.36368
  0
VERTEX
  5
44e
  8
Layer_0
  10
120.7868
  20
284.40707
  0
VERTEX
  5
44f
  8
Layer_0
  10
120.85516
  20
284.45273
  0
VERTEX
  5
450
  8
Layer_0
  10
120.92236
  20
284.50058
  0
VERTEX
  5
451
  8
Layer_0
  10
120.98837
  20
284.55069
  0
VERTEX
  5
452
  8
Layer_0
  10
121.05319
  20
284.603
  0
VERTEX
  5
453
  8
Layer_0
  10
121.11661
  20
284.65756
  0
VERTEX
  5
454
  8
Layer_0
  10
121.17819
  20
284.71417
  0
VERTEX
  5
455
  8
Layer_0
  10
121.2381
  20
284.77298
  0
VERTEX
  5
456
  8
Layer_0
  10
121.2963
  20
284.83395
  0
VERTEX
  5
457
  8
Layer_0
  10
121.35281
  20
284.89713
  0
VERTEX
  5
458
  8
Layer_0
  10
121.40747
  20
284.96237
  0
VERTEX
  5
459
  8
Layer_0
  10
121.46048
  20
285.02982
  0
VERTEX
  5
45a
  8
Layer_0
  10
121.51181
  20
285.09946
  0
VERTEX
  5
45b
  8
Layer_0
  10
121.56128
  20
285.17117
  0
VERTEX
  5
45c
  8
Layer_0
  10
121.6091
  20
285.24509
  0
VERTEX
  5
45d
  8
Layer_0
  10
121.65527
  20
285.3212
  0
VERTEX
  5
45e
  8
Layer_0
  10
121.69952
  20
285.39938
  0
VERTEX
  5
45f
  8
Layer_0
  10
121.74213
  20
285.47977
  0
VERTEX
  5
460
  8
Layer_0
  10
121.78305
  20
285.56229
  0
VERTEX
  5
461
  8
Layer_0
  10
121.8222
  20
285.64697
  0
VERTEX
  5
462
  8
Layer_0
  10
121.85962
  20
285.73383
  0
VERTEX
  5
463
  8
Layer_0
  10
121.89532
  20
285.82281
  0
VERTEX
  5
464
  8
Layer_0
  10
121.92932
  20
285.91397
  0
VERTEX
  5
465
  8
Layer_0
  10
121.96158
  20
286.00726
  0
VERTEX
  5
466
  8
Layer_0
  10
121.99213
  20
286.10275
  0
VERTEX
  5
467
  8
Layer_0
  10
122.02087
  20
286.20035
  0
VERTEX
  5
468
  8
Layer_0
  10
122.04791
  20
286.30014
  0
VERTEX
  5
469
  8
Layer_0
  10
122.07327
  20
286.40207
  0
VERTEX
  5
46a
  8
Layer_0
  10
122.09686
  20
286.50613
  0
VERTEX
  5
46b
  8
Layer_0
  10
123.4202
  20
286.17191
  0
VERTEX
  5
46c
  8
Layer_0
  10
123.3844
  20
286.03738
  0
VERTEX
  5
46d
  8
Layer_0
  10
123.34625
  20
285.90555
  0
VERTEX
  5
46e
  8
Layer_0
  10
123.30579
  20
285.77643
  0
VERTEX
  5
46f
  8
Layer_0
  10
123.263
  20
285.64996
  0
VERTEX
  5
470
  8
Layer_0
  10
123.21802
  20
285.52621
  0
VERTEX
  5
471
  8
Layer_0
  10
123.17056
  20
285.40512
  0
VERTEX
  5
472
  8
Layer_0
  10
123.12088
  20
285.28677
  0
VERTEX
  5
473
  8
Layer_0
  10
123.06897
  20
285.17108
  0
VERTEX
  5
474
  8
Layer_0
  10
123.01462
  20
285.05807
  0
VERTEX
  5
475
  8
Layer_0
  10
122.95795
  20
284.94772
  0
VERTEX
  5
476
  8
Layer_0
  10
122.89917
  20
284.84012
  0
VERTEX
  5
477
  8
Layer_0
  10
122.83783
  20
284.73517
  0
VERTEX
  5
478
  8
Layer_0
  10
122.77429
  20
284.6329
  0
VERTEX
  5
479
  8
Layer_0
  10
122.70844
  20
284.53336
  0
VERTEX
  5
47a
  8
Layer_0
  10
122.64026
  20
284.43646
  0
VERTEX
  5
47b
  8
Layer_0
  10
122.56979
  20
284.34229
  0
VERTEX
  5
47c
  8
Layer_0
  10
122.49701
  20
284.25076
  0
VERTEX
  5
47d
  8
Layer_0
  10
122.42194
  20
284.16196
  0
VERTEX
  5
47e
  8
Layer_0
  10
122.34454
  20
284.07584
  0
VERTEX
  5
47f
  8
Layer_0
  10
122.26483
  20
283.9924
  0
VERTEX
  5
480
  8
Layer_0
  10
122.1828
  20
283.91165
  0
VERTEX
  5
481
  8
Layer_0
  10
122.09848
  20
283.83359
  0
VERTEX
  5
482
  8
Layer_0
  10
122.01187
  20
283.75821
  0
VERTEX
  5
483
  8
Layer_0
  10
121.92291
  20
283.68552
  0
VERTEX
  5
484
  8
Layer_0
  10
121.83206
  20
283.61569
  0
VERTEX
  5
485
  8
Layer_0
  10
121.73938
  20
283.5488
  0
VERTEX
  5
486
  8
Layer_0
  10
121.64511
  20
283.48489
  0
VERTEX
  5
487
  8
Layer_0
  10
121.54916
  20
283.42395
  0
VERTEX
  5
488
  8
Layer_0
  10
121.45163
  20
283.366
  0
VERTEX
  5
489
  8
Layer_0
  10
121.35226
  20
283.311
  0
VERTEX
  5
48a
  8
Layer_0
  10
121.25134
  20
283.259
  0
VERTEX
  5
48b
  8
Layer_0
  10
121.14877
  20
283.20993
  0
VERTEX
  5
48c
  8
Layer_0
  10
121.0444
  20
283.16385
  0
VERTEX
  5
48d
  8
Layer_0
  10
120.93842
  20
283.12076
  0
VERTEX
  5
48e
  8
Layer_0
  10
120.83093
  20
283.08066
  0
VERTEX
  5
48f
  8
Layer_0
  10
120.72153
  20
283.04349
  0
VERTEX
  5
490
  8
Layer_0
  10
120.61053
  20
283.00931
  0
VERTEX
  5
491
  8
Layer_0
  10
120.49792
  20
282.97809
  0
VERTEX
  5
492
  8
Layer_0
  10
120.38361
  20
282.94986
  0
VERTEX
  5
493
  8
Layer_0
  10
120.26761
  20
282.92459
  0
VERTEX
  5
494
  8
Layer_0
  10
120.14996
  20
282.90228
  0
VERTEX
  5
495
  8
Layer_0
  10
120.03064
  20
282.88297
  0
VERTEX
  5
496
  8
Layer_0
  10
119.90964
  20
282.86661
  0
VERTEX
  5
497
  8
Layer_0
  10
119.78702
  20
282.85324
  0
VERTEX
  5
498
  8
Layer_0
  10
119.66266
  20
282.84283
  0
VERTEX
  5
499
  8
Layer_0
  10
119.53665
  20
282.83542
  0
VERTEX
  5
49a
  8
Layer_0
  10
119.409
  20
282.83096
  0
VERTEX
  5
49b
  8
Layer_0
  10
119.27966
  20
282.82947
  0
VERTEX
  5
49c
  8
Layer_0
  10
119.14603
  20
282.83063
  0
VERTEX
  5
49d
  8
Layer_0
  10
119.01443
  20
282.83405
  0
VERTEX
  5
49e
  8
Layer_0
  10
118.88492
  20
282.83975
  0
VERTEX
  5
49f
  8
Layer_0
  10
118.75754
  20
282.84775
  0
VERTEX
  5
4a0
  8
Layer_0
  10
118.63232
  20
282.85806
  0
VERTEX
  5
4a1
  8
Layer_0
  10
118.50906
  20
282.87061
  0
VERTEX
  5
4a2
  8
Layer_0
  10
118.388
  20
282.88547
  0
VERTEX
  5
4a3
  8
Layer_0
  10
118.26904
  20
282.90262
  0
VERTEX
  5
4a4
  8
Layer_0
  10
118.1521
  20
282.92203
  0
VERTEX
  5
4a5
  8
Layer_0
  10
118.03726
  20
282.94376
  0
VERTEX
  5
4a6
  8
Layer_0
  10
117.92462
  20
282.96777
  0
VERTEX
  5
4a7
  8
Layer_0
  10
117.81393
  20
282.99405
  0
VERTEX
  5
4a8
  8
Layer_0
  10
117.70541
  20
283.02261
  0
VERTEX
  5
4a9
  8
Layer_0
  10
117.599
  20
283.05344
  0
VERTEX
  5
4aa
  8
Layer_0
  10
117.49469
  20
283.08658
  0
VERTEX
  5
4ab
  8
Layer_0
  10
117.39246
  20
283.12201
  0
VERTEX
  5
4ac
  8
Layer_0
  10
117.2923
  20
283.15973
  0
VERTEX
  5
4ad
  8
Layer_0
  10
117.19427
  20
283.19974
  0
VERTEX
  5
4ae
  8
Layer_0
  10
117.09833
  20
283.24203
  0
VERTEX
  5
4af
  8
Layer_0
  10
117.00452
  20
283.28659
  0
VERTEX
  5
4b0
  8
Layer_0
  10
116.91275
  20
283.33344
  0
VERTEX
  5
4b1
  8
Layer_0
  10
116.82306
  20
283.38257
  0
VERTEX
  5
4b2
  8
Layer_0
  10
116.7355
  20
283.43399
  0
VERTEX
  5
4b3
  8
Layer_0
  10
116.65005
  20
283.4877
  0
VERTEX
  5
4b4
  8
Layer_0
  10
116.56656
  20
283.54361
  0
VERTEX
  5
4b5
  8
Layer_0
  10
116.48462
  20
283.60153
  0
VERTEX
  5
4b6
  8
Layer_0
  10
116.40442
  20
283.66153
  0
VERTEX
  5
4b7
  8
Layer_0
  10
116.32587
  20
283.72354
  0
VERTEX
  5
4b8
  8
Layer_0
  10
116.24908
  20
283.78763
  0
VERTEX
  5
4b9
  8
Layer_0
  10
116.17386
  20
283.85373
  0
VERTEX
  5
4ba
  8
Layer_0
  10
116.10037
  20
283.92191
  0
VERTEX
  5
4bb
  8
Layer_0
  10
116.02863
  20
283.99213
  0
VERTEX
  5
4bc
  8
Layer_0
  10
115.95844
  20
284.06439
  0
VERTEX
  5
4bd
  8
Layer_0
  10
115.89001
  20
284.1387
  0
VERTEX
  5
4be
  8
Layer_0
  10
115.82333
  20
284.21512
  0
VERTEX
  5
4bf
  8
Layer_0
  10
115.75818
  20
284.29349
  0
VERTEX
  5
4c0
  8
Layer_0
  10
115.69479
  20
284.37396
  0
VERTEX
  5
4c1
  8
Layer_0
  10
115.63309
  20
284.45645
  0
VERTEX
  5
4c2
  8
Layer_0
  10
115.57306
  20
284.54102
  0
VERTEX
  5
4c3
  8
Layer_0
  10
115.51471
  20
284.62762
  0
VERTEX
  5
4c4
  8
Layer_0
  10
115.45804
  20
284.71631
  0
VERTEX
  5
4c5
  8
Layer_0
  10
115.40308
  20
284.80701
  0
VERTEX
  5
4c6
  8
Layer_0
  10
115.34976
  20
284.89975
  0
VERTEX
  5
4c7
  8
Layer_0
  10
115.29816
  20
284.99457
  0
VERTEX
  5
4c8
  8
Layer_0
  10
115.24817
  20
285.0914
  0
VERTEX
  5
4c9
  8
Layer_0
  10
115.19992
  20
285.19031
  0
VERTEX
  5
4ca
  8
Layer_0
  10
115.15335
  20
285.29129
  0
VERTEX
  5
4cb
  8
Layer_0
  10
115.10846
  20
285.39426
  0
VERTEX
  5
4cc
  8
Layer_0
  10
115.02402
  20
285.60361
  0
VERTEX
  5
4cd
  8
Layer_0
  10
114.9469
  20
285.81546
  0
VERTEX
  5
4ce
  8
Layer_0
  10
114.87717
  20
286.02994
  0
VERTEX
  5
4cf
  8
Layer_0
  10
114.84506
  20
286.13812
  0
VERTEX
  5
4d0
  8
Layer_0
  10
114.78632
  20
286.35638
  0
VERTEX
  5
4d1
  8
Layer_0
  10
114.7597
  20
286.46649
  0
VERTEX
  5
4d2
  8
Layer_0
  10
114.71198
  20
286.6886
  0
VERTEX
  5
4d3
  8
Layer_0
  10
114.67157
  20
286.9133
  0
VERTEX
  5
4d4
  8
Layer_0
  10
114.63855
  20
287.14053
  0
VERTEX
  5
4d5
  8
Layer_0
  10
114.61285
  20
287.3703
  0
VERTEX
  5
4d6
  8
Layer_0
  10
114.59451
  20
287.60266
  0
VERTEX
  5
4d7
  8
Layer_0
  10
114.58344
  20
287.83755
  0
VERTEX
  5
4d8
  8
Layer_0
  10
114.5798
  20
288.07504
  0
VERTEX
  5
4d9
  8
Layer_0
  10
114.58392
  20
288.33261
  0
VERTEX
  5
4da
  8
Layer_0
  10
114.58911
  20
288.45932
  0
VERTEX
  5
4db
  8
Layer_0
  10
114.59637
  20
288.58463
  0
VERTEX
  5
4dc
  8
Layer_0
  10
114.60574
  20
288.70859
  0
VERTEX
  5
4dd
  8
Layer_0
  10
114.61713
  20
288.83115
  0
VERTEX
  5
4de
  8
Layer_0
  10
114.63058
  20
288.9523
  0
VERTEX
  5
4df
  8
Layer_0
  10
114.64618
  20
289.07211
  0
VERTEX
  5
4e0
  8
Layer_0
  10
114.66376
  20
289.19046
  0
VERTEX
  5
4e1
  8
Layer_0
  10
114.68344
  20
289.30746
  0
VERTEX
  5
4e2
  8
Layer_0
  10
114.70526
  20
289.42313
  0
VERTEX
  5
4e3
  8
Layer_0
  10
114.729
  20
289.53735
  0
VERTEX
  5
4e4
  8
Layer_0
  10
114.75494
  20
289.65018
  0
VERTEX
  5
4e5
  8
Layer_0
  10
114.7829
  20
289.76166
  0
VERTEX
  5
4e6
  8
Layer_0
  10
114.81299
  20
289.87173
  0
VERTEX
  5
4e7
  8
Layer_0
  10
114.84509
  20
289.98044
  0
VERTEX
  5
4e8
  8
Layer_0
  10
114.87927
  20
290.08774
  0
VERTEX
  5
4e9
  8
Layer_0
  10
114.91553
  20
290.1937
  0
VERTEX
  5
4ea
  8
Layer_0
  10
114.95389
  20
290.29822
  0
VERTEX
  5
4eb
  8
Layer_0
  10
114.99432
  20
290.4014
  0
VERTEX
  5
4ec
  8
Layer_0
  10
115.03677
  20
290.50314
  0
VERTEX
  5
4ed
  8
Layer_0
  10
115.0813
  20
290.60355
  0
VERTEX
  5
4ee
  8
Layer_0
  10
115.12799
  20
290.70251
  0
VERTEX
  5
4ef
  8
Layer_0
  10
115.17667
  20
290.80014
  0
VERTEX
  5
4f0
  8
Layer_0
  10
115.22736
  20
290.89609
  0
VERTEX
  5
4f1
  8
Layer_0
  10
115.27963
  20
290.99011
  0
VERTEX
  5
4f2
  8
Layer_0
  10
115.33377
  20
291.08215
  0
VERTEX
  5
4f3
  8
Layer_0
  10
115.38965
  20
291.17227
  0
VERTEX
  5
4f4
  8
Layer_0
  10
115.44736
  20
291.26047
  0
VERTEX
  5
4f5
  8
Layer_0
  10
115.50662
  20
291.34671
  0
VERTEX
  5
4f6
  8
Layer_0
  10
115.56781
  20
291.431
  0
VERTEX
  5
4f7
  8
Layer_0
  10
115.63071
  20
291.51337
  0
VERTEX
  5
4f8
  8
Layer_0
  10
115.69531
  20
291.59375
  0
VERTEX
  5
4f9
  8
Layer_0
  10
115.76172
  20
291.67221
  0
VERTEX
  5
4fa
  8
Layer_0
  10
115.8299
  20
291.74878
  0
VERTEX
  5
4fb
  8
Layer_0
  10
115.89972
  20
291.82333
  0
VERTEX
  5
4fc
  8
Layer_0
  10
115.97137
  20
291.89597
  0
VERTEX
  5
4fd
  8
Layer_0
  10
116.0448
  20
291.96667
  0
VERTEX
  5
4fe
  8
Layer_0
  10
116.11993
  20
292.03543
  0
VERTEX
  5
4ff
  8
Layer_0
  10
116.19684
  20
292.10223
  0
VERTEX
  5
500
  8
Layer_0
  10
116.27548
  20
292.16711
  0
VERTEX
  5
501
  8
Layer_0
  10
116.3559
  20
292.23007
  0
VERTEX
  5
502
  8
Layer_0
  10
116.43808
  20
292.29105
  0
VERTEX
  5
503
  8
Layer_0
  10
116.52197
  20
292.3501
  0
VERTEX
  5
504
  8
Layer_0
  10
116.60767
  20
292.4072
  0
VERTEX
  5
505
  8
Layer_0
  10
116.69507
  20
292.46234
  0
VERTEX
  5
506
  8
Layer_0
  10
116.78424
  20
292.51556
  0
VERTEX
  5
507
  8
Layer_0
  10
116.87518
  20
292.56686
  0
VERTEX
  5
508
  8
Layer_0
  10
116.96744
  20
292.61612
  0
VERTEX
  5
509
  8
Layer_0
  10
117.06036
  20
292.66327
  0
VERTEX
  5
50a
  8
Layer_0
  10
117.15408
  20
292.70834
  0
VERTEX
  5
50b
  8
Layer_0
  10
117.24857
  20
292.75131
  0
VERTEX
  5
50c
  8
Layer_0
  10
117.34387
  20
292.79221
  0
VERTEX
  5
50d
  8
Layer_0
  10
117.43985
  20
292.83096
  0
VERTEX
  5
50e
  8
Layer_0
  10
117.53665
  20
292.86765
  0
VERTEX
  5
50f
  8
Layer_0
  10
117.63428
  20
292.90225
  0
VERTEX
  5
510
  8
Layer_0
  10
117.73257
  20
292.93472
  0
VERTEX
  5
511
  8
Layer_0
  10
117.8317
  20
292.96512
  0
VERTEX
  5
512
  8
Layer_0
  10
117.93164
  20
292.99344
  0
VERTEX
  5
513
  8
Layer_0
  10
118.03226
  20
293.01962
  0
VERTEX
  5
514
  8
Layer_0
  10
118.13367
  20
293.04373
  0
VERTEX
  5
515
  8
Layer_0
  10
118.23584
  20
293.06573
  0
VERTEX
  5
516
  8
Layer_0
  10
118.33884
  20
293.08563
  0
VERTEX
  5
517
  8
Layer_0
  10
118.44254
  20
293.10345
  0
VERTEX
  5
518
  8
Layer_0
  10
118.54706
  20
293.11917
  0
VERTEX
  5
519
  8
Layer_0
  10
118.65234
  20
293.13281
  0
VERTEX
  5
51a
  8
Layer_0
  10
118.75836
  20
293.14432
  0
VERTEX
  5
51b
  8
Layer_0
  10
118.8652
  20
293.15378
  0
VERTEX
  5
51c
  8
Layer_0
  10
118.97278
  20
293.1611
  0
VERTEX
  5
51d
  8
Layer_0
  10
119.08112
  20
293.16635
  0
VERTEX
  5
51e
  8
Layer_0
  10
119.19025
  20
293.16949
  0
VERTEX
  5
51f
  8
Layer_0
  10
119.30014
  20
293.17053
  0
VERTEX
  5
520
  8
Layer_0
  10
119.42447
  20
293.16922
  0
VERTEX
  5
521
  8
Layer_0
  10
119.54694
  20
293.16525
  0
VERTEX
  5
522
  8
Layer_0
  10
119.66785
  20
293.1586
  0
VERTEX
  5
523
  8
Layer_0
  10
119.78711
  20
293.14929
  0
VERTEX
  5
524
  8
Layer_0
  10
119.90475
  20
293.13742
  0
VERTEX
  5
525
  8
Layer_0
  10
120.02063
  20
293.12277
  0
VERTEX
  5
526
  8
Layer_0
  10
120.13492
  20
293.10553
  0
VERTEX
  5
527
  8
Layer_0
  10
120.24759
  20
293.08566
  0
VERTEX
  5
528
  8
Layer_0
  10
120.35849
  20
293.06308
  0
VERTEX
  5
529
  8
Layer_0
  10
120.4678
  20
293.0379
  0
VERTEX
  5
52a
  8
Layer_0
  10
120.57556
  20
293.01007
  0
VERTEX
  5
52b
  8
Layer_0
  10
120.68143
  20
292.97952
  0
VERTEX
  5
52c
  8
Layer_0
  10
120.78577
  20
292.94638
  0
VERTEX
  5
52d
  8
Layer_0
  10
120.88843
  20
292.91055
  0
VERTEX
  5
52e
  8
Layer_0
  10
120.9895
  20
292.8721
  0
VERTEX
  5
52f
  8
Layer_0
  10
121.08881
  20
292.83099
  0
VERTEX
  5
530
  8
Layer_0
  10
121.18652
  20
292.7872
  0
VERTEX
  5
531
  8
Layer_0
  10
121.28256
  20
292.74078
  0
VERTEX
  5
532
  8
Layer_0
  10
121.37695
  20
292.69174
  0
VERTEX
  5
533
  8
Layer_0
  10
121.46973
  20
292.63998
  0
VERTEX
  5
534
  8
Layer_0
  10
121.56076
  20
292.5856
  0
VERTEX
  5
535
  8
Layer_0
  10
121.65015
  20
292.52859
  0
VERTEX
  5
536
  8
Layer_0
  10
121.73792
  20
292.4689
  0
VERTEX
  5
537
  8
Layer_0
  10
121.82401
  20
292.40656
  0
VERTEX
  5
538
  8
Layer_0
  10
121.90826
  20
292.34183
  0
VERTEX
  5
539
  8
Layer_0
  10
121.99023
  20
292.27493
  0
VERTEX
  5
53a
  8
Layer_0
  10
122.07013
  20
292.20584
  0
VERTEX
  5
53b
  8
Layer_0
  10
122.14783
  20
292.13467
  0
VERTEX
  5
53c
  8
Layer_0
  10
122.22345
  20
292.06131
  0
VERTEX
  5
53d
  8
Layer_0
  10
122.29678
  20
291.98575
  0
VERTEX
  5
53e
  8
Layer_0
  10
122.36807
  20
291.90811
  0
VERTEX
  5
53f
  8
Layer_0
  10
122.43723
  20
291.82828
  0
VERTEX
  5
540
  8
Layer_0
  10
122.50409
  20
291.74628
  0
VERTEX
  5
541
  8
Layer_0
  10
122.56888
  20
291.66214
  0
VERTEX
  5
542
  8
Layer_0
  10
122.63162
  20
291.57584
  0
VERTEX
  5
543
  8
Layer_0
  10
122.69202
  20
291.48737
  0
VERTEX
  5
544
  8
Layer_0
  10
122.75034
  20
291.39679
  0
VERTEX
  5
545
  8
Layer_0
  10
122.80649
  20
291.30402
  0
VERTEX
  5
546
  8
Layer_0
  10
122.86053
  20
291.20908
  0
VERTEX
  5
547
  8
Layer_0
  10
122.91238
  20
291.11203
  0
VERTEX
  5
548
  8
Layer_0
  10
122.9621
  20
291.01279
  0
VERTEX
  5
549
  8
Layer_0
  10
123.00964
  20
290.91141
  0
VERTEX
  5
54a
  8
Layer_0
  10
123.05505
  20
290.80786
  0
VERTEX
  5
54b
  8
Layer_0
  10
123.09827
  20
290.70218
  0
VERTEX
  5
54c
  8
Layer_0
  10
123.13937
  20
290.59433
  0
VERTEX
  5
54d
  8
Layer_0
  10
123.17825
  20
290.48431
  0
VERTEX
  5
54e
  8
Layer_0
  10
123.21503
  20
290.37216
  0
VERTEX
  5
54f
  8
Layer_0
  10
123.24966
  20
290.25784
  0
VERTEX
  5
550
  8
Layer_0
  10
121.94681
  20
289.9509
  0
SEQEND
  0
POLYLINE
  5
552
  8
Layer_0
  62
0
  70
1
  66
1
  10
0
  20
0
  30
0
  0
VERTEX
  5
552
  8
Layer_0
  10
147.45651
  20
268.46555
  0
VERTEX
  5
553
  8
Layer_0
  10
147.44788
  20
268.61093
  0
VERTEX
  5
554
  8
Layer_0
  10
147.43341
  20
268.75372
  0
VERTEX
  5
555
  8
Layer_0
  10
147.41306
  20
268.89401
  0
VERTEX
  5
556
  8
Layer_0
  10
147.38678
  20
269.03171
  0
VERTEX
  5
557
  8
Layer_0
  10
147.35471
  20
269.16684
  0
VERTEX
  5
558
  8
Layer_0
  10
147.31668
  20
269.29941
  0
VERTEX
  5
559
  8
Layer_0
  10
147.27286
  20
269.42947
  0
VERTEX
  5
55a
  8
Layer_0
  10
147.22311
  20
269.55695
  0
VERTEX
  5
55b
  8
Layer_0
  10
147.16748
  20
269.68185
  0
VERTEX
  5
55c
  8
Layer_0
  10
147.10599
  20
269.8042
  0
VERTEX
  5
55d
  8
Layer_0
  10
147.03867
  20
269.92401
  0
VERTEX
  5
55e
  8
Layer_0
  10
146.96539
  20
270.04123
  0
VERTEX
  5
55f
  8
Layer_0
  10
146.88651
  20
270.15488
  0
VERTEX
  5
560
  8
Layer_0
  10
146.80219
  20
270.26379
  0
VERTEX
  5
561
  8
Layer_0
  10
146.71237
  20
270.36801
  0
VERTEX
  5
562
  8
Layer_0
  10
146.6171
  20
270.46756
  0
VERTEX
  5
563
  8
Layer_0
  10
146.51645
  20
270.56244
  0
VERTEX
  5
564
  8
Layer_0
  10
146.41031
  20
270.65262
  0
VERTEX
  5
565
  8
Layer_0
  10
146.29874
  20
270.73807
  0
VERTEX
  5
566
  8
Layer_0
  10
146.18173
  20
270.81888
  0
VERTEX
  5
567
  8
Layer_0
  10
146.05923
  20
270.89499
  0
VERTEX
  5
568
  8
Layer_0
  10
145.93127
  20
270.96637
  0
VERTEX
  5
569
  8
Layer_0
  10
145.79794
  20
271.03311
  0
VERTEX
  5
56a
  8
Layer_0
  10
145.65912
  20
271.09512
  0
VERTEX
  5
56b
  8
Layer_0
  10
145.51575
  20
271.15231
  0
VERTEX
  5
56c
  8
Layer_0
  10
145.36877
  20
271.20456
  0
VERTEX
  5
56d
  8
Layer_0
  10
145.21811
  20
271.2518
  0
VERTEX
  5
56e
  8
Layer_0
  10
145.06375
  20
271.29407
  0
VERTEX
  5
56f
  8
Layer_0
  10
144.90582
  20
271.33139
  0
VERTEX
  5
570
  8
Layer_0
  10
144.7442
  20
271.36371
  0
VERTEX
  5
571
  8
Layer_0
  10
144.57895
  20
271.39108
  0
VERTEX
  5
572
  8
Layer_0
  10
144.41013
  20
271.41348
  0
VERTEX
  5
573
  8
Layer_0
  10
144.23752
  20
271.43088
  0
VERTEX
  5
574
  8
Layer_0
  10
144.06131
  20
271.4433
  0
VERTEX
  5
575
  8
Layer_0
  10
143.8815
  20
271.45078
  0
VERTEX
  5
576
  8
Layer_0
  10
143.698
  20
271.45325
  0
VERTEX
  5
577
  8
Layer_0
  10
143.53101
  20
271.4509
  0
VERTEX
  5
578
  8
Layer_0
  10
143.36661
  20
271.44379
  0
VERTEX
  5
579
  8
Layer_0
  10
143.20474
  20
271.43192
  0
VERTEX
  5
57a
  8
Layer_0
  10
143.04544
  20
271.41534
  0
VERTEX
  5
57b
  8
Layer_0
  10
142.8887
  20
271.39404
  0
VERTEX
  5
57c
  8
Layer_0
  10
142.7345
  20
271.36798
  0
VERTEX
  5
57d
  8
Layer_0
  10
142.58286
  20
271.33719
  0
VERTEX
  5
57e
  8
Layer_0
  10
142.43384
  20
271.30167
  0
VERTEX
  5
57f
  8
Layer_0
  10
142.28729
  20
271.26138
  0
VERTEX
  5
580
  8
Layer_0
  10
142.14331
  20
271.2164
  0
VERTEX
  5
581
  8
Layer_0
  10
142.00192
  20
271.16666
  0
VERTEX
  5
582
  8
Layer_0
  10
141.86307
  20
271.11218
  0
VERTEX
  5
583
  8
Layer_0
  10
141.72824
  20
271.05313
  0
VERTEX
  5
584
  8
Layer_0
  10
141.59894
  20
270.98969
  0
VERTEX
  5
585
  8
Layer_0
  10
141.47513
  20
270.92184
  0
VERTEX
  5
586
  8
Layer_0
  10
141.35678
  20
270.84958
  0
VERTEX
  5
587
  8
Layer_0
  10
141.24393
  20
270.77289
  0
VERTEX
  5
588
  8
Layer_0
  10
141.1366
  20
270.6918
  0
VERTEX
  5
589
  8
Layer_0
  10
141.03476
  20
270.60635
  0
VERTEX
  5
58a
  8
Layer_0
  10
140.93848
  20
270.51648
  0
VERTEX
  5
58b
  8
Layer_0
  10
140.84756
  20
270.42218
  0
VERTEX
  5
58c
  8
Layer_0
  10
140.76221
  20
270.32346
  0
VERTEX
  5
58d
  8
Layer_0
  10
140.68237
  20
270.22037
  0
VERTEX
  5
58e
  8
Layer_0
  10
140.60797
  20
270.11288
  0
VERTEX
  5
58f
  8
Layer_0
  10
140.53934
  20
270.00247
  0
VERTEX
  5
590
  8
Layer_0
  10
140.47665
  20
269.89072
  0
VERTEX
  5
591
  8
Layer_0
  10
140.41995
  20
269.77756
  0
VERTEX
  5
592
  8
Layer_0
  10
140.36923
  20
269.66306
  0
VERTEX
  5
593
  8
Layer_0
  10
140.32446
  20
269.54715
  0
VERTEX
  5
594
  8
Layer_0
  10
140.28564
  20
269.4299
  0
VERTEX
  5
595
  8
Layer_0
  10
140.25281
  20
269.31125
  0
VERTEX
  5
596
  8
Layer_0
  10
140.22601
  20
269.19125
  0
VERTEX
  5
597
  8
Layer_0
  10
140.20508
  20
269.06985
  0
VERTEX
  5
598
  8
Layer_0
  10
140.19019
  20
268.94708
  0
VERTEX
  5
599
  8
Layer_0
  10
140.18121
  20
268.82297
  0
VERTEX
  5
59a
  8
Layer_0
  10
140.17822
  20
268.69745
  0
VERTEX
  5
59b
  8
Layer_0
  10
140.18063
  20
268.58353
  0
VERTEX
  5
59c
  8
Layer_0
  10
140.18802
  20
268.4715
  0
VERTEX
  5
59d
  8
Layer_0
  10
140.20016
  20
268.3613
  0
VERTEX
  5
59e
  8
Layer_0
  10
140.21725
  20
268.25293
  0
VERTEX
  5
59f
  8
Layer_0
  10
140.2392
  20
268.14642
  0
VERTEX
  5
5a0
  8
Layer_0
  10
140.26605
  20
268.04175
  0
VERTEX
  5
5a1
  8
Layer_0
  10
140.29776
  20
267.93893
  0
VERTEX
  5
5a2
  8
Layer_0
  10
140.33441
  20
267.83798
  0
VERTEX
  5
5a3
  8
Layer_0
  10
140.37582
  20
267.73886
  0
VERTEX
  5
5a4
  8
Layer_0
  10
140.42218
  20
267.64157
  0
VERTEX
  5
5a5
  8
Layer_0
  10
140.47339
  20
267.54614
  0
VERTEX
  5
5a6
  8
Layer_0
  10
140.52951
  20
267.45255
  0
VERTEX
  5
5a7
  8
Layer_0
  10
140.59058
  20
267.36118
  0
VERTEX
  5
5a8
  8
Layer_0
  10
140.65677
  20
267.27228
  0
VERTEX
  5
5a9
  8
Layer_0
  10
140.728
  20
267.18588
  0
VERTEX
  5
5aa
  8
Layer_0
  10
140.80426
  20
267.10202
  0
VERTEX
  5
5ab
  8
Layer_0
  10
140.88562
  20
267.02066
  0
VERTEX
  5
5ac
  8
Layer_0
  10
140.97202
  20
266.9418
  0
VERTEX
  5
5ad
  8
Layer_0
  10
141.06354
  20
266.86551
  0
VERTEX
  5
5ae
  8
Layer_0
  10
141.16019
  20
266.79169
  0
VERTEX
  5
5af
  8
Layer_0
  10
141.26175
  20
266.72037
  0
VERTEX
  5
5b0
  8
Layer_0
  10
141.36841
  20
266.65152
  0
VERTEX
  5
5b1
  8
Layer_0
  10
141.48019
  20
266.58524
  0
VERTEX
  5
5b2
  8
Layer_0
  10
141.64453
  20
266.49692
  0
VERTEX
  5
5b3
  8
Layer_0
  10
141.74808
  20
266.44754
  0
VERTEX
  5
5b4
  8
Layer_0
  10
141.86307
  20
266.39761
  0
VERTEX
  5
5b5
  8
Layer_0
  10
142.0571
  20
266.32175
  0
VERTEX
  5
5b6
  8
Layer_0
  10
142.27689
  20
266.24472
  0
VERTEX
  5
5b7
  8
Layer_0
  10
142.52252
  20
266.1665
  0
VERTEX
  5
5b8
  8
Layer_0
  10
142.79391
  20
266.0871
  0
VERTEX
  5
5b9
  8
Layer_0
  10
143.19586
  20
265.97943
  0
VERTEX
  5
5ba
  8
Layer_0
  10
143.95969
  20
265.79187
  0
VERTEX
  5
5bb
  8
Layer_0
  10
144.50638
  20
265.65182
  0
VERTEX
  5
5bc
  8
Layer_0
  10
144.99008
  20
265.5159
  0
VERTEX
  5
5bd
  8
Layer_0
  10
145.23398
  20
265.43695
  0
VERTEX
  5
5be
  8
Layer_0
  10
145.40994
  20
265.36902
  0
VERTEX
  5
5bf
  8
Layer_0
  10
145.50717
  20
265.32687
  0
VERTEX
  5
5c0
  8
Layer_0
  10
145.59946
  20
265.28317
  0
VERTEX
  5
5c1
  8
Layer_0
  10
145.6868
  20
265.23792
  0
VERTEX
  5
5c2
  8
Layer_0
  10
145.7692
  20
265.1911
  0
VERTEX
  5
5c3
  8
Layer_0
  10
145.84671
  20
265.1427
  0
VERTEX
  5
5c4
  8
Layer_0
  10
145.91928
  20
265.09274
  0
VERTEX
  5
5c5
  8
Layer_0
  10
145.98697
  20
265.04126
  0
VERTEX
  5
5c6
  8
Layer_0
  10
146.04965
  20
264.98816
  0
VERTEX
  5
5c7
  8
Layer_0
  10
146.10742
  20
264.9335
  0
VERTEX
  5
5c8
  8
Layer_0
  10
146.16031
  20
264.87732
  0
VERTEX
  5
5c9
  8
Layer_0
  10
146.20822
  20
264.81955
  0
VERTEX
  5
5ca
  8
Layer_0
  10
146.23047
  20
264.79007
  0
VERTEX
  5
5cb
  8
Layer_0
  10
146.2916
  20
264.69913
  0
VERTEX
  5
5cc
  8
Layer_0
  10
146.32761
  20
264.63644
  0
VERTEX
  5
5cd
  8
Layer_0
  10
146.35983
  20
264.57208
  0
VERTEX
  5
5ce
  8
Layer_0
  10
146.38824
  20
264.50607
  0
VERTEX
  5
5cf
  8
Layer_0
  10
146.42386
  20
264.40396
  0
VERTEX
  5
5d0
  8
Layer_0
  10
146.44272
  20
264.3338
  0
VERTEX
  5
5d1
  8
Layer_0
  10
146.45789
  20
264.26199
  0
VERTEX
  5
5d2
  8
Layer_0
  10
146.47348
  20
264.15115
  0
VERTEX
  5
5d3
  8
Layer_0
  10
146.48068
  20
264.03665
  0
VERTEX
  5
5d4
  8
Layer_0
  10
146.48059
  20
263.95908
  0
VERTEX
  5
5d5
  8
Layer_0
  10
146.47324
  20
263.84497
  0
VERTEX
  5
5d6
  8
Layer_0
  10
146.46338
  20
263.77014
  0
VERTEX
  5
5d7
  8
Layer_0
  10
146.44962
  20
263.69632
  0
VERTEX
  5
5d8
  8
Layer_0
  10
146.43192
  20
263.62347
  0
VERTEX
  5
5d9
  8
Layer_0
  10
146.39813
  20
263.51611
  0
VERTEX
  5
5da
  8
Layer_0
  10
146.35535
  20
263.41098
  0
VERTEX
  5
5db
  8
Layer_0
  10
146.30374
  20
263.30807
  0
VERTEX
  5
5dc
  8
Layer_0
  10
146.24326
  20
263.20737
  0
VERTEX
  5
5dd
  8
Layer_0
  10
146.198
  20
263.14151
  0
VERTEX
  5
5de
  8
Layer_0
  10
146.14874
  20
263.0773
  0
VERTEX
  5
5df
  8
Layer_0
  10
146.0954
  20
263.01541
  0
VERTEX
  5
5e0
  8
Layer_0
  10
146.0379
  20
262.95584
  0
VERTEX
  5
5e1
  8
Layer_0
  10
145.97629
  20
262.89859
  0
VERTEX
  5
5e2
  8
Layer_0
  10
145.91058
  20
262.84369
  0
VERTEX
  5
5e3
  8
Layer_0
  10
145.84076
  20
262.79108
  0
VERTEX
  5
5e4
  8
Layer_0
  10
145.76675
  20
262.74081
  0
VERTEX
  5
5e5
  8
Layer_0
  10
145.68875
  20
262.69284
  0
VERTEX
  5
5e6
  8
Layer_0
  10
145.60651
  20
262.64719
  0
VERTEX
  5
5e7
  8
Layer_0
  10
145.52014
  20
262.60385
  0
VERTEX
  5
5e8
  8
Layer_0
  10
145.42969
  20
262.56287
  0
VERTEX
  5
5e9
  8
Layer_0
  10
145.33511
  20
262.5242
  0
VERTEX
  5
5ea
  8
Layer_0
  10
145.23724
  20
262.48822
  0
VERTEX
  5
5eb
  8
Layer_0
  10
145.13693
  20
262.45541
  0
VERTEX
  5
5ec
  8
Layer_0
  10
145.03415
  20
262.42569
  0
VERTEX
  5
5ed
  8
Layer_0
  10
144.92886
  20
262.39914
  0
VERTEX
  5
5ee
  8
Layer_0
  10
144.82114
  20
262.3757
  0
VERTEX
  5
5ef
  8
Layer_0
  10
144.71097
  20
262.35538
  0
VERTEX
  5
5f0
  8
Layer_0
  10
144.59833
  20
262.33817
  0
VERTEX
  5
5f1
  8
Layer_0
  10
144.48328
  20
262.32413
  0
VERTEX
  5
5f2
  8
Layer_0
  10
144.36563
  20
262.31314
  0
VERTEX
  5
5f3
  8
Layer_0
  10
144.24557
  20
262.30533
  0
VERTEX
  5
5f4
  8
Layer_0
  10
144.12311
  20
262.30066
  0
VERTEX
  5
5f5
  8
Layer_0
  10
143.99814
  20
262.2991
  0
VERTEX
  5
5f6
  8
Layer_0
  10
143.85718
  20
262.30115
  0
VERTEX
  5
5f7
  8
Layer_0
  10
143.71866
  20
262.30734
  0
VERTEX
  5
5f8
  8
Layer_0
  10
143.58246
  20
262.31763
  0
VERTEX
  5
5f9
  8
Layer_0
  10
143.44864
  20
262.33206
  0
VERTEX
  5
5fa
  8
Layer_0
  10
143.3172
  20
262.35062
  0
VERTEX
  5
5fb
  8
Layer_0
  10
143.18814
  20
262.37326
  0
VERTEX
  5
5fc
  8
Layer_0
  10
143.0614
  20
262.40005
  0
VERTEX
  5
5fd
  8
Layer_0
  10
142.93713
  20
262.431
  0
VERTEX
  5
5fe
  8
Layer_0
  10
142.81506
  20
262.46597
  0
VERTEX
  5
5ff
  8
Layer_0
  10
142.69543
  20
262.50516
  0
VERTEX
  5
600
  8
Layer_0
  10
142.57825
  20
262.54843
  0
VERTEX
  5
601
  8
Layer_0
  10
142.46335
  20
262.59579
  0
VERTEX
  5
602
  8
Layer_0
  10
142.35214
  20
262.64651
  0
VERTEX
  5
603
  8
Layer_0
  10
142.24594
  20
262.69983
  0
VERTEX
  5
604
  8
Layer_0
  10
142.14468
  20
262.75568
  0
VERTEX
  5
605
  8
Layer_0
  10
142.04837
  20
262.81409
  0
VERTEX
  5
606
  8
Layer_0
  10
141.95706
  20
262.87506
  0
VERTEX
  5
607
  8
Layer_0
  10
141.87076
  20
262.93857
  0
VERTEX
  5
608
  8
Layer_0
  10
141.7894
  20
263.00467
  0
VERTEX
  5
609
  8
Layer_0
  10
141.71307
  20
263.07333
  0
VERTEX
  5
60a
  8
Layer_0
  10
141.6416
  20
263.1445
  0
VERTEX
  5
60b
  8
Layer_0
  10
141.57513
  20
263.21826
  0
VERTEX
  5
60c
  8
Layer_0
  10
141.5137
  20
263.29459
  0
VERTEX
  5
60d
  8
Layer_0
  10
141.45721
  20
263.37344
  0
VERTEX
  5
60e
  8
Layer_0
  10
141.40485
  20
263.45547
  0
VERTEX
  5
60f
  8
Layer_0
  10
141.35577
  20
263.54123
  0
VERTEX
  5
610
  8
Layer_0
  10
141.30991
  20
263.63074
  0
VERTEX
  5
611
  8
Layer_0
  10
141.26736
  20
263.72397
  0
VERTEX
  5
612
  8
Layer_0
  10
141.22806
  20
263.82095
  0
VERTEX
  5
613
  8
Layer_0
  10
141.19205
  20
263.92169
  0
VERTEX
  5
614
  8
Layer_0
  10
141.15927
  20
264.02618
  0
VERTEX
  5
615
  8
Layer_0
  10
141.12982
  20
264.13443
  0
VERTEX
  5
616
  8
Layer_0
  10
141.10358
  20
264.24637
  0
VERTEX
  5
617
  8
Layer_0
  10
141.08063
  20
264.36203
  0
VERTEX
  5
618
  8
Layer_0
  10
141.06094
  20
264.48148
  0
VERTEX
  5
619
  8
Layer_0
  10
141.04453
  20
264.60468
  0
VERTEX
  5
61a
  8
Layer_0
  10
139.79623
  20
264.49554
  0
VERTEX
  5
61b
  8
Layer_0
  10
139.79938
  20
264.41232
  0
VERTEX
  5
61c
  8
Layer_0
  10
139.81076
  20
264.24811
  0
VERTEX
  5
61d
  8
Layer_0
  10
139.82907
  20
264.08676
  0
VERTEX
  5
61e
  8
Layer_0
  10
139.85422
  20
263.92831
  0
VERTEX
  5
61f
  8
Layer_0
  10
139.8862
  20
263.77274
  0
VERTEX
  5
620
  8
Layer_0
  10
139.92514
  20
263.62009
  0
VERTEX
  5
621
  8
Layer_0
  10
139.97098
  20
263.47031
  0
VERTEX
  5
622
  8
Layer_0
  10
140.0235
  20
263.32339
  0
VERTEX
  5
623
  8
Layer_0
  10
140.08301
  20
263.17941
  0
VERTEX
  5
624
  8
Layer_0
  10
140.14941
  20
263.0383
  0
VERTEX
  5
625
  8
Layer_0
  10
140.2226
  20
262.90005
  0
VERTEX
  5
626
  8
Layer_0
  10
140.3028
  20
262.76474
  0
VERTEX
  5
627
  8
Layer_0
  10
140.3895
  20
262.6326
  0
VERTEX
  5
628
  8
Layer_0
  10
140.48196
  20
262.50571
  0
VERTEX
  5
629
  8
Layer_0
  10
140.57993
  20
262.38434
  0
VERTEX
  5
62a
  8
Layer_0
  10
140.63098
  20
262.32574
  0
VERTEX
  5
62b
  8
Layer_0
  10
140.73718
  20
262.21268
  0
VERTEX
  5
62c
  8
Layer_0
  10
140.84885
  20
262.10519
  0
VERTEX
  5
62d
  8
Layer_0
  10
140.96609
  20
262.0032
  0
VERTEX
  5
62e
  8
Layer_0
  10
141.08875
  20
261.9068
  0
VERTEX
  5
62f
  8
Layer_0
  10
141.21698
  20
261.81595
  0
VERTEX
  5
630
  8
Layer_0
  10
141.35062
  20
261.73059
  0
VERTEX
  5
631
  8
Layer_0
  10
141.48981
  20
261.65079
  0
VERTEX
  5
632
  8
Layer_0
  10
141.63446
  20
261.57651
  0
VERTEX
  5
633
  8
Layer_0
  10
141.78464
  20
261.50781
  0
VERTEX
  5
634
  8
Layer_0
  10
141.94058
  20
261.44461
  0
VERTEX
  5
635
  8
Layer_0
  10
142.10269
  20
261.38693
  0
VERTEX
  5
636
  8
Layer_0
  10
142.27084
  20
261.33472
  0
VERTEX
  5
637
  8
Layer_0
  10
142.44516
  20
261.28802
  0
VERTEX
  5
638
  8
Layer_0
  10
142.62558
  20
261.2468
  0
VERTEX
  5
639
  8
Layer_0
  10
142.8121
  20
261.21109
  0
VERTEX
  5
63a
  8
Layer_0
  10
143.0047
  20
261.18088
  0
VERTEX
  5
63b
  8
Layer_0
  10
143.20352
  20
261.15616
  0
VERTEX
  5
63c
  8
Layer_0
  10
143.40829
  20
261.1369
  0
VERTEX
  5
63d
  8
Layer_0
  10
143.61929
  20
261.12317
  0
VERTEX
  5
63e
  8
Layer_0
  10
143.83636
  20
261.11493
  0
VERTEX
  5
63f
  8
Layer_0
  10
144.05954
  20
261.11218
  0
VERTEX
  5
640
  8
Layer_0
  10
144.23651
  20
261.1149
  0
VERTEX
  5
641
  8
Layer_0
  10
144.41055
  20
261.12308
  0
VERTEX
  5
642
  8
Layer_0
  10
144.58157
  20
261.13669
  0
VERTEX
  5
643
  8
Layer_0
  10
144.7496
  20
261.15576
  0
VERTEX
  5
644
  8
Layer_0
  10
144.9147
  20
261.18027
  0
VERTEX
  5
645
  8
Layer_0
  10
145.07675
  20
261.21024
  0
VERTEX
  5
646
  8
Layer_0
  10
145.23581
  20
261.24564
  0
VERTEX
  5
647
  8
Layer_0
  10
145.392
  20
261.28653
  0
VERTEX
  5
648
  8
Layer_0
  10
145.54507
  20
261.33282
  0
VERTEX
  5
649
  8
Layer_0
  10
145.69522
  20
261.38455
  0
VERTEX
  5
64a
  8
Layer_0
  10
145.84241
  20
261.44177
  0
VERTEX
  5
64b
  8
Layer_0
  10
145.98654
  20
261.50443
  0
VERTEX
  5
64c
  8
Layer_0
  10
146.12643
  20
261.57196
  0
VERTEX
  5
64d
  8
Layer_0
  10
146.26083
  20
261.64389
  0
VERTEX
  5
64e
  8
Layer_0
  10
146.38965
  20
261.72012
  0
VERTEX
  5
64f
  8
Layer_0
  10
146.51291
  20
261.80075
  0
VERTEX
  5
650
  8
Layer_0
  10
146.63065
  20
261.88574
  0
VERTEX
  5
651
  8
Layer_0
  10
146.74283
  20
261.97507
  0
VERTEX
  5
652
  8
Layer_0
  10
146.84949
  20
262.06876
  0
VERTEX
  5
653
  8
Layer_0
  10
146.95065
  20
262.16684
  0
VERTEX
  5
654
  8
Layer_0
  10
147.0462
  20
262.26926
  0
VERTEX
  5
655
  8
Layer_0
  10
147.1362
  20
262.37601
  0
VERTEX
  5
656
  8
Layer_0
  10
147.2207
  20
262.48715
  0
VERTEX
  5
657
  8
Layer_0
  10
147.29965
  20
262.60263
  0
VERTEX
  5
658
  8
Layer_0
  10
147.37262
  20
262.72092
  0
VERTEX
  5
659
  8
Layer_0
  10
147.4393
  20
262.84055
  0
VERTEX
  5
65a
  8
Layer_0
  10
147.4996
  20
262.9614
  0
VERTEX
  5
65b
  8
Layer_0
  10
147.55356
  20
263.08353
  0
VERTEX
  5
65c
  8
Layer_0
  10
147.60117
  20
263.20694
  0
VERTEX
  5
65d
  8
Layer_0
  10
147.64243
  20
263.33167
  0
VERTEX
  5
65e
  8
Layer_0
  10
147.67731
  20
263.45764
  0
VERTEX
  5
65f
  8
Layer_0
  10
147.70593
  20
263.58493
  0
VERTEX
  5
660
  8
Layer_0
  10
147.72809
  20
263.71341
  0
VERTEX
  5
661
  8
Layer_0
  10
147.74396
  20
263.84323
  0
VERTEX
  5
662
  8
Layer_0
  10
147.75348
  20
263.97433
  0
VERTEX
  5
663
  8
Layer_0
  10
147.75665
  20
264.10672
  0
VERTEX
  5
664
  8
Layer_0
  10
147.75375
  20
264.23956
  0
VERTEX
  5
665
  8
Layer_0
  10
147.74509
  20
264.36984
  0
VERTEX
  5
666
  8
Layer_0
  10
147.73062
  20
264.49747
  0
VERTEX
  5
667
  8
Layer_0
  10
147.71042
  20
264.62247
  0
VERTEX
  5
668
  8
Layer_0
  10
147.68442
  20
264.7449
  0
VERTEX
  5
669
  8
Layer_0
  10
147.65262
  20
264.86475
  0
VERTEX
  5
66a
  8
Layer_0
  10
147.61505
  20
264.98196
  0
VERTEX
  5
66b
  8
Layer_0
  10
147.57178
  20
265.09659
  0
VERTEX
  5
66c
  8
Layer_0
  10
147.54788
  20
265.15289
  0
VERTEX
  5
66d
  8
Layer_0
  10
147.49594
  20
265.26361
  0
VERTEX
  5
66e
  8
Layer_0
  10
147.43808
  20
265.3717
  0
VERTEX
  5
66f
  8
Layer_0
  10
147.3746
  20
265.4772
  0
VERTEX
  5
670
  8
Layer_0
  10
147.30511
  20
265.58005
  0
VERTEX
  5
671
  8
Layer_0
  10
147.2294
  20
265.67993
  0
VERTEX
  5
672
  8
Layer_0
  10
147.14734
  20
265.77686
  0
VERTEX
  5
673
  8
Layer_0
  10
147.05896
  20
265.87079
  0
VERTEX
  5
674
  8
Layer_0
  10
146.96426
  20
265.96176
  0
VERTEX
  5
675
  8
Layer_0
  10
146.86313
  20
266.04971
  0
VERTEX
  5
676
  8
Layer_0
  10
146.75583
  20
266.1347
  0
VERTEX
  5
677
  8
Layer_0
  10
146.64194
  20
266.21671
  0
VERTEX
  5
678
  8
Layer_0
  10
146.52179
  20
266.29568
  0
VERTEX
  5
679
  8
Layer_0
  10
146.39536
  20
266.37173
  0
VERTEX
  5
67a
  8
Layer_0
  10
146.26248
  20
266.44479
  0
VERTEX
  5
67b
  8
Layer_0
  10
146.12338
  20
266.51486
  0
VERTEX
  5
67c
  8
Layer_0
  10
145.99954
  20
266.57162
  0
VERTEX
  5
67d
  8
Layer_0
  10
145.88544
  20
266.61841
  0
VERTEX
  5
67e
  8
Layer_0
  10
145.6879
  20
266.69092
  0
VERTEX
  5
67f
  8
Layer_0
  10
145.45871
  20
266.76633
  0
VERTEX
  5
680
  8
Layer_0
  10
145.19781
  20
266.84464
  0
VERTEX
  5
681
  8
Layer_0
  10
144.80081
  20
266.95352
  0
VERTEX
  5
682
  8
Layer_0
  10
144.34741
  20
267.06744
  0
VERTEX
  5
683
  8
Layer_0
  10
143.70554
  20
267.21692
  0
VERTEX
  5
684
  8
Layer_0
  10
143.33429
  20
267.30771
  0
VERTEX
  5
685
  8
Layer_0
  10
143.10818
  20
267.36795
  0
VERTEX
  5
686
  8
Layer_0
  10
142.89914
  20
267.42792
  0
VERTEX
  5
687
  8
Layer_0
  10
142.70724
  20
267.4877
  0
VERTEX
  5
688
  8
Layer_0
  10
142.53241
  20
267.54721
  0
VERTEX
  5
689
  8
Layer_0
  10
142.37469
  20
267.60648
  0
VERTEX
  5
68a
  8
Layer_0
  10
142.23413
  20
267.66556
  0
VERTEX
  5
68b
  8
Layer_0
  10
142.11057
  20
267.72433
  0
VERTEX
  5
68c
  8
Layer_0
  10
142.00412
  20
267.78293
  0
VERTEX
  5
68d
  8
Layer_0
  10
141.95737
  20
267.8121
  0
VERTEX
  5
68e
  8
Layer_0
  10
141.91486
  20
267.84128
  0
VERTEX
  5
68f
  8
Layer_0
  10
141.87668
  20
267.87036
  0
VERTEX
  5
690
  8
Layer_0
  10
141.84262
  20
267.89935
  0
VERTEX
  5
691
  8
Layer_0
  10
141.78049
  20
267.95865
  0
VERTEX
  5
692
  8
Layer_0
  10
141.72385
  20
268.02063
  0
VERTEX
  5
693
  8
Layer_0
  10
141.67252
  20
268.08524
  0
VERTEX
  5
694
  8
Layer_0
  10
141.62662
  20
268.1525
  0
VERTEX
  5
695
  8
Layer_0
  10
141.58609
  20
268.22241
  0
VERTEX
  5
696
  8
Layer_0
  10
141.55099
  20
268.29498
  0
VERTEX
  5
697
  8
Layer_0
  10
141.5213
  20
268.37021
  0
VERTEX
  5
698
  8
Layer_0
  10
141.49707
  20
268.44809
  0
VERTEX
  5
699
  8
Layer_0
  10
141.47076
  20
268.56992
  0
VERTEX
  5
69a
  8
Layer_0
  10
141.45987
  20
268.65439
  0
VERTEX
  5
69b
  8
Layer_0
  10
141.45456
  20
268.74155
  0
VERTEX
  5
69c
  8
Layer_0
  10
141.45477
  20
268.83752
  0
VERTEX
  5
69d
  8
Layer_0
  10
141.46237
  20
268.93848
  0
VERTEX
  5
69e
  8
Layer_0
  10
141.47763
  20
269.0369
  0
VERTEX
  5
69f
  8
Layer_0
  10
141.48813
  20
269.08517
  0
VERTEX
  5
6a0
  8
Layer_0
  10
141.5148
  20
269.17987
  0
VERTEX
  5
6a1
  8
Layer_0
  10
141.54913
  20
269.272
  0
VERTEX
  5
6a2
  8
Layer_0
  10
141.59106
  20
269.36166
  0
VERTEX
  5
6a3
  8
Layer_0
  10
141.64063
  20
269.44882
  0
VERTEX
  5
6a4
  8
Layer_0
  10
141.69788
  20
269.53348
  0
VERTEX
  5
6a5
  8
Layer_0
  10
141.7627
  20
269.61554
  0
VERTEX
  5
6a6
  8
Layer_0
  10
141.83511
  20
269.69516
  0
VERTEX
  5
6a7
  8
Layer_0
  10
141.91522
  20
269.77225
  0
VERTEX
  5
6a8
  8
Layer_0
  10
142.0029
  20
269.84683
  0
VERTEX
  5
6a9
  8
Layer_0
  10
142.04977
  20
269.88272
  0
VERTEX
  5
6aa
  8
Layer_0
  10
142.09894
  20
269.91708
  0
VERTEX
  5
6ab
  8
Layer_0
  10
142.15036
  20
269.94995
  0
VERTEX
  5
6ac
  8
Layer_0
  10
142.20404
  20
269.98129
  0
VERTEX
  5
6ad
  8
Layer_0
  10
142.25998
  20
270.01108
  0
VERTEX
  5
6ae
  8
Layer_0
  10
142.31818
  20
270.03931
  0
VERTEX
  5
6af
  8
Layer_0
  10
142.37863
  20
270.06607
  0
VERTEX
  5
6b0
  8
Layer_0
  10
142.44138
  20
270.09125
  0
VERTEX
  5
6b1
  8
Layer_0
  10
142.50635
  20
270.11493
  0
VERTEX
  5
6b2
  8
Layer_0
  10
142.57358
  20
270.13708
  0
VERTEX
  5
6b3
  8
Layer_0
  10
142.6431
  20
270.15771
  0
VERTEX
  5
6b4
  8
Layer_0
  10
142.71487
  20
270.17682
  0
VERTEX
  5
6b5
  8
Layer_0
  10
142.8652
  20
270.21042
  0
VERTEX
  5
6b6
  8
Layer_0
  10
143.02463
  20
270.23795
  0
VERTEX
  5
6b7
  8
Layer_0
  10
143.19299
  20
270.25931
  0
VERTEX
  5
6b8
  8
Layer_0
  10
143.37045
  20
270.27457
  0
VERTEX
  5
6b9
  8
Layer_0
  10
143.55704
  20
270.28372
  0
VERTEX
  5
6ba
  8
Layer_0
  10
143.75256
  20
270.2868
  0
VERTEX
  5
6bb
  8
Layer_0
  10
143.9408
  20
270.28342
  0
VERTEX
  5
6bc
  8
Layer_0
  10
144.12122
  20
270.27335
  0
VERTEX
  5
6bd
  8
Layer_0
  10
144.29379
  20
270.25653
  0
VERTEX
  5
6be
  8
Layer_0
  10
144.45859
  20
270.233
  0
VERTEX
  5
6bf
  8
Layer_0
  10
144.61551
  20
270.20273
  0
VERTEX
  5
6c0
  8
Layer_0
  10
144.69107
  20
270.18506
  0
VERTEX
  5
6c1
  8
Layer_0
  10
144.76468
  20
270.16574
  0
VERTEX
  5
6c2
  8
Layer_0
  10
144.8364
  20
270.14474
  0
VERTEX
  5
6c3
  8
Layer_0
  10
144.90601
  20
270.12198
  0
VERTEX
  5
6c4
  8
Layer_0
  10
144.97375
  20
270.09763
  0
VERTEX
  5
6c5
  8
Layer_0
  10
145.03961
  20
270.07156
  0
VERTEX
  5
6c6
  8
Layer_0
  10
145.10333
  20
270.04379
  0
VERTEX
  5
6c7
  8
Layer_0
  10
145.16519
  20
270.01437
  0
VERTEX
  5
6c8
  8
Layer_0
  10
145.22522
  20
269.98331
  0
VERTEX
  5
6c9
  8
Layer_0
  10
145.28311
  20
269.95047
  0
VERTEX
  5
6ca
  8
Layer_0
  10
145.33911
  20
269.91599
  0
VERTEX
  5
6cb
  8
Layer_0
  10
145.39319
  20
269.87985
  0
VERTEX
  5
6cc
  8
Layer_0
  10
145.44534
  20
269.84204
  0
VERTEX
  5
6cd
  8
Layer_0
  10
145.49542
  20
269.80249
  0
VERTEX
  5
6ce
  8
Layer_0
  10
145.54373
  20
269.76132
  0
VERTEX
  5
6cf
  8
Layer_0
  10
145.59036
  20
269.71854
  0
VERTEX
  5
6d0
  8
Layer_0
  10
145.63531
  20
269.67416
  0
VERTEX
  5
6d1
  8
Layer_0
  10
145.67859
  20
269.62817
  0
VERTEX
  5
6d2
  8
Layer_0
  10
145.72012
  20
269.58057
  0
VERTEX
  5
6d3
  8
Layer_0
  10
145.75995
  20
269.53134
  0
VERTEX
  5
6d4
  8
Layer_0
  10
145.79813
  20
269.48053
  0
VERTEX
  5
6d5
  8
Layer_0
  10
145.83456
  20
269.42807
  0
VERTEX
  5
6d6
  8
Layer_0
  10
145.86935
  20
269.37402
  0
VERTEX
  5
6d7
  8
Layer_0
  10
145.90244
  20
269.31839
  0
VERTEX
  5
6d8
  8
Layer_0
  10
145.93381
  20
269.26111
  0
VERTEX
  5
6d9
  8
Layer_0
  10
145.9635
  20
269.20224
  0
VERTEX
  5
6da
  8
Layer_0
  10
145.99161
  20
269.14175
  0
VERTEX
  5
6db
  8
Layer_0
  10
146.01782
  20
269.07962
  0
VERTEX
  5
6dc
  8
Layer_0
  10
146.04245
  20
269.0159
  0
VERTEX
  5
6dd
  8
Layer_0
  10
146.0654
  20
268.95062
  0
VERTEX
  5
6de
  8
Layer_0
  10
146.08661
  20
268.8837
  0
VERTEX
  5
6df
  8
Layer_0
  10
146.12405
  20
268.74496
  0
VERTEX
  5
6e0
  8
Layer_0
  10
146.15457
  20
268.59982
  0
VERTEX
  5
6e1
  8
Layer_0
  10
146.17847
  20
268.44827
  0
VERTEX
  5
6e2
  8
Layer_0
  10
146.18777
  20
268.37003
  0
VERTEX
  5
6e3
  8
Layer_0
  10
147.45651
  20
268.46555
  0
SEQEND
  0
POLYLINE
  5
6e5
  8
Layer_0
  62
0
  70
1
  66
1
  10
0
  20
0
  30
0
  0
VERTEX
  5
6e5
  8
Layer_0
  10
149.41425
  20
271.28271
  0
VERTEX
  5
6e6
  8
Layer_0
  10
149.41425
  20
269.8707
  0
VERTEX
  5
6e7
  8
Layer_0
  10
150.64206
  20
269.8707
  0
VERTEX
  5
6e8
  8
Layer_0
  10
150.64206
  20
271.28271
  0
VERTEX
  5
6e9
  8
Layer_0
  10
149.41425
  20
271.28271
  0
SEQEND
  0
POLYLINE
  5
6eb
  8
Layer_0
  62
0
  70
1
  66
1
  10
0
  20
0
  30
0
  0
VERTEX
  5
6eb
  8
Layer_0
  10
149.41425
  20
268.52692
  0
VERTEX
  5
6ec
  8
Layer_0
  10
149.41425
  20
261.28271
  0
VERTEX
  5
6ed
  8
Layer_0
  10
150.64206
  20
261.28271
  0
VERTEX
  5
6ee
  8
Layer_0
  10
150.64206
  20
268.52692
  0
VERTEX
  5
6ef
  8
Layer_0
  10
149.41425
  20
268.52692
  0
SEQEND
  0
POLYLINE
  5
6f1
  8
Layer_0
  62
0
  70
1
  66
1
  10
0
  20
0
  30
0
  0
VERTEX
  5
6f1
  8
Layer_0
  10
165.50687
  20
283.54007
  0
VERTEX
  5
6f2
  8
Layer_0
  10
165.50687
  20
287.60556
  0
VERTEX
  5
6f3
  8
Layer_0
  10
168.07166
  20
287.60553
  0
VERTEX
  5
6f4
  8
Layer_0
  10
168.24615
  20
287.60706
  0
VERTEX
  5
6f5
  8
Layer_0
  10
168.41614
  20
287.61166
  0
VERTEX
  5
6f6
  8
Layer_0
  10
168.58154
  20
287.61932
  0
VERTEX
  5
6f7
  8
Layer_0
  10
168.74243
  20
287.63007
  0
VERTEX
  5
6f8
  8
Layer_0
  10
168.89871
  20
287.64389
  0
VERTEX
  5
6f9
  8
Layer_0
  10
169.05051
  20
287.66077
  0
VERTEX
  5
6fa
  8
Layer_0
  10
169.19775
  20
287.68069
  0
VERTEX
  5
6fb
  8
Layer_0
  10
169.34042
  20
287.70367
  0
VERTEX
  5
6fc
  8
Layer_0
  10
169.47858
  20
287.72977
  0
VERTEX
  5
6fd
  8
Layer_0
  10
169.61209
  20
287.75891
  0
VERTEX
  5
6fe
  8
Layer_0
  10
169.74115
  20
287.79111
  0
VERTEX
  5
6ff
  8
Layer_0
  10
169.86566
  20
287.82639
  0
VERTEX
  5
700
  8
Layer_0
  10
169.98569
  20
287.86475
  0
VERTEX
  5
701
  8
Layer_0
  10
170.10098
  20
287.90613
  0
VERTEX
  5
702
  8
Layer_0
  10
170.21182
  20
287.95062
  0
VERTEX
  5
703
  8
Layer_0
  10
170.31818
  20
287.99817
  0
VERTEX
  5
704
  8
Layer_0
  10
170.41986
  20
288.04874
  0
VERTEX
  5
705
  8
Layer_0
  10
170.51709
  20
288.10242
  0
VERTEX
  5
706
  8
Layer_0
  10
170.60977
  20
288.15918
  0
VERTEX
  5
707
  8
Layer_0
  10
170.69785
  20
288.21899
  0
VERTEX
  5
708
  8
Layer_0
  10
170.7814
  20
288.28186
  0
VERTEX
  5
709
  8
Layer_0
  10
170.86044
  20
288.34781
  0
VERTEX
  5
70a
  8
Layer_0
  10
170.93494
  20
288.41681
  0
VERTEX
  5
70b
  8
Layer_0
  10
171.00479
  20
288.48889
  0
VERTEX
  5
70c
  8
Layer_0
  10
171.07101
  20
288.56317
  0
VERTEX
  5
70d
  8
Layer_0
  10
171.13443
  20
288.63885
  0
VERTEX
  5
70e
  8
Layer_0
  10
171.19504
  20
288.71588
  0
VERTEX
  5
70f
  8
Layer_0
  10
171.25284
  20
288.79425
  0
VERTEX
  5
710
  8
Layer_0
  10
171.3078
  20
288.87396
  0
VERTEX
  5
711
  8
Layer_0
  10
171.35992
  20
288.95508
  0
VERTEX
  5
712
  8
Layer_0
  10
171.40924
  20
289.03754
  0
VERTEX
  5
713
  8
Layer_0
  10
171.45575
  20
289.1214
  0
VERTEX
  5
714
  8
Layer_0
  10
171.49945
  20
289.20654
  0
VERTEX
  5
715
  8
Layer_0
  10
171.54031
  20
289.29312
  0
VERTEX
  5
716
  8
Layer_0
  10
171.57837
  20
289.38104
  0
VERTEX
  5
717
  8
Layer_0
  10
171.61359
  20
289.47031
  0
VERTEX
  5
718
  8
Layer_0
  10
171.64612
  20
289.56097
  0
VERTEX
  5
719
  8
Layer_0
  10
171.67563
  20
289.65295
  0
VERTEX
  5
71a
  8
Layer_0
  10
171.70236
  20
289.74628
  0
VERTEX
  5
71b
  8
Layer_0
  10
171.72638
  20
289.84103
  0
VERTEX
  5
71c
  8
Layer_0
  10
171.74747
  20
289.9371
  0
VERTEX
  5
71d
  8
Layer_0
  10
171.76581
  20
290.03455
  0
VERTEX
  5
71e
  8
Layer_0
  10
171.78134
  20
290.13336
  0
VERTEX
  5
71f
  8
Layer_0
  10
171.79395
  20
290.23352
  0
VERTEX
  5
720
  8
Layer_0
  10
171.80383
  20
290.33508
  0
VERTEX
  5
721
  8
Layer_0
  10
171.81091
  20
290.43796
  0
VERTEX
  5
722
  8
Layer_0
  10
171.81519
  20
290.54224
  0
VERTEX
  5
723
  8
Layer_0
  10
171.81653
  20
290.64783
  0
VERTEX
  5
724
  8
Layer_0
  10
171.81442
  20
290.77087
  0
VERTEX
  5
725
  8
Layer_0
  10
171.80807
  20
290.89227
  0
VERTEX
  5
726
  8
Layer_0
  10
171.79758
  20
291.0119
  0
VERTEX
  5
727
  8
Layer_0
  10
171.78281
  20
291.12988
  0
VERTEX
  5
728
  8
Layer_0
  10
171.76385
  20
291.24609
  0
VERTEX
  5
729
  8
Layer_0
  10
171.74066
  20
291.36066
  0
VERTEX
  5
72a
  8
Layer_0
  10
171.71326
  20
291.47348
  0
VERTEX
  5
72b
  8
Layer_0
  10
171.68167
  20
291.58466
  0
VERTEX
  5
72c
  8
Layer_0
  10
171.64578
  20
291.69403
  0
VERTEX
  5
72d
  8
Layer_0
  10
171.60571
  20
291.80176
  0
VERTEX
  5
72e
  8
Layer_0
  10
171.56149
  20
291.90778
  0
VERTEX
  5
72f
  8
Layer_0
  10
171.513
  20
292.01208
  0
VERTEX
  5
730
  8
Layer_0
  10
171.46103
  20
292.11362
  0
VERTEX
  5
731
  8
Layer_0
  10
171.4064
  20
292.21133
  0
VERTEX
  5
732
  8
Layer_0
  10
171.34906
  20
292.30518
  0
VERTEX
  5
733
  8
Layer_0
  10
171.28903
  20
292.3952
  0
VERTEX
  5
734
  8
Layer_0
  10
171.22629
  20
292.48138
  0
VERTEX
  5
735
  8
Layer_0
  10
171.16083
  20
292.56378
  0
VERTEX
  5
736
  8
Layer_0
  10
171.09268
  20
292.64227
  0
VERTEX
  5
737
  8
Layer_0
  10
171.02191
  20
292.71698
  0
VERTEX
  5
738
  8
Layer_0
  10
170.94833
  20
292.78778
  0
VERTEX
  5
739
  8
Layer_0
  10
170.87207
  20
292.8548
  0
VERTEX
  5
73a
  8
Layer_0
  10
170.79315
  20
292.91797
  0
VERTEX
  5
73b
  8
Layer_0
  10
170.71149
  20
292.97729
  0
VERTEX
  5
73c
  8
Layer_0
  10
170.6268
  20
293.03314
  0
VERTEX
  5
73d
  8
Layer_0
  10
170.53891
  20
293.08597
  0
VERTEX
  5
73e
  8
Layer_0
  10
170.4476
  20
293.13568
  0
VERTEX
  5
73f
  8
Layer_0
  10
170.353
  20
293.18231
  0
VERTEX
  5
740
  8
Layer_0
  10
170.2551
  20
293.22589
  0
VERTEX
  5
741
  8
Layer_0
  10
170.15384
  20
293.26636
  0
VERTEX
  5
742
  8
Layer_0
  10
170.04932
  20
293.30377
  0
VERTEX
  5
743
  8
Layer_0
  10
169.94153
  20
293.33807
  0
VERTEX
  5
744
  8
Layer_0
  10
169.83026
  20
293.36932
  0
VERTEX
  5
745
  8
Layer_0
  10
169.71576
  20
293.39746
  0
VERTEX
  5
746
  8
Layer_0
  10
169.59796
  20
293.42255
  0
VERTEX
  5
747
  8
Layer_0
  10
169.43225
  20
293.45233
  0
VERTEX
  5
748
  8
Layer_0
  10
169.23755
  20
293.48019
  0
VERTEX
  5
749
  8
Layer_0
  10
168.95743
  20
293.50757
  0
VERTEX
  5
74a
  8
Layer_0
  10
168.63641
  20
293.52661
  0
VERTEX
  5
74b
  8
Layer_0
  10
168.19733
  20
293.53857
  0
VERTEX
  5
74c
  8
Layer_0
  10
164.18353
  20
293.54007
  0
VERTEX
  5
74d
  8
Layer_0
  10
164.18353
  20
283.54007
  0
VERTEX
  5
74e
  8
Layer_0
  10
165.50687
  20
283.54007
  0
SEQEND
  0
POLYLINE
  5
750
  8
Layer_0
  62
0
  70
1
  66
1
  10
0
  20
0
  30
0
  0
VERTEX
  5
750
  8
Layer_0
  10
165.50687
  20
292.35999
  0
VERTEX
  5
751
  8
Layer_0
  10
168.21094
  20
292.35934
  0
VERTEX
  5
752
  8
Layer_0
  10
168.6022
  20
292.3501
  0
VERTEX
  5
753
  8
Layer_0
  10
168.87424
  20
292.33398
  0
VERTEX
  5
754
  8
Layer_0
  10
169.05637
  20
292.31549
  0
VERTEX
  5
755
  8
Layer_0
  10
169.20709
  20
292.29208
  0
VERTEX
  5
756
  8
Layer_0
  10
169.2995
  20
292.2713
  0
VERTEX
  5
757
  8
Layer_0
  10
169.38449
  20
292.2453
  0
VERTEX
  5
758
  8
Layer_0
  10
169.46671
  20
292.21512
  0
VERTEX
  5
759
  8
Layer_0
  10
169.54611
  20
292.18073
  0
VERTEX
  5
75a
  8
Layer_0
  10
169.62274
  20
292.14209
  0
VERTEX
  5
75b
  8
Layer_0
  10
169.69656
  20
292.09924
  0
VERTEX
  5
75c
  8
Layer_0
  10
169.76758
  20
292.05219
  0
VERTEX
  5
75d
  8
Layer_0
  10
169.83585
  20
292.00089
  0
VERTEX
  5
75e
  8
Layer_0
  10
169.90134
  20
291.94543
  0
VERTEX
  5
75f
  8
Layer_0
  10
169.96393
  20
291.88568
  0
VERTEX
  5
760
  8
Layer_0
  10
170.02377
  20
291.82178
  0
VERTEX
  5
761
  8
Layer_0
  10
170.08084
  20
291.7536
  0
VERTEX
  5
762
  8
Layer_0
  10
170.1351
  20
291.68127
  0
VERTEX
  5
763
  8
Layer_0
  10
170.18576
  20
291.60553
  0
VERTEX
  5
764
  8
Layer_0
  10
170.23203
  20
291.52731
  0
VERTEX
  5
765
  8
Layer_0
  10
170.27386
  20
291.44659
  0
VERTEX
  5
766
  8
Layer_0
  10
170.31131
  20
291.36331
  0
VERTEX
  5
767
  8
Layer_0
  10
170.34433
  20
291.27753
  0
VERTEX
  5
768
  8
Layer_0
  10
170.37296
  20
291.18927
  0
VERTEX
  5
769
  8
Layer_0
  10
170.39719
  20
291.09851
  0
VERTEX
  5
76a
  8
Layer_0
  10
170.41708
  20
291.00522
  0
VERTEX
  5
76b
  8
Layer_0
  10
170.43246
  20
290.90936
  0
VERTEX
  5
76c
  8
Layer_0
  10
170.44348
  20
290.81107
  0
VERTEX
  5
76d
  8
Layer_0
  10
170.45007
  20
290.71027
  0
VERTEX
  5
76e
  8
Layer_0
  10
170.45227
  20
290.6069
  0
VERTEX
  5
76f
  8
Layer_0
  10
170.45132
  20
290.5354
  0
VERTEX
  5
770
  8
Layer_0
  10
170.44388
  20
290.39642
  0
VERTEX
  5
771
  8
Layer_0
  10
170.43732
  20
290.32892
  0
VERTEX
  5
772
  8
Layer_0
  10
170.42889
  20
290.26282
  0
VERTEX
  5
773
  8
Layer_0
  10
170.41861
  20
290.19806
  0
VERTEX
  5
774
  8
Layer_0
  10
170.4064
  20
290.13464
  0
VERTEX
  5
775
  8
Layer_0
  10
170.3924
  20
290.07257
  0
VERTEX
  5
776
  8
Layer_0
  10
170.3765
  20
290.01184
  0
VERTEX
  5
777
  8
Layer_0
  10
170.3587
  20
289.95248
  0
VERTEX
  5
778
  8
Layer_0
  10
170.33905
  20
289.89447
  0
VERTEX
  5
779
  8
Layer_0
  10
170.31757
  20
289.8378
  0
VERTEX
  5
77a
  8
Layer_0
  10
170.29428
  20
289.78253
  0
VERTEX
  5
77b
  8
Layer_0
  10
170.26889
  20
289.72852
  0
VERTEX
  5
77c
  8
Layer_0
  10
170.24179
  20
289.6759
  0
VERTEX
  5
77d
  8
Layer_0
  10
170.21283
  20
289.62463
  0
VERTEX
  5
77e
  8
Layer_0
  10
170.18188
  20
289.57471
  0
VERTEX
  5
77f
  8
Layer_0
  10
170.14914
  20
289.52615
  0
VERTEX
  5
780
  8
Layer_0
  10
170.11459
  20
289.47894
  0
VERTEX
  5
781
  8
Layer_0
  10
170.078
  20
289.43307
  0
VERTEX
  5
782
  8
Layer_0
  10
170.0397
  20
289.38855
  0
VERTEX
  5
783
  8
Layer_0
  10
169.99945
  20
289.3454
  0
VERTEX
  5
784
  8
Layer_0
  10
169.95746
  20
289.30359
  0
VERTEX
  5
785
  8
Layer_0
  10
169.91339
  20
289.26312
  0
VERTEX
  5
786
  8
Layer_0
  10
169.86722
  20
289.22415
  0
VERTEX
  5
787
  8
Layer_0
  10
169.81839
  20
289.18683
  0
VERTEX
  5
788
  8
Layer_0
  10
169.76706
  20
289.15118
  0
VERTEX
  5
789
  8
Layer_0
  10
169.7131
  20
289.11722
  0
VERTEX
  5
78a
  8
Layer_0
  10
169.65659
  20
289.0849
  0
VERTEX
  5
78b
  8
Layer_0
  10
169.59747
  20
289.0542
  0
VERTEX
  5
78c
  8
Layer_0
  10
169.5358
  20
289.02521
  0
VERTEX
  5
78d
  8
Layer_0
  10
169.4715
  20
288.99783
  0
VERTEX
  5
78e
  8
Layer_0
  10
169.40466
  20
288.97214
  0
VERTEX
  5
78f
  8
Layer_0
  10
169.33524
  20
288.94809
  0
VERTEX
  5
790
  8
Layer_0
  10
169.26321
  20
288.92572
  0
VERTEX
  5
791
  8
Layer_0
  10
169.18863
  20
288.90497
  0
VERTEX
  5
792
  8
Layer_0
  10
169.11154
  20
288.88593
  0
VERTEX
  5
793
  8
Layer_0
  10
169.03171
  20
288.8685
  0
VERTEX
  5
794
  8
Layer_0
  10
168.94937
  20
288.85278
  0
VERTEX
  5
795
  8
Layer_0
  10
168.8645
  20
288.83868
  0
VERTEX
  5
796
  8
Layer_0
  10
168.77695
  20
288.82623
  0
VERTEX
  5
797
  8
Layer_0
  10
168.59427
  20
288.80634
  0
VERTEX
  5
798
  8
Layer_0
  10
168.40112
  20
288.79306
  0
VERTEX
  5
799
  8
Layer_0
  10
168.19775
  20
288.7865
  0
VERTEX
  5
79a
  8
Layer_0
  10
165.50687
  20
288.78564
  0
VERTEX
  5
79b
  8
Layer_0
  10
165.50687
  20
292.35999
  0
SEQEND
  0
POLYLINE
  5
79d
  8
Layer_0
  62
0
  70
1
  66
1
  10
0
  20
0
  30
0
  0
VERTEX
  5
79d
  8
Layer_0
  10
123.68008
  20
311.93283
  0
VERTEX
  5
79e
  8
Layer_0
  10
123.67148
  20
312.07822
  0
VERTEX
  5
79f
  8
Layer_0
  10
123.65701
  20
312.22101
  0
VERTEX
  5
7a0
  8
Layer_0
  10
123.63663
  20
312.3613
  0
VERTEX
  5
7a1
  8
Layer_0
  10
123.61038
  20
312.49902
  0
VERTEX
  5
7a2
  8
Layer_0
  10
123.57828
  20
312.63416
  0
VERTEX
  5
7a3
  8
Layer_0
  10
123.54031
  20
312.76672
  0
VERTEX
  5
7a4
  8
Layer_0
  10
123.49643
  20
312.89676
  0
VERTEX
  5
7a5
  8
Layer_0
  10
123.44675
  20
313.02423
  0
VERTEX
  5
7a6
  8
Layer_0
  10
123.39108
  20
313.14917
  0
VERTEX
  5
7a7
  8
Layer_0
  10
123.32956
  20
313.27148
  0
VERTEX
  5
7a8
  8
Layer_0
  10
123.26224
  20
313.3913
  0
VERTEX
  5
7a9
  8
Layer_0
  10
123.189
  20
313.50854
  0
VERTEX
  5
7aa
  8
Layer_0
  10
123.11008
  20
313.62216
  0
VERTEX
  5
7ab
  8
Layer_0
  10
123.02579
  20
313.73108
  0
VERTEX
  5
7ac
  8
Layer_0
  10
122.93594
  20
313.83533
  0
VERTEX
  5
7ad
  8
Layer_0
  10
122.84073
  20
313.93488
  0
VERTEX
  5
7ae
  8
Layer_0
  10
122.74002
  20
314.02972
  0
VERTEX
  5
7af
  8
Layer_0
  10
122.63394
  20
314.1199
  0
VERTEX
  5
7b0
  8
Layer_0
  10
122.52231
  20
314.20538
  0
VERTEX
  5
7b1
  8
Layer_0
  10
122.40536
  20
314.28619
  0
VERTEX
  5
7b2
  8
Layer_0
  10
122.28287
  20
314.36227
  0
VERTEX
  5
7b3
  8
Layer_0
  10
122.15488
  20
314.43365
  0
VERTEX
  5
7b4
  8
Layer_0
  10
122.02158
  20
314.5004
  0
VERTEX
  5
7b5
  8
Layer_0
  10
121.88272
  20
314.56244
  0
VERTEX
  5
7b6
  8
Layer_0
  10
121.73935
  20
314.61963
  0
VERTEX
  5
7b7
  8
Layer_0
  10
121.59238
  20
314.67188
  0
VERTEX
  5
7b8
  8
Layer_0
  10
121.44168
  20
314.71912
  0
VERTEX
  5
7b9
  8
Layer_0
  10
121.28738
  20
314.76135
  0
VERTEX
  5
7ba
  8
Layer_0
  10
121.12943
  20
314.79871
  0
VERTEX
  5
7bb
  8
Layer_0
  10
120.9678
  20
314.83099
  0
VERTEX
  5
7bc
  8
Layer_0
  10
120.80258
  20
314.85837
  0
VERTEX
  5
7bd
  8
Layer_0
  10
120.63376
  20
314.88077
  0
VERTEX
  5
7be
  8
Layer_0
  10
120.46109
  20
314.89819
  0
VERTEX
  5
7bf
  8
Layer_0
  10
120.28494
  20
314.91058
  0
VERTEX
  5
7c0
  8
Layer_0
  10
120.10513
  20
314.91809
  0
VERTEX
  5
7c1
  8
Layer_0
  10
119.9216
  20
314.92053
  0
VERTEX
  5
7c2
  8
Layer_0
  10
119.75461
  20
314.91818
  0
VERTEX
  5
7c3
  8
Layer_0
  10
119.59024
  20
314.91107
  0
VERTEX
  5
7c4
  8
Layer_0
  10
119.42831
  20
314.89923
  0
VERTEX
  5
7c5
  8
Layer_0
  10
119.26901
  20
314.88263
  0
VERTEX
  5
7c6
  8
Layer_0
  10
119.11227
  20
314.86133
  0
VERTEX
  5
7c7
  8
Layer_0
  10
118.9581
  20
314.83527
  0
VERTEX
  5
7c8
  8
Layer_0
  10
118.80646
  20
314.8045
  0
VERTEX
  5
7c9
  8
Layer_0
  10
118.65744
  20
314.76898
  0
VERTEX
  5
7ca
  8
Layer_0
  10
118.51086
  20
314.7287
  0
VERTEX
  5
7cb
  8
Layer_0
  10
118.36691
  20
314.68372
  0
VERTEX
  5
7cc
  8
Layer_0
  10
118.22549
  20
314.63397
  0
VERTEX
  5
7cd
  8
Layer_0
  10
118.08667
  20
314.57947
  0
VERTEX
  5
7ce
  8
Layer_0
  10
117.95184
  20
314.52045
  0
VERTEX
  5
7cf
  8
Layer_0
  10
117.82254
  20
314.45697
  0
VERTEX
  5
7d0
  8
Layer_0
  10
117.6987
  20
314.38913
  0
VERTEX
  5
7d1
  8
Layer_0
  10
117.58035
  20
314.31686
  0
VERTEX
  5
7d2
  8
Layer_0
  10
117.46753
  20
314.24017
  0
VERTEX
  5
7d3
  8
Layer_0
  10
117.3602
  20
314.15912
  0
VERTEX
  5
7d4
  8
Layer_0
  10
117.25836
  20
314.07364
  0
VERTEX
  5
7d5
  8
Layer_0
  10
117.16205
  20
313.98376
  0
VERTEX
  5
7d6
  8
Layer_0
  10
117.07111
  20
313.88947
  0
VERTEX
  5
7d7
  8
Layer_0
  10
116.98578
  20
313.79077
  0
VERTEX
  5
7d8
  8
Layer_0
  10
116.90591
  20
313.68768
  0
VERTEX
  5
7d9
  8
Layer_0
  10
116.83154
  20
313.58017
  0
VERTEX
  5
7da
  8
Layer_0
  10
116.76288
  20
313.46979
  0
VERTEX
  5
7db
  8
Layer_0
  10
116.70023
  20
313.358
  0
VERTEX
  5
7dc
  8
Layer_0
  10
116.64352
  20
313.24487
  0
VERTEX
  5
7dd
  8
Layer_0
  10
116.5928
  20
313.13034
  0
VERTEX
  5
7de
  8
Layer_0
  10
116.548
  20
313.01447
  0
VERTEX
  5
7df
  8
Layer_0
  10
116.50925
  20
312.89719
  0
VERTEX
  5
7e0
  8
Layer_0
  10
116.47641
  20
312.77853
  0
VERTEX
  5
7e1
  8
Layer_0
  10
116.44958
  20
312.65857
  0
VERTEX
  5
7e2
  8
Layer_0
  10
116.42865
  20
312.53717
  0
VERTEX
  5
7e3
  8
Layer_0
  10
116.41373
  20
312.41437
  0
VERTEX
  5
7e4
  8
Layer_0
  10
116.40479
  20
312.29025
  0
VERTEX
  5
7e5
  8
Layer_0
  10
116.40179
  20
312.16473
  0
VERTEX
  5
7e6
  8
Layer_0
  10
116.40421
  20
312.05084
  0
VERTEX
  5
7e7
  8
Layer_0
  10
116.41156
  20
311.93878
  0
VERTEX
  5
7e8
  8
Layer_0
  10
116.42374
  20
311.82861
  0
VERTEX
  5
7e9
  8
Layer_0
  10
116.44083
  20
311.72021
  0
VERTEX
  5
7ea
  8
Layer_0
  10
116.4628
  20
311.61371
  0
VERTEX
  5
7eb
  8
Layer_0
  10
116.48962
  20
311.50903
  0
VERTEX
  5
7ec
  8
Layer_0
  10
116.52133
  20
311.40625
  0
VERTEX
  5
7ed
  8
Layer_0
  10
116.55798
  20
311.3053
  0
VERTEX
  5
7ee
  8
Layer_0
  10
116.59943
  20
311.20615
  0
VERTEX
  5
7ef
  8
Layer_0
  10
116.64575
  20
311.10886
  0
VERTEX
  5
7f0
  8
Layer_0
  10
116.69702
  20
311.01343
  0
VERTEX
  5
7f1
  8
Layer_0
  10
116.75311
  20
310.91986
  0
VERTEX
  5
7f2
  8
Layer_0
  10
116.81418
  20
310.82846
  0
VERTEX
  5
7f3
  8
Layer_0
  10
116.88034
  20
310.73956
  0
VERTEX
  5
7f4
  8
Layer_0
  10
116.95157
  20
310.6532
  0
VERTEX
  5
7f5
  8
Layer_0
  10
117.02783
  20
310.56934
  0
VERTEX
  5
7f6
  8
Layer_0
  10
117.10922
  20
310.48798
  0
VERTEX
  5
7f7
  8
Layer_0
  10
117.19562
  20
310.40912
  0
VERTEX
  5
7f8
  8
Layer_0
  10
117.28714
  20
310.33279
  0
VERTEX
  5
7f9
  8
Layer_0
  10
117.38373
  20
310.25897
  0
VERTEX
  5
7fa
  8
Layer_0
  10
117.48532
  20
310.18765
  0
VERTEX
  5
7fb
  8
Layer_0
  10
117.59201
  20
310.11884
  0
VERTEX
  5
7fc
  8
Layer_0
  10
117.7038
  20
310.05255
  0
VERTEX
  5
7fd
  8
Layer_0
  10
117.86807
  20
309.96423
  0
VERTEX
  5
7fe
  8
Layer_0
  10
117.97165
  20
309.91486
  0
VERTEX
  5
7ff
  8
Layer_0
  10
118.08667
  20
309.86493
  0
VERTEX
  5
800
  8
Layer_0
  10
118.2807
  20
309.78906
  0
VERTEX
  5
801
  8
Layer_0
  10
118.50049
  20
309.71201
  0
VERTEX
  5
802
  8
Layer_0
  10
118.74612
  20
309.63379
  0
VERTEX
  5
803
  8
Layer_0
  10
119.01752
  20
309.55438
  0
VERTEX
  5
804
  8
Layer_0
  10
119.41949
  20
309.44672
  0
VERTEX
  5
805
  8
Layer_0
  10
120.18326
  20
309.25916
  0
VERTEX
  5
806
  8
Layer_0
  10
120.80917
  20
309.0979
  0
VERTEX
  5
807
  8
Layer_0
  10
121.21365
  20
308.98322
  0
VERTEX
  5
808
  8
Layer_0
  10
121.45755
  20
308.90424
  0
VERTEX
  5
809
  8
Layer_0
  10
121.63351
  20
308.8363
  0
VERTEX
  5
80a
  8
Layer_0
  10
121.73074
  20
308.79419
  0
VERTEX
  5
80b
  8
Layer_0
  10
121.82303
  20
308.75049
  0
VERTEX
  5
80c
  8
Layer_0
  10
121.91037
  20
308.7052
  0
VERTEX
  5
80d
  8
Layer_0
  10
121.99283
  20
308.65839
  0
VERTEX
  5
80e
  8
Layer_0
  10
122.07028
  20
308.60999
  0
VERTEX
  5
80f
  8
Layer_0
  10
122.14285
  20
308.56006
  0
VERTEX
  5
810
  8
Layer_0
  10
122.2106
  20
308.50854
  0
VERTEX
  5
811
  8
Layer_0
  10
122.27322
  20
308.45544
  0
VERTEX
  5
812
  8
Layer_0
  10
122.33096
  20
308.40082
  0
VERTEX
  5
813
  8
Layer_0
  10
122.38388
  20
308.3446
  0
VERTEX
  5
814
  8
Layer_0
  10
122.43179
  20
308.28687
  0
VERTEX
  5
815
  8
Layer_0
  10
122.47537
  20
308.22748
  0
VERTEX
  5
816
  8
Layer_0
  10
122.51517
  20
308.16644
  0
VERTEX
  5
817
  8
Layer_0
  10
122.55118
  20
308.10376
  0
VERTEX
  5
818
  8
Layer_0
  10
122.5834
  20
308.03937
  0
VERTEX
  5
819
  8
Layer_0
  10
122.61185
  20
307.97339
  0
VERTEX
  5
81a
  8
Layer_0
  10
122.64743
  20
307.87128
  0
VERTEX
  5
81b
  8
Layer_0
  10
122.67447
  20
307.76541
  0
VERTEX
  5
81c
  8
Layer_0
  10
122.68765
  20
307.69275
  0
VERTEX
  5
81d
  8
Layer_0
  10
122.69711
  20
307.61847
  0
VERTEX
  5
81e
  8
Layer_0
  10
122.70432
  20
307.50394
  0
VERTEX
  5
81f
  8
Layer_0
  10
122.70273
  20
307.38806
  0
VERTEX
  5
820
  8
Layer_0
  10
122.69241
  20
307.27472
  0
VERTEX
  5
821
  8
Layer_0
  10
122.67325
  20
307.16364
  0
VERTEX
  5
822
  8
Layer_0
  10
122.65555
  20
307.09076
  0
VERTEX
  5
823
  8
Layer_0
  10
122.62173
  20
306.9834
  0
VERTEX
  5
824
  8
Layer_0
  10
122.57895
  20
306.8783
  0
VERTEX
  5
825
  8
Layer_0
  10
122.52737
  20
306.77536
  0
VERTEX
  5
826
  8
Layer_0
  10
122.48795
  20
306.70801
  0
VERTEX
  5
827
  8
Layer_0
  10
122.4216
  20
306.60883
  0
VERTEX
  5
828
  8
Layer_0
  10
122.37234
  20
306.54462
  0
VERTEX
  5
829
  8
Layer_0
  10
122.319
  20
306.48273
  0
VERTEX
  5
82a
  8
Layer_0
  10
122.26151
  20
306.42316
  0
VERTEX
  5
82b
  8
Layer_0
  10
122.19992
  20
306.36591
  0
VERTEX
  5
82c
  8
Layer_0
  10
122.13419
  20
306.31097
  0
VERTEX
  5
82d
  8
Layer_0
  10
122.06436
  20
306.25836
  0
VERTEX
  5
82e
  8
Layer_0
  10
121.99039
  20
306.2081
  0
VERTEX
  5
82f
  8
Layer_0
  10
121.91238
  20
306.16016
  0
VERTEX
  5
830
  8
Layer_0
  10
121.83005
  20
306.1145
  0
VERTEX
  5
831
  8
Layer_0
  10
121.74374
  20
306.07117
  0
VERTEX
  5
832
  8
Layer_0
  10
121.65329
  20
306.03015
  0
VERTEX
  5
833
  8
Layer_0
  10
121.55869
  20
305.99149
  0
VERTEX
  5
834
  8
Layer_0
  10
121.46078
  20
305.95551
  0
VERTEX
  5
835
  8
Layer_0
  10
121.3605
  20
305.92273
  0
VERTEX
  5
836
  8
Layer_0
  10
121.25772
  20
305.89301
  0
VERTEX
  5
837
  8
Layer_0
  10
121.15244
  20
305.86646
  0
VERTEX
  5
838
  8
Layer_0
  10
121.04471
  20
305.84299
  0
VERTEX
  5
839
  8
Layer_0
  10
120.93454
  20
305.82266
  0
VERTEX
  5
83a
  8
Layer_0
  10
120.82193
  20
305.80548
  0
VERTEX
  5
83b
  8
Layer_0
  10
120.70688
  20
305.79141
  0
VERTEX
  5
83c
  8
Layer_0
  10
120.5892
  20
305.78046
  0
VERTEX
  5
83d
  8
Layer_0
  10
120.46915
  20
305.77264
  0
VERTEX
  5
83e
  8
Layer_0
  10
120.34665
  20
305.76794
  0
VERTEX
  5
83f
  8
Layer_0
  10
120.22171
  20
305.76639
  0
VERTEX
  5
840
  8
Layer_0
  10
120.08078
  20
305.76843
  0
VERTEX
  5
841
  8
Layer_0
  10
119.94223
  20
305.77466
  0
VERTEX
  5
842
  8
Layer_0
  10
119.80606
  20
305.78491
  0
VERTEX
  5
843
  8
Layer_0
  10
119.67221
  20
305.79938
  0
VERTEX
  5
844
  8
Layer_0
  10
119.54074
  20
305.8179
  0
VERTEX
  5
845
  8
Layer_0
  10
119.41168
  20
305.84058
  0
VERTEX
  5
846
  8
Layer_0
  10
119.28497
  20
305.86737
  0
VERTEX
  5
847
  8
Layer_0
  10
119.16068
  20
305.89832
  0
VERTEX
  5
848
  8
Layer_0
  10
119.03867
  20
305.93329
  0
VERTEX
  5
849
  8
Layer_0
  10
118.91904
  20
305.97244
  0
VERTEX
  5
84a
  8
Layer_0
  10
118.80182
  20
306.01572
  0
VERTEX
  5
84b
  8
Layer_0
  10
118.68692
  20
306.06311
  0
VERTEX
  5
84c
  8
Layer_0
  10
118.57571
  20
306.11383
  0
VERTEX
  5
84d
  8
Layer_0
  10
118.46951
  20
306.16711
  0
VERTEX
  5
84e
  8
Layer_0
  10
118.36826
  20
306.22296
  0
VERTEX
  5
84f
  8
Layer_0
  10
118.27194
  20
306.28137
  0
VERTEX
  5
850
  8
Layer_0
  10
118.18063
  20
306.34235
  0
VERTEX
  5
851
  8
Layer_0
  10
118.09433
  20
306.40588
  0
VERTEX
  5
852
  8
Layer_0
  10
118.01297
  20
306.47195
  0
VERTEX
  5
853
  8
Layer_0
  10
117.93665
  20
306.54062
  0
VERTEX
  5
854
  8
Layer_0
  10
117.86517
  20
306.61182
  0
VERTEX
  5
855
  8
Layer_0
  10
117.79874
  20
306.68555
  0
VERTEX
  5
856
  8
Layer_0
  10
117.7373
  20
306.76187
  0
VERTEX
  5
857
  8
Layer_0
  10
117.68079
  20
306.84076
  0
VERTEX
  5
858
  8
Layer_0
  10
117.62842
  20
306.92276
  0
VERTEX
  5
859
  8
Layer_0
  10
117.57932
  20
307.00854
  0
VERTEX
  5
85a
  8
Layer_0
  10
117.53351
  20
307.09802
  0
VERTEX
  5
85b
  8
Layer_0
  10
117.49094
  20
307.19128
  0
VERTEX
  5
85c
  8
Layer_0
  10
117.45163
  20
307.28827
  0
VERTEX
  5
85d
  8
Layer_0
  10
117.41562
  20
307.38898
  0
VERTEX
  5
85e
  8
Layer_0
  10
117.38284
  20
307.49347
  0
VERTEX
  5
85f
  8
Layer_0
  10
117.35342
  20
307.60172
  0
VERTEX
  5
860
  8
Layer_0
  10
117.32715
  20
307.71365
  0
VERTEX
  5
861
  8
Layer_0
  10
117.30417
  20
307.82935
  0
VERTEX
  5
862
  8
Layer_0
  10
117.28452
  20
307.94879
  0
VERTEX
  5
863
  8
Layer_0
  10
117.2681
  20
308.07196
  0
VERTEX
  5
864
  8
Layer_0
  10
116.01981
  20
307.96283
  0
VERTEX
  5
865
  8
Layer_0
  10
116.02292
  20
307.87964
  0
VERTEX
  5
866
  8
Layer_0
  10
116.03433
  20
307.71539
  0
VERTEX
  5
867
  8
Layer_0
  10
116.05264
  20
307.55408
  0
VERTEX
  5
868
  8
Layer_0
  10
116.07779
  20
307.39563
  0
VERTEX
  5
869
  8
Layer_0
  10
116.1098
  20
307.24005
  0
VERTEX
  5
86a
  8
Layer_0
  10
116.14871
  20
307.0874
  0
VERTEX
  5
86b
  8
Layer_0
  10
116.19455
  20
306.93762
  0
VERTEX
  5
86c
  8
Layer_0
  10
116.2471
  20
306.79071
  0
VERTEX
  5
86d
  8
Layer_0
  10
116.30658
  20
306.64673
  0
VERTEX
  5
86e
  8
Layer_0
  10
116.37305
  20
306.50562
  0
VERTEX
  5
86f
  8
Layer_0
  10
116.4462
  20
306.36737
  0
VERTEX
  5
870
  8
Layer_0
  10
116.52637
  20
306.23206
  0
VERTEX
  5
871
  8
Layer_0
  10
116.6131
  20
306.09991
  0
VERTEX
  5
872
  8
Layer_0
  10
116.7056
  20
305.97302
  0
VERTEX
  5
873
  8
Layer_0
  10
116.80353
  20
305.85162
  0
VERTEX
  5
874
  8
Layer_0
  10
116.90698
  20
305.73584
  0
VERTEX
  5
875
  8
Layer_0
  10
117.01593
  20
305.62555
  0
VERTEX
  5
876
  8
Layer_0
  10
117.13037
  20
305.52081
  0
VERTEX
  5
877
  8
Layer_0
  10
117.2504
  20
305.42163
  0
VERTEX
  5
878
  8
Layer_0
  10
117.37576
  20
305.32794
  0
VERTEX
  5
879
  8
Layer_0
  10
117.44061
  20
305.28323
  0
VERTEX
  5
87a
  8
Layer_0
  10
117.57422
  20
305.19788
  0
VERTEX
  5
87b
  8
Layer_0
  10
117.71341
  20
305.1181
  0
VERTEX
  5
87c
  8
Layer_0
  10
117.85806
  20
305.04382
  0
VERTEX
  5
87d
  8
Layer_0
  10
118.00821
  20
304.9751
  0
VERTEX
  5
87e
  8
Layer_0
  10
118.16415
  20
304.91193
  0
VERTEX
  5
87f
  8
Layer_0
  10
118.32626
  20
304.85425
  0
VERTEX
  5
880
  8
Layer_0
  10
118.49445
  20
304.802
  0
VERTEX
  5
881
  8
Layer_0
  10
118.66876
  20
304.75531
  0
VERTEX
  5
882
  8
Layer_0
  10
118.84915
  20
304.71411
  0
VERTEX
  5
883
  8
Layer_0
  10
119.03568
  20
304.67841
  0
VERTEX
  5
884
  8
Layer_0
  10
119.22833
  20
304.64819
  0
VERTEX
  5
885
  8
Layer_0
  10
119.42712
  20
304.62347
  0
VERTEX
  5
886
  8
Layer_0
  10
119.63187
  20
304.60419
  0
VERTEX
  5
887
  8
Layer_0
  10
119.8428
  20
304.59045
  0
VERTEX
  5
888
  8
Layer_0
  10
120.05997
  20
304.58221
  0
VERTEX
  5
889
  8
Layer_0
  10
120.28311
  20
304.57947
  0
VERTEX
  5
88a
  8
Layer_0
  10
120.46011
  20
304.58221
  0
VERTEX
  5
88b
  8
Layer_0
  10
120.63412
  20
304.59039
  0
VERTEX
  5
88c
  8
Layer_0
  10
120.80515
  20
304.604
  0
VERTEX
  5
88d
  8
Layer_0
  10
120.97318
  20
304.62305
  0
VERTEX
  5
88e
  8
Layer_0
  10
121.13821
  20
304.64758
  0
VERTEX
  5
88f
  8
Layer_0
  10
121.30032
  20
304.67755
  0
VERTEX
  5
890
  8
Layer_0
  10
121.45938
  20
304.71295
  0
VERTEX
  5
891
  8
Layer_0
  10
121.61563
  20
304.75385
  0
VERTEX
  5
892
  8
Layer_0
  10
121.76865
  20
304.80011
  0
VERTEX
  5
893
  8
Layer_0
  10
121.91873
  20
304.85187
  0
VERTEX
  5
894
  8
Layer_0
  10
122.06595
  20
304.90906
  0
VERTEX
  5
895
  8
Layer_0
  10
122.21011
  20
304.97171
  0
VERTEX
  5
896
  8
Layer_0
  10
122.35001
  20
305.03925
  0
VERTEX
  5
897
  8
Layer_0
  10
122.48441
  20
305.11118
  0
VERTEX
  5
898
  8
Layer_0
  10
122.61319
  20
305.18744
  0
VERTEX
  5
899
  8
Layer_0
  10
122.73648
  20
305.26807
  0
VERTEX
  5
89a
  8
Layer_0
  10
122.85422
  20
305.35303
  0
VERTEX
  5
89b
  8
Layer_0
  10
122.96646
  20
305.44238
  0
VERTEX
  5
89c
  8
Layer_0
  10
123.07309
  20
305.53607
  0
VERTEX
  5
89d
  8
Layer_0
  10
123.17429
  20
305.63416
  0
VERTEX
  5
89e
  8
Layer_0
  10
123.26981
  20
305.73654
  0
VERTEX
  5
89f
  8
Layer_0
  10
123.35977
  20
305.84332
  0
VERTEX
  5
8a0
  8
Layer_0
  10
123.44431
  20
305.95447
  0
VERTEX
  5
8a1
  8
Layer_0
  10
123.52322
  20
306.06995
  0
VERTEX
  5
8a2
  8
Layer_0
  10
123.59622
  20
306.18823
  0
VERTEX
  5
8a3
  8
Layer_0
  10
123.66287
  20
306.30783
  0
VERTEX
  5
8a4
  8
Layer_0
  10
123.72318
  20
306.42871
  0
VERTEX
  5
8a5
  8
Layer_0
  10
123.77713
  20
306.55084
  0
VERTEX
  5
8a6
  8
Layer_0
  10
123.82474
  20
306.67426
  0
VERTEX
  5
8a7
  8
Layer_0
  10
123.866
  20
306.79895
  0
VERTEX
  5
8a8
  8
Layer_0
  10
123.90091
  20
306.92493
  0
VERTEX
  5
8a9
  8
Layer_0
  10
123.9296
  20
307.05225
  0
VERTEX
  5
8aa
  8
Layer_0
  10
123.95169
  20
307.18073
  0
VERTEX
  5
8ab
  8
Layer_0
  10
123.96756
  20
307.31055
  0
VERTEX
  5
8ac
  8
Layer_0
  10
123.97708
  20
307.44165
  0
VERTEX
  5
8ad
  8
Layer_0
  10
123.98026
  20
307.57404
  0
VERTEX
  5
8ae
  8
Layer_0
  10
123.97739
  20
307.70685
  0
VERTEX
  5
8af
  8
Layer_0
  10
123.96872
  20
307.83713
  0
VERTEX
  5
8b0
  8
Layer_0
  10
123.95425
  20
307.96475
  0
VERTEX
  5
8b1
  8
Layer_0
  10
123.93399
  20
308.08978
  0
VERTEX
  5
8b2
  8
Layer_0
  10
123.90799
  20
308.21222
  0
VERTEX
  5
8b3
  8
Layer_0
  10
123.87625
  20
308.33203
  0
VERTEX
  5
8b4
  8
Layer_0
  10
123.83865
  20
308.44928
  0
VERTEX
  5
8b5
  8
Layer_0
  10
123.79544
  20
308.5639
  0
VERTEX
  5
8b6
  8
Layer_0
  10
123.74619
  20
308.67587
  0
VERTEX
  5
8b7
  8
Layer_0
  10
123.69131
  20
308.78528
  0
VERTEX
  5
8b8
  8
Layer_0
  10
123.66165
  20
308.83899
  0
VERTEX
  5
8b9
  8
Layer_0
  10
123.59824
  20
308.94452
  0
VERTEX
  5
8ba
  8
Layer_0
  10
123.52872
  20
309.04733
  0
VERTEX
  5
8bb
  8
Layer_0
  10
123.45297
  20
309.14722
  0
VERTEX
  5
8bc
  8
Layer_0
  10
123.37094
  20
309.24414
  0
VERTEX
  5
8bd
  8
Layer_0
  10
123.28256
  20
309.33807
  0
VERTEX
  5
8be
  8
Layer_0
  10
123.18777
  20
309.42905
  0
VERTEX
  5
8bf
  8
Layer_0
  10
123.0867
  20
309.517
  0
VERTEX
  5
8c0
  8
Layer_0
  10
122.97934
  20
309.60199
  0
VERTEX
  5
8c1
  8
Layer_0
  10
122.86551
  20
309.68399
  0
VERTEX
  5
8c2
  8
Layer_0
  10
122.74539
  20
309.763
  0
VERTEX
  5
8c3
  8
Layer_0
  10
122.61899
  20
309.83905
  0
VERTEX
  5
8c4
  8
Layer_0
  10
122.48605
  20
309.91208
  0
VERTEX
  5
8c5
  8
Layer_0
  10
122.34702
  20
309.98218
  0
VERTEX
  5
8c6
  8
Layer_0
  10
122.22318
  20
310.03894
  0
VERTEX
  5
8c7
  8
Layer_0
  10
122.10904
  20
310.08569
  0
VERTEX
  5
8c8
  8
Layer_0
  10
121.91153
  20
310.1582
  0
VERTEX
  5
8c9
  8
Layer_0
  10
121.68228
  20
310.23364
  0
VERTEX
  5
8ca
  8
Layer_0
  10
121.42142
  20
310.31192
  0
VERTEX
  5
8cb
  8
Layer_0
  10
121.02444
  20
310.42081
  0
VERTEX
  5
8cc
  8
Layer_0
  10
120.57101
  20
310.53473
  0
VERTEX
  5
8cd
  8
Layer_0
  10
119.92911
  20
310.6842
  0
VERTEX
  5
8ce
  8
Layer_0
  10
119.55789
  20
310.77502
  0
VERTEX
  5
8cf
  8
Layer_0
  10
119.33176
  20
310.83527
  0
VERTEX
  5
8d0
  8
Layer_0
  10
119.12274
  20
310.8952
  0
VERTEX
  5
8d1
  8
Layer_0
  10
118.93082
  20
310.95502
  0
VERTEX
  5
8d2
  8
Layer_0
  10
118.75598
  20
311.01453
  0
VERTEX
  5
8d3
  8
Layer_0
  10
118.59827
  20
311.07379
  0
VERTEX
  5
8d4
  8
Layer_0
  10
118.4577
  20
311.13284
  0
VERTEX
  5
8d5
  8
Layer_0
  10
118.33417
  20
311.19165
  0
VERTEX
  5
8d6
  8
Layer_0
  10
118.22772
  20
311.25021
  0
VERTEX
  5
8d7
  8
Layer_0
  10
118.18091
  20
311.27942
  0
VERTEX
  5
8d8
  8
Layer_0
  10
118.1384
  20
311.30856
  0
VERTEX
  5
8d9
  8
Layer_0
  10
118.10025
  20
311.33765
  0
VERTEX
  5
8da
  8
Layer_0
  10
118.06619
  20
311.36664
  0
VERTEX
  5
8db
  8
Layer_0
  10
118.00406
  20
311.42596
  0
VERTEX
  5
8dc
  8
Layer_0
  10
117.94742
  20
311.48792
  0
VERTEX
  5
8dd
  8
Layer_0
  10
117.87247
  20
311.58582
  0
VERTEX
  5
8de
  8
Layer_0
  10
117.82928
  20
311.65442
  0
VERTEX
  5
8df
  8
Layer_0
  10
117.79147
  20
311.72565
  0
VERTEX
  5
8e0
  8
Layer_0
  10
117.75919
  20
311.79959
  0
VERTEX
  5
8e1
  8
Layer_0
  10
117.73209
  20
311.8761
  0
VERTEX
  5
8e2
  8
Layer_0
  10
117.71048
  20
311.95532
  0
VERTEX
  5
8e3
  8
Layer_0
  10
117.6882
  20
312.0791
  0
VERTEX
  5
8e4
  8
Layer_0
  10
117.68008
  20
312.16492
  0
VERTEX
  5
8e5
  8
Layer_0
  10
117.6774
  20
312.25342
  0
VERTEX
  5
8e6
  8
Layer_0
  10
117.68118
  20
312.35562
  0
VERTEX
  5
8e7
  8
Layer_0
  10
117.69266
  20
312.45532
  0
VERTEX
  5
8e8
  8
Layer_0
  10
117.7117
  20
312.55249
  0
VERTEX
  5
8e9
  8
Layer_0
  10
117.7384
  20
312.64716
  0
VERTEX
  5
8ea
  8
Layer_0
  10
117.75461
  20
312.69354
  0
VERTEX
  5
8eb
  8
Layer_0
  10
117.77274
  20
312.73932
  0
VERTEX
  5
8ec
  8
Layer_0
  10
117.81467
  20
312.82898
  0
VERTEX
  5
8ed
  8
Layer_0
  10
117.86426
  20
312.91611
  0
VERTEX
  5
8ee
  8
Layer_0
  10
117.92148
  20
313.00076
  0
VERTEX
  5
8ef
  8
Layer_0
  10
117.98627
  20
313.08282
  0
VERTEX
  5
8f0
  8
Layer_0
  10
118.05872
  20
313.16248
  0
VERTEX
  5
8f1
  8
Layer_0
  10
118.13882
  20
313.23956
  0
VERTEX
  5
8f2
  8
Layer_0
  10
118.2265
  20
313.31415
  0
VERTEX
  5
8f3
  8
Layer_0
  10
118.27338
  20
313.35004
  0
VERTEX
  5
8f4
  8
Layer_0
  10
118.32251
  20
313.3844
  0
VERTEX
  5
8f5
  8
Layer_0
  10
118.37396
  20
313.41724
  0
VERTEX
  5
8f6
  8
Layer_0
  10
118.42764
  20
313.44858
  0
VERTEX
  5
8f7
  8
Layer_0
  10
118.48361
  20
313.47836
  0
VERTEX
  5
8f8
  8
Layer_0
  10
118.54175
  20
313.50659
  0
VERTEX
  5
8f9
  8
Layer_0
  10
118.60223
  20
313.53336
  0
VERTEX
  5
8fa
  8
Layer_0
  10
118.66495
  20
313.55853
  0
VERTEX
  5
8fb
  8
Layer_0
  10
118.72995
  20
313.58221
  0
VERTEX
  5
8fc
  8
Layer_0
  10
118.79721
  20
313.60437
  0
VERTEX
  5
8fd
  8
Layer_0
  10
118.8667
  20
313.625
  0
VERTEX
  5
8fe
  8
Layer_0
  10
118.93848
  20
313.6441
  0
VERTEX
  5
8ff
  8
Layer_0
  10
119.08878
  20
313.67773
  0
VERTEX
  5
900
  8
Layer_0
  10
119.24823
  20
313.70526
  0
VERTEX
  5
901
  8
Layer_0
  10
119.4166
  20
313.72662
  0
VERTEX
  5
902
  8
Layer_0
  10
119.59409
  20
313.74188
  0
VERTEX
  5
903
  8
Layer_0
  10
119.78061
  20
313.75104
  0
VERTEX
  5
904
  8
Layer_0
  10
119.97617
  20
313.75409
  0
VERTEX
  5
905
  8
Layer_0
  10
120.1644
  20
313.75073
  0
VERTEX
  5
906
  8
Layer_0
  10
120.34482
  20
313.74066
  0
VERTEX
  5
907
  8
Layer_0
  10
120.51736
  20
313.72382
  0
VERTEX
  5
908
  8
Layer_0
  10
120.68216
  20
313.70029
  0
VERTEX
  5
909
  8
Layer_0
  10
120.83914
  20
313.67001
  0
VERTEX
  5
90a
  8
Layer_0
  10
120.91464
  20
313.65234
  0
VERTEX
  5
90b
  8
Layer_0
  10
120.98825
  20
313.63303
  0
VERTEX
  5
90c
  8
Layer_0
  10
121.05997
  20
313.61203
  0
VERTEX
  5
90d
  8
Layer_0
  10
121.12961
  20
313.58929
  0
VERTEX
  5
90e
  8
Layer_0
  10
121.1973
  20
313.56494
  0
VERTEX
  5
90f
  8
Layer_0
  10
121.26315
  20
313.53888
  0
VERTEX
  5
910
  8
Layer_0
  10
121.32693
  20
313.51111
  0
VERTEX
  5
911
  8
Layer_0
  10
121.38882
  20
313.48169
  0
VERTEX
  5
912
  8
Layer_0
  10
121.44882
  20
313.45059
  0
VERTEX
  5
913
  8
Layer_0
  10
121.50668
  20
313.41779
  0
VERTEX
  5
914
  8
Layer_0
  10
121.56271
  20
313.3833
  0
VERTEX
  5
915
  8
Layer_0
  10
121.61679
  20
313.34717
  0
VERTEX
  5
916
  8
Layer_0
  10
121.66898
  20
313.30933
  0
VERTEX
  5
917
  8
Layer_0
  10
121.71902
  20
313.26978
  0
VERTEX
  5
918
  8
Layer_0
  10
121.76736
  20
313.22864
  0
VERTEX
  5
919
  8
Layer_0
  10
121.81393
  20
313.18585
  0
VERTEX
  5
91a
  8
Layer_0
  10
121.85892
  20
313.14148
  0
VERTEX
  5
91b
  8
Layer_0
  10
121.90213
  20
313.09546
  0
VERTEX
  5
91c
  8
Layer_0
  10
121.9437
  20
313.04785
  0
VERTEX
  5
91d
  8
Layer_0
  10
121.98355
  20
312.99866
  0
VERTEX
  5
91e
  8
Layer_0
  10
122.0217
  20
312.94781
  0
VERTEX
  5
91f
  8
Layer_0
  10
122.0582
  20
312.89539
  0
VERTEX
  5
920
  8
Layer_0
  10
122.09293
  20
312.84131
  0
VERTEX
  5
921
  8
Layer_0
  10
122.12601
  20
312.78568
  0
VERTEX
  5
922
  8
Layer_0
  10
122.15744
  20
312.72839
  0
VERTEX
  5
923
  8
Layer_0
  10
122.1871
  20
312.66953
  0
VERTEX
  5
924
  8
Layer_0
  10
122.21524
  20
312.60907
  0
VERTEX
  5
925
  8
Layer_0
  10
122.24142
  20
312.54694
  0
VERTEX
  5
926
  8
Layer_0
  10
122.26602
  20
312.48322
  0
VERTEX
  5
927
  8
Layer_0
  10
122.28903
  20
312.41791
  0
VERTEX
  5
928
  8
Layer_0
  10
122.31021
  20
312.35098
  0
VERTEX
  5
929
  8
Layer_0
  10
122.34763
  20
312.21228
  0
VERTEX
  5
92a
  8
Layer_0
  10
122.37814
  20
312.06714
  0
VERTEX
  5
92b
  8
Layer_0
  10
122.40207
  20
311.91556
  0
VERTEX
  5
92c
  8
Layer_0
  10
122.41135
  20
311.83734
  0
VERTEX
  5
92d
  8
Layer_0
  10
123.68008
  20
311.93283
  0
SEQEND
  0
POLYLINE
  5
92f
  8
Layer_0
  62
0
  70
1
  66
1
  10
0
  20
0
  30
0
  0
VERTEX
  5
92f
  8
Layer_0
  10
177.42279
  20
335.12985
  0
VERTEX
  5
930
  8
Layer_0
  10
177.41537
  20
335.19244
  0
VERTEX
  5
931
  8
Layer_0
  10
177.39624
  20
335.31369
  0
VERTEX
  5
932
  8
Layer_0
  10
177.3718
  20
335.42984
  0
VERTEX
  5
933
  8
Layer_0
  10
177.34183
  20
335.54074
  0
VERTEX
  5
934
  8
Layer_0
  10
177.30655
  20
335.64658
  0
VERTEX
  5
935
  8
Layer_0
  10
177.2659
  20
335.74722
  0
VERTEX
  5
936
  8
Layer_0
  10
177.21964
  20
335.84271
  0
VERTEX
  5
937
  8
Layer_0
  10
177.16806
  20
335.93307
  0
VERTEX
  5
938
  8
Layer_0
  10
177.11105
  20
336.01828
  0
VERTEX
  5
939
  8
Layer_0
  10
177.04865
  20
336.0983
  0
VERTEX
  5
93a
  8
Layer_0
  10
176.9808
  20
336.17319
  0
VERTEX
  5
93b
  8
Layer_0
  10
176.90756
  20
336.24289
  0
VERTEX
  5
93c
  8
Layer_0
  10
176.82883
  20
336.30746
  0
VERTEX
  5
93d
  8
Layer_0
  10
176.74384
  20
336.36664
  0
VERTEX
  5
93e
  8
Layer_0
  10
176.65271
  20
336.4205
  0
VERTEX
  5
93f
  8
Layer_0
  10
176.60474
  20
336.44534
  0
VERTEX
  5
940
  8
Layer_0
  10
176.50424
  20
336.49112
  0
VERTEX
  5
941
  8
Layer_0
  10
176.39737
  20
336.53143
  0
VERTEX
  5
942
  8
Layer_0
  10
176.2843
  20
336.56644
  0
VERTEX
  5
943
  8
Layer_0
  10
176.16498
  20
336.59604
  0
VERTEX
  5
944
  8
Layer_0
  10
176.0394
  20
336.62021
  0
VERTEX
  5
945
  8
Layer_0
  10
175.90759
  20
336.63907
  0
VERTEX
  5
946
  8
Layer_0
  10
175.76956
  20
336.65253
  0
VERTEX
  5
947
  8
Layer_0
  10
175.62521
  20
336.66061
  0
VERTEX
  5
948
  8
Layer_0
  10
175.47464
  20
336.6633
  0
VERTEX
  5
949
  8
Layer_0
  10
175.31824
  20
336.66086
  0
VERTEX
  5
94a
  8
Layer_0
  10
175.16895
  20
336.6535
  0
VERTEX
  5
94b
  8
Layer_0
  10
175.02698
  20
336.64127
  0
VERTEX
  5
94c
  8
Layer_0
  10
174.8923
  20
336.62418
  0
VERTEX
  5
94d
  8
Layer_0
  10
174.76474
  20
336.60217
  0
VERTEX
  5
94e
  8
Layer_0
  10
174.64447
  20
336.57529
  0
VERTEX
  5
94f
  8
Layer_0
  10
174.53146
  20
336.54349
  0
VERTEX
  5
950
  8
Layer_0
  10
174.42566
  20
336.50687
  0
VERTEX
  5
951
  8
Layer_0
  10
174.32712
  20
336.4653
  0
VERTEX
  5
952
  8
Layer_0
  10
174.23581
  20
336.41885
  0
VERTEX
  5
953
  8
Layer_0
  10
174.15173
  20
336.36752
  0
VERTEX
  5
954
  8
Layer_0
  10
174.1124
  20
336.34
  0
VERTEX
  5
955
  8
Layer_0
  10
174.03912
  20
336.28174
  0
VERTEX
  5
956
  8
Layer_0
  10
173.97192
  20
336.22104
  0
VERTEX
  5
957
  8
Layer_0
  10
173.88269
  20
336.12625
  0
VERTEX
  5
958
  8
Layer_0
  10
173.81882
  20
336.04385
  0
VERTEX
  5
959
  8
Layer_0
  10
173.76459
  20
335.95828
  0
VERTEX
  5
95a
  8
Layer_0
  10
173.73648
  20
335.90543
  0
VERTEX
  5
95b
  8
Layer_0
  10
173.69742
  20
335.81485
  0
VERTEX
  5
95c
  8
Layer_0
  10
173.67297
  20
335.74008
  0
VERTEX
  5
95d
  8
Layer_0
  10
173.64783
  20
335.62424
  0
VERTEX
  5
95e
  8
Layer_0
  10
173.63867
  20
335.54449
  0
VERTEX
  5
95f
  8
Layer_0
  10
173.6362
  20
335.42709
  0
VERTEX
  5
960
  8
Layer_0
  10
173.64047
  20
335.35733
  0
VERTEX
  5
961
  8
Layer_0
  10
173.64917
  20
335.28976
  0
VERTEX
  5
962
  8
Layer_0
  10
173.66205
  20
335.22427
  0
VERTEX
  5
963
  8
Layer_0
  10
173.67935
  20
335.16092
  0
VERTEX
  5
964
  8
Layer_0
  10
173.70105
  20
335.0997
  0
VERTEX
  5
965
  8
Layer_0
  10
173.7269
  20
335.04056
  0
VERTEX
  5
966
  8
Layer_0
  10
173.75711
  20
334.98355
  0
VERTEX
  5
967
  8
Layer_0
  10
173.79166
  20
334.92868
  0
VERTEX
  5
968
  8
Layer_0
  10
173.83057
  20
334.87592
  0
VERTEX
  5
969
  8
Layer_0
  10
173.87375
  20
334.82529
  0
VERTEX
  5
96a
  8
Layer_0
  10
173.9213
  20
334.77676
  0
VERTEX
  5
96b
  8
Layer_0
  10
173.97391
  20
334.73013
  0
VERTEX
  5
96c
  8
Layer_0
  10
174.03842
  20
334.6835
  0
VERTEX
  5
96d
  8
Layer_0
  10
174.11682
  20
334.63681
  0
VERTEX
  5
96e
  8
Layer_0
  10
174.20871
  20
334.58981
  0
VERTEX
  5
96f
  8
Layer_0
  10
174.31436
  20
334.54269
  0
VERTEX
  5
970
  8
Layer_0
  10
174.43384
  20
334.49536
  0
VERTEX
  5
971
  8
Layer_0
  10
174.56674
  20
334.44778
  0
VERTEX
  5
972
  8
Layer_0
  10
174.71341
  20
334.40012
  0
VERTEX
  5
973
  8
Layer_0
  10
174.95911
  20
334.32816
  0
VERTEX
  5
974
  8
Layer_0
  10
175.23557
  20
334.25583
  0
VERTEX
  5
975
  8
Layer_0
  10
176.04547
  20
334.06467
  0
VERTEX
  5
976
  8
Layer_0
  10
176.47763
  20
333.95255
  0
VERTEX
  5
977
  8
Layer_0
  10
176.77274
  20
333.86752
  0
VERTEX
  5
978
  8
Layer_0
  10
177.02289
  20
333.78659
  0
VERTEX
  5
979
  8
Layer_0
  10
177.18091
  20
333.72855
  0
VERTEX
  5
97a
  8
Layer_0
  10
177.3136
  20
333.67282
  0
VERTEX
  5
97b
  8
Layer_0
  10
177.42749
  20
333.61798
  0
VERTEX
  5
97c
  8
Layer_0
  10
177.53629
  20
333.56076
  0
VERTEX
  5
97d
  8
Layer_0
  10
177.64001
  20
333.50113
  0
VERTEX
  5
97e
  8
Layer_0
  10
177.73871
  20
333.43912
  0
VERTEX
  5
97f
  8
Layer_0
  10
177.83218
  20
333.37466
  0
VERTEX
  5
980
  8
Layer_0
  10
177.92068
  20
333.30789
  0
VERTEX
  5
981
  8
Layer_0
  10
178.00409
  20
333.23871
  0
VERTEX
  5
982
  8
Layer_0
  10
178.08243
  20
333.16714
  0
VERTEX
  5
983
  8
Layer_0
  10
178.1557
  20
333.09317
  0
VERTEX
  5
984
  8
Layer_0
  10
178.22391
  20
333.01688
  0
VERTEX
  5
985
  8
Layer_0
  10
178.28702
  20
332.93814
  0
VERTEX
  5
986
  8
Layer_0
  10
178.345
  20
332.85703
  0
VERTEX
  5
987
  8
Layer_0
  10
178.39816
  20
332.77365
  0
VERTEX
  5
988
  8
Layer_0
  10
178.44669
  20
332.6882
  0
VERTEX
  5
989
  8
Layer_0
  10
178.49063
  20
332.60068
  0
VERTEX
  5
98a
  8
Layer_0
  10
178.53006
  20
332.51111
  0
VERTEX
  5
98b
  8
Layer_0
  10
178.56461
  20
332.4194
  0
VERTEX
  5
98c
  8
Layer_0
  10
178.59464
  20
332.32562
  0
VERTEX
  5
98d
  8
Layer_0
  10
178.62009
  20
332.22977
  0
VERTEX
  5
98e
  8
Layer_0
  10
178.6409
  20
332.13181
  0
VERTEX
  5
98f
  8
Layer_0
  10
178.65714
  20
332.03177
  0
VERTEX
  5
990
  8
Layer_0
  10
178.66867
  20
331.92969
  0
VERTEX
  5
991
  8
Layer_0
  10
178.67557
  20
331.82547
  0
VERTEX
  5
992
  8
Layer_0
  10
178.67789
  20
331.71921
  0
VERTEX
  5
993
  8
Layer_0
  10
178.67538
  20
331.61331
  0
VERTEX
  5
994
  8
Layer_0
  10
178.66776
  20
331.50845
  0
VERTEX
  5
995
  8
Layer_0
  10
178.65506
  20
331.40457
  0
VERTEX
  5
996
  8
Layer_0
  10
178.63736
  20
331.30179
  0
VERTEX
  5
997
  8
Layer_0
  10
178.61441
  20
331.19995
  0
VERTEX
  5
998
  8
Layer_0
  10
178.58646
  20
331.09915
  0
VERTEX
  5
999
  8
Layer_0
  10
178.5535
  20
330.99942
  0
VERTEX
  5
99a
  8
Layer_0
  10
178.51541
  20
330.90067
  0
VERTEX
  5
99b
  8
Layer_0
  10
178.47226
  20
330.80295
  0
VERTEX
  5
99c
  8
Layer_0
  10
178.42404
  20
330.70627
  0
VERTEX
  5
99d
  8
Layer_0
  10
178.3707
  20
330.61057
  0
VERTEX
  5
99e
  8
Layer_0
  10
178.31229
  20
330.51596
  0
VERTEX
  5
99f
  8
Layer_0
  10
178.24911
  20
330.42355
  0
VERTEX
  5
9a0
  8
Layer_0
  10
178.18155
  20
330.33466
  0
VERTEX
  5
9a1
  8
Layer_0
  10
178.10947
  20
330.24924
  0
VERTEX
  5
9a2
  8
Layer_0
  10
178.03311
  20
330.16733
  0
VERTEX
  5
9a3
  8
Layer_0
  10
177.95215
  20
330.08884
  0
VERTEX
  5
9a4
  8
Layer_0
  10
177.86682
  20
330.01389
  0
VERTEX
  5
9a5
  8
Layer_0
  10
177.7771
  20
329.94241
  0
VERTEX
  5
9a6
  8
Layer_0
  10
177.68286
  20
329.87442
  0
VERTEX
  5
9a7
  8
Layer_0
  10
177.58423
  20
329.80994
  0
VERTEX
  5
9a8
  8
Layer_0
  10
177.4812
  20
329.74893
  0
VERTEX
  5
9a9
  8
Layer_0
  10
177.37369
  20
329.69138
  0
VERTEX
  5
9aa
  8
Layer_0
  10
177.26178
  20
329.63736
  0
VERTEX
  5
9ab
  8
Layer_0
  10
177.14645
  20
329.58725
  0
VERTEX
  5
9ac
  8
Layer_0
  10
177.02869
  20
329.54147
  0
VERTEX
  5
9ad
  8
Layer_0
  10
176.90857
  20
329.50009
  0
VERTEX
  5
9ae
  8
Layer_0
  10
176.78616
  20
329.46304
  0
VERTEX
  5
9af
  8
Layer_0
  10
176.66122
  20
329.43036
  0
VERTEX
  5
9b0
  8
Layer_0
  10
176.53394
  20
329.40201
  0
VERTEX
  5
9b1
  8
Layer_0
  10
176.40427
  20
329.37808
  0
VERTEX
  5
9b2
  8
Layer_0
  10
176.27222
  20
329.35843
  0
VERTEX
  5
9b3
  8
Layer_0
  10
176.13779
  20
329.34317
  0
VERTEX
  5
9b4
  8
Layer_0
  10
176.00098
  20
329.33231
  0
VERTEX
  5
9b5
  8
Layer_0
  10
175.86172
  20
329.32574
  0
VERTEX
  5
9b6
  8
Layer_0
  10
175.72015
  20
329.32358
  0
VERTEX
  5
9b7
  8
Layer_0
  10
175.54163
  20
329.32578
  0
VERTEX
  5
9b8
  8
Layer_0
  10
175.36795
  20
329.33237
  0
VERTEX
  5
9b9
  8
Layer_0
  10
175.19919
  20
329.34335
  0
VERTEX
  5
9ba
  8
Layer_0
  10
175.03537
  20
329.35876
  0
VERTEX
  5
9bb
  8
Layer_0
  10
174.87634
  20
329.37851
  0
VERTEX
  5
9bc
  8
Layer_0
  10
174.72223
  20
329.40268
  0
VERTEX
  5
9bd
  8
Layer_0
  10
174.573
  20
329.4313
  0
VERTEX
  5
9be
  8
Layer_0
  10
174.42865
  20
329.46426
  0
VERTEX
  5
9bf
  8
Layer_0
  10
174.28922
  20
329.50162
  0
VERTEX
  5
9c0
  8
Layer_0
  10
174.15472
  20
329.54337
  0
VERTEX
  5
9c1
  8
Layer_0
  10
174.02499
  20
329.58954
  0
VERTEX
  5
9c2
  8
Layer_0
  10
173.90024
  20
329.64011
  0
VERTEX
  5
9c3
  8
Layer_0
  10
173.78012
  20
329.69504
  0
VERTEX
  5
9c4
  8
Layer_0
  10
173.66437
  20
329.75446
  0
VERTEX
  5
9c5
  8
Layer_0
  10
173.55301
  20
329.8183
  0
VERTEX
  5
9c6
  8
Layer_0
  10
173.44614
  20
329.88657
  0
VERTEX
  5
9c7
  8
Layer_0
  10
173.34354
  20
329.95926
  0
VERTEX
  5
9c8
  8
Layer_0
  10
173.24539
  20
330.03641
  0
VERTEX
  5
9c9
  8
Layer_0
  10
173.15164
  20
330.11795
  0
VERTEX
  5
9ca
  8
Layer_0
  10
173.06229
  20
330.20398
  0
VERTEX
  5
9cb
  8
Layer_0
  10
172.97729
  20
330.2944
  0
VERTEX
  5
9cc
  8
Layer_0
  10
172.89676
  20
330.38931
  0
VERTEX
  5
9cd
  8
Layer_0
  10
172.82059
  20
330.48862
  0
VERTEX
  5
9ce
  8
Layer_0
  10
172.74881
  20
330.59235
  0
VERTEX
  5
9cf
  8
Layer_0
  10
172.68201
  20
330.69946
  0
VERTEX
  5
9d0
  8
Layer_0
  10
172.62064
  20
330.80887
  0
VERTEX
  5
9d1
  8
Layer_0
  10
172.56479
  20
330.92062
  0
VERTEX
  5
9d2
  8
Layer_0
  10
172.51453
  20
331.0347
  0
VERTEX
  5
9d3
  8
Layer_0
  10
172.4696
  20
331.15103
  0
VERTEX
  5
9d4
  8
Layer_0
  10
172.43024
  20
331.26968
  0
VERTEX
  5
9d5
  8
Layer_0
  10
172.39642
  20
331.39066
  0
VERTEX
  5
9d6
  8
Layer_0
  10
172.36801
  20
331.51395
  0
VERTEX
  5
9d7
  8
Layer_0
  10
172.34515
  20
331.63956
  0
VERTEX
  5
9d8
  8
Layer_0
  10
172.32782
  20
331.76749
  0
VERTEX
  5
9d9
  8
Layer_0
  10
172.31589
  20
331.89774
  0
VERTEX
  5
9da
  8
Layer_0
  10
172.30951
  20
332.03024
  0
VERTEX
  5
9db
  8
Layer_0
  10
173.30817
  20
332.11758
  0
VERTEX
  5
9dc
  8
Layer_0
  10
173.32129
  20
332.01901
  0
VERTEX
  5
9dd
  8
Layer_0
  10
173.33707
  20
331.92346
  0
VERTEX
  5
9de
  8
Layer_0
  10
173.35541
  20
331.8309
  0
VERTEX
  5
9df
  8
Layer_0
  10
173.3764
  20
331.74136
  0
VERTEX
  5
9e0
  8
Layer_0
  10
173.39996
  20
331.65475
  0
VERTEX
  5
9e1
  8
Layer_0
  10
173.42615
  20
331.5712
  0
VERTEX
  5
9e2
  8
Layer_0
  10
173.45499
  20
331.4906
  0
VERTEX
  5
9e3
  8
Layer_0
  10
173.48639
  20
331.41299
  0
VERTEX
  5
9e4
  8
Layer_0
  10
173.52045
  20
331.33841
  0
VERTEX
  5
9e5
  8
Layer_0
  10
173.55713
  20
331.26682
  0
VERTEX
  5
9e6
  8
Layer_0
  10
173.59637
  20
331.19821
  0
VERTEX
  5
9e7
  8
Layer_0
  10
173.63831
  20
331.1326
  0
VERTEX
  5
9e8
  8
Layer_0
  10
173.68347
  20
331.06949
  0
VERTEX
  5
9e9
  8
Layer_0
  10
173.73264
  20
331.00845
  0
VERTEX
  5
9ea
  8
Layer_0
  10
173.7858
  20
330.94943
  0
VERTEX
  5
9eb
  8
Layer_0
  10
173.84299
  20
330.89249
  0
VERTEX
  5
9ec
  8
Layer_0
  10
173.90405
  20
330.83755
  0
VERTEX
  5
9ed
  8
Layer_0
  10
173.96915
  20
330.7847
  0
VERTEX
  5
9ee
  8
Layer_0
  10
174.03821
  20
330.73386
  0
VERTEX
  5
9ef
  8
Layer_0
  10
174.11127
  20
330.68509
  0
VERTEX
  5
9f0
  8
Layer_0
  10
174.18823
  20
330.6384
  0
VERTEX
  5
9f1
  8
Layer_0
  10
174.26929
  20
330.59372
  0
VERTEX
  5
9f2
  8
Layer_0
  10
174.35425
  20
330.55106
  0
VERTEX
  5
9f3
  8
Layer_0
  10
174.44321
  20
330.51047
  0
VERTEX
  5
9f4
  8
Layer_0
  10
174.53513
  20
330.47256
  0
VERTEX
  5
9f5
  8
Layer_0
  10
174.62888
  20
330.43796
  0
VERTEX
  5
9f6
  8
Layer_0
  10
174.72461
  20
330.40665
  0
VERTEX
  5
9f7
  8
Layer_0
  10
174.82224
  20
330.37863
  0
VERTEX
  5
9f8
  8
Layer_0
  10
174.92163
  20
330.35388
  0
VERTEX
  5
9f9
  8
Layer_0
  10
175.02301
  20
330.33243
  0
VERTEX
  5
9fa
  8
Layer_0
  10
175.12628
  20
330.3143
  0
VERTEX
  5
9fb
  8
Layer_0
  10
175.23145
  20
330.29947
  0
VERTEX
  5
9fc
  8
Layer_0
  10
175.3385
  20
330.28793
  0
VERTEX
  5
9fd
  8
Layer_0
  10
175.44745
  20
330.27969
  0
VERTEX
  5
9fe
  8
Layer_0
  10
175.55829
  20
330.27475
  0
VERTEX
  5
9ff
  8
Layer_0
  10
175.67105
  20
330.2731
  0
VERTEX
  5
a00
  8
Layer_0
  10
175.77103
  20
330.27435
  0
VERTEX
  5
a01
  8
Layer_0
  10
175.86896
  20
330.27811
  0
VERTEX
  5
a02
  8
Layer_0
  10
175.96503
  20
330.28433
  0
VERTEX
  5
a03
  8
Layer_0
  10
176.05914
  20
330.29312
  0
VERTEX
  5
a04
  8
Layer_0
  10
176.15118
  20
330.30435
  0
VERTEX
  5
a05
  8
Layer_0
  10
176.2413
  20
330.31812
  0
VERTEX
  5
a06
  8
Layer_0
  10
176.32947
  20
330.33438
  0
VERTEX
  5
a07
  8
Layer_0
  10
176.41562
  20
330.35312
  0
VERTEX
  5
a08
  8
Layer_0
  10
176.49985
  20
330.37442
  0
VERTEX
  5
a09
  8
Layer_0
  10
176.58206
  20
330.39816
  0
VERTEX
  5
a0a
  8
Layer_0
  10
176.66235
  20
330.42441
  0
VERTEX
  5
a0b
  8
Layer_0
  10
176.77896
  20
330.46844
  0
VERTEX
  5
a0c
  8
Layer_0
  10
176.88864
  20
330.51694
  0
VERTEX
  5
a0d
  8
Layer_0
  10
176.99103
  20
330.56961
  0
VERTEX
  5
a0e
  8
Layer_0
  10
177.08594
  20
330.62646
  0
VERTEX
  5
a0f
  8
Layer_0
  10
177.17346
  20
330.6875
  0
VERTEX
  5
a10
  8
Layer_0
  10
177.2536
  20
330.75272
  0
VERTEX
  5
a11
  8
Layer_0
  10
177.32629
  20
330.82211
  0
VERTEX
  5
a12
  8
Layer_0
  10
177.39154
  20
330.89566
  0
VERTEX
  5
a13
  8
Layer_0
  10
177.44946
  20
330.97333
  0
VERTEX
  5
a14
  8
Layer_0
  10
177.50015
  20
331.05322
  0
VERTEX
  5
a15
  8
Layer_0
  10
177.54382
  20
331.13498
  0
VERTEX
  5
a16
  8
Layer_0
  10
177.58035
  20
331.21848
  0
VERTEX
  5
a17
  8
Layer_0
  10
177.60986
  20
331.3038
  0
VERTEX
  5
a18
  8
Layer_0
  10
177.63226
  20
331.39087
  0
VERTEX
  5
a19
  8
Layer_0
  10
177.64758
  20
331.47977
  0
VERTEX
  5
a1a
  8
Layer_0
  10
177.65582
  20
331.57047
  0
VERTEX
  5
a1b
  8
Layer_0
  10
177.6571
  20
331.66312
  0
VERTEX
  5
a1c
  8
Layer_0
  10
177.65131
  20
331.75473
  0
VERTEX
  5
a1d
  8
Layer_0
  10
177.63882
  20
331.84341
  0
VERTEX
  5
a1e
  8
Layer_0
  10
177.61951
  20
331.92911
  0
VERTEX
  5
a1f
  8
Layer_0
  10
177.59335
  20
332.01181
  0
VERTEX
  5
a20
  8
Layer_0
  10
177.56036
  20
332.09152
  0
VERTEX
  5
a21
  8
Layer_0
  10
177.52063
  20
332.16824
  0
VERTEX
  5
a22
  8
Layer_0
  10
177.474
  20
332.24197
  0
VERTEX
  5
a23
  8
Layer_0
  10
177.4205
  20
332.31277
  0
VERTEX
  5
a24
  8
Layer_0
  10
177.35849
  20
332.38065
  0
VERTEX
  5
a25
  8
Layer_0
  10
177.28763
  20
332.44574
  0
VERTEX
  5
a26
  8
Layer_0
  10
177.20795
  20
332.50803
  0
VERTEX
  5
a27
  8
Layer_0
  10
177.11938
  20
332.5675
  0
VERTEX
  5
a28
  8
Layer_0
  10
177.02197
  20
332.62418
  0
VERTEX
  5
a29
  8
Layer_0
  10
176.91568
  20
332.67801
  0
VERTEX
  5
a2a
  8
Layer_0
  10
176.80051
  20
332.72903
  0
VERTEX
  5
a2b
  8
Layer_0
  10
176.65973
  20
332.78339
  0
VERTEX
  5
a2c
  8
Layer_0
  10
176.41751
  20
332.86069
  0
VERTEX
  5
a2d
  8
Layer_0
  10
175.94269
  20
332.99069
  0
VERTEX
  5
a2e
  8
Layer_0
  10
175.64029
  20
333.06735
  0
VERTEX
  5
a2f
  8
Layer_0
  10
175.20389
  20
333.17374
  0
VERTEX
  5
a30
  8
Layer_0
  10
174.78464
  20
333.28214
  0
VERTEX
  5
a31
  8
Layer_0
  10
174.49054
  20
333.36703
  0
VERTEX
  5
a32
  8
Layer_0
  10
174.23315
  20
333.45023
  0
VERTEX
  5
a33
  8
Layer_0
  10
174.06421
  20
333.51157
  0
VERTEX
  5
a34
  8
Layer_0
  10
173.91589
  20
333.57196
  0
VERTEX
  5
a35
  8
Layer_0
  10
173.78818
  20
333.63138
  0
VERTEX
  5
a36
  8
Layer_0
  10
173.65674
  20
333.70203
  0
VERTEX
  5
a37
  8
Layer_0
  10
173.56729
  20
333.75507
  0
VERTEX
  5
a38
  8
Layer_0
  10
173.48196
  20
333.81009
  0
VERTEX
  5
a39
  8
Layer_0
  10
173.4007
  20
333.86719
  0
VERTEX
  5
a3a
  8
Layer_0
  10
173.32336
  20
333.92624
  0
VERTEX
  5
a3b
  8
Layer_0
  10
173.25021
  20
333.98727
  0
VERTEX
  5
a3c
  8
Layer_0
  10
173.18106
  20
334.05038
  0
VERTEX
  5
a3d
  8
Layer_0
  10
173.11597
  20
334.11545
  0
VERTEX
  5
a3e
  8
Layer_0
  10
173.05496
  20
334.18256
  0
VERTEX
  5
a3f
  8
Layer_0
  10
172.99799
  20
334.25168
  0
VERTEX
  5
a40
  8
Layer_0
  10
172.94504
  20
334.32278
  0
VERTEX
  5
a41
  8
Layer_0
  10
172.89618
  20
334.3959
  0
VERTEX
  5
a42
  8
Layer_0
  10
172.85129
  20
334.47076
  0
VERTEX
  5
a43
  8
Layer_0
  10
172.8103
  20
334.54709
  0
VERTEX
  5
a44
  8
Layer_0
  10
172.77322
  20
334.62491
  0
VERTEX
  5
a45
  8
Layer_0
  10
172.74011
  20
334.70422
  0
VERTEX
  5
a46
  8
Layer_0
  10
172.71075
  20
334.785
  0
VERTEX
  5
a47
  8
Layer_0
  10
172.68539
  20
334.86722
  0
VERTEX
  5
a48
  8
Layer_0
  10
172.66394
  20
334.95096
  0
VERTEX
  5
a49
  8
Layer_0
  10
172.64636
  20
335.03616
  0
VERTEX
  5
a4a
  8
Layer_0
  10
172.63272
  20
335.12289
  0
VERTEX
  5
a4b
  8
Layer_0
  10
172.62296
  20
335.21103
  0
VERTEX
  5
a4c
  8
Layer_0
  10
172.6171
  20
335.30069
  0
VERTEX
  5
a4d
  8
Layer_0
  10
172.61514
  20
335.39182
  0
VERTEX
  5
a4e
  8
Layer_0
  10
172.61755
  20
335.49222
  0
VERTEX
  5
a4f
  8
Layer_0
  10
172.62466
  20
335.59152
  0
VERTEX
  5
a50
  8
Layer_0
  10
172.63663
  20
335.68973
  0
VERTEX
  5
a51
  8
Layer_0
  10
172.65341
  20
335.78683
  0
VERTEX
  5
a52
  8
Layer_0
  10
172.67484
  20
335.88284
  0
VERTEX
  5
a53
  8
Layer_0
  10
172.70108
  20
335.97775
  0
VERTEX
  5
a54
  8
Layer_0
  10
172.73215
  20
336.07156
  0
VERTEX
  5
a55
  8
Layer_0
  10
172.76791
  20
336.16428
  0
VERTEX
  5
a56
  8
Layer_0
  10
172.80853
  20
336.25589
  0
VERTEX
  5
a57
  8
Layer_0
  10
172.85391
  20
336.34641
  0
VERTEX
  5
a58
  8
Layer_0
  10
172.90399
  20
336.43582
  0
VERTEX
  5
a59
  8
Layer_0
  10
172.95892
  20
336.52414
  0
VERTEX
  5
a5a
  8
Layer_0
  10
173.01843
  20
336.61014
  0
VERTEX
  5
a5b
  8
Layer_0
  10
173.08231
  20
336.6926
  0
VERTEX
  5
a5c
  8
Layer_0
  10
173.1506
  20
336.77158
  0
VERTEX
  5
a5d
  8
Layer_0
  10
173.22336
  20
336.84702
  0
VERTEX
  5
a5e
  8
Layer_0
  10
173.30042
  20
336.91891
  0
VERTEX
  5
a5f
  8
Layer_0
  10
173.38187
  20
336.98727
  0
VERTEX
  5
a60
  8
Layer_0
  10
173.46774
  20
337.05215
  0
VERTEX
  5
a61
  8
Layer_0
  10
173.55798
  20
337.11349
  0
VERTEX
  5
a62
  8
Layer_0
  10
173.65268
  20
337.1713
  0
VERTEX
  5
a63
  8
Layer_0
  10
173.75174
  20
337.22559
  0
VERTEX
  5
a64
  8
Layer_0
  10
173.85519
  20
337.27634
  0
VERTEX
  5
a65
  8
Layer_0
  10
173.96304
  20
337.32358
  0
VERTEX
  5
a66
  8
Layer_0
  10
174.07413
  20
337.36716
  0
VERTEX
  5
a67
  8
Layer_0
  10
174.18723
  20
337.40695
  0
VERTEX
  5
a68
  8
Layer_0
  10
174.3024
  20
337.44296
  0
VERTEX
  5
a69
  8
Layer_0
  10
174.41968
  20
337.47519
  0
VERTEX
  5
a6a
  8
Layer_0
  10
174.53888
  20
337.50357
  0
VERTEX
  5
a6b
  8
Layer_0
  10
174.66016
  20
337.52823
  0
VERTEX
  5
a6c
  8
Layer_0
  10
174.78351
  20
337.54907
  0
VERTEX
  5
a6d
  8
Layer_0
  10
174.90891
  20
337.56613
  0
VERTEX
  5
a6e
  8
Layer_0
  10
175.03635
  20
337.57938
  0
VERTEX
  5
a6f
  8
Layer_0
  10
175.16586
  20
337.58887
  0
VERTEX
  5
a70
  8
Layer_0
  10
175.29736
  20
337.59454
  0
VERTEX
  5
a71
  8
Layer_0
  10
175.43097
  20
337.59644
  0
VERTEX
  5
a72
  8
Layer_0
  10
175.57776
  20
337.59445
  0
VERTEX
  5
a73
  8
Layer_0
  10
175.72162
  20
337.58847
  0
VERTEX
  5
a74
  8
Layer_0
  10
175.86258
  20
337.57852
  0
VERTEX
  5
a75
  8
Layer_0
  10
176.00067
  20
337.56461
  0
VERTEX
  5
a76
  8
Layer_0
  10
176.13574
  20
337.54672
  0
VERTEX
  5
a77
  8
Layer_0
  10
176.26794
  20
337.52481
  0
VERTEX
  5
a78
  8
Layer_0
  10
176.39725
  20
337.49893
  0
VERTEX
  5
a79
  8
Layer_0
  10
176.52359
  20
337.46909
  0
VERTEX
  5
a7a
  8
Layer_0
  10
176.64703
  20
337.43527
  0
VERTEX
  5
a7b
  8
Layer_0
  10
176.76758
  20
337.39749
  0
VERTEX
  5
a7c
  8
Layer_0
  10
176.88516
  20
337.35568
  0
VERTEX
  5
a7d
  8
Layer_0
  10
176.99988
  20
337.30994
  0
VERTEX
  5
a7e
  8
Layer_0
  10
177.11096
  20
337.26031
  0
VERTEX
  5
a7f
  8
Layer_0
  10
177.21762
  20
337.20694
  0
VERTEX
  5
a80
  8
Layer_0
  10
177.31995
  20
337.14981
  0
VERTEX
  5
a81
  8
Layer_0
  10
177.418
  20
337.08896
  0
VERTEX
  5
a82
  8
Layer_0
  10
177.51157
  20
337.02429
  0
VERTEX
  5
a83
  8
Layer_0
  10
177.6008
  20
336.9559
  0
VERTEX
  5
a84
  8
Layer_0
  10
177.68573
  20
336.88376
  0
VERTEX
  5
a85
  8
Layer_0
  10
177.76627
  20
336.80789
  0
VERTEX
  5
a86
  8
Layer_0
  10
177.84247
  20
336.72824
  0
VERTEX
  5
a87
  8
Layer_0
  10
177.91434
  20
336.64487
  0
VERTEX
  5
a88
  8
Layer_0
  10
177.98175
  20
336.55771
  0
VERTEX
  5
a89
  8
Layer_0
  10
178.04489
  20
336.46683
  0
VERTEX
  5
a8a
  8
Layer_0
  10
178.10345
  20
336.37302
  0
VERTEX
  5
a8b
  8
Layer_0
  10
178.15735
  20
336.27719
  0
VERTEX
  5
a8c
  8
Layer_0
  10
178.20651
  20
336.17932
  0
VERTEX
  5
a8d
  8
Layer_0
  10
178.25113
  20
336.07941
  0
VERTEX
  5
a8e
  8
Layer_0
  10
178.2908
  20
335.97739
  0
VERTEX
  5
a8f
  8
Layer_0
  10
178.32596
  20
335.87338
  0
VERTEX
  5
a90
  8
Layer_0
  10
178.35629
  20
335.7673
  0
VERTEX
  5
a91
  8
Layer_0
  10
178.38199
  20
335.65921
  0
VERTEX
  5
a92
  8
Layer_0
  10
178.40298
  20
335.54904
  0
VERTEX
  5
a93
  8
Layer_0
  10
178.41928
  20
335.4368
  0
VERTEX
  5
a94
  8
Layer_0
  10
178.43088
  20
335.32254
  0
VERTEX
  5
a95
  8
Layer_0
  10
178.43777
  20
335.20627
  0
VERTEX
  5
a96
  8
Layer_0
  10
177.42279
  20
335.12985
  0
SEQEND
  0
POLYLINE
  5
a98
  8
Layer_0
  62
0
  70
1
  66
1
  10
0
  20
0
  30
0
  0
VERTEX
  5
a98
  8
Layer_0
  10
185.00803
  20
332.10666
  0
VERTEX
  5
a99
  8
Layer_0
  10
180.68607
  20
332.10666
  0
VERTEX
  5
a9a
  8
Layer_0
  10
180.69815
  20
331.95059
  0
VERTEX
  5
a9b
  8
Layer_0
  10
180.71622
  20
331.80075
  0
VERTEX
  5
a9c
  8
Layer_0
  10
180.74026
  20
331.65714
  0
VERTEX
  5
a9d
  8
Layer_0
  10
180.77042
  20
331.51974
  0
VERTEX
  5
a9e
  8
Layer_0
  10
180.80643
  20
331.38852
  0
VERTEX
  5
a9f
  8
Layer_0
  10
180.84842
  20
331.26358
  0
VERTEX
  5
aa0
  8
Layer_0
  10
180.89639
  20
331.14481
  0
VERTEX
  5
aa1
  8
Layer_0
  10
180.95041
  20
331.03226
  0
VERTEX
  5
aa2
  8
Layer_0
  10
180.97964
  20
330.9783
  0
VERTEX
  5
aa3
  8
Layer_0
  10
181.01041
  20
330.9259
  0
VERTEX
  5
aa4
  8
Layer_0
  10
181.04269
  20
330.87506
  0
VERTEX
  5
aa5
  8
Layer_0
  10
181.07645
  20
330.82578
  0
VERTEX
  5
aa6
  8
Layer_0
  10
181.11166
  20
330.77805
  0
VERTEX
  5
aa7
  8
Layer_0
  10
181.14835
  20
330.73187
  0
VERTEX
  5
aa8
  8
Layer_0
  10
181.18661
  20
330.68723
  0
VERTEX
  5
aa9
  8
Layer_0
  10
181.22635
  20
330.6442
  0
VERTEX
  5
aaa
  8
Layer_0
  10
181.30899
  20
330.56314
  0
VERTEX
  5
aab
  8
Layer_0
  10
181.39493
  20
330.48911
  0
VERTEX
  5
aac
  8
Layer_0
  10
181.48416
  20
330.42215
  0
VERTEX
  5
aad
  8
Layer_0
  10
181.57687
  20
330.36227
  0
VERTEX
  5
aae
  8
Layer_0
  10
181.67276
  20
330.30936
  0
VERTEX
  5
aaf
  8
Layer_0
  10
181.772
  20
330.26355
  0
VERTEX
  5
ab0
  8
Layer_0
  10
181.87466
  20
330.22479
  0
VERTEX
  5
ab1
  8
Layer_0
  10
181.98062
  20
330.19308
  0
VERTEX
  5
ab2
  8
Layer_0
  10
182.08987
  20
330.16837
  0
VERTEX
  5
ab3
  8
Layer_0
  10
182.20255
  20
330.15079
  0
VERTEX
  5
ab4
  8
Layer_0
  10
182.31845
  20
330.1402
  0
VERTEX
  5
ab5
  8
Layer_0
  10
182.43777
  20
330.13669
  0
VERTEX
  5
ab6
  8
Layer_0
  10
182.52676
  20
330.13864
  0
VERTEX
  5
ab7
  8
Layer_0
  10
182.61343
  20
330.14456
  0
VERTEX
  5
ab8
  8
Layer_0
  10
182.69803
  20
330.15439
  0
VERTEX
  5
ab9
  8
Layer_0
  10
182.78049
  20
330.16824
  0
VERTEX
  5
aba
  8
Layer_0
  10
182.8605
  20
330.18594
  0
VERTEX
  5
abb
  8
Layer_0
  10
182.93851
  20
330.20761
  0
VERTEX
  5
abc
  8
Layer_0
  10
183.01419
  20
330.23325
  0
VERTEX
  5
abd
  8
Layer_0
  10
183.0878
  20
330.26279
  0
VERTEX
  5
abe
  8
Layer_0
  10
183.15909
  20
330.2963
  0
VERTEX
  5
abf
  8
Layer_0
  10
183.2283
  20
330.33374
  0
VERTEX
  5
ac0
  8
Layer_0
  10
183.29526
  20
330.37509
  0
VERTEX
  5
ac1
  8
Layer_0
  10
183.36002
  20
330.42044
  0
VERTEX
  5
ac2
  8
Layer_0
  10
183.42264
  20
330.47006
  0
VERTEX
  5
ac3
  8
Layer_0
  10
183.48294
  20
330.52444
  0
VERTEX
  5
ac4
  8
Layer_0
  10
183.54111
  20
330.58347
  0
VERTEX
  5
ac5
  8
Layer_0
  10
183.5972
  20
330.64725
  0
VERTEX
  5
ac6
  8
Layer_0
  10
183.65091
  20
330.71567
  0
VERTEX
  5
ac7
  8
Layer_0
  10
183.70242
  20
330.78879
  0
VERTEX
  5
ac8
  8
Layer_0
  10
183.7518
  20
330.86661
  0
VERTEX
  5
ac9
  8
Layer_0
  10
183.79898
  20
330.94919
  0
VERTEX
  5
aca
  8
Layer_0
  10
183.84396
  20
331.03641
  0
VERTEX
  5
acb
  8
Layer_0
  10
183.88681
  20
331.12833
  0
VERTEX
  5
acc
  8
Layer_0
  10
183.92734
  20
331.22498
  0
VERTEX
  5
acd
  8
Layer_0
  10
183.96573
  20
331.32632
  0
VERTEX
  5
ace
  8
Layer_0
  10
184.98074
  20
331.20078
  0
VERTEX
  5
acf
  8
Layer_0
  10
184.96011
  20
331.12738
  0
VERTEX
  5
ad0
  8
Layer_0
  10
184.91434
  20
330.98465
  0
VERTEX
  5
ad1
  8
Layer_0
  10
184.86301
  20
330.84747
  0
VERTEX
  5
ad2
  8
Layer_0
  10
184.80588
  20
330.71582
  0
VERTEX
  5
ad3
  8
Layer_0
  10
184.74313
  20
330.58969
  0
VERTEX
  5
ad4
  8
Layer_0
  10
184.67477
  20
330.46915
  0
VERTEX
  5
ad5
  8
Layer_0
  10
184.60056
  20
330.35403
  0
VERTEX
  5
ad6
  8
Layer_0
  10
184.52078
  20
330.24454
  0
VERTEX
  5
ad7
  8
Layer_0
  10
184.47867
  20
330.19186
  0
VERTEX
  5
ad8
  8
Layer_0
  10
184.39041
  20
330.09064
  0
VERTEX
  5
ad9
  8
Layer_0
  10
184.29642
  20
329.99496
  0
VERTEX
  5
ada
  8
Layer_0
  10
184.19669
  20
329.90482
  0
VERTEX
  5
adb
  8
Layer_0
  10
184.09128
  20
329.82016
  0
VERTEX
  5
adc
  8
Layer_0
  10
184.03665
  20
329.78012
  0
VERTEX
  5
add
  8
Layer_0
  10
183.98056
  20
329.74173
  0
VERTEX
  5
ade
  8
Layer_0
  10
183.92331
  20
329.70505
  0
VERTEX
  5
adf
  8
Layer_0
  10
183.86484
  20
329.6701
  0
VERTEX
  5
ae0
  8
Layer_0
  10
183.80515
  20
329.63687
  0
VERTEX
  5
ae1
  8
Layer_0
  10
183.74405
  20
329.60532
  0
VERTEX
  5
ae2
  8
Layer_0
  10
183.68179
  20
329.57547
  0
VERTEX
  5
ae3
  8
Layer_0
  10
183.61838
  20
329.54733
  0
VERTEX
  5
ae4
  8
Layer_0
  10
183.55362
  20
329.5209
  0
VERTEX
  5
ae5
  8
Layer_0
  10
183.42044
  20
329.47318
  0
VERTEX
  5
ae6
  8
Layer_0
  10
183.35184
  20
329.45181
  0
VERTEX
  5
ae7
  8
Layer_0
  10
183.21109
  20
329.41431
  0
VERTEX
  5
ae8
  8
Layer_0
  10
183.06534
  20
329.38361
  0
VERTEX
  5
ae9
  8
Layer_0
  10
182.91458
  20
329.35974
  0
VERTEX
  5
aea
  8
Layer_0
  10
182.75888
  20
329.34268
  0
VERTEX
  5
aeb
  8
Layer_0
  10
182.59811
  20
329.33243
  0
VERTEX
  5
aec
  8
Layer_0
  10
182.43234
  20
329.32904
  0
VERTEX
  5
aed
  8
Layer_0
  10
182.32742
  20
329.33041
  0
VERTEX
  5
aee
  8
Layer_0
  10
182.22415
  20
329.3345
  0
VERTEX
  5
aef
  8
Layer_0
  10
182.12271
  20
329.34128
  0
VERTEX
  5
af0
  8
Layer_0
  10
182.02316
  20
329.3508
  0
VERTEX
  5
af1
  8
Layer_0
  10
181.92551
  20
329.36304
  0
VERTEX
  5
af2
  8
Layer_0
  10
181.82956
  20
329.37799
  0
VERTEX
  5
af3
  8
Layer_0
  10
181.73544
  20
329.39566
  0
VERTEX
  5
af4
  8
Layer_0
  10
181.64328
  20
329.41605
  0
VERTEX
  5
af5
  8
Layer_0
  10
181.55276
  20
329.43918
  0
VERTEX
  5
af6
  8
Layer_0
  10
181.4642
  20
329.465
  0
VERTEX
  5
af7
  8
Layer_0
  10
181.37753
  20
329.49356
  0
VERTEX
  5
af8
  8
Layer_0
  10
181.29251
  20
329.52481
  0
VERTEX
  5
af9
  8
Layer_0
  10
181.20938
  20
329.55881
  0
VERTEX
  5
afa
  8
Layer_0
  10
181.12814
  20
329.59549
  0
VERTEX
  5
afb
  8
Layer_0
  10
181.04874
  20
329.63492
  0
VERTEX
  5
afc
  8
Layer_0
  10
180.9711
  20
329.67709
  0
VERTEX
  5
afd
  8
Layer_0
  10
180.89529
  20
329.72195
  0
VERTEX
  5
afe
  8
Layer_0
  10
180.82132
  20
329.7695
  0
VERTEX
  5
aff
  8
Layer_0
  10
180.74924
  20
329.81982
  0
VERTEX
  5
b00
  8
Layer_0
  10
180.67892
  20
329.87283
  0
VERTEX
  5
b01
  8
Layer_0
  10
180.61044
  20
329.92859
  0
VERTEX
  5
b02
  8
Layer_0
  10
180.54379
  20
329.98703
  0
VERTEX
  5
b03
  8
Layer_0
  10
180.47897
  20
330.04825
  0
VERTEX
  5
b04
  8
Layer_0
  10
180.41599
  20
330.11212
  0
VERTEX
  5
b05
  8
Layer_0
  10
180.35526
  20
330.1785
  0
VERTEX
  5
b06
  8
Layer_0
  10
180.29703
  20
330.24704
  0
VERTEX
  5
b07
  8
Layer_0
  10
180.24136
  20
330.31775
  0
VERTEX
  5
b08
  8
Layer_0
  10
180.18832
  20
330.39066
  0
VERTEX
  5
b09
  8
Layer_0
  10
180.13797
  20
330.46579
  0
VERTEX
  5
b0a
  8
Layer_0
  10
180.09006
  20
330.54306
  0
VERTEX
  5
b0b
  8
Layer_0
  10
180.04483
  20
330.62253
  0
VERTEX
  5
b0c
  8
Layer_0
  10
180.00223
  20
330.70425
  0
VERTEX
  5
b0d
  8
Layer_0
  10
179.96207
  20
330.78806
  0
VERTEX
  5
b0e
  8
Layer_0
  10
179.92453
  20
330.87411
  0
VERTEX
  5
b0f
  8
Layer_0
  10
179.88974
  20
330.96237
  0
VERTEX
  5
b10
  8
Layer_0
  10
179.85727
  20
331.05276
  0
VERTEX
  5
b11
  8
Layer_0
  10
179.82755
  20
331.14539
  0
VERTEX
  5
b12
  8
Layer_0
  10
179.80038
  20
331.2402
  0
VERTEX
  5
b13
  8
Layer_0
  10
179.77579
  20
331.33719
  0
VERTEX
  5
b14
  8
Layer_0
  10
179.75381
  20
331.43637
  0
VERTEX
  5
b15
  8
Layer_0
  10
179.73441
  20
331.53775
  0
VERTEX
  5
b16
  8
Layer_0
  10
179.71762
  20
331.64127
  0
VERTEX
  5
b17
  8
Layer_0
  10
179.7034
  20
331.74704
  0
VERTEX
  5
b18
  8
Layer_0
  10
179.69174
  20
331.85495
  0
VERTEX
  5
b19
  8
Layer_0
  10
179.68271
  20
331.96509
  0
VERTEX
  5
b1a
  8
Layer_0
  10
179.67624
  20
332.07739
  0
VERTEX
  5
b1b
  8
Layer_0
  10
179.67233
  20
332.19189
  0
VERTEX
  5
b1c
  8
Layer_0
  10
179.67105
  20
332.30856
  0
VERTEX
  5
b1d
  8
Layer_0
  10
179.67245
  20
332.42935
  0
VERTEX
  5
b1e
  8
Layer_0
  10
179.6763
  20
332.54779
  0
VERTEX
  5
b1f
  8
Layer_0
  10
179.68283
  20
332.66397
  0
VERTEX
  5
b20
  8
Layer_0
  10
179.69199
  20
332.77786
  0
VERTEX
  5
b21
  8
Layer_0
  10
179.70383
  20
332.88956
  0
VERTEX
  5
b22
  8
Layer_0
  10
179.71811
  20
332.99887
  0
VERTEX
  5
b23
  8
Layer_0
  10
179.73514
  20
333.10599
  0
VERTEX
  5
b24
  8
Layer_0
  10
179.75485
  20
333.21082
  0
VERTEX
  5
b25
  8
Layer_0
  10
179.77695
  20
333.31335
  0
VERTEX
  5
b26
  8
Layer_0
  10
179.80179
  20
333.4136
  0
VERTEX
  5
b27
  8
Layer_0
  10
179.82938
  20
333.51166
  0
VERTEX
  5
b28
  8
Layer_0
  10
179.85934
  20
333.60733
  0
VERTEX
  5
b29
  8
Layer_0
  10
179.892
  20
333.70078
  0
VERTEX
  5
b2a
  8
Layer_0
  10
179.92734
  20
333.79196
  0
VERTEX
  5
b2b
  8
Layer_0
  10
179.96524
  20
333.88089
  0
VERTEX
  5
b2c
  8
Layer_0
  10
180.00577
  20
333.9675
  0
VERTEX
  5
b2d
  8
Layer_0
  10
180.04892
  20
334.05185
  0
VERTEX
  5
b2e
  8
Layer_0
  10
180.0947
  20
334.13394
  0
VERTEX
  5
b2f
  8
Layer_0
  10
180.14304
  20
334.21378
  0
VERTEX
  5
b30
  8
Layer_0
  10
180.19406
  20
334.29129
  0
VERTEX
  5
b31
  8
Layer_0
  10
180.24765
  20
334.36655
  0
VERTEX
  5
b32
  8
Layer_0
  10
180.30386
  20
334.43954
  0
VERTEX
  5
b33
  8
Layer_0
  10
180.3627
  20
334.51025
  0
VERTEX
  5
b34
  8
Layer_0
  10
180.42416
  20
334.5787
  0
VERTEX
  5
b35
  8
Layer_0
  10
180.48776
  20
334.64462
  0
VERTEX
  5
b36
  8
Layer_0
  10
180.55276
  20
334.70767
  0
VERTEX
  5
b37
  8
Layer_0
  10
180.61942
  20
334.76797
  0
VERTEX
  5
b38
  8
Layer_0
  10
180.68759
  20
334.82547
  0
VERTEX
  5
b39
  8
Layer_0
  10
180.75742
  20
334.88019
  0
VERTEX
  5
b3a
  8
Layer_0
  10
180.82864
  20
334.93204
  0
VERTEX
  5
b3b
  8
Layer_0
  10
180.90152
  20
334.98111
  0
VERTEX
  5
b3c
  8
Layer_0
  10
180.97598
  20
335.0274
  0
VERTEX
  5
b3d
  8
Layer_0
  10
181.05185
  20
335.07083
  0
VERTEX
  5
b3e
  8
Layer_0
  10
181.12943
  20
335.11154
  0
VERTEX
  5
b3f
  8
Layer_0
  10
181.20859
  20
335.14938
  0
VERTEX
  5
b40
  8
Layer_0
  10
181.28909
  20
335.18442
  0
VERTEX
  5
b41
  8
Layer_0
  10
181.37125
  20
335.21667
  0
VERTEX
  5
b42
  8
Layer_0
  10
181.45499
  20
335.24612
  0
VERTEX
  5
b43
  8
Layer_0
  10
181.54031
  20
335.27277
  0
VERTEX
  5
b44
  8
Layer_0
  10
181.62711
  20
335.2966
  0
VERTEX
  5
b45
  8
Layer_0
  10
181.71548
  20
335.31766
  0
VERTEX
  5
b46
  8
Layer_0
  10
181.80545
  20
335.33585
  0
VERTEX
  5
b47
  8
Layer_0
  10
181.897
  20
335.35129
  0
VERTEX
  5
b48
  8
Layer_0
  10
181.99002
  20
335.36392
  0
VERTEX
  5
b49
  8
Layer_0
  10
182.08463
  20
335.37372
  0
VERTEX
  5
b4a
  8
Layer_0
  10
182.18076
  20
335.38071
  0
VERTEX
  5
b4b
  8
Layer_0
  10
182.27853
  20
335.38492
  0
VERTEX
  5
b4c
  8
Layer_0
  10
182.37778
  20
335.38632
  0
VERTEX
  5
b4d
  8
Layer_0
  10
182.47403
  20
335.38498
  0
VERTEX
  5
b4e
  8
Layer_0
  10
182.56857
  20
335.38083
  0
VERTEX
  5
b4f
  8
Layer_0
  10
182.66171
  20
335.37396
  0
VERTEX
  5
b50
  8
Layer_0
  10
182.75339
  20
335.36435
  0
VERTEX
  5
b51
  8
Layer_0
  10
182.84372
  20
335.35202
  0
VERTEX
  5
b52
  8
Layer_0
  10
182.93234
  20
335.33688
  0
VERTEX
  5
b53
  8
Layer_0
  10
183.01962
  20
335.31903
  0
VERTEX
  5
b54
  8
Layer_0
  10
183.10544
  20
335.29843
  0
VERTEX
  5
b55
  8
Layer_0
  10
183.18973
  20
335.27505
  0
VERTEX
  5
b56
  8
Layer_0
  10
183.27249
  20
335.24896
  0
VERTEX
  5
b57
  8
Layer_0
  10
183.35397
  20
335.22012
  0
VERTEX
  5
b58
  8
Layer_0
  10
183.43369
  20
335.18851
  0
VERTEX
  5
b59
  8
Layer_0
  10
183.51212
  20
335.15417
  0
VERTEX
  5
b5a
  8
Layer_0
  10
183.58902
  20
335.1171
  0
VERTEX
  5
b5b
  8
Layer_0
  10
183.66446
  20
335.07724
  0
VERTEX
  5
b5c
  8
Layer_0
  10
183.73837
  20
335.03464
  0
VERTEX
  5
b5d
  8
Layer_0
  10
183.81088
  20
334.98935
  0
VERTEX
  5
b5e
  8
Layer_0
  10
183.88187
  20
334.94125
  0
VERTEX
  5
b5f
  8
Layer_0
  10
183.95139
  20
334.89041
  0
VERTEX
  5
b60
  8
Layer_0
  10
184.01944
  20
334.83682
  0
VERTEX
  5
b61
  8
Layer_0
  10
184.08603
  20
334.78052
  0
VERTEX
  5
b62
  8
Layer_0
  10
184.15109
  20
334.72147
  0
VERTEX
  5
b63
  8
Layer_0
  10
184.21469
  20
334.65964
  0
VERTEX
  5
b64
  8
Layer_0
  10
184.27682
  20
334.59506
  0
VERTEX
  5
b65
  8
Layer_0
  10
184.33701
  20
334.52805
  0
VERTEX
  5
b66
  8
Layer_0
  10
184.3945
  20
334.45871
  0
VERTEX
  5
b67
  8
Layer_0
  10
184.44949
  20
334.38718
  0
VERTEX
  5
b68
  8
Layer_0
  10
184.50192
  20
334.31342
  0
VERTEX
  5
b69
  8
Layer_0
  10
184.55185
  20
334.23746
  0
VERTEX
  5
b6a
  8
Layer_0
  10
184.59909
  20
334.15921
  0
VERTEX
  5
b6b
  8
Layer_0
  10
184.64389
  20
334.0787
  0
VERTEX
  5
b6c
  8
Layer_0
  10
184.68619
  20
333.99603
  0
VERTEX
  5
b6d
  8
Layer_0
  10
184.72574
  20
333.91107
  0
VERTEX
  5
b6e
  8
Layer_0
  10
184.76285
  20
333.82388
  0
VERTEX
  5
b6f
  8
Layer_0
  10
184.79745
  20
333.7345
  0
VERTEX
  5
b70
  8
Layer_0
  10
184.82938
  20
333.64279
  0
VERTEX
  5
b71
  8
Layer_0
  10
184.85873
  20
333.54892
  0
VERTEX
  5
b72
  8
Layer_0
  10
184.88559
  20
333.45279
  0
VERTEX
  5
b73
  8
Layer_0
  10
184.90994
  20
333.35446
  0
VERTEX
  5
b74
  8
Layer_0
  10
184.93167
  20
333.25388
  0
VERTEX
  5
b75
  8
Layer_0
  10
184.95084
  20
333.15103
  0
VERTEX
  5
b76
  8
Layer_0
  10
184.96744
  20
333.04596
  0
VERTEX
  5
b77
  8
Layer_0
  10
184.9816
  20
332.93866
  0
VERTEX
  5
b78
  8
Layer_0
  10
184.99307
  20
332.82913
  0
VERTEX
  5
b79
  8
Layer_0
  10
185.00198
  20
332.71735
  0
VERTEX
  5
b7a
  8
Layer_0
  10
185.00839
  20
332.60333
  0
VERTEX
  5
b7b
  8
Layer_0
  10
185.01224
  20
332.48709
  0
VERTEX
  5
b7c
  8
Layer_0
  10
185.01352
  20
332.36862
  0
VERTEX
  5
b7d
  8
Layer_0
  10
185.00803
  20
332.10666
  0
SEQEND
  0
POLYLINE
  5
b7f
  8
Layer_0
  62
0
  70
1
  66
1
  10
0
  20
0
  30
0
  0
VERTEX
  5
b7f
  8
Layer_0
  10
180.74063
  20
332.91431
  0
VERTEX
  5
b80
  8
Layer_0
  10
183.97665
  20
332.91431
  0
VERTEX
  5
b81
  8
Layer_0
  10
183.96414
  20
333.03366
  0
VERTEX
  5
b82
  8
Layer_0
  10
183.94815
  20
333.14792
  0
VERTEX
  5
b83
  8
Layer_0
  10
183.92892
  20
333.25708
  0
VERTEX
  5
b84
  8
Layer_0
  10
183.9064
  20
333.36118
  0
VERTEX
  5
b85
  8
Layer_0
  10
183.8804
  20
333.46017
  0
VERTEX
  5
b86
  8
Layer_0
  10
183.85117
  20
333.55414
  0
VERTEX
  5
b87
  8
Layer_0
  10
183.81857
  20
333.64301
  0
VERTEX
  5
b88
  8
Layer_0
  10
183.78262
  20
333.72678
  0
VERTEX
  5
b89
  8
Layer_0
  10
183.74344
  20
333.80551
  0
VERTEX
  5
b8a
  8
Layer_0
  10
183.70084
  20
333.87912
  0
VERTEX
  5
b8b
  8
Layer_0
  10
183.65488
  20
333.94769
  0
VERTEX
  5
b8c
  8
Layer_0
  10
183.60562
  20
334.01117
  0
VERTEX
  5
b8d
  8
Layer_0
  10
183.56613
  20
334.0575
  0
VERTEX
  5
b8e
  8
Layer_0
  10
183.52548
  20
334.10184
  0
VERTEX
  5
b8f
  8
Layer_0
  10
183.48392
  20
334.1442
  0
VERTEX
  5
b90
  8
Layer_0
  10
183.44144
  20
334.1846
  0
VERTEX
  5
b91
  8
Layer_0
  10
183.3981
  20
334.22302
  0
VERTEX
  5
b92
  8
Layer_0
  10
183.35361
  20
334.25946
  0
VERTEX
  5
b93
  8
Layer_0
  10
183.3082
  20
334.29391
  0
VERTEX
  5
b94
  8
Layer_0
  10
183.26187
  20
334.32648
  0
VERTEX
  5
b95
  8
Layer_0
  10
183.21445
  20
334.35703
  0
VERTEX
  5
b96
  8
Layer_0
  10
183.16623
  20
334.38559
  0
VERTEX
  5
b97
  8
Layer_0
  10
183.11697
  20
334.4122
  0
VERTEX
  5
b98
  8
Layer_0
  10
183.06668
  20
334.4368
  0
VERTEX
  5
b99
  8
Layer_0
  10
183.01553
  20
334.45947
  0
VERTEX
  5
b9a
  8
Layer_0
  10
182.96335
  20
334.48016
  0
VERTEX
  5
b9b
  8
Layer_0
  10
182.91025
  20
334.49887
  0
VERTEX
  5
b9c
  8
Layer_0
  10
182.85617
  20
334.51563
  0
VERTEX
  5
b9d
  8
Layer_0
  10
182.80106
  20
334.53043
  0
VERTEX
  5
b9e
  8
Layer_0
  10
182.74509
  20
334.54321
  0
VERTEX
  5
b9f
  8
Layer_0
  10
182.68814
  20
334.55405
  0
VERTEX
  5
ba0
  8
Layer_0
  10
182.63016
  20
334.56293
  0
VERTEX
  5
ba1
  8
Layer_0
  10
182.57126
  20
334.56982
  0
VERTEX
  5
ba2
  8
Layer_0
  10
182.45047
  20
334.57773
  0
VERTEX
  5
ba3
  8
Layer_0
  10
182.3887
  20
334.5787
  0
VERTEX
  5
ba4
  8
Layer_0
  10
182.27744
  20
334.57556
  0
VERTEX
  5
ba5
  8
Layer_0
  10
182.1691
  20
334.5661
  0
VERTEX
  5
ba6
  8
Layer_0
  10
182.06381
  20
334.55038
  0
VERTEX
  5
ba7
  8
Layer_0
  10
181.96164
  20
334.52838
  0
VERTEX
  5
ba8
  8
Layer_0
  10
181.86221
  20
334.50006
  0
VERTEX
  5
ba9
  8
Layer_0
  10
181.7659
  20
334.46545
  0
VERTEX
  5
baa
  8
Layer_0
  10
181.67258
  20
334.42456
  0
VERTEX
  5
bab
  8
Layer_0
  10
181.58224
  20
334.37741
  0
VERTEX
  5
bac
  8
Layer_0
  10
181.4949
  20
334.32394
  0
VERTEX
  5
bad
  8
Layer_0
  10
181.41055
  20
334.26416
  0
VERTEX
  5
bae
  8
Layer_0
  10
181.32925
  20
334.19809
  0
VERTEX
  5
baf
  8
Layer_0
  10
181.25089
  20
334.12576
  0
VERTEX
  5
bb0
  8
Layer_0
  10
181.17691
  20
334.04816
  0
VERTEX
  5
bb1
  8
Layer_0
  10
181.10861
  20
333.96628
  0
VERTEX
  5
bb2
  8
Layer_0
  10
181.04605
  20
333.88022
  0
VERTEX
  5
bb3
  8
Layer_0
  10
180.98935
  20
333.78989
  0
VERTEX
  5
bb4
  8
Layer_0
  10
180.93814
  20
333.69528
  0
VERTEX
  5
bb5
  8
Layer_0
  10
180.89273
  20
333.59644
  0
VERTEX
  5
bb6
  8
Layer_0
  10
180.85312
  20
333.49338
  0
VERTEX
  5
bb7
  8
Layer_0
  10
180.81912
  20
333.38602
  0
VERTEX
  5
bb8
  8
Layer_0
  10
180.79092
  20
333.27448
  0
VERTEX
  5
bb9
  8
Layer_0
  10
180.76846
  20
333.15866
  0
VERTEX
  5
bba
  8
Layer_0
  10
180.75168
  20
333.0386
  0
VERTEX
  5
bbb
  8
Layer_0
  10
180.74063
  20
332.91431
  0
SEQEND
  0
POLYLINE
  5
bbd
  8
Layer_0
  62
0
  70
1
  66
1
  10
0
  20
0
  30
0
  0
VERTEX
  5
bbd
  8
Layer_0
  10
124.69388
  20
263.39597
  0
VERTEX
  5
bbe
  8
Layer_0
  10
124.56348
  20
263.2944
  0
VERTEX
  5
bbf
  8
Layer_0
  10
124.4324
  20
263.19714
  0
VERTEX
  5
bc0
  8
Layer_0
  10
124.30063
  20
263.10416
  0
VERTEX
  5
bc1
  8
Layer_0
  10
124.16827
  20
263.01547
  0
VERTEX
  5
bc2
  8
Layer_0
  10
124.03503
  20
262.93106
  0
VERTEX
  5
bc3
  8
Layer_0
  10
123.90125
  20
262.85092
  0
VERTEX
  5
bc4
  8
Layer_0
  10
123.76672
  20
262.77509
  0
VERTEX
  5
bc5
  8
Layer_0
  10
123.63159
  20
262.70352
  0
VERTEX
  5
bc6
  8
Layer_0
  10
123.49573
  20
262.63623
  0
VERTEX
  5
bc7
  8
Layer_0
  10
123.35919
  20
262.57321
  0
VERTEX
  5
bc8
  8
Layer_0
  10
123.22195
  20
262.5145
  0
VERTEX
  5
bc9
  8
Layer_0
  10
123.08405
  20
262.46005
  0
VERTEX
  5
bca
  8
Layer_0
  10
122.94553
  20
262.40994
  0
VERTEX
  5
bcb
  8
Layer_0
  10
122.80637
  20
262.3642
  0
VERTEX
  5
bcc
  8
Layer_0
  10
122.66656
  20
262.32278
  0
VERTEX
  5
bcd
  8
Layer_0
  10
122.52628
  20
262.28577
  0
VERTEX
  5
bce
  8
Layer_0
  10
122.38525
  20
262.25308
  0
VERTEX
  5
bcf
  8
Layer_0
  10
122.24365
  20
262.22473
  0
VERTEX
  5
bd0
  8
Layer_0
  10
122.10147
  20
262.20078
  0
VERTEX
  5
bd1
  8
Layer_0
  10
121.95868
  20
262.18115
  0
VERTEX
  5
bd2
  8
Layer_0
  10
121.81531
  20
262.16589
  0
VERTEX
  5
bd3
  8
Layer_0
  10
121.67133
  20
262.155
  0
VERTEX
  5
bd4
  8
Layer_0
  10
121.52667
  20
262.14847
  0
VERTEX
  5
bd5
  8
Layer_0
  10
121.38147
  20
262.14627
  0
VERTEX
  5
bd6
  8
Layer_0
  10
121.18652
  20
262.14981
  0
VERTEX
  5
bd7
  8
Layer_0
  10
120.99454
  20
262.16031
  0
VERTEX
  5
bd8
  8
Layer_0
  10
120.80557
  20
262.17783
  0
VERTEX
  5
bd9
  8
Layer_0
  10
120.61966
  20
262.20239
  0
VERTEX
  5
bda
  8
Layer_0
  10
120.43665
  20
262.23392
  0
VERTEX
  5
bdb
  8
Layer_0
  10
120.25665
  20
262.27249
  0
VERTEX
  5
bdc
  8
Layer_0
  10
120.07965
  20
262.31805
  0
VERTEX
  5
bdd
  8
Layer_0
  10
119.90564
  20
262.37064
  0
VERTEX
  5
bde
  8
Layer_0
  10
119.73462
  20
262.43021
  0
VERTEX
  5
bdf
  8
Layer_0
  10
119.56665
  20
262.49683
  0
VERTEX
  5
be0
  8
Layer_0
  10
119.40161
  20
262.57043
  0
VERTEX
  5
be1
  8
Layer_0
  10
119.23959
  20
262.65106
  0
VERTEX
  5
be2
  8
Layer_0
  10
119.16022
  20
262.69394
  0
VERTEX
  5
be3
  8
Layer_0
  10
119.08234
  20
262.73831
  0
VERTEX
  5
be4
  8
Layer_0
  10
119.0062
  20
262.78427
  0
VERTEX
  5
be5
  8
Layer_0
  10
118.93164
  20
262.83182
  0
VERTEX
  5
be6
  8
Layer_0
  10
118.8588
  20
262.88095
  0
VERTEX
  5
be7
  8
Layer_0
  10
118.78748
  20
262.93161
  0
VERTEX
  5
be8
  8
Layer_0
  10
118.7179
  20
262.9838
  0
VERTEX
  5
be9
  8
Layer_0
  10
118.64999
  20
263.03763
  0
VERTEX
  5
bea
  8
Layer_0
  10
118.58359
  20
263.09296
  0
VERTEX
  5
beb
  8
Layer_0
  10
118.51889
  20
263.14987
  0
VERTEX
  5
bec
  8
Layer_0
  10
118.45596
  20
263.20837
  0
VERTEX
  5
bed
  8
Layer_0
  10
118.39444
  20
263.2684
  0
VERTEX
  5
bee
  8
Layer_0
  10
118.33466
  20
263.32999
  0
VERTEX
  5
bef
  8
Layer_0
  10
118.27649
  20
263.39316
  0
VERTEX
  5
bf0
  8
Layer_0
  10
118.22003
  20
263.45789
  0
VERTEX
  5
bf1
  8
Layer_0
  10
118.16516
  20
263.5242
  0
VERTEX
  5
bf2
  8
Layer_0
  10
118.11194
  20
263.59204
  0
VERTEX
  5
bf3
  8
Layer_0
  10
118.06036
  20
263.66147
  0
VERTEX
  5
bf4
  8
Layer_0
  10
118.01041
  20
263.73245
  0
VERTEX
  5
bf5
  8
Layer_0
  10
117.9621
  20
263.80502
  0
VERTEX
  5
bf6
  8
Layer_0
  10
117.91544
  20
263.87912
  0
VERTEX
  5
bf7
  8
Layer_0
  10
117.87039
  20
263.95477
  0
VERTEX
  5
bf8
  8
Layer_0
  10
117.82703
  20
264.03201
  0
VERTEX
  5
bf9
  8
Layer_0
  10
117.78528
  20
264.11081
  0
VERTEX
  5
bfa
  8
Layer_0
  10
117.70685
  20
264.27155
  0
VERTEX
  5
bfb
  8
Layer_0
  10
117.63522
  20
264.43536
  0
VERTEX
  5
bfc
  8
Layer_0
  10
117.57043
  20
264.60229
  0
VERTEX
  5
bfd
  8
Layer_0
  10
117.51248
  20
264.77237
  0
VERTEX
  5
bfe
  8
Layer_0
  10
117.46127
  20
264.94547
  0
VERTEX
  5
bff
  8
Layer_0
  10
117.41696
  20
265.12173
  0
VERTEX
  5
c00
  8
Layer_0
  10
117.37939
  20
265.30112
  0
VERTEX
  5
c01
  8
Layer_0
  10
117.34872
  20
265.48355
  0
VERTEX
  5
c02
  8
Layer_0
  10
117.32483
  20
265.66916
  0
VERTEX
  5
c03
  8
Layer_0
  10
117.30783
  20
265.85782
  0
VERTEX
  5
c04
  8
Layer_0
  10
117.29758
  20
266.04962
  0
VERTEX
  5
c05
  8
Layer_0
  10
117.29416
  20
266.24454
  0
VERTEX
  5
c06
  8
Layer_0
  10
117.29758
  20
266.43808
  0
VERTEX
  5
c07
  8
Layer_0
  10
117.30771
  20
266.62946
  0
VERTEX
  5
c08
  8
Layer_0
  10
117.32471
  20
266.8187
  0
VERTEX
  5
c09
  8
Layer_0
  10
117.34851
  20
267.0058
  0
VERTEX
  5
c0a
  8
Layer_0
  10
117.37894
  20
267.1907
  0
VERTEX
  5
c0b
  8
Layer_0
  10
117.41629
  20
267.37344
  0
VERTEX
  5
c0c
  8
Layer_0
  10
117.46036
  20
267.55405
  0
VERTEX
  5
c0d
  8
Layer_0
  10
117.51126
  20
267.73245
  0
VERTEX
  5
c0e
  8
Layer_0
  10
117.56888
  20
267.90872
  0
VERTEX
  5
c0f
  8
Layer_0
  10
117.63336
  20
268.08286
  0
VERTEX
  5
c10
  8
Layer_0
  10
117.70456
  20
268.25479
  0
VERTEX
  5
c11
  8
Layer_0
  10
117.78259
  20
268.42459
  0
VERTEX
  5
c12
  8
Layer_0
  10
117.82413
  20
268.50809
  0
VERTEX
  5
c13
  8
Layer_0
  10
117.86697
  20
268.58969
  0
VERTEX
  5
c14
  8
Layer_0
  10
117.91141
  20
268.66953
  0
VERTEX
  5
c15
  8
Layer_0
  10
117.95731
  20
268.74753
  0
VERTEX
  5
c16
  8
Layer_0
  10
118.00473
  20
268.82376
  0
VERTEX
  5
c17
  8
Layer_0
  10
118.05356
  20
268.89816
  0
VERTEX
  5
c18
  8
Layer_0
  10
118.10394
  20
268.97076
  0
VERTEX
  5
c19
  8
Layer_0
  10
118.15585
  20
269.04156
  0
VERTEX
  5
c1a
  8
Layer_0
  10
118.20914
  20
269.1105
  0
VERTEX
  5
c1b
  8
Layer_0
  10
118.26395
  20
269.17767
  0
VERTEX
  5
c1c
  8
Layer_0
  10
118.32037
  20
269.24307
  0
VERTEX
  5
c1d
  8
Layer_0
  10
118.37808
  20
269.30658
  0
VERTEX
  5
c1e
  8
Layer_0
  10
118.43741
  20
269.36832
  0
VERTEX
  5
c1f
  8
Layer_0
  10
118.49814
  20
269.42825
  0
VERTEX
  5
c20
  8
Layer_0
  10
118.56046
  20
269.48636
  0
VERTEX
  5
c21
  8
Layer_0
  10
118.62418
  20
269.54269
  0
VERTEX
  5
c22
  8
Layer_0
  10
118.68942
  20
269.5972
  0
VERTEX
  5
c23
  8
Layer_0
  10
118.75616
  20
269.64987
  0
VERTEX
  5
c24
  8
Layer_0
  10
118.82437
  20
269.70074
  0
VERTEX
  5
c25
  8
Layer_0
  10
118.89407
  20
269.74985
  0
VERTEX
  5
c26
  8
Layer_0
  10
118.96527
  20
269.79709
  0
VERTEX
  5
c27
  8
Layer_0
  10
119.03793
  20
269.84253
  0
VERTEX
  5
c28
  8
Layer_0
  10
119.11212
  20
269.88617
  0
VERTEX
  5
c29
  8
Layer_0
  10
119.18777
  20
269.92801
  0
VERTEX
  5
c2a
  8
Layer_0
  10
119.3425
  20
270.00644
  0
VERTEX
  5
c2b
  8
Layer_0
  10
119.50107
  20
270.07806
  0
VERTEX
  5
c2c
  8
Layer_0
  10
119.66357
  20
270.14288
  0
VERTEX
  5
c2d
  8
Layer_0
  10
119.82996
  20
270.2009
  0
VERTEX
  5
c2e
  8
Layer_0
  10
120.00006
  20
270.25201
  0
VERTEX
  5
c2f
  8
Layer_0
  10
120.17416
  20
270.29636
  0
VERTEX
  5
c30
  8
Layer_0
  10
120.35208
  20
270.33389
  0
VERTEX
  5
c31
  8
Layer_0
  10
120.53384
  20
270.36456
  0
VERTEX
  5
c32
  8
Layer_0
  10
120.71951
  20
270.38846
  0
VERTEX
  5
c33
  8
Layer_0
  10
120.90903
  20
270.40552
  0
VERTEX
  5
c34
  8
Layer_0
  10
121.10239
  20
270.41574
  0
VERTEX
  5
c35
  8
Layer_0
  10
121.29965
  20
270.41916
  0
VERTEX
  5
c36
  8
Layer_0
  10
121.44312
  20
270.41721
  0
VERTEX
  5
c37
  8
Layer_0
  10
121.5842
  20
270.41135
  0
VERTEX
  5
c38
  8
Layer_0
  10
121.72308
  20
270.40158
  0
VERTEX
  5
c39
  8
Layer_0
  10
121.85968
  20
270.38791
  0
VERTEX
  5
c3a
  8
Layer_0
  10
121.9938
  20
270.37036
  0
VERTEX
  5
c3b
  8
Layer_0
  10
122.1257
  20
270.34891
  0
VERTEX
  5
c3c
  8
Layer_0
  10
122.25528
  20
270.32352
  0
VERTEX
  5
c3d
  8
Layer_0
  10
122.38254
  20
270.29422
  0
VERTEX
  5
c3e
  8
Layer_0
  10
122.50751
  20
270.26108
  0
VERTEX
  5
c3f
  8
Layer_0
  10
122.63016
  20
270.22397
  0
VERTEX
  5
c40
  8
Layer_0
  10
122.75049
  20
270.18301
  0
VERTEX
  5
c41
  8
Layer_0
  10
122.86853
  20
270.13809
  0
VERTEX
  5
c42
  8
Layer_0
  10
122.98331
  20
270.08975
  0
VERTEX
  5
c43
  8
Layer_0
  10
123.09384
  20
270.0383
  0
VERTEX
  5
c44
  8
Layer_0
  10
123.20023
  20
269.98376
  0
VERTEX
  5
c45
  8
Layer_0
  10
123.3024
  20
269.92621
  0
VERTEX
  5
c46
  8
Layer_0
  10
123.4003
  20
269.86554
  0
VERTEX
  5
c47
  8
Layer_0
  10
123.49405
  20
269.80182
  0
VERTEX
  5
c48
  8
Layer_0
  10
123.58359
  20
269.73502
  0
VERTEX
  5
c49
  8
Layer_0
  10
123.66888
  20
269.66516
  0
VERTEX
  5
c4a
  8
Layer_0
  10
123.75003
  20
269.59225
  0
VERTEX
  5
c4b
  8
Layer_0
  10
123.8269
  20
269.51624
  0
VERTEX
  5
c4c
  8
Layer_0
  10
123.8996
  20
269.43716
  0
VERTEX
  5
c4d
  8
Layer_0
  10
123.96811
  20
269.35501
  0
VERTEX
  5
c4e
  8
Layer_0
  10
124.0332
  20
269.26926
  0
VERTEX
  5
c4f
  8
Layer_0
  10
124.09561
  20
269.17917
  0
VERTEX
  5
c50
  8
Layer_0
  10
124.15536
  20
269.0849
  0
VERTEX
  5
c51
  8
Layer_0
  10
124.21255
  20
268.98639
  0
VERTEX
  5
c52
  8
Layer_0
  10
124.26691
  20
268.88358
  0
VERTEX
  5
c53
  8
Layer_0
  10
124.31876
  20
268.77658
  0
VERTEX
  5
c54
  8
Layer_0
  10
124.36789
  20
268.66531
  0
VERTEX
  5
c55
  8
Layer_0
  10
124.4144
  20
268.5498
  0
VERTEX
  5
c56
  8
Layer_0
  10
124.45822
  20
268.43005
  0
VERTEX
  5
c57
  8
Layer_0
  10
124.49942
  20
268.30606
  0
VERTEX
  5
c58
  8
Layer_0
  10
124.53796
  20
268.17783
  0
VERTEX
  5
c59
  8
Layer_0
  10
124.57385
  20
268.04532
  0
VERTEX
  5
c5a
  8
Layer_0
  10
123.61887
  20
267.78342
  0
VERTEX
  5
c5b
  8
Layer_0
  10
123.58826
  20
267.88345
  0
VERTEX
  5
c5c
  8
Layer_0
  10
123.5564
  20
267.97983
  0
VERTEX
  5
c5d
  8
Layer_0
  10
123.52338
  20
268.0726
  0
VERTEX
  5
c5e
  8
Layer_0
  10
123.48914
  20
268.16177
  0
VERTEX
  5
c5f
  8
Layer_0
  10
123.45364
  20
268.24722
  0
VERTEX
  5
c60
  8
Layer_0
  10
123.41696
  20
268.3291
  0
VERTEX
  5
c61
  8
Layer_0
  10
123.37906
  20
268.40732
  0
VERTEX
  5
c62
  8
Layer_0
  10
123.33994
  20
268.4819
  0
VERTEX
  5
c63
  8
Layer_0
  10
123.29965
  20
268.55283
  0
VERTEX
  5
c64
  8
Layer_0
  10
123.25812
  20
268.62015
  0
VERTEX
  5
c65
  8
Layer_0
  10
123.21533
  20
268.68381
  0
VERTEX
  5
c66
  8
Layer_0
  10
123.17139
  20
268.74384
  0
VERTEX
  5
c67
  8
Layer_0
  10
123.12524
  20
268.80109
  0
VERTEX
  5
c68
  8
Layer_0
  10
123.05008
  20
268.88333
  0
VERTEX
  5
c69
  8
Layer_0
  10
122.96771
  20
268.96121
  0
VERTEX
  5
c6a
  8
Layer_0
  10
122.8782
  20
269.03476
  0
VERTEX
  5
c6b
  8
Layer_0
  10
122.78143
  20
269.10394
  0
VERTEX
  5
c6c
  8
Layer_0
  10
122.67758
  20
269.16879
  0
VERTEX
  5
c6d
  8
Layer_0
  10
122.56659
  20
269.22928
  0
VERTEX
  5
c6e
  8
Layer_0
  10
122.44839
  20
269.28543
  0
VERTEX
  5
c6f
  8
Layer_0
  10
122.32388
  20
269.33676
  0
VERTEX
  5
c70
  8
Layer_0
  10
122.23883
  20
269.36737
  0
VERTEX
  5
c71
  8
Layer_0
  10
122.15231
  20
269.39511
  0
VERTEX
  5
c72
  8
Layer_0
  10
122.06427
  20
269.41992
  0
VERTEX
  5
c73
  8
Layer_0
  10
121.97464
  20
269.4418
  0
VERTEX
  5
c74
  8
Layer_0
  10
121.88354
  20
269.46075
  0
VERTEX
  5
c75
  8
Layer_0
  10
121.79092
  20
269.47681
  0
VERTEX
  5
c76
  8
Layer_0
  10
121.69678
  20
269.48993
  0
VERTEX
  5
c77
  8
Layer_0
  10
121.60114
  20
269.50015
  0
VERTEX
  5
c78
  8
Layer_0
  10
121.504
  20
269.50745
  0
VERTEX
  5
c79
  8
Layer_0
  10
121.4053
  20
269.51181
  0
VERTEX
  5
c7a
  8
Layer_0
  10
121.30508
  20
269.51328
  0
VERTEX
  5
c7b
  8
Layer_0
  10
121.18552
  20
269.51175
  0
VERTEX
  5
c7c
  8
Layer_0
  10
121.0686
  20
269.50711
  0
VERTEX
  5
c7d
  8
Layer_0
  10
120.9545
  20
269.49948
  0
VERTEX
  5
c7e
  8
Layer_0
  10
120.84314
  20
269.48874
  0
VERTEX
  5
c7f
  8
Layer_0
  10
120.73441
  20
269.47491
  0
VERTEX
  5
c80
  8
Layer_0
  10
120.62842
  20
269.45804
  0
VERTEX
  5
c81
  8
Layer_0
  10
120.52518
  20
269.43808
  0
VERTEX
  5
c82
  8
Layer_0
  10
120.42468
  20
269.41504
  0
VERTEX
  5
c83
  8
Layer_0
  10
120.32693
  20
269.38895
  0
VERTEX
  5
c84
  8
Layer_0
  10
120.2319
  20
269.3598
  0
VERTEX
  5
c85
  8
Layer_0
  10
120.13956
  20
269.32755
  0
VERTEX
  5
c86
  8
Layer_0
  10
120.04999
  20
269.29227
  0
VERTEX
  5
c87
  8
Layer_0
  10
119.96317
  20
269.25449
  0
VERTEX
  5
c88
  8
Layer_0
  10
119.87924
  20
269.21475
  0
VERTEX
  5
c89
  8
Layer_0
  10
119.79813
  20
269.17307
  0
VERTEX
  5
c8a
  8
Layer_0
  10
119.71991
  20
269.12949
  0
VERTEX
  5
c8b
  8
Layer_0
  10
119.64441
  20
269.08395
  0
VERTEX
  5
c8c
  8
Layer_0
  10
119.57181
  20
269.03647
  0
VERTEX
  5
c8d
  8
Layer_0
  10
119.50204
  20
268.98706
  0
VERTEX
  5
c8e
  8
Layer_0
  10
119.43515
  20
268.93573
  0
VERTEX
  5
c8f
  8
Layer_0
  10
119.37106
  20
268.88248
  0
VERTEX
  5
c90
  8
Layer_0
  10
119.30988
  20
268.8273
  0
VERTEX
  5
c91
  8
Layer_0
  10
119.2515
  20
268.77014
  0
VERTEX
  5
c92
  8
Layer_0
  10
119.19595
  20
268.71109
  0
VERTEX
  5
c93
  8
Layer_0
  10
119.11703
  20
268.61993
  0
VERTEX
  5
c94
  8
Layer_0
  10
119.01886
  20
268.49496
  0
VERTEX
  5
c95
  8
Layer_0
  10
118.9288
  20
268.36606
  0
VERTEX
  5
c96
  8
Layer_0
  10
118.84656
  20
268.23318
  0
VERTEX
  5
c97
  8
Layer_0
  10
118.77249
  20
268.09637
  0
VERTEX
  5
c98
  8
Layer_0
  10
118.70642
  20
267.9556
  0
VERTEX
  5
c99
  8
Layer_0
  10
118.6424
  20
267.79526
  0
VERTEX
  5
c9a
  8
Layer_0
  10
118.59781
  20
267.66895
  0
VERTEX
  5
c9b
  8
Layer_0
  10
118.5575
  20
267.54089
  0
VERTEX
  5
c9c
  8
Layer_0
  10
118.52148
  20
267.41113
  0
VERTEX
  5
c9d
  8
Layer_0
  10
118.48956
  20
267.27957
  0
VERTEX
  5
c9e
  8
Layer_0
  10
118.46201
  20
267.14627
  0
VERTEX
  5
c9f
  8
Layer_0
  10
118.43866
  20
267.01126
  0
VERTEX
  5
ca0
  8
Layer_0
  10
118.41953
  20
266.87448
  0
VERTEX
  5
ca1
  8
Layer_0
  10
118.40466
  20
266.73599
  0
VERTEX
  5
ca2
  8
Layer_0
  10
118.39404
  20
266.59573
  0
VERTEX
  5
ca3
  8
Layer_0
  10
118.3877
  20
266.45374
  0
VERTEX
  5
ca4
  8
Layer_0
  10
118.38556
  20
266.31
  0
VERTEX
  5
ca5
  8
Layer_0
  10
118.38815
  20
266.13416
  0
VERTEX
  5
ca6
  8
Layer_0
  10
118.39578
  20
265.96317
  0
VERTEX
  5
ca7
  8
Layer_0
  10
118.40857
  20
265.79703
  0
VERTEX
  5
ca8
  8
Layer_0
  10
118.42654
  20
265.63577
  0
VERTEX
  5
ca9
  8
Layer_0
  10
118.44952
  20
265.47931
  0
VERTEX
  5
caa
  8
Layer_0
  10
118.47763
  20
265.32773
  0
VERTEX
  5
cab
  8
Layer_0
  10
118.51089
  20
265.181
  0
VERTEX
  5
cac
  8
Layer_0
  10
118.54926
  20
265.03909
  0
VERTEX
  5
cad
  8
Layer_0
  10
118.59274
  20
264.90207
  0
VERTEX
  5
cae
  8
Layer_0
  10
118.64136
  20
264.7699
  0
VERTEX
  5
caf
  8
Layer_0
  10
118.69507
  20
264.64258
  0
VERTEX
  5
cb0
  8
Layer_0
  10
118.75391
  20
264.52011
  0
VERTEX
  5
cb1
  8
Layer_0
  10
118.81766
  20
264.40262
  0
VERTEX
  5
cb2
  8
Layer_0
  10
118.88599
  20
264.29028
  0
VERTEX
  5
cb3
  8
Layer_0
  10
118.95905
  20
264.18314
  0
VERTEX
  5
cb4
  8
Layer_0
  10
119.0368
  20
264.08115
  0
VERTEX
  5
cb5
  8
Layer_0
  10
119.11911
  20
263.98425
  0
VERTEX
  5
cb6
  8
Layer_0
  10
119.20615
  20
263.89255
  0
VERTEX
  5
cb7
  8
Layer_0
  10
119.29785
  20
263.806
  0
VERTEX
  5
cb8
  8
Layer_0
  10
119.39417
  20
263.72458
  0
VERTEX
  5
cb9
  8
Layer_0
  10
119.49521
  20
263.64835
  0
VERTEX
  5
cba
  8
Layer_0
  10
119.60089
  20
263.57724
  0
VERTEX
  5
cbb
  8
Layer_0
  10
119.71121
  20
263.51129
  0
VERTEX
  5
cbc
  8
Layer_0
  10
119.8262
  20
263.45053
  0
VERTEX
  5
cbd
  8
Layer_0
  10
119.94415
  20
263.39474
  0
VERTEX
  5
cbe
  8
Layer_0
  10
120.06326
  20
263.34381
  0
VERTEX
  5
cbf
  8
Layer_0
  10
120.18365
  20
263.29773
  0
VERTEX
  5
cc0
  8
Layer_0
  10
120.30524
  20
263.2565
  0
VERTEX
  5
cc1
  8
Layer_0
  10
120.42801
  20
263.22012
  0
VERTEX
  5
cc2
  8
Layer_0
  10
120.55197
  20
263.18857
  0
VERTEX
  5
cc3
  8
Layer_0
  10
120.67719
  20
263.1619
  0
VERTEX
  5
cc4
  8
Layer_0
  10
120.80359
  20
263.14008
  0
VERTEX
  5
cc5
  8
Layer_0
  10
120.93127
  20
263.12311
  0
VERTEX
  5
cc6
  8
Layer_0
  10
121.06012
  20
263.11099
  0
VERTEX
  5
cc7
  8
Layer_0
  10
121.19016
  20
263.1037
  0
VERTEX
  5
cc8
  8
Layer_0
  10
121.32144
  20
263.10129
  0
VERTEX
  5
cc9
  8
Layer_0
  10
121.43585
  20
263.10312
  0
VERTEX
  5
cca
  8
Layer_0
  10
121.54974
  20
263.10861
  0
VERTEX
  5
ccb
  8
Layer_0
  10
121.66318
  20
263.11783
  0
VERTEX
  5
ccc
  8
Layer_0
  10
121.77625
  20
263.13071
  0
VERTEX
  5
ccd
  8
Layer_0
  10
121.88876
  20
263.14722
  0
VERTEX
  5
cce
  8
Layer_0
  10
122.00082
  20
263.16745
  0
VERTEX
  5
ccf
  8
Layer_0
  10
122.11249
  20
263.19131
  0
VERTEX
  5
cd0
  8
Layer_0
  10
122.22363
  20
263.2189
  0
VERTEX
  5
cd1
  8
Layer_0
  10
122.33438
  20
263.25015
  0
VERTEX
  5
cd2
  8
Layer_0
  10
122.4447
  20
263.28506
  0
VERTEX
  5
cd3
  8
Layer_0
  10
122.55447
  20
263.32367
  0
VERTEX
  5
cd4
  8
Layer_0
  10
122.66385
  20
263.36594
  0
VERTEX
  5
cd5
  8
Layer_0
  10
122.77081
  20
263.41031
  0
VERTEX
  5
cd6
  8
Layer_0
  10
122.87332
  20
263.45517
  0
VERTEX
  5
cd7
  8
Layer_0
  10
122.97147
  20
263.50049
  0
VERTEX
  5
cd8
  8
Layer_0
  10
123.06531
  20
263.54636
  0
VERTEX
  5
cd9
  8
Layer_0
  10
123.1546
  20
263.59265
  0
VERTEX
  5
cda
  8
Layer_0
  10
123.23956
  20
263.63947
  0
VERTEX
  5
cdb
  8
Layer_0
  10
123.32013
  20
263.6868
  0
VERTEX
  5
cdc
  8
Layer_0
  10
123.3963
  20
263.73459
  0
VERTEX
  5
cdd
  8
Layer_0
  10
123.46808
  20
263.7829
  0
VERTEX
  5
cde
  8
Layer_0
  10
123.53549
  20
263.8317
  0
VERTEX
  5
cdf
  8
Layer_0
  10
123.59845
  20
263.88095
  0
VERTEX
  5
ce0
  8
Layer_0
  10
123.65704
  20
263.93076
  0
VERTEX
  5
ce1
  8
Layer_0
  10
123.65704
  20
265.4205
  0
VERTEX
  5
ce2
  8
Layer_0
  10
121.30505
  20
265.4205
  0
VERTEX
  5
ce3
  8
Layer_0
  10
121.30505
  20
266.3591
  0
VERTEX
  5
ce4
  8
Layer_0
  10
124.69388
  20
266.36456
  0
VERTEX
  5
ce5
  8
Layer_0
  10
124.69388
  20
263.39597
  0
SEQEND
  0
POLYLINE
  5
ce7
  8
Layer_0
  62
0
  70
1
  66
1
  10
0
  20
0
  30
0
  0
VERTEX
  5
ce7
  8
Layer_0
  10
131.13861
  20
264.92935
  0
VERTEX
  5
ce8
  8
Layer_0
  10
126.81665
  20
264.92935
  0
VERTEX
  5
ce9
  8
Layer_0
  10
126.82874
  20
264.77332
  0
VERTEX
  5
cea
  8
Layer_0
  10
126.8468
  20
264.62347
  0
VERTEX
  5
ceb
  8
Layer_0
  10
126.87088
  20
264.47983
  0
VERTEX
  5
cec
  8
Layer_0
  10
126.901
  20
264.34247
  0
VERTEX
  5
ced
  8
Layer_0
  10
126.93695
  20
264.21124
  0
VERTEX
  5
cee
  8
Layer_0
  10
126.979
  20
264.08627
  0
VERTEX
  5
cef
  8
Layer_0
  10
127.00226
  20
264.02609
  0
VERTEX
  5
cf0
  8
Layer_0
  10
127.05328
  20
263.91043
  0
VERTEX
  5
cf1
  8
Layer_0
  10
127.08099
  20
263.85495
  0
VERTEX
  5
cf2
  8
Layer_0
  10
127.11026
  20
263.80099
  0
VERTEX
  5
cf3
  8
Layer_0
  10
127.14102
  20
263.74863
  0
VERTEX
  5
cf4
  8
Layer_0
  10
127.17325
  20
263.69778
  0
VERTEX
  5
cf5
  8
Layer_0
  10
127.207
  20
263.6485
  0
VERTEX
  5
cf6
  8
Layer_0
  10
127.24222
  20
263.60074
  0
VERTEX
  5
cf7
  8
Layer_0
  10
127.27896
  20
263.5546
  0
VERTEX
  5
cf8
  8
Layer_0
  10
127.31717
  20
263.50995
  0
VERTEX
  5
cf9
  8
Layer_0
  10
127.3569
  20
263.46689
  0
VERTEX
  5
cfa
  8
Layer_0
  10
127.39786
  20
263.42551
  0
VERTEX
  5
cfb
  8
Layer_0
  10
127.48209
  20
263.34793
  0
VERTEX
  5
cfc
  8
Layer_0
  10
127.5697
  20
263.27747
  0
VERTEX
  5
cfd
  8
Layer_0
  10
127.66064
  20
263.21402
  0
VERTEX
  5
cfe
  8
Layer_0
  10
127.75491
  20
263.15762
  0
VERTEX
  5
cff
  8
Layer_0
  10
127.80334
  20
263.13208
  0
VERTEX
  5
d00
  8
Layer_0
  10
127.90262
  20
263.08627
  0
VERTEX
  5
d01
  8
Layer_0
  10
128.00525
  20
263.04752
  0
VERTEX
  5
d02
  8
Layer_0
  10
128.11121
  20
263.01578
  0
VERTEX
  5
d03
  8
Layer_0
  10
128.22046
  20
262.99109
  0
VERTEX
  5
d04
  8
Layer_0
  10
128.3331
  20
262.97348
  0
VERTEX
  5
d05
  8
Layer_0
  10
128.44907
  20
262.96292
  0
VERTEX
  5
d06
  8
Layer_0
  10
128.56836
  20
262.95938
  0
VERTEX
  5
d07
  8
Layer_0
  10
128.65732
  20
262.96133
  0
VERTEX
  5
d08
  8
Layer_0
  10
128.74402
  20
262.96725
  0
VERTEX
  5
d09
  8
Layer_0
  10
128.82858
  20
262.97711
  0
VERTEX
  5
d0a
  8
Layer_0
  10
128.91098
  20
262.99094
  0
VERTEX
  5
d0b
  8
Layer_0
  10
128.99109
  20
263.00864
  0
VERTEX
  5
d0c
  8
Layer_0
  10
129.06903
  20
263.0303
  0
VERTEX
  5
d0d
  8
Layer_0
  10
129.14478
  20
263.05594
  0
VERTEX
  5
d0e
  8
Layer_0
  10
129.21832
  20
263.08548
  0
VERTEX
  5
d0f
  8
Layer_0
  10
129.2897
  20
263.11899
  0
VERTEX
  5
d10
  8
Layer_0
  10
129.35889
  20
263.15646
  0
VERTEX
  5
d11
  8
Layer_0
  10
129.42581
  20
263.19781
  0
VERTEX
  5
d12
  8
Layer_0
  10
129.4906
  20
263.24313
  0
VERTEX
  5
d13
  8
Layer_0
  10
129.55316
  20
263.29279
  0
VERTEX
  5
d14
  8
Layer_0
  10
129.61353
  20
263.34714
  0
VERTEX
  5
d15
  8
Layer_0
  10
129.67172
  20
263.40616
  0
VERTEX
  5
d16
  8
Layer_0
  10
129.72775
  20
263.46994
  0
VERTEX
  5
d17
  8
Layer_0
  10
129.78143
  20
263.53836
  0
VERTEX
  5
d18
  8
Layer_0
  10
129.83301
  20
263.61151
  0
VERTEX
  5
d19
  8
Layer_0
  10
129.88242
  20
263.68933
  0
VERTEX
  5
d1a
  8
Layer_0
  10
129.92957
  20
263.77188
  0
VERTEX
  5
d1b
  8
Layer_0
  10
129.97458
  20
263.8591
  0
VERTEX
  5
d1c
  8
Layer_0
  10
130.01736
  20
263.95105
  0
VERTEX
  5
d1d
  8
Layer_0
  10
130.05795
  20
264.0477
  0
VERTEX
  5
d1e
  8
Layer_0
  10
130.09634
  20
264.14902
  0
VERTEX
  5
d1f
  8
Layer_0
  10
131.11133
  20
264.0235
  0
VERTEX
  5
d20
  8
Layer_0
  10
131.06848
  20
263.87802
  0
VERTEX
  5
d21
  8
Layer_0
  10
131.01993
  20
263.73807
  0
VERTEX
  5
d22
  8
Layer_0
  10
130.9657
  20
263.60367
  0
VERTEX
  5
d23
  8
Layer_0
  10
130.90585
  20
263.47479
  0
VERTEX
  5
d24
  8
Layer_0
  10
130.87366
  20
263.41238
  0
VERTEX
  5
d25
  8
Layer_0
  10
130.80536
  20
263.29184
  0
VERTEX
  5
d26
  8
Layer_0
  10
130.73114
  20
263.17676
  0
VERTEX
  5
d27
  8
Layer_0
  10
130.65131
  20
263.06723
  0
VERTEX
  5
d28
  8
Layer_0
  10
130.56583
  20
262.96326
  0
VERTEX
  5
d29
  8
Layer_0
  10
130.47467
  20
262.86481
  0
VERTEX
  5
d2a
  8
Layer_0
  10
130.37778
  20
262.77188
  0
VERTEX
  5
d2b
  8
Layer_0
  10
130.27524
  20
262.68448
  0
VERTEX
  5
d2c
  8
Layer_0
  10
130.16714
  20
262.60281
  0
VERTEX
  5
d2d
  8
Layer_0
  10
130.11111
  20
262.56445
  0
VERTEX
  5
d2e
  8
Layer_0
  10
130.05386
  20
262.52777
  0
VERTEX
  5
d2f
  8
Layer_0
  10
129.99536
  20
262.49283
  0
VERTEX
  5
d30
  8
Layer_0
  10
129.9357
  20
262.45956
  0
VERTEX
  5
d31
  8
Layer_0
  10
129.87463
  20
262.42801
  0
VERTEX
  5
d32
  8
Layer_0
  10
129.81238
  20
262.39816
  0
VERTEX
  5
d33
  8
Layer_0
  10
129.74893
  20
262.37006
  0
VERTEX
  5
d34
  8
Layer_0
  10
129.68414
  20
262.3436
  0
VERTEX
  5
d35
  8
Layer_0
  10
129.55099
  20
262.29587
  0
VERTEX
  5
d36
  8
Layer_0
  10
129.41266
  20
262.25491
  0
VERTEX
  5
d37
  8
Layer_0
  10
129.34167
  20
262.23703
  0
VERTEX
  5
d38
  8
Layer_0
  10
129.19592
  20
262.20633
  0
VERTEX
  5
d39
  8
Layer_0
  10
129.04517
  20
262.18246
  0
VERTEX
  5
d3a
  8
Layer_0
  10
128.88943
  20
262.16537
  0
VERTEX
  5
d3b
  8
Layer_0
  10
128.72864
  20
262.15515
  0
VERTEX
  5
d3c
  8
Layer_0
  10
128.5629
  20
262.15176
  0
VERTEX
  5
d3d
  8
Layer_0
  10
128.45795
  20
262.15314
  0
VERTEX
  5
d3e
  8
Layer_0
  10
128.35468
  20
262.1572
  0
VERTEX
  5
d3f
  8
Layer_0
  10
128.25327
  20
262.16397
  0
VERTEX
  5
d40
  8
Layer_0
  10
128.15369
  20
262.17349
  0
VERTEX
  5
d41
  8
Layer_0
  10
128.05603
  20
262.18576
  0
VERTEX
  5
d42
  8
Layer_0
  10
127.96011
  20
262.20071
  0
VERTEX
  5
d43
  8
Layer_0
  10
127.86597
  20
262.21835
  0
VERTEX
  5
d44
  8
Layer_0
  10
127.7738
  20
262.23877
  0
VERTEX
  5
d45
  8
Layer_0
  10
127.68335
  20
262.26187
  0
VERTEX
  5
d46
  8
Layer_0
  10
127.59476
  20
262.28769
  0
VERTEX
  5
d47
  8
Layer_0
  10
127.50812
  20
262.31625
  0
VERTEX
  5
d48
  8
Layer_0
  10
127.42307
  20
262.3475
  0
VERTEX
  5
d49
  8
Layer_0
  10
127.33997
  20
262.3815
  0
VERTEX
  5
d4a
  8
Layer_0
  10
127.25867
  20
262.41821
  0
VERTEX
  5
d4b
  8
Layer_0
  10
127.17926
  20
262.45764
  0
VERTEX
  5
d4c
  8
Layer_0
  10
127.10162
  20
262.49979
  0
VERTEX
  5
d4d
  8
Layer_0
  10
127.02585
  20
262.54465
  0
VERTEX
  5
d4e
  8
Layer_0
  10
126.9519
  20
262.59222
  0
VERTEX
  5
d4f
  8
Layer_0
  10
126.87976
  20
262.64255
  0
VERTEX
  5
d50
  8
Layer_0
  10
126.80951
  20
262.69556
  0
VERTEX
  5
d51
  8
Layer_0
  10
126.74097
  20
262.75131
  0
VERTEX
  5
d52
  8
Layer_0
  10
126.67435
  20
262.80975
  0
VERTEX
  5
d53
  8
Layer_0
  10
126.60953
  20
262.87094
  0
VERTEX
  5
d54
  8
Layer_0
  10
126.54654
  20
262.93484
  0
VERTEX
  5
d55
  8
Layer_0
  10
126.48584
  20
263.00119
  0
VERTEX
  5
d56
  8
Layer_0
  10
126.42758
  20
263.06973
  0
VERTEX
  5
d57
  8
Layer_0
  10
126.37195
  20
263.14047
  0
VERTEX
  5
d58
  8
Layer_0
  10
126.31891
  20
263.21335
  0
VERTEX
  5
d59
  8
Layer_0
  10
126.26855
  20
263.28848
  0
VERTEX
  5
d5a
  8
Layer_0
  10
126.22067
  20
263.36575
  0
VERTEX
  5
d5b
  8
Layer_0
  10
126.17542
  20
263.44525
  0
VERTEX
  5
d5c
  8
Layer_0
  10
126.13275
  20
263.52695
  0
VERTEX
  5
d5d
  8
Layer_0
  10
126.09265
  20
263.61078
  0
VERTEX
  5
d5e
  8
Layer_0
  10
126.05511
  20
263.69681
  0
VERTEX
  5
d5f
  8
Layer_0
  10
126.02032
  20
263.78506
  0
VERTEX
  5
d60
  8
Layer_0
  10
125.98788
  20
263.87549
  0
VERTEX
  5
d61
  8
Layer_0
  10
125.95813
  20
263.96811
  0
VERTEX
  5
d62
  8
Layer_0
  10
125.93097
  20
264.0629
  0
VERTEX
  5
d63
  8
Layer_0
  10
125.90643
  20
264.15988
  0
VERTEX
  5
d64
  8
Layer_0
  10
125.8844
  20
264.25906
  0
VERTEX
  5
d65
  8
Layer_0
  10
125.86505
  20
264.36044
  0
VERTEX
  5
d66
  8
Layer_0
  10
125.84824
  20
264.46399
  0
VERTEX
  5
d67
  8
Layer_0
  10
125.83401
  20
264.56973
  0
VERTEX
  5
d68
  8
Layer_0
  10
125.82239
  20
264.67767
  0
VERTEX
  5
d69
  8
Layer_0
  10
125.81329
  20
264.78781
  0
VERTEX
  5
d6a
  8
Layer_0
  10
125.80682
  20
264.90012
  0
VERTEX
  5
d6b
  8
Layer_0
  10
125.80298
  20
265.01462
  0
VERTEX
  5
d6c
  8
Layer_0
  10
125.80167
  20
265.13129
  0
VERTEX
  5
d6d
  8
Layer_0
  10
125.80307
  20
265.25204
  0
VERTEX
  5
d6e
  8
Layer_0
  10
125.80688
  20
265.37051
  0
VERTEX
  5
d6f
  8
Layer_0
  10
125.81345
  20
265.48666
  0
VERTEX
  5
d70
  8
Layer_0
  10
125.82257
  20
265.60059
  0
VERTEX
  5
d71
  8
Layer_0
  10
125.83444
  20
265.71225
  0
VERTEX
  5
d72
  8
Layer_0
  10
125.84872
  20
265.82159
  0
VERTEX
  5
d73
  8
Layer_0
  10
125.86572
  20
265.92868
  0
VERTEX
  5
d74
  8
Layer_0
  10
125.88538
  20
266.03354
  0
VERTEX
  5
d75
  8
Layer_0
  10
125.90753
  20
266.13608
  0
VERTEX
  5
d76
  8
Layer_0
  10
125.93243
  20
266.23633
  0
VERTEX
  5
d77
  8
Layer_0
  10
125.95996
  20
266.33438
  0
VERTEX
  5
d78
  8
Layer_0
  10
125.98993
  20
266.43005
  0
VERTEX
  5
d79
  8
Layer_0
  10
126.02261
  20
266.5235
  0
VERTEX
  5
d7a
  8
Layer_0
  10
126.05792
  20
266.61469
  0
VERTEX
  5
d7b
  8
Layer_0
  10
126.09583
  20
266.70358
  0
VERTEX
  5
d7c
  8
Layer_0
  10
126.13638
  20
266.79019
  0
VERTEX
  5
d7d
  8
Layer_0
  10
126.17953
  20
266.87457
  0
VERTEX
  5
d7e
  8
Layer_0
  10
126.22531
  20
266.95663
  0
VERTEX
  5
d7f
  8
Layer_0
  10
126.27365
  20
267.03647
  0
VERTEX
  5
d80
  8
Layer_0
  10
126.32468
  20
267.11398
  0
VERTEX
  5
d81
  8
Layer_0
  10
126.37827
  20
267.18924
  0
VERTEX
  5
d82
  8
Layer_0
  10
126.43448
  20
267.26224
  0
VERTEX
  5
d83
  8
Layer_0
  10
126.49332
  20
267.33298
  0
VERTEX
  5
d84
  8
Layer_0
  10
126.55475
  20
267.4014
  0
VERTEX
  5
d85
  8
Layer_0
  10
126.61835
  20
267.46732
  0
VERTEX
  5
d86
  8
Layer_0
  10
126.68338
  20
267.5304
  0
VERTEX
  5
d87
  8
Layer_0
  10
126.75003
  20
267.5907
  0
VERTEX
  5
d88
  8
Layer_0
  10
126.81821
  20
267.64816
  0
VERTEX
  5
d89
  8
Layer_0
  10
126.888
  20
267.70291
  0
VERTEX
  5
d8a
  8
Layer_0
  10
126.95926
  20
267.75473
  0
VERTEX
  5
d8b
  8
Layer_0
  10
127.0321
  20
267.8038
  0
VERTEX
  5
d8c
  8
Layer_0
  10
127.10657
  20
267.85013
  0
VERTEX
  5
d8d
  8
Layer_0
  10
127.1825
  20
267.89355
  0
VERTEX
  5
d8e
  8
Layer_0
  10
127.25998
  20
267.93423
  0
VERTEX
  5
d8f
  8
Layer_0
  10
127.33914
  20
267.97211
  0
VERTEX
  5
d90
  8
Layer_0
  10
127.41968
  20
268.00714
  0
VERTEX
  5
d91
  8
Layer_0
  10
127.50186
  20
268.0394
  0
VERTEX
  5
d92
  8
Layer_0
  10
127.5856
  20
268.06882
  0
VERTEX
  5
d93
  8
Layer_0
  10
127.67087
  20
268.09549
  0
VERTEX
  5
d94
  8
Layer_0
  10
127.75772
  20
268.11929
  0
VERTEX
  5
d95
  8
Layer_0
  10
127.8461
  20
268.14035
  0
VERTEX
  5
d96
  8
Layer_0
  10
127.93607
  20
268.15857
  0
VERTEX
  5
d97
  8
Layer_0
  10
128.02756
  20
268.17398
  0
VERTEX
  5
d98
  8
Layer_0
  10
128.12064
  20
268.18661
  0
VERTEX
  5
d99
  8
Layer_0
  10
128.21524
  20
268.19644
  0
VERTEX
  5
d9a
  8
Layer_0
  10
128.31137
  20
268.20343
  0
VERTEX
  5
d9b
  8
Layer_0
  10
128.40912
  20
268.20764
  0
VERTEX
  5
d9c
  8
Layer_0
  10
128.50836
  20
268.20905
  0
VERTEX
  5
d9d
  8
Layer_0
  10
128.60455
  20
268.2077
  0
VERTEX
  5
d9e
  8
Layer_0
  10
128.69916
  20
268.20355
  0
VERTEX
  5
d9f
  8
Layer_0
  10
128.7923
  20
268.19669
  0
VERTEX
  5
da0
  8
Layer_0
  10
128.884
  20
268.18707
  0
VERTEX
  5
da1
  8
Layer_0
  10
128.97427
  20
268.17471
  0
VERTEX
  5
da2
  8
Layer_0
  10
129.06296
  20
268.15958
  0
VERTEX
  5
da3
  8
Layer_0
  10
129.15021
  20
268.14175
  0
VERTEX
  5
da4
  8
Layer_0
  10
129.23602
  20
268.12112
  0
VERTEX
  5
da5
  8
Layer_0
  10
129.32028
  20
268.09778
  0
VERTEX
  5
da6
  8
Layer_0
  10
129.40311
  20
268.07169
  0
VERTEX
  5
da7
  8
Layer_0
  10
129.48453
  20
268.04285
  0
VERTEX
  5
da8
  8
Layer_0
  10
129.5643
  20
268.01123
  0
VERTEX
  5
da9
  8
Layer_0
  10
129.64267
  20
267.9769
  0
VERTEX
  5
daa
  8
Layer_0
  10
129.7196
  20
267.93979
  0
VERTEX
  5
dab
  8
Layer_0
  10
129.79504
  20
267.89996
  0
VERTEX
  5
dac
  8
Layer_0
  10
129.86899
  20
267.85736
  0
VERTEX
  5
dad
  8
Layer_0
  10
129.94147
  20
267.81204
  0
VERTEX
  5
dae
  8
Layer_0
  10
130.01248
  20
267.76395
  0
VERTEX
  5
daf
  8
Layer_0
  10
130.082
  20
267.71313
  0
VERTEX
  5
db0
  8
Layer_0
  10
130.15002
  20
267.65955
  0
VERTEX
  5
db1
  8
Layer_0
  10
130.21658
  20
267.60324
  0
VERTEX
  5
db2
  8
Layer_0
  10
130.28165
  20
267.54416
  0
VERTEX
  5
db3
  8
Layer_0
  10
130.34528
  20
267.48233
  0
VERTEX
  5
db4
  8
Layer_0
  10
130.40741
  20
267.41776
  0
VERTEX
  5
db5
  8
Layer_0
  10
130.46759
  20
267.35074
  0
VERTEX
  5
db6
  8
Layer_0
  10
130.52509
  20
267.28143
  0
VERTEX
  5
db7
  8
Layer_0
  10
130.58008
  20
267.20987
  0
VERTEX
  5
db8
  8
Layer_0
  10
130.63251
  20
267.13614
  0
VERTEX
  5
db9
  8
Layer_0
  10
130.68246
  20
267.06015
  0
VERTEX
  5
dba
  8
Layer_0
  10
130.72971
  20
266.9819
  0
VERTEX
  5
dbb
  8
Layer_0
  10
130.77448
  20
266.90143
  0
VERTEX
  5
dbc
  8
Layer_0
  10
130.81671
  20
266.81876
  0
VERTEX
  5
dbd
  8
Layer_0
  10
130.85632
  20
266.7338
  0
VERTEX
  5
dbe
  8
Layer_0
  10
130.8934
  20
266.64658
  0
VERTEX
  5
dbf
  8
Layer_0
  10
130.92801
  20
266.55722
  0
VERTEX
  5
dc0
  8
Layer_0
  10
130.9599
  20
266.46552
  0
VERTEX
  5
dc1
  8
Layer_0
  10
130.98932
  20
266.37164
  0
VERTEX
  5
dc2
  8
Layer_0
  10
131.01617
  20
266.27551
  0
VERTEX
  5
dc3
  8
Layer_0
  10
131.04047
  20
266.17715
  0
VERTEX
  5
dc4
  8
Layer_0
  10
131.06223
  20
266.07657
  0
VERTEX
  5
dc5
  8
Layer_0
  10
131.08142
  20
265.97372
  0
VERTEX
  5
dc6
  8
Layer_0
  10
131.09802
  20
265.86868
  0
VERTEX
  5
dc7
  8
Layer_0
  10
131.11209
  20
265.76138
  0
VERTEX
  5
dc8
  8
Layer_0
  10
131.12363
  20
265.65182
  0
VERTEX
  5
dc9
  8
Layer_0
  10
131.13257
  20
265.54007
  0
VERTEX
  5
dca
  8
Layer_0
  10
131.13895
  20
265.42606
  0
VERTEX
  5
dcb
  8
Layer_0
  10
131.14279
  20
265.30978
  0
VERTEX
  5
dcc
  8
Layer_0
  10
131.14407
  20
265.19131
  0
VERTEX
  5
dcd
  8
Layer_0
  10
131.13861
  20
264.92935
  0
SEQEND
  0
POLYLINE
  5
dcf
  8
Layer_0
  62
0
  70
1
  66
1
  10
0
  20
0
  30
0
  0
VERTEX
  5
dcf
  8
Layer_0
  10
127.87122
  20
266.737
  0
VERTEX
  5
dd0
  8
Layer_0
  10
131.10724
  20
266.737
  0
VERTEX
  5
dd1
  8
Layer_0
  10
131.09467
  20
266.85632
  0
VERTEX
  5
dd2
  8
Layer_0
  10
131.07877
  20
266.97058
  0
VERTEX
  5
dd3
  8
Layer_0
  10
131.05948
  20
267.07977
  0
VERTEX
  5
dd4
  8
Layer_0
  10
131.03696
  20
267.18387
  0
VERTEX
  5
dd5
  8
Layer_0
  10
131.01099
  20
267.28287
  0
VERTEX
  5
dd6
  8
Layer_0
  10
130.98175
  20
267.37683
  0
VERTEX
  5
dd7
  8
Layer_0
  10
130.94913
  20
267.4657
  0
VERTEX
  5
dd8
  8
Layer_0
  10
130.91321
  20
267.54947
  0
VERTEX
  5
dd9
  8
Layer_0
  10
130.87396
  20
267.62817
  0
VERTEX
  5
dda
  8
Layer_0
  10
130.83139
  20
267.70181
  0
VERTEX
  5
ddb
  8
Layer_0
  10
130.78546
  20
267.77039
  0
VERTEX
  5
ddc
  8
Layer_0
  10
130.73621
  20
267.83386
  0
VERTEX
  5
ddd
  8
Layer_0
  10
130.69672
  20
267.88019
  0
VERTEX
  5
dde
  8
Layer_0
  10
130.61453
  20
267.96686
  0
VERTEX
  5
ddf
  8
Layer_0
  10
130.57205
  20
268.00726
  0
VERTEX
  5
de0
  8
Layer_0
  10
130.52863
  20
268.04572
  0
VERTEX
  5
de1
  8
Layer_0
  10
130.48416
  20
268.08215
  0
VERTEX
  5
de2
  8
Layer_0
  10
130.43881
  20
268.11661
  0
VERTEX
  5
de3
  8
Layer_0
  10
130.39249
  20
268.14917
  0
VERTEX
  5
de4
  8
Layer_0
  10
130.34509
  20
268.17969
  0
VERTEX
  5
de5
  8
Layer_0
  10
130.29678
  20
268.20825
  0
VERTEX
  5
de6
  8
Layer_0
  10
130.24765
  20
268.23486
  0
VERTEX
  5
de7
  8
Layer_0
  10
130.19733
  20
268.25949
  0
VERTEX
  5
de8
  8
Layer_0
  10
130.14615
  20
268.28217
  0
VERTEX
  5
de9
  8
Layer_0
  10
130.09396
  20
268.30286
  0
VERTEX
  5
dea
  8
Layer_0
  10
130.04086
  20
268.32156
  0
VERTEX
  5
deb
  8
Layer_0
  10
129.98679
  20
268.33832
  0
VERTEX
  5
dec
  8
Layer_0
  10
129.93173
  20
268.35309
  0
VERTEX
  5
ded
  8
Layer_0
  10
129.8757
  20
268.36591
  0
VERTEX
  5
dee
  8
Layer_0
  10
129.8187
  20
268.37674
  0
VERTEX
  5
def
  8
Layer_0
  10
129.76077
  20
268.38562
  0
VERTEX
  5
df0
  8
Layer_0
  10
129.70184
  20
268.39252
  0
VERTEX
  5
df1
  8
Layer_0
  10
129.64194
  20
268.39743
  0
VERTEX
  5
df2
  8
Layer_0
  10
129.58109
  20
268.40039
  0
VERTEX
  5
df3
  8
Layer_0
  10
129.51929
  20
268.40137
  0
VERTEX
  5
df4
  8
Layer_0
  10
129.40802
  20
268.39825
  0
VERTEX
  5
df5
  8
Layer_0
  10
129.29971
  20
268.38879
  0
VERTEX
  5
df6
  8
Layer_0
  10
129.19443
  20
268.37305
  0
VERTEX
  5
df7
  8
Layer_0
  10
129.09219
  20
268.35107
  0
VERTEX
  5
df8
  8
Layer_0
  10
128.99283
  20
268.32275
  0
VERTEX
  5
df9
  8
Layer_0
  10
128.89651
  20
268.28815
  0
VERTEX
  5
dfa
  8
Layer_0
  10
128.80319
  20
268.24725
  0
VERTEX
  5
dfb
  8
Layer_0
  10
128.71286
  20
268.20007
  0
VERTEX
  5
dfc
  8
Layer_0
  10
128.62552
  20
268.14661
  0
VERTEX
  5
dfd
  8
Layer_0
  10
128.5412
  20
268.08685
  0
VERTEX
  5
dfe
  8
Layer_0
  10
128.45984
  20
268.02078
  0
VERTEX
  5
dff
  8
Layer_0
  10
128.3815
  20
267.94843
  0
VERTEX
  5
e00
  8
Layer_0
  10
128.30753
  20
267.87085
  0
VERTEX
  5
e01
  8
Layer_0
  10
128.23923
  20
267.78897
  0
VERTEX
  5
e02
  8
Layer_0
  10
128.17664
  20
267.70288
  0
VERTEX
  5
e03
  8
Layer_0
  10
128.11987
  20
267.61255
  0
VERTEX
  5
e04
  8
Layer_0
  10
128.06873
  20
267.51794
  0
VERTEX
  5
e05
  8
Layer_0
  10
128.02335
  20
267.41913
  0
VERTEX
  5
e06
  8
Layer_0
  10
127.98367
  20
267.31604
  0
VERTEX
  5
e07
  8
Layer_0
  10
127.94974
  20
267.20871
  0
VERTEX
  5
e08
  8
Layer_0
  10
127.92157
  20
267.09717
  0
VERTEX
  5
e09
  8
Layer_0
  10
127.89905
  20
266.98132
  0
VERTEX
  5
e0a
  8
Layer_0
  10
127.88223
  20
266.86127
  0
VERTEX
  5
e0b
  8
Layer_0
  10
127.87122
  20
266.737
  0
SEQEND
  0
POLYLINE
  5
e0d
  8
Layer_0
  62
0
  70
1
  66
1
  10
0
  20
0
  30
0
  0
VERTEX
  5
e0d
  8
Layer_0
  10
163.75854
  20
269.54004
  0
VERTEX
  5
e0e
  8
Layer_0
  10
160.68622
  20
261.54004
  0
VERTEX
  5
e0f
  8
Layer_0
  10
161.81036
  20
261.54004
  0
VERTEX
  5
e10
  8
Layer_0
  10
162.68896
  20
263.96295
  0
VERTEX
  5
e11
  8
Layer_0
  10
166.03412
  20
263.96295
  0
VERTEX
  5
e12
  8
Layer_0
  10
166.96725
  20
261.54001
  0
VERTEX
  5
e13
  8
Layer_0
  10
168.17325
  20
261.54001
  0
VERTEX
  5
e14
  8
Layer_0
  10
164.89908
  20
269.54004
  0
VERTEX
  5
e15
  8
Layer_0
  10
163.75854
  20
269.54004
  0
SEQEND
  0
POLYLINE
  5
e17
  8
Layer_0
  62
0
  70
1
  66
1
  10
0
  20
0
  30
0
  0
VERTEX
  5
e17
  8
Layer_0
  10
164.30426
  20
268.69968
  0
VERTEX
  5
e18
  8
Layer_0
  10
164.24982
  20
268.44348
  0
VERTEX
  5
e19
  8
Layer_0
  10
164.18851
  20
268.18793
  0
VERTEX
  5
e1a
  8
Layer_0
  10
164.12009
  20
267.93295
  0
VERTEX
  5
e1b
  8
Layer_0
  10
164.04477
  20
267.67859
  0
VERTEX
  5
e1c
  8
Layer_0
  10
163.96246
  20
267.42484
  0
VERTEX
  5
e1d
  8
Layer_0
  10
163.87317
  20
267.17169
  0
VERTEX
  5
e1e
  8
Layer_0
  10
162.99454
  20
264.82516
  0
VERTEX
  5
e1f
  8
Layer_0
  10
165.7067
  20
264.82516
  0
VERTEX
  5
e20
  8
Layer_0
  10
164.74994
  20
267.36722
  0
VERTEX
  5
e21
  8
Layer_0
  10
164.58759
  20
267.81949
  0
VERTEX
  5
e22
  8
Layer_0
  10
164.4498
  20
268.22672
  0
VERTEX
  5
e23
  8
Layer_0
  10
164.37158
  20
268.47321
  0
VERTEX
  5
e24
  8
Layer_0
  10
164.30426
  20
268.69968
  0
SEQEND
  0
POLYLINE
  5
e26
  8
Layer_0
  62
0
  70
1
  66
1
  10
0
  20
0
  30
0
  0
VERTEX
  5
e26
  8
Layer_0
  10
172.13507
  20
265.7092
  0
VERTEX
  5
e27
  8
Layer_0
  10
172.12247
  20
265.78241
  0
VERTEX
  5
e28
  8
Layer_0
  10
172.09708
  20
265.88712
  0
VERTEX
  5
e29
  8
Layer_0
  10
172.0639
  20
265.98569
  0
VERTEX
  5
e2a
  8
Layer_0
  10
172.02301
  20
266.07816
  0
VERTEX
  5
e2b
  8
Layer_0
  10
171.9913
  20
266.13632
  0
VERTEX
  5
e2c
  8
Layer_0
  10
171.95627
  20
266.1918
  0
VERTEX
  5
e2d
  8
Layer_0
  10
171.91776
  20
266.24454
  0
VERTEX
  5
e2e
  8
Layer_0
  10
171.87579
  20
266.29459
  0
VERTEX
  5
e2f
  8
Layer_0
  10
171.83038
  20
266.34186
  0
VERTEX
  5
e30
  8
Layer_0
  10
171.78156
  20
266.38644
  0
VERTEX
  5
e31
  8
Layer_0
  10
171.72931
  20
266.42819
  0
VERTEX
  5
e32
  8
Layer_0
  10
171.67334
  20
266.46652
  0
VERTEX
  5
e33
  8
Layer_0
  10
171.61389
  20
266.5014
  0
VERTEX
  5
e34
  8
Layer_0
  10
171.55078
  20
266.53275
  0
VERTEX
  5
e35
  8
Layer_0
  10
171.48404
  20
266.56064
  0
VERTEX
  5
e36
  8
Layer_0
  10
171.41385
  20
266.58508
  0
VERTEX
  5
e37
  8
Layer_0
  10
171.33984
  20
266.60599
  0
VERTEX
  5
e38
  8
Layer_0
  10
171.26236
  20
266.62341
  0
VERTEX
  5
e39
  8
Layer_0
  10
171.18124
  20
266.63736
  0
VERTEX
  5
e3a
  8
Layer_0
  10
171.05289
  20
266.65176
  0
VERTEX
  5
e3b
  8
Layer_0
  10
170.91635
  20
266.65829
  0
VERTEX
  5
e3c
  8
Layer_0
  10
170.75897
  20
266.65717
  0
VERTEX
  5
e3d
  8
Layer_0
  10
170.60397
  20
266.64902
  0
VERTEX
  5
e3e
  8
Layer_0
  10
170.46106
  20
266.63388
  0
VERTEX
  5
e3f
  8
Layer_0
  10
170.28922
  20
266.60275
  0
VERTEX
  5
e40
  8
Layer_0
  10
170.21146
  20
266.58255
  0
VERTEX
  5
e41
  8
Layer_0
  10
170.10483
  20
266.54648
  0
VERTEX
  5
e42
  8
Layer_0
  10
170.0405
  20
266.51849
  0
VERTEX
  5
e43
  8
Layer_0
  10
169.98154
  20
266.4874
  0
VERTEX
  5
e44
  8
Layer_0
  10
169.92795
  20
266.45322
  0
VERTEX
  5
e45
  8
Layer_0
  10
169.87964
  20
266.41623
  0
VERTEX
  5
e46
  8
Layer_0
  10
169.81479
  20
266.35831
  0
VERTEX
  5
e47
  8
Layer_0
  10
169.75906
  20
266.29794
  0
VERTEX
  5
e48
  8
Layer_0
  10
169.71237
  20
266.23526
  0
VERTEX
  5
e49
  8
Layer_0
  10
169.67471
  20
266.1702
  0
VERTEX
  5
e4a
  8
Layer_0
  10
169.65463
  20
266.12546
  0
VERTEX
  5
e4b
  8
Layer_0
  10
169.63855
  20
266.07968
  0
VERTEX
  5
e4c
  8
Layer_0
  10
169.6265
  20
266.03287
  0
VERTEX
  5
e4d
  8
Layer_0
  10
169.61844
  20
265.98495
  0
VERTEX
  5
e4e
  8
Layer_0
  10
169.61441
  20
265.936
  0
VERTEX
  5
e4f
  8
Layer_0
  10
169.61578
  20
265.86395
  0
VERTEX
  5
e50
  8
Layer_0
  10
169.62735
  20
265.78806
  0
VERTEX
  5
e51
  8
Layer_0
  10
169.64911
  20
265.71539
  0
VERTEX
  5
e52
  8
Layer_0
  10
169.68146
  20
265.64609
  0
VERTEX
  5
e53
  8
Layer_0
  10
169.72418
  20
265.58011
  0
VERTEX
  5
e54
  8
Layer_0
  10
169.78998
  20
265.50375
  0
VERTEX
  5
e55
  8
Layer_0
  10
169.8577
  20
265.44492
  0
VERTEX
  5
e56
  8
Layer_0
  10
169.93732
  20
265.39081
  0
VERTEX
  5
e57
  8
Layer_0
  10
170.04852
  20
265.33212
  0
VERTEX
  5
e58
  8
Layer_0
  10
170.13907
  20
265.29532
  0
VERTEX
  5
e59
  8
Layer_0
  10
170.33276
  20
265.23526
  0
VERTEX
  5
e5a
  8
Layer_0
  10
171.38519
  20
264.94278
  0
VERTEX
  5
e5b
  8
Layer_0
  10
171.8013
  20
264.82047
  0
VERTEX
  5
e5c
  8
Layer_0
  10
172.13849
  20
264.71072
  0
VERTEX
  5
e5d
  8
Layer_0
  10
172.35941
  20
264.62894
  0
VERTEX
  5
e5e
  8
Layer_0
  10
172.49991
  20
264.56802
  0
VERTEX
  5
e5f
  8
Layer_0
  10
172.5965
  20
264.51779
  0
VERTEX
  5
e60
  8
Layer_0
  10
172.6875
  20
264.46255
  0
VERTEX
  5
e61
  8
Layer_0
  10
172.77301
  20
264.40231
  0
VERTEX
  5
e62
  8
Layer_0
  10
172.85278
  20
264.33701
  0
VERTEX
  5
e63
  8
Layer_0
  10
172.92719
  20
264.26663
  0
VERTEX
  5
e64
  8
Layer_0
  10
172.99603
  20
264.19131
  0
VERTEX
  5
e65
  8
Layer_0
  10
173.05927
  20
264.1109
  0
VERTEX
  5
e66
  8
Layer_0
  10
173.11664
  20
264.02548
  0
VERTEX
  5
e67
  8
Layer_0
  10
173.16678
  20
263.93494
  0
VERTEX
  5
e68
  8
Layer_0
  10
173.20953
  20
263.83926
  0
VERTEX
  5
e69
  8
Layer_0
  10
173.24503
  20
263.73849
  0
VERTEX
  5
e6a
  8
Layer_0
  10
173.26447
  20
263.66843
  0
VERTEX
  5
e6b
  8
Layer_0
  10
173.28769
  20
263.55911
  0
VERTEX
  5
e6c
  8
Layer_0
  10
173.30359
  20
263.44467
  0
VERTEX
  5
e6d
  8
Layer_0
  10
173.31213
  20
263.32516
  0
VERTEX
  5
e6e
  8
Layer_0
  10
173.31335
  20
263.20181
  0
VERTEX
  5
e6f
  8
Layer_0
  10
173.30585
  20
263.08047
  0
VERTEX
  5
e70
  8
Layer_0
  10
173.2959
  20
263.00064
  0
VERTEX
  5
e71
  8
Layer_0
  10
173.2735
  20
262.88229
  0
VERTEX
  5
e72
  8
Layer_0
  10
173.24219
  20
262.76578
  0
VERTEX
  5
e73
  8
Layer_0
  10
173.20187
  20
262.65109
  0
VERTEX
  5
e74
  8
Layer_0
  10
173.15265
  20
262.53812
  0
VERTEX
  5
e75
  8
Layer_0
  10
173.09442
  20
262.427
  0
VERTEX
  5
e76
  8
Layer_0
  10
173.02728
  20
262.31766
  0
VERTEX
  5
e77
  8
Layer_0
  10
172.97778
  20
262.24673
  0
VERTEX
  5
e78
  8
Layer_0
  10
172.92471
  20
262.1785
  0
VERTEX
  5
e79
  8
Layer_0
  10
172.86819
  20
262.11301
  0
VERTEX
  5
e7a
  8
Layer_0
  10
172.80814
  20
262.05026
  0
VERTEX
  5
e7b
  8
Layer_0
  10
172.74448
  20
261.99023
  0
VERTEX
  5
e7c
  8
Layer_0
  10
172.67734
  20
261.93295
  0
VERTEX
  5
e7d
  8
Layer_0
  10
172.60669
  20
261.87839
  0
VERTEX
  5
e7e
  8
Layer_0
  10
172.5325
  20
261.82651
  0
VERTEX
  5
e7f
  8
Layer_0
  10
172.4548
  20
261.7774
  0
VERTEX
  5
e80
  8
Layer_0
  10
172.3736
  20
261.73105
  0
VERTEX
  5
e81
  8
Layer_0
  10
172.28879
  20
261.68735
  0
VERTEX
  5
e82
  8
Layer_0
  10
172.20053
  20
261.64645
  0
VERTEX
  5
e83
  8
Layer_0
  10
172.10953
  20
261.60855
  0
VERTEX
  5
e84
  8
Layer_0
  10
172.01648
  20
261.57388
  0
VERTEX
  5
e85
  8
Layer_0
  10
171.92154
  20
261.54257
  0
VERTEX
  5
e86
  8
Layer_0
  10
171.82468
  20
261.51459
  0
VERTEX
  5
e87
  8
Layer_0
  10
171.72571
  20
261.48984
  0
VERTEX
  5
e88
  8
Layer_0
  10
171.62482
  20
261.46841
  0
VERTEX
  5
e89
  8
Layer_0
  10
171.52197
  20
261.45029
  0
VERTEX
  5
e8a
  8
Layer_0
  10
171.41718
  20
261.43546
  0
VERTEX
  5
e8b
  8
Layer_0
  10
171.31036
  20
261.42392
  0
VERTEX
  5
e8c
  8
Layer_0
  10
171.20163
  20
261.41565
  0
VERTEX
  5
e8d
  8
Layer_0
  10
171.09088
  20
261.41071
  0
VERTEX
  5
e8e
  8
Layer_0
  10
170.97818
  20
261.40906
  0
VERTEX
  5
e8f
  8
Layer_0
  10
170.79367
  20
261.41232
  0
VERTEX
  5
e90
  8
Layer_0
  10
170.61658
  20
261.42209
  0
VERTEX
  5
e91
  8
Layer_0
  10
170.44696
  20
261.43839
  0
VERTEX
  5
e92
  8
Layer_0
  10
170.28488
  20
261.46121
  0
VERTEX
  5
e93
  8
Layer_0
  10
170.13013
  20
261.49051
  0
VERTEX
  5
e94
  8
Layer_0
  10
169.98294
  20
261.5264
  0
VERTEX
  5
e95
  8
Layer_0
  10
169.91211
  20
261.54675
  0
VERTEX
  5
e96
  8
Layer_0
  10
169.8432
  20
261.56876
  0
VERTEX
  5
e97
  8
Layer_0
  10
169.77615
  20
261.59238
  0
VERTEX
  5
e98
  8
Layer_0
  10
169.71091
  20
261.61765
  0
VERTEX
  5
e99
  8
Layer_0
  10
169.64758
  20
261.6445
  0
VERTEX
  5
e9a
  8
Layer_0
  10
169.58612
  20
261.67307
  0
VERTEX
  5
e9b
  8
Layer_0
  10
169.52649
  20
261.70319
  0
VERTEX
  5
e9c
  8
Layer_0
  10
169.46878
  20
261.73495
  0
VERTEX
  5
e9d
  8
Layer_0
  10
169.41287
  20
261.76834
  0
VERTEX
  5
e9e
  8
Layer_0
  10
169.35889
  20
261.80338
  0
VERTEX
  5
e9f
  8
Layer_0
  10
169.30673
  20
261.84006
  0
VERTEX
  5
ea0
  8
Layer_0
  10
169.25647
  20
261.87836
  0
VERTEX
  5
ea1
  8
Layer_0
  10
169.20795
  20
261.9183
  0
VERTEX
  5
ea2
  8
Layer_0
  10
169.1608
  20
261.95972
  0
VERTEX
  5
ea3
  8
Layer_0
  10
169.11511
  20
262.00275
  0
VERTEX
  5
ea4
  8
Layer_0
  10
169.07101
  20
262.04739
  0
VERTEX
  5
ea5
  8
Layer_0
  10
169.02841
  20
262.0936
  0
VERTEX
  5
ea6
  8
Layer_0
  10
168.98718
  20
262.14133
  0
VERTEX
  5
ea7
  8
Layer_0
  10
168.94754
  20
262.19064
  0
VERTEX
  5
ea8
  8
Layer_0
  10
168.90939
  20
262.24155
  0
VERTEX
  5
ea9
  8
Layer_0
  10
168.87265
  20
262.29404
  0
VERTEX
  5
eaa
  8
Layer_0
  10
168.83743
  20
262.34805
  0
VERTEX
  5
eab
  8
Layer_0
  10
168.77148
  20
262.46091
  0
VERTEX
  5
eac
  8
Layer_0
  10
168.74072
  20
262.51965
  0
VERTEX
  5
ead
  8
Layer_0
  10
168.71146
  20
262.57999
  0
VERTEX
  5
eae
  8
Layer_0
  10
168.65741
  20
262.70541
  0
VERTEX
  5
eaf
  8
Layer_0
  10
168.60928
  20
262.83707
  0
VERTEX
  5
eb0
  8
Layer_0
  10
168.56714
  20
262.97507
  0
VERTEX
  5
eb1
  8
Layer_0
  10
168.53091
  20
263.11935
  0
VERTEX
  5
eb2
  8
Layer_0
  10
168.50067
  20
263.2699
  0
VERTEX
  5
eb3
  8
Layer_0
  10
169.47205
  20
263.4227
  0
VERTEX
  5
eb4
  8
Layer_0
  10
169.48773
  20
263.3273
  0
VERTEX
  5
eb5
  8
Layer_0
  10
169.50745
  20
263.23566
  0
VERTEX
  5
eb6
  8
Layer_0
  10
169.53122
  20
263.1478
  0
VERTEX
  5
eb7
  8
Layer_0
  10
169.55908
  20
263.06375
  0
VERTEX
  5
eb8
  8
Layer_0
  10
169.59094
  20
262.98349
  0
VERTEX
  5
eb9
  8
Layer_0
  10
169.62689
  20
262.90701
  0
VERTEX
  5
eba
  8
Layer_0
  10
169.66687
  20
262.83432
  0
VERTEX
  5
ebb
  8
Layer_0
  10
169.71094
  20
262.76541
  0
VERTEX
  5
ebc
  8
Layer_0
  10
169.75903
  20
262.70032
  0
VERTEX
  5
ebd
  8
Layer_0
  10
169.81122
  20
262.63901
  0
VERTEX
  5
ebe
  8
Layer_0
  10
169.86743
  20
262.58145
  0
VERTEX
  5
ebf
  8
Layer_0
  10
169.9277
  20
262.52774
  0
VERTEX
  5
ec0
  8
Layer_0
  10
169.9921
  20
262.47806
  0
VERTEX
  5
ec1
  8
Layer_0
  10
170.06052
  20
262.43271
  0
VERTEX
  5
ec2
  8
Layer_0
  10
170.13318
  20
262.39166
  0
VERTEX
  5
ec3
  8
Layer_0
  10
170.20999
  20
262.35495
  0
VERTEX
  5
ec4
  8
Layer_0
  10
170.29083
  20
262.32254
  0
VERTEX
  5
ec5
  8
Layer_0
  10
170.37585
  20
262.29446
  0
VERTEX
  5
ec6
  8
Layer_0
  10
170.46497
  20
262.27069
  0
VERTEX
  5
ec7
  8
Layer_0
  10
170.55829
  20
262.25125
  0
VERTEX
  5
ec8
  8
Layer_0
  10
170.6557
  20
262.23611
  0
VERTEX
  5
ec9
  8
Layer_0
  10
170.75726
  20
262.22534
  0
VERTEX
  5
eca
  8
Layer_0
  10
170.86292
  20
262.21884
  0
VERTEX
  5
ecb
  8
Layer_0
  10
170.97272
  20
262.21671
  0
VERTEX
  5
ecc
  8
Layer_0
  10
171.08307
  20
262.2186
  0
VERTEX
  5
ecd
  8
Layer_0
  10
171.18857
  20
262.22433
  0
VERTEX
  5
ece
  8
Layer_0
  10
171.28918
  20
262.23392
  0
VERTEX
  5
ecf
  8
Layer_0
  10
171.3851
  20
262.24734
  0
VERTEX
  5
ed0
  8
Layer_0
  10
171.47595
  20
262.26456
  0
VERTEX
  5
ed1
  8
Layer_0
  10
171.56207
  20
262.28558
  0
VERTEX
  5
ed2
  8
Layer_0
  10
171.64331
  20
262.31046
  0
VERTEX
  5
ed3
  8
Layer_0
  10
171.71973
  20
262.33917
  0
VERTEX
  5
ed4
  8
Layer_0
  10
171.79126
  20
262.37173
  0
VERTEX
  5
ed5
  8
Layer_0
  10
171.85797
  20
262.40805
  0
VERTEX
  5
ed6
  8
Layer_0
  10
171.9198
  20
262.44827
  0
VERTEX
  5
ed7
  8
Layer_0
  10
171.97681
  20
262.49228
  0
VERTEX
  5
ed8
  8
Layer_0
  10
172.02911
  20
262.53888
  0
VERTEX
  5
ed9
  8
Layer_0
  10
172.07684
  20
262.58679
  0
VERTEX
  5
eda
  8
Layer_0
  10
172.12003
  20
262.63602
  0
VERTEX
  5
edb
  8
Layer_0
  10
172.15878
  20
262.68661
  0
VERTEX
  5
edc
  8
Layer_0
  10
172.19281
  20
262.73849
  0
VERTEX
  5
edd
  8
Layer_0
  10
172.22235
  20
262.79172
  0
VERTEX
  5
ede
  8
Layer_0
  10
172.24738
  20
262.84628
  0
VERTEX
  5
edf
  8
Layer_0
  10
172.26788
  20
262.90216
  0
VERTEX
  5
ee0
  8
Layer_0
  10
172.28378
  20
262.95938
  0
VERTEX
  5
ee1
  8
Layer_0
  10
172.29517
  20
263.01791
  0
VERTEX
  5
ee2
  8
Layer_0
  10
172.30194
  20
263.07773
  0
VERTEX
  5
ee3
  8
Layer_0
  10
172.30423
  20
263.13895
  0
VERTEX
  5
ee4
  8
Layer_0
  10
172.30225
  20
263.19342
  0
VERTEX
  5
ee5
  8
Layer_0
  10
172.2962
  20
263.24594
  0
VERTEX
  5
ee6
  8
Layer_0
  10
172.28616
  20
263.29651
  0
VERTEX
  5
ee7
  8
Layer_0
  10
172.27216
  20
263.34512
  0
VERTEX
  5
ee8
  8
Layer_0
  10
172.25403
  20
263.39169
  0
VERTEX
  5
ee9
  8
Layer_0
  10
172.23193
  20
263.43634
  0
VERTEX
  5
eea
  8
Layer_0
  10
172.20581
  20
263.47903
  0
VERTEX
  5
eeb
  8
Layer_0
  10
172.17572
  20
263.51971
  0
VERTEX
  5
eec
  8
Layer_0
  10
172.14154
  20
263.55844
  0
VERTEX
  5
eed
  8
Layer_0
  10
172.10339
  20
263.59521
  0
VERTEX
  5
eee
  8
Layer_0
  10
172.06119
  20
263.62997
  0
VERTEX
  5
eef
  8
Layer_0
  10
171.99725
  20
263.67386
  0
VERTEX
  5
ef0
  8
Layer_0
  10
171.93103
  20
263.70844
  0
VERTEX
  5
ef1
  8
Layer_0
  10
171.81378
  20
263.75803
  0
VERTEX
  5
ef2
  8
Layer_0
  10
171.66302
  20
263.81149
  0
VERTEX
  5
ef3
  8
Layer_0
  10
171.37448
  20
263.89917
  0
VERTEX
  5
ef4
  8
Layer_0
  10
170.66919
  20
264.08456
  0
VERTEX
  5
ef5
  8
Layer_0
  10
170.22565
  20
264.21027
  0
VERTEX
  5
ef6
  8
Layer_0
  10
169.91928
  20
264.30795
  0
VERTEX
  5
ef7
  8
Layer_0
  10
169.7157
  20
264.38153
  0
VERTEX
  5
ef8
  8
Layer_0
  10
169.54889
  20
264.45099
  0
VERTEX
  5
ef9
  8
Layer_0
  10
169.44479
  20
264.50198
  0
VERTEX
  5
efa
  8
Layer_0
  10
169.34784
  20
264.55734
  0
VERTEX
  5
efb
  8
Layer_0
  10
169.25711
  20
264.61752
  0
VERTEX
  5
efc
  8
Layer_0
  10
169.17279
  20
264.6824
  0
VERTEX
  5
efd
  8
Layer_0
  10
169.09464
  20
264.75211
  0
VERTEX
  5
efe
  8
Layer_0
  10
169.02286
  20
264.82657
  0
VERTEX
  5
eff
  8
Layer_0
  10
168.9574
  20
264.90579
  0
VERTEX
  5
f00
  8
Layer_0
  10
168.89825
  20
264.98981
  0
VERTEX
  5
f01
  8
Layer_0
  10
168.84552
  20
265.07803
  0
VERTEX
  5
f02
  8
Layer_0
  10
168.79956
  20
265.16873
  0
VERTEX
  5
f03
  8
Layer_0
  10
168.76025
  20
265.26175
  0
VERTEX
  5
f04
  8
Layer_0
  10
168.72772
  20
265.35703
  0
VERTEX
  5
f05
  8
Layer_0
  10
168.70178
  20
265.45459
  0
VERTEX
  5
f06
  8
Layer_0
  10
168.68274
  20
265.55447
  0
VERTEX
  5
f07
  8
Layer_0
  10
168.67041
  20
265.65668
  0
VERTEX
  5
f08
  8
Layer_0
  10
168.66476
  20
265.76114
  0
VERTEX
  5
f09
  8
Layer_0
  10
168.66562
  20
265.86069
  0
VERTEX
  5
f0a
  8
Layer_0
  10
168.67548
  20
265.98666
  0
VERTEX
  5
f0b
  8
Layer_0
  10
168.69519
  20
266.10941
  0
VERTEX
  5
f0c
  8
Layer_0
  10
168.72476
  20
266.22903
  0
VERTEX
  5
f0d
  8
Layer_0
  10
168.76419
  20
266.34543
  0
VERTEX
  5
f0e
  8
Layer_0
  10
168.81342
  20
266.45865
  0
VERTEX
  5
f0f
  8
Layer_0
  10
168.87222
  20
266.56833
  0
VERTEX
  5
f10
  8
Layer_0
  10
168.93848
  20
266.67218
  0
VERTEX
  5
f11
  8
Layer_0
  10
169.01184
  20
266.76981
  0
VERTEX
  5
f12
  8
Layer_0
  10
169.09235
  20
266.86121
  0
VERTEX
  5
f13
  8
Layer_0
  10
169.17996
  20
266.94638
  0
VERTEX
  5
f14
  8
Layer_0
  10
169.27469
  20
267.02536
  0
VERTEX
  5
f15
  8
Layer_0
  10
169.38461
  20
267.10403
  0
VERTEX
  5
f16
  8
Layer_0
  10
169.49606
  20
267.16959
  0
VERTEX
  5
f17
  8
Layer_0
  10
169.62186
  20
267.23059
  0
VERTEX
  5
f18
  8
Layer_0
  10
169.79193
  20
267.29788
  0
VERTEX
  5
f19
  8
Layer_0
  10
169.98267
  20
267.35861
  0
VERTEX
  5
f1a
  8
Layer_0
  10
170.15097
  20
267.40036
  0
VERTEX
  5
f1b
  8
Layer_0
  10
170.32437
  20
267.43198
  0
VERTEX
  5
f1c
  8
Layer_0
  10
170.50253
  20
267.45334
  0
VERTEX
  5
f1d
  8
Layer_0
  10
170.68579
  20
267.46451
  0
VERTEX
  5
f1e
  8
Layer_0
  10
170.91068
  20
267.465
  0
VERTEX
  5
f1f
  8
Layer_0
  10
171.02087
  20
267.46091
  0
VERTEX
  5
f20
  8
Layer_0
  10
171.12878
  20
267.45407
  0
VERTEX
  5
f21
  8
Layer_0
  10
171.23444
  20
267.44455
  0
VERTEX
  5
f22
  8
Layer_0
  10
171.33765
  20
267.43225
  0
VERTEX
  5
f23
  8
Layer_0
  10
171.43863
  20
267.41724
  0
VERTEX
  5
f24
  8
Layer_0
  10
171.53732
  20
267.39951
  0
VERTEX
  5
f25
  8
Layer_0
  10
171.63364
  20
267.37906
  0
VERTEX
  5
f26
  8
Layer_0
  10
171.72769
  20
267.35587
  0
VERTEX
  5
f27
  8
Layer_0
  10
171.81946
  20
267.32993
  0
VERTEX
  5
f28
  8
Layer_0
  10
171.90881
  20
267.3013
  0
VERTEX
  5
f29
  8
Layer_0
  10
171.99594
  20
267.2699
  0
VERTEX
  5
f2a
  8
Layer_0
  10
172.08002
  20
267.23621
  0
VERTEX
  5
f2b
  8
Layer_0
  10
172.19913
  20
267.18201
  0
VERTEX
  5
f2c
  8
Layer_0
  10
172.30978
  20
267.1235
  0
VERTEX
  5
f2d
  8
Layer_0
  10
172.41199
  20
267.06058
  0
VERTEX
  5
f2e
  8
Layer_0
  10
172.50568
  20
266.99335
  0
VERTEX
  5
f2f
  8
Layer_0
  10
172.59097
  20
266.92178
  0
VERTEX
  5
f30
  8
Layer_0
  10
172.66785
  20
266.84586
  0
VERTEX
  5
f31
  8
Layer_0
  10
172.71439
  20
266.79282
  0
VERTEX
  5
f32
  8
Layer_0
  10
172.7572
  20
266.73782
  0
VERTEX
  5
f33
  8
Layer_0
  10
172.81622
  20
266.65039
  0
VERTEX
  5
f34
  8
Layer_0
  10
172.87045
  20
266.55588
  0
VERTEX
  5
f35
  8
Layer_0
  10
172.91989
  20
266.45428
  0
VERTEX
  5
f36
  8
Layer_0
  10
172.96454
  20
266.34561
  0
VERTEX
  5
f37
  8
Layer_0
  10
173.00443
  20
266.22989
  0
VERTEX
  5
f38
  8
Layer_0
  10
173.03958
  20
266.10703
  0
VERTEX
  5
f39
  8
Layer_0
  10
173.06992
  20
265.97714
  0
VERTEX
  5
f3a
  8
Layer_0
  10
173.09549
  20
265.84018
  0
VERTEX
  5
f3b
  8
Layer_0
  10
172.13507
  20
265.7092
  0
SEQEND
  0
POLYLINE
  5
f3d
  8
Layer_0
  62
0
  70
1
  66
1
  10
0
  20
0
  30
0
  0
VERTEX
  5
f3d
  8
Layer_0
  10
186.75851
  20
269.20987
  0
VERTEX
  5
f3e
  8
Layer_0
  10
186.75107
  20
269.27246
  0
VERTEX
  5
f3f
  8
Layer_0
  10
186.73196
  20
269.39371
  0
VERTEX
  5
f40
  8
Layer_0
  10
186.70755
  20
269.50986
  0
VERTEX
  5
f41
  8
Layer_0
  10
186.67758
  20
269.62079
  0
VERTEX
  5
f42
  8
Layer_0
  10
186.64224
  20
269.72659
  0
VERTEX
  5
f43
  8
Layer_0
  10
186.60159
  20
269.82727
  0
VERTEX
  5
f44
  8
Layer_0
  10
186.55533
  20
269.92273
  0
VERTEX
  5
f45
  8
Layer_0
  10
186.50381
  20
270.01309
  0
VERTEX
  5
f46
  8
Layer_0
  10
186.44681
  20
270.09827
  0
VERTEX
  5
f47
  8
Layer_0
  10
186.38443
  20
270.17831
  0
VERTEX
  5
f48
  8
Layer_0
  10
186.31656
  20
270.2532
  0
VERTEX
  5
f49
  8
Layer_0
  10
186.24332
  20
270.32294
  0
VERTEX
  5
f4a
  8
Layer_0
  10
186.16458
  20
270.38748
  0
VERTEX
  5
f4b
  8
Layer_0
  10
186.12283
  20
270.41776
  0
VERTEX
  5
f4c
  8
Layer_0
  10
186.03482
  20
270.47424
  0
VERTEX
  5
f4d
  8
Layer_0
  10
185.94046
  20
270.52536
  0
VERTEX
  5
f4e
  8
Layer_0
  10
185.84
  20
270.57114
  0
VERTEX
  5
f4f
  8
Layer_0
  10
185.73306
  20
270.61148
  0
VERTEX
  5
f50
  8
Layer_0
  10
185.62003
  20
270.64645
  0
VERTEX
  5
f51
  8
Layer_0
  10
185.50076
  20
270.67603
  0
VERTEX
  5
f52
  8
Layer_0
  10
185.37515
  20
270.70026
  0
VERTEX
  5
f53
  8
Layer_0
  10
185.24332
  20
270.71909
  0
VERTEX
  5
f54
  8
Layer_0
  10
185.10526
  20
270.73254
  0
VERTEX
  5
f55
  8
Layer_0
  10
184.96094
  20
270.7406
  0
VERTEX
  5
f56
  8
Layer_0
  10
184.81036
  20
270.74332
  0
VERTEX
  5
f57
  8
Layer_0
  10
184.6539
  20
270.74088
  0
VERTEX
  5
f58
  8
Layer_0
  10
184.5047
  20
270.73352
  0
VERTEX
  5
f59
  8
Layer_0
  10
184.36273
  20
270.72131
  0
VERTEX
  5
f5a
  8
Layer_0
  10
184.22806
  20
270.70419
  0
VERTEX
  5
f5b
  8
Layer_0
  10
184.10049
  20
270.68219
  0
VERTEX
  5
f5c
  8
Layer_0
  10
183.98022
  20
270.6553
  0
VERTEX
  5
f5d
  8
Layer_0
  10
183.86719
  20
270.62354
  0
VERTEX
  5
f5e
  8
Layer_0
  10
183.76141
  20
270.58688
  0
VERTEX
  5
f5f
  8
Layer_0
  10
183.66284
  20
270.54532
  0
VERTEX
  5
f60
  8
Layer_0
  10
183.57156
  20
270.49887
  0
VERTEX
  5
f61
  8
Layer_0
  10
183.48746
  20
270.44754
  0
VERTEX
  5
f62
  8
Layer_0
  10
183.44815
  20
270.42004
  0
VERTEX
  5
f63
  8
Layer_0
  10
183.37488
  20
270.36179
  0
VERTEX
  5
f64
  8
Layer_0
  10
183.30765
  20
270.30109
  0
VERTEX
  5
f65
  8
Layer_0
  10
183.21844
  20
270.2063
  0
VERTEX
  5
f66
  8
Layer_0
  10
183.15457
  20
270.12387
  0
VERTEX
  5
f67
  8
Layer_0
  10
183.10031
  20
270.03833
  0
VERTEX
  5
f68
  8
Layer_0
  10
183.06363
  20
269.96759
  0
VERTEX
  5
f69
  8
Layer_0
  10
183.02646
  20
269.87637
  0
VERTEX
  5
f6a
  8
Layer_0
  10
182.99442
  20
269.76279
  0
VERTEX
  5
f6b
  8
Layer_0
  10
182.97821
  20
269.66464
  0
VERTEX
  5
f6c
  8
Layer_0
  10
182.97134
  20
269.54276
  0
VERTEX
  5
f6d
  8
Layer_0
  10
182.97351
  20
269.47198
  0
VERTEX
  5
f6e
  8
Layer_0
  10
182.97995
  20
269.40329
  0
VERTEX
  5
f6f
  8
Layer_0
  10
182.99078
  20
269.33676
  0
VERTEX
  5
f70
  8
Layer_0
  10
183.00598
  20
269.27234
  0
VERTEX
  5
f71
  8
Layer_0
  10
183.02536
  20
269.21002
  0
VERTEX
  5
f72
  8
Layer_0
  10
183.04913
  20
269.14987
  0
VERTEX
  5
f73
  8
Layer_0
  10
183.07721
  20
269.0918
  0
VERTEX
  5
f74
  8
Layer_0
  10
183.10959
  20
269.03586
  0
VERTEX
  5
f75
  8
Layer_0
  10
183.1463
  20
268.98206
  0
VERTEX
  5
f76
  8
Layer_0
  10
183.18738
  20
268.93036
  0
VERTEX
  5
f77
  8
Layer_0
  10
183.2327
  20
268.8808
  0
VERTEX
  5
f78
  8
Layer_0
  10
183.28241
  20
268.83334
  0
VERTEX
  5
f79
  8
Layer_0
  10
183.34018
  20
268.78687
  0
VERTEX
  5
f7a
  8
Layer_0
  10
183.37421
  20
268.76355
  0
VERTEX
  5
f7b
  8
Layer_0
  10
183.45255
  20
268.7168
  0
VERTEX
  5
f7c
  8
Layer_0
  10
183.54443
  20
268.66983
  0
VERTEX
  5
f7d
  8
Layer_0
  10
183.65009
  20
268.62271
  0
VERTEX
  5
f7e
  8
Layer_0
  10
183.76953
  20
268.57538
  0
VERTEX
  5
f7f
  8
Layer_0
  10
183.90247
  20
268.52783
  0
VERTEX
  5
f80
  8
Layer_0
  10
184.04913
  20
268.48013
  0
VERTEX
  5
f81
  8
Layer_0
  10
184.29486
  20
268.4082
  0
VERTEX
  5
f82
  8
Layer_0
  10
184.57132
  20
268.33585
  0
VERTEX
  5
f83
  8
Layer_0
  10
185.38126
  20
268.14465
  0
VERTEX
  5
f84
  8
Layer_0
  10
185.81339
  20
268.03259
  0
VERTEX
  5
f85
  8
Layer_0
  10
186.10855
  20
267.94754
  0
VERTEX
  5
f86
  8
Layer_0
  10
186.35861
  20
267.86661
  0
VERTEX
  5
f87
  8
Layer_0
  10
186.51663
  20
267.80856
  0
VERTEX
  5
f88
  8
Layer_0
  10
186.64938
  20
267.75284
  0
VERTEX
  5
f89
  8
Layer_0
  10
186.76328
  20
267.698
  0
VERTEX
  5
f8a
  8
Layer_0
  10
186.8721
  20
267.64078
  0
VERTEX
  5
f8b
  8
Layer_0
  10
186.97574
  20
267.58112
  0
VERTEX
  5
f8c
  8
Layer_0
  10
187.07449
  20
267.51913
  0
VERTEX
  5
f8d
  8
Layer_0
  10
187.168
  20
267.45471
  0
VERTEX
  5
f8e
  8
Layer_0
  10
187.2565
  20
267.38791
  0
VERTEX
  5
f8f
  8
Layer_0
  10
187.33987
  20
267.31873
  0
VERTEX
  5
f90
  8
Layer_0
  10
187.41824
  20
267.24716
  0
VERTEX
  5
f91
  8
Layer_0
  10
187.49149
  20
267.17322
  0
VERTEX
  5
f92
  8
Layer_0
  10
187.55966
  20
267.09689
  0
VERTEX
  5
f93
  8
Layer_0
  10
187.62271
  20
267.01813
  0
VERTEX
  5
f94
  8
Layer_0
  10
187.68076
  20
266.93704
  0
VERTEX
  5
f95
  8
Layer_0
  10
187.73392
  20
266.85367
  0
VERTEX
  5
f96
  8
Layer_0
  10
187.7825
  20
266.76822
  0
VERTEX
  5
f97
  8
Layer_0
  10
187.82645
  20
266.68073
  0
VERTEX
  5
f98
  8
Layer_0
  10
187.86575
  20
266.59113
  0
VERTEX
  5
f99
  8
Layer_0
  10
187.90036
  20
266.49942
  0
VERTEX
  5
f9a
  8
Layer_0
  10
187.93045
  20
266.40567
  0
VERTEX
  5
f9b
  8
Layer_0
  10
187.95584
  20
266.30978
  0
VERTEX
  5
f9c
  8
Layer_0
  10
187.97659
  20
266.21185
  0
VERTEX
  5
f9d
  8
Layer_0
  10
187.99283
  20
266.11182
  0
VERTEX
  5
f9e
  8
Layer_0
  10
188.00443
  20
266.0097
  0
VERTEX
  5
f9f
  8
Layer_0
  10
188.01132
  20
265.90552
  0
VERTEX
  5
fa0
  8
Layer_0
  10
188.01364
  20
265.79922
  0
VERTEX
  5
fa1
  8
Layer_0
  10
188.01114
  20
265.69333
  0
VERTEX
  5
fa2
  8
Layer_0
  10
188.00345
  20
265.58847
  0
VERTEX
  5
fa3
  8
Layer_0
  10
187.99075
  20
265.48462
  0
VERTEX
  5
fa4
  8
Layer_0
  10
187.97305
  20
265.38181
  0
VERTEX
  5
fa5
  8
Layer_0
  10
187.95016
  20
265.27997
  0
VERTEX
  5
fa6
  8
Layer_0
  10
187.92227
  20
265.17917
  0
VERTEX
  5
fa7
  8
Layer_0
  10
187.88919
  20
265.07944
  0
VERTEX
  5
fa8
  8
Layer_0
  10
187.8511
  20
264.98068
  0
VERTEX
  5
fa9
  8
Layer_0
  10
187.80801
  20
264.88297
  0
VERTEX
  5
faa
  8
Layer_0
  10
187.7598
  20
264.78629
  0
VERTEX
  5
fab
  8
Layer_0
  10
187.70645
  20
264.69061
  0
VERTEX
  5
fac
  8
Layer_0
  10
187.64798
  20
264.59598
  0
VERTEX
  5
fad
  8
Layer_0
  10
187.58487
  20
264.50357
  0
VERTEX
  5
fae
  8
Layer_0
  10
187.51724
  20
264.41467
  0
VERTEX
  5
faf
  8
Layer_0
  10
187.44522
  20
264.32925
  0
VERTEX
  5
fb0
  8
Layer_0
  10
187.3688
  20
264.24734
  0
VERTEX
  5
fb1
  8
Layer_0
  10
187.28793
  20
264.16888
  0
VERTEX
  5
fb2
  8
Layer_0
  10
187.20261
  20
264.09393
  0
VERTEX
  5
fb3
  8
Layer_0
  10
187.11282
  20
264.02246
  0
VERTEX
  5
fb4
  8
Layer_0
  10
187.01865
  20
263.95447
  0
VERTEX
  5
fb5
  8
Layer_0
  10
186.92001
  20
263.88995
  0
VERTEX
  5
fb6
  8
Layer_0
  10
186.81699
  20
263.82895
  0
VERTEX
  5
fb7
  8
Layer_0
  10
186.7095
  20
263.77142
  0
VERTEX
  5
fb8
  8
Layer_0
  10
186.59756
  20
263.71738
  0
VERTEX
  5
fb9
  8
Layer_0
  10
186.48221
  20
263.66727
  0
VERTEX
  5
fba
  8
Layer_0
  10
186.36453
  20
263.62149
  0
VERTEX
  5
fbb
  8
Layer_0
  10
186.24442
  20
263.58011
  0
VERTEX
  5
fbc
  8
Layer_0
  10
186.12192
  20
263.54306
  0
VERTEX
  5
fbd
  8
Layer_0
  10
185.99698
  20
263.51038
  0
VERTEX
  5
fbe
  8
Layer_0
  10
185.86966
  20
263.48206
  0
VERTEX
  5
fbf
  8
Layer_0
  10
185.74002
  20
263.45807
  0
VERTEX
  5
fc0
  8
Layer_0
  10
185.608
  20
263.43848
  0
VERTEX
  5
fc1
  8
Layer_0
  10
185.47354
  20
263.42322
  0
VERTEX
  5
fc2
  8
Layer_0
  10
185.33676
  20
263.41232
  0
VERTEX
  5
fc3
  8
Layer_0
  10
185.19754
  20
263.40579
  0
VERTEX
  5
fc4
  8
Layer_0
  10
185.05594
  20
263.40359
  0
VERTEX
  5
fc5
  8
Layer_0
  10
184.87741
  20
263.40579
  0
VERTEX
  5
fc6
  8
Layer_0
  10
184.7037
  20
263.41238
  0
VERTEX
  5
fc7
  8
Layer_0
  10
184.53494
  20
263.42337
  0
VERTEX
  5
fc8
  8
Layer_0
  10
184.37112
  20
263.43878
  0
VERTEX
  5
fc9
  8
Layer_0
  10
184.2121
  20
263.45856
  0
VERTEX
  5
fca
  8
Layer_0
  10
184.05798
  20
263.48273
  0
VERTEX
  5
fcb
  8
Layer_0
  10
183.90875
  20
263.51132
  0
VERTEX
  5
fcc
  8
Layer_0
  10
183.76447
  20
263.54428
  0
VERTEX
  5
fcd
  8
Layer_0
  10
183.625
  20
263.58163
  0
VERTEX
  5
fce
  8
Layer_0
  10
183.49048
  20
263.62341
  0
VERTEX
  5
fcf
  8
Layer_0
  10
183.36078
  20
263.66956
  0
VERTEX
  5
fd0
  8
Layer_0
  10
183.23602
  20
263.72012
  0
VERTEX
  5
fd1
  8
Layer_0
  10
183.11588
  20
263.77509
  0
VERTEX
  5
fd2
  8
Layer_0
  10
183.00015
  20
263.83447
  0
VERTEX
  5
fd3
  8
Layer_0
  10
182.88879
  20
263.89832
  0
VERTEX
  5
fd4
  8
Layer_0
  10
182.78192
  20
263.96661
  0
VERTEX
  5
fd5
  8
Layer_0
  10
182.67932
  20
264.03931
  0
VERTEX
  5
fd6
  8
Layer_0
  10
182.58118
  20
264.11642
  0
VERTEX
  5
fd7
  8
Layer_0
  10
182.48743
  20
264.198
  0
VERTEX
  5
fd8
  8
Layer_0
  10
182.39807
  20
264.284
  0
VERTEX
  5
fd9
  8
Layer_0
  10
182.31311
  20
264.37445
  0
VERTEX
  5
fda
  8
Layer_0
  10
182.23254
  20
264.46933
  0
VERTEX
  5
fdb
  8
Layer_0
  10
182.15634
  20
264.56863
  0
VERTEX
  5
fdc
  8
Layer_0
  10
182.08459
  20
264.67236
  0
VERTEX
  5
fdd
  8
Layer_0
  10
182.01776
  20
264.77948
  0
VERTEX
  5
fde
  8
Layer_0
  10
181.95642
  20
264.88889
  0
VERTEX
  5
fdf
  8
Layer_0
  10
181.90057
  20
265.00064
  0
VERTEX
  5
fe0
  8
Layer_0
  10
181.85028
  20
265.11472
  0
VERTEX
  5
fe1
  8
Layer_0
  10
181.80536
  20
265.23105
  0
VERTEX
  5
fe2
  8
Layer_0
  10
181.76602
  20
265.3497
  0
VERTEX
  5
fe3
  8
Layer_0
  10
181.73218
  20
265.4707
  0
VERTEX
  5
fe4
  8
Layer_0
  10
181.7038
  20
265.59399
  0
VERTEX
  5
fe5
  8
Layer_0
  10
181.68094
  20
265.7196
  0
VERTEX
  5
fe6
  8
Layer_0
  10
181.66357
  20
265.84753
  0
VERTEX
  5
fe7
  8
Layer_0
  10
181.65167
  20
265.97775
  0
VERTEX
  5
fe8
  8
Layer_0
  10
181.64529
  20
266.11029
  0
VERTEX
  5
fe9
  8
Layer_0
  10
182.64392
  20
266.1976
  0
VERTEX
  5
fea
  8
Layer_0
  10
182.65707
  20
266.09906
  0
VERTEX
  5
feb
  8
Layer_0
  10
182.67279
  20
266.00351
  0
VERTEX
  5
fec
  8
Layer_0
  10
182.69119
  20
265.91092
  0
VERTEX
  5
fed
  8
Layer_0
  10
182.71222
  20
265.82138
  0
VERTEX
  5
fee
  8
Layer_0
  10
182.73572
  20
265.7348
  0
VERTEX
  5
fef
  8
Layer_0
  10
182.76196
  20
265.65121
  0
VERTEX
  5
ff0
  8
Layer_0
  10
182.79077
  20
265.57062
  0
VERTEX
  5
ff1
  8
Layer_0
  10
182.8222
  20
265.49304
  0
VERTEX
  5
ff2
  8
Layer_0
  10
182.85623
  20
265.41843
  0
VERTEX
  5
ff3
  8
Layer_0
  10
182.89291
  20
265.34683
  0
VERTEX
  5
ff4
  8
Layer_0
  10
182.93219
  20
265.27823
  0
VERTEX
  5
ff5
  8
Layer_0
  10
182.97409
  20
265.21262
  0
VERTEX
  5
ff6
  8
Layer_0
  10
183.01929
  20
265.14951
  0
VERTEX
  5
ff7
  8
Layer_0
  10
183.06845
  20
265.08847
  0
VERTEX
  5
ff8
  8
Layer_0
  10
183.12155
  20
265.02945
  0
VERTEX
  5
ff9
  8
Layer_0
  10
183.17877
  20
264.9725
  0
VERTEX
  5
ffa
  8
Layer_0
  10
183.23984
  20
264.91757
  0
VERTEX
  5
ffb
  8
Layer_0
  10
183.30493
  20
264.86472
  0
VERTEX
  5
ffc
  8
Layer_0
  10
183.37399
  20
264.8139
  0
VERTEX
  5
ffd
  8
Layer_0
  10
183.44702
  20
264.76514
  0
VERTEX
  5
ffe
  8
Layer_0
  10
183.52405
  20
264.71841
  0
VERTEX
  5
fff
  8
Layer_0
  10
183.60504
  20
264.67374
  0
VERTEX
  5
1000
  8
Layer_0
  10
183.69
  20
264.6311
  0
VERTEX
  5
1001
  8
Layer_0
  10
183.77899
  20
264.59052
  0
VERTEX
  5
1002
  8
Layer_0
  10
183.87088
  20
264.55258
  0
VERTEX
  5
1003
  8
Layer_0
  10
183.96469
  20
264.51797
  0
VERTEX
  5
1004
  8
Layer_0
  10
184.06036
  20
264.48666
  0
VERTEX
  5
1005
  8
Layer_0
  10
184.15802
  20
264.45865
  0
VERTEX
  5
1006
  8
Layer_0
  10
184.25745
  20
264.4339
  0
VERTEX
  5
1007
  8
Layer_0
  10
184.35883
  20
264.41248
  0
VERTEX
  5
1008
  8
Layer_0
  10
184.4621
  20
264.39435
  0
VERTEX
  5
1009
  8
Layer_0
  10
184.56723
  20
264.37952
  0
VERTEX
  5
100a
  8
Layer_0
  10
184.67432
  20
264.36795
  0
VERTEX
  5
100b
  8
Layer_0
  10
184.78326
  20
264.35971
  0
VERTEX
  5
100c
  8
Layer_0
  10
184.89407
  20
264.35477
  0
VERTEX
  5
100d
  8
Layer_0
  10
185.00687
  20
264.35312
  0
VERTEX
  5
100e
  8
Layer_0
  10
185.10684
  20
264.3544
  0
VERTEX
  5
100f
  8
Layer_0
  10
185.20474
  20
264.35812
  0
VERTEX
  5
1010
  8
Layer_0
  10
185.30081
  20
264.36438
  0
VERTEX
  5
1011
  8
Layer_0
  10
185.39493
  20
264.37314
  0
VERTEX
  5
1012
  8
Layer_0
  10
185.48697
  20
264.38437
  0
VERTEX
  5
1013
  8
Layer_0
  10
185.57706
  20
264.39813
  0
VERTEX
  5
1014
  8
Layer_0
  10
185.66519
  20
264.4144
  0
VERTEX
  5
1015
  8
Layer_0
  10
185.75137
  20
264.43317
  0
VERTEX
  5
1016
  8
Layer_0
  10
185.8356
  20
264.45444
  0
VERTEX
  5
1017
  8
Layer_0
  10
185.91788
  20
264.47818
  0
VERTEX
  5
1018
  8
Layer_0
  10
185.99808
  20
264.50446
  0
VERTEX
  5
1019
  8
Layer_0
  10
186.11465
  20
264.54846
  0
VERTEX
  5
101a
  8
Layer_0
  10
186.2244
  20
264.59695
  0
VERTEX
  5
101b
  8
Layer_0
  10
186.32681
  20
264.64963
  0
VERTEX
  5
101c
  8
Layer_0
  10
186.42178
  20
264.70648
  0
VERTEX
  5
101d
  8
Layer_0
  10
186.50919
  20
264.76752
  0
VERTEX
  5
101e
  8
Layer_0
  10
186.58939
  20
264.83273
  0
VERTEX
  5
101f
  8
Layer_0
  10
186.66208
  20
264.90213
  0
VERTEX
  5
1020
  8
Layer_0
  10
186.72733
  20
264.97571
  0
VERTEX
  5
1021
  8
Layer_0
  10
186.78531
  20
265.05334
  0
VERTEX
  5
1022
  8
Layer_0
  10
186.83591
  20
265.13324
  0
VERTEX
  5
1023
  8
Layer_0
  10
186.87955
  20
265.215
  0
VERTEX
  5
1024
  8
Layer_0
  10
186.91617
  20
265.29849
  0
VERTEX
  5
1025
  8
Layer_0
  10
186.94559
  20
265.38382
  0
VERTEX
  5
1026
  8
Layer_0
  10
186.96805
  20
265.47092
  0
VERTEX
  5
1027
  8
Layer_0
  10
186.98331
  20
265.55981
  0
VERTEX
  5
1028
  8
Layer_0
  10
186.99161
  20
265.65048
  0
VERTEX
  5
1029
  8
Layer_0
  10
186.99289
  20
265.74316
  0
VERTEX
  5
102a
  8
Layer_0
  10
186.98709
  20
265.83478
  0
VERTEX
  5
102b
  8
Layer_0
  10
186.97464
  20
265.92346
  0
VERTEX
  5
102c
  8
Layer_0
  10
186.95523
  20
266.00912
  0
VERTEX
  5
102d
  8
Layer_0
  10
186.92911
  20
266.09183
  0
VERTEX
  5
102e
  8
Layer_0
  10
186.89615
  20
266.17154
  0
VERTEX
  5
102f
  8
Layer_0
  10
186.85635
  20
266.24826
  0
VERTEX
  5
1030
  8
Layer_0
  10
186.80972
  20
266.32199
  0
VERTEX
  5
1031
  8
Layer_0
  10
186.75626
  20
266.39279
  0
VERTEX
  5
1032
  8
Layer_0
  10
186.69424
  20
266.46066
  0
VERTEX
  5
1033
  8
Layer_0
  10
186.62344
  20
266.52579
  0
VERTEX
  5
1034
  8
Layer_0
  10
186.54373
  20
266.58807
  0
VERTEX
  5
1035
  8
Layer_0
  10
186.45511
  20
266.64755
  0
VERTEX
  5
1036
  8
Layer_0
  10
186.3577
  20
266.70419
  0
VERTEX
  5
1037
  8
Layer_0
  10
186.2515
  20
266.75806
  0
VERTEX
  5
1038
  8
Layer_0
  10
186.13626
  20
266.80908
  0
VERTEX
  5
1039
  8
Layer_0
  10
185.99551
  20
266.86343
  0
VERTEX
  5
103a
  8
Layer_0
  10
185.75333
  20
266.94067
  0
VERTEX
  5
103b
  8
Layer_0
  10
185.27847
  20
267.07071
  0
VERTEX
  5
103c
  8
Layer_0
  10
184.97607
  20
267.14737
  0
VERTEX
  5
103d
  8
Layer_0
  10
184.53964
  20
267.25372
  0
VERTEX
  5
103e
  8
Layer_0
  10
184.12036
  20
267.36215
  0
VERTEX
  5
103f
  8
Layer_0
  10
183.82629
  20
267.44705
  0
VERTEX
  5
1040
  8
Layer_0
  10
183.56891
  20
267.53027
  0
VERTEX
  5
1041
  8
Layer_0
  10
183.39996
  20
267.59158
  0
VERTEX
  5
1042
  8
Layer_0
  10
183.25165
  20
267.65198
  0
VERTEX
  5
1043
  8
Layer_0
  10
183.12393
  20
267.71143
  0
VERTEX
  5
1044
  8
Layer_0
  10
182.99249
  20
267.78204
  0
VERTEX
  5
1045
  8
Layer_0
  10
182.90305
  20
267.83508
  0
VERTEX
  5
1046
  8
Layer_0
  10
182.81772
  20
267.89014
  0
VERTEX
  5
1047
  8
Layer_0
  10
182.73645
  20
267.9472
  0
VERTEX
  5
1048
  8
Layer_0
  10
182.65915
  20
268.00626
  0
VERTEX
  5
1049
  8
Layer_0
  10
182.58594
  20
268.06732
  0
VERTEX
  5
104a
  8
Layer_0
  10
182.51682
  20
268.1304
  0
VERTEX
  5
104b
  8
Layer_0
  10
182.45172
  20
268.19547
  0
VERTEX
  5
104c
  8
Layer_0
  10
182.39069
  20
268.26257
  0
VERTEX
  5
104d
  8
Layer_0
  10
182.33374
  20
268.3317
  0
VERTEX
  5
104e
  8
Layer_0
  10
182.28076
  20
268.4028
  0
VERTEX
  5
104f
  8
Layer_0
  10
182.23193
  20
268.47592
  0
VERTEX
  5
1050
  8
Layer_0
  10
182.18704
  20
268.55078
  0
VERTEX
  5
1051
  8
Layer_0
  10
182.14603
  20
268.62711
  0
VERTEX
  5
1052
  8
Layer_0
  10
182.10898
  20
268.70493
  0
VERTEX
  5
1053
  8
Layer_0
  10
182.07587
  20
268.78424
  0
VERTEX
  5
1054
  8
Layer_0
  10
182.04654
  20
268.86502
  0
VERTEX
  5
1055
  8
Layer_0
  10
182.02118
  20
268.94727
  0
VERTEX
  5
1056
  8
Layer_0
  10
181.99966
  20
269.03101
  0
VERTEX
  5
1057
  8
Layer_0
  10
181.98212
  20
269.11621
  0
VERTEX
  5
1058
  8
Layer_0
  10
181.96844
  20
269.20291
  0
VERTEX
  5
1059
  8
Layer_0
  10
181.95874
  20
269.29105
  0
VERTEX
  5
105a
  8
Layer_0
  10
181.95282
  20
269.38071
  0
VERTEX
  5
105b
  8
Layer_0
  10
181.9509
  20
269.47183
  0
VERTEX
  5
105c
  8
Layer_0
  10
181.95328
  20
269.57224
  0
VERTEX
  5
105d
  8
Layer_0
  10
181.96045
  20
269.67154
  0
VERTEX
  5
105e
  8
Layer_0
  10
181.97241
  20
269.76974
  0
VERTEX
  5
105f
  8
Layer_0
  10
181.98914
  20
269.86685
  0
VERTEX
  5
1060
  8
Layer_0
  10
182.01059
  20
269.96286
  0
VERTEX
  5
1061
  8
Layer_0
  10
182.03683
  20
270.05777
  0
VERTEX
  5
1062
  8
Layer_0
  10
182.06787
  20
270.15158
  0
VERTEX
  5
1063
  8
Layer_0
  10
182.1037
  20
270.24429
  0
VERTEX
  5
1064
  8
Layer_0
  10
182.14429
  20
270.33591
  0
VERTEX
  5
1065
  8
Layer_0
  10
182.18964
  20
270.42642
  0
VERTEX
  5
1066
  8
Layer_0
  10
182.23975
  20
270.51584
  0
VERTEX
  5
1067
  8
Layer_0
  10
182.29468
  20
270.60416
  0
VERTEX
  5
1068
  8
Layer_0
  10
182.35419
  20
270.69016
  0
VERTEX
  5
1069
  8
Layer_0
  10
182.41803
  20
270.77261
  0
VERTEX
  5
106a
  8
Layer_0
  10
182.48639
  20
270.85159
  0
VERTEX
  5
106b
  8
Layer_0
  10
182.55908
  20
270.92703
  0
VERTEX
  5
106c
  8
Layer_0
  10
182.63614
  20
270.99893
  0
VERTEX
  5
106d
  8
Layer_0
  10
182.71759
  20
271.06732
  0
VERTEX
  5
106e
  8
Layer_0
  10
182.80347
  20
271.13217
  0
VERTEX
  5
106f
  8
Layer_0
  10
182.89374
  20
271.19351
  0
VERTEX
  5
1070
  8
Layer_0
  10
182.9884
  20
271.25131
  0
VERTEX
  5
1071
  8
Layer_0
  10
183.08746
  20
271.3056
  0
VERTEX
  5
1072
  8
Layer_0
  10
183.19092
  20
271.35635
  0
VERTEX
  5
1073
  8
Layer_0
  10
183.29877
  20
271.40359
  0
VERTEX
  5
1074
  8
Layer_0
  10
183.40988
  20
271.44717
  0
VERTEX
  5
1075
  8
Layer_0
  10
183.52295
  20
271.48697
  0
VERTEX
  5
1076
  8
Layer_0
  10
183.63812
  20
271.52298
  0
VERTEX
  5
1077
  8
Layer_0
  10
183.7554
  20
271.55521
  0
VERTEX
  5
1078
  8
Layer_0
  10
183.87463
  20
271.58362
  0
VERTEX
  5
1079
  8
Layer_0
  10
183.99591
  20
271.60825
  0
VERTEX
  5
107a
  8
Layer_0
  10
184.11926
  20
271.62909
  0
VERTEX
  5
107b
  8
Layer_0
  10
184.24466
  20
271.64615
  0
VERTEX
  5
107c
  8
Layer_0
  10
184.3721
  20
271.65939
  0
VERTEX
  5
107d
  8
Layer_0
  10
184.50162
  20
271.66888
  0
VERTEX
  5
107e
  8
Layer_0
  10
184.63312
  20
271.67456
  0
VERTEX
  5
107f
  8
Layer_0
  10
184.76672
  20
271.67645
  0
VERTEX
  5
1080
  8
Layer_0
  10
184.91354
  20
271.67447
  0
VERTEX
  5
1081
  8
Layer_0
  10
185.0574
  20
271.66849
  0
VERTEX
  5
1082
  8
Layer_0
  10
185.19833
  20
271.65854
  0
VERTEX
  5
1083
  8
Layer_0
  10
185.33646
  20
271.64462
  0
VERTEX
  5
1084
  8
Layer_0
  10
185.47147
  20
271.62671
  0
VERTEX
  5
1085
  8
Layer_0
  10
185.60367
  20
271.60483
  0
VERTEX
  5
1086
  8
Layer_0
  10
185.73294
  20
271.57895
  0
VERTEX
  5
1087
  8
Layer_0
  10
185.85928
  20
271.54913
  0
VERTEX
  5
1088
  8
Layer_0
  10
185.98282
  20
271.51529
  0
VERTEX
  5
1089
  8
Layer_0
  10
186.1033
  20
271.47751
  0
VERTEX
  5
108a
  8
Layer_0
  10
186.22092
  20
271.43573
  0
VERTEX
  5
108b
  8
Layer_0
  10
186.3356
  20
271.38995
  0
VERTEX
  5
108c
  8
Layer_0
  10
186.44669
  20
271.34033
  0
VERTEX
  5
108d
  8
Layer_0
  10
186.55338
  20
271.28696
  0
VERTEX
  5
108e
  8
Layer_0
  10
186.65567
  20
271.22983
  0
VERTEX
  5
108f
  8
Layer_0
  10
186.75369
  20
271.16898
  0
VERTEX
  5
1090
  8
Layer_0
  10
186.84732
  20
271.10431
  0
VERTEX
  5
1091
  8
Layer_0
  10
186.93655
  20
271.03595
  0
VERTEX
  5
1092
  8
Layer_0
  10
187.02151
  20
270.96381
  0
VERTEX
  5
1093
  8
Layer_0
  10
187.10196
  20
270.88791
  0
VERTEX
  5
1094
  8
Layer_0
  10
187.17825
  20
270.80829
  0
VERTEX
  5
1095
  8
Layer_0
  10
187.25003
  20
270.72488
  0
VERTEX
  5
1096
  8
Layer_0
  10
187.31747
  20
270.63773
  0
VERTEX
  5
1097
  8
Layer_0
  10
187.38065
  20
270.54684
  0
VERTEX
  5
1098
  8
Layer_0
  10
187.43924
  20
270.45306
  0
VERTEX
  5
1099
  8
Layer_0
  10
187.49307
  20
270.35721
  0
VERTEX
  5
109a
  8
Layer_0
  10
187.54227
  20
270.25934
  0
VERTEX
  5
109b
  8
Layer_0
  10
187.58682
  20
270.15942
  0
VERTEX
  5
109c
  8
Layer_0
  10
187.62656
  20
270.05743
  0
VERTEX
  5
109d
  8
Layer_0
  10
187.66165
  20
269.9534
  0
VERTEX
  5
109e
  8
Layer_0
  10
187.69205
  20
269.84732
  0
VERTEX
  5
109f
  8
Layer_0
  10
187.7178
  20
269.73923
  0
VERTEX
  5
10a0
  8
Layer_0
  10
187.7388
  20
269.62906
  0
VERTEX
  5
10a1
  8
Layer_0
  10
187.75504
  20
269.51685
  0
VERTEX
  5
10a2
  8
Layer_0
  10
187.76663
  20
269.40259
  0
VERTEX
  5
10a3
  8
Layer_0
  10
187.77353
  20
269.28629
  0
VERTEX
  5
10a4
  8
Layer_0
  10
186.75851
  20
269.20987
  0
SEQEND
  0
POLYLINE
  5
10a6
  8
Layer_0
  62
0
  70
1
  66
1
  10
0
  20
0
  30
0
  0
VERTEX
  5
10a6
  8
Layer_0
  10
190.24014
  20
264.26581
  0
VERTEX
  5
10a7
  8
Layer_0
  10
190.24014
  20
263.54004
  0
VERTEX
  5
10a8
  8
Layer_0
  10
189.32877
  20
263.54004
  0
VERTEX
  5
10a9
  8
Layer_0
  10
189.32877
  20
271.54004
  0
VERTEX
  5
10aa
  8
Layer_0
  10
190.31107
  20
271.54004
  0
VERTEX
  5
10ab
  8
Layer_0
  10
190.31107
  20
268.686
  0
VERTEX
  5
10ac
  8
Layer_0
  10
190.36356
  20
268.74969
  0
VERTEX
  5
10ad
  8
Layer_0
  10
190.41714
  20
268.81064
  0
VERTEX
  5
10ae
  8
Layer_0
  10
190.47195
  20
268.8689
  0
VERTEX
  5
10af
  8
Layer_0
  10
190.52798
  20
268.92444
  0
VERTEX
  5
10b0
  8
Layer_0
  10
190.58524
  20
268.97729
  0
VERTEX
  5
10b1
  8
Layer_0
  10
190.64359
  20
269.0274
  0
VERTEX
  5
10b2
  8
Layer_0
  10
190.70316
  20
269.07483
  0
VERTEX
  5
10b3
  8
Layer_0
  10
190.76407
  20
269.11954
  0
VERTEX
  5
10b4
  8
Layer_0
  10
190.82596
  20
269.16153
  0
VERTEX
  5
10b5
  8
Layer_0
  10
190.88919
  20
269.20084
  0
VERTEX
  5
10b6
  8
Layer_0
  10
190.95364
  20
269.23743
  0
VERTEX
  5
10b7
  8
Layer_0
  10
191.01907
  20
269.27127
  0
VERTEX
  5
10b8
  8
Layer_0
  10
191.08585
  20
269.30243
  0
VERTEX
  5
10b9
  8
Layer_0
  10
191.15384
  20
269.3309
  0
VERTEX
  5
10ba
  8
Layer_0
  10
191.22299
  20
269.35663
  0
VERTEX
  5
10bb
  8
Layer_0
  10
191.29337
  20
269.37967
  0
VERTEX
  5
10bc
  8
Layer_0
  10
191.3649
  20
269.39999
  0
VERTEX
  5
10bd
  8
Layer_0
  10
191.43759
  20
269.41757
  0
VERTEX
  5
10be
  8
Layer_0
  10
191.51151
  20
269.4325
  0
VERTEX
  5
10bf
  8
Layer_0
  10
191.5867
  20
269.4447
  0
VERTEX
  5
10c0
  8
Layer_0
  10
191.66293
  20
269.45416
  0
VERTEX
  5
10c1
  8
Layer_0
  10
191.74045
  20
269.46094
  0
VERTEX
  5
10c2
  8
Layer_0
  10
191.81912
  20
269.465
  0
VERTEX
  5
10c3
  8
Layer_0
  10
191.89908
  20
269.46637
  0
VERTEX
  5
10c4
  8
Layer_0
  10
191.98782
  20
269.46487
  0
VERTEX
  5
10c5
  8
Layer_0
  10
192.07571
  20
269.46036
  0
VERTEX
  5
10c6
  8
Layer_0
  10
192.16287
  20
269.45288
  0
VERTEX
  5
10c7
  8
Layer_0
  10
192.2493
  20
269.44241
  0
VERTEX
  5
10c8
  8
Layer_0
  10
192.33475
  20
269.42892
  0
VERTEX
  5
10c9
  8
Layer_0
  10
192.41946
  20
269.41248
  0
VERTEX
  5
10ca
  8
Layer_0
  10
192.50345
  20
269.39301
  0
VERTEX
  5
10cb
  8
Layer_0
  10
192.58664
  20
269.37057
  0
VERTEX
  5
10cc
  8
Layer_0
  10
192.66898
  20
269.34512
  0
VERTEX
  5
10cd
  8
Layer_0
  10
192.75064
  20
269.31668
  0
VERTEX
  5
10ce
  8
Layer_0
  10
192.83133
  20
269.28525
  0
VERTEX
  5
10cf
  8
Layer_0
  10
192.91129
  20
269.25082
  0
VERTEX
  5
10d0
  8
Layer_0
  10
192.98978
  20
269.21365
  0
VERTEX
  5
10d1
  8
Layer_0
  10
193.103
  20
269.15344
  0
VERTEX
  5
10d2
  8
Layer_0
  10
193.21091
  20
269.08771
  0
VERTEX
  5
10d3
  8
Layer_0
  10
193.31363
  20
269.01657
  0
VERTEX
  5
10d4
  8
Layer_0
  10
193.4108
  20
268.93991
  0
VERTEX
  5
10d5
  8
Layer_0
  10
193.5029
  20
268.85782
  0
VERTEX
  5
10d6
  8
Layer_0
  10
193.58975
  20
268.77029
  0
VERTEX
  5
10d7
  8
Layer_0
  10
193.67117
  20
268.67728
  0
VERTEX
  5
10d8
  8
Layer_0
  10
193.74759
  20
268.57895
  0
VERTEX
  5
10d9
  8
Layer_0
  10
193.79623
  20
268.51053
  0
VERTEX
  5
10da
  8
Layer_0
  10
193.84293
  20
268.43991
  0
VERTEX
  5
10db
  8
Layer_0
  10
193.88791
  20
268.3671
  0
VERTEX
  5
10dc
  8
Layer_0
  10
193.93082
  20
268.29199
  0
VERTEX
  5
10dd
  8
Layer_0
  10
193.97202
  20
268.21466
  0
VERTEX
  5
10de
  8
Layer_0
  10
194.01138
  20
268.1351
  0
VERTEX
  5
10df
  8
Layer_0
  10
194.04886
  20
268.05328
  0
VERTEX
  5
10e0
  8
Layer_0
  10
194.08438
  20
267.96927
  0
VERTEX
  5
10e1
  8
Layer_0
  10
194.11819
  20
267.883
  0
VERTEX
  5
10e2
  8
Layer_0
  10
194.15005
  20
267.79446
  0
VERTEX
  5
10e3
  8
Layer_0
  10
194.18008
  20
267.70374
  0
VERTEX
  5
10e4
  8
Layer_0
  10
194.20798
  20
267.61136
  0
VERTEX
  5
10e5
  8
Layer_0
  10
194.23343
  20
267.51791
  0
VERTEX
  5
10e6
  8
Layer_0
  10
194.2565
  20
267.42337
  0
VERTEX
  5
10e7
  8
Layer_0
  10
194.27713
  20
267.32782
  0
VERTEX
  5
10e8
  8
Layer_0
  10
194.29532
  20
267.23117
  0
VERTEX
  5
10e9
  8
Layer_0
  10
194.31107
  20
267.13348
  0
VERTEX
  5
10ea
  8
Layer_0
  10
194.32437
  20
267.03473
  0
VERTEX
  5
10eb
  8
Layer_0
  10
194.3353
  20
266.93491
  0
VERTEX
  5
10ec
  8
Layer_0
  10
194.34378
  20
266.83401
  0
VERTEX
  5
10ed
  8
Layer_0
  10
194.34988
  20
266.73209
  0
VERTEX
  5
10ee
  8
Layer_0
  10
194.35342
  20
266.62909
  0
VERTEX
  5
10ef
  8
Layer_0
  10
194.35471
  20
266.52502
  0
VERTEX
  5
10f0
  8
Layer_0
  10
194.35355
  20
266.40207
  0
VERTEX
  5
10f1
  8
Layer_0
  10
194.34964
  20
266.28143
  0
VERTEX
  5
10f2
  8
Layer_0
  10
194.34317
  20
266.16315
  0
VERTEX
  5
10f3
  8
Layer_0
  10
194.33426
  20
266.04724
  0
VERTEX
  5
10f4
  8
Layer_0
  10
194.32278
  20
265.93369
  0
VERTEX
  5
10f5
  8
Layer_0
  10
194.30862
  20
265.82242
  0
VERTEX
  5
10f6
  8
Layer_0
  10
194.29202
  20
265.71356
  0
VERTEX
  5
10f7
  8
Layer_0
  10
194.27292
  20
265.60706
  0
VERTEX
  5
10f8
  8
Layer_0
  10
194.25113
  20
265.50284
  0
VERTEX
  5
10f9
  8
Layer_0
  10
194.22684
  20
265.40103
  0
VERTEX
  5
10fa
  8
Layer_0
  10
194.20004
  20
265.30157
  0
VERTEX
  5
10fb
  8
Layer_0
  10
194.17056
  20
265.20444
  0
VERTEX
  5
10fc
  8
Layer_0
  10
194.13858
  20
265.10965
  0
VERTEX
  5
10fd
  8
Layer_0
  10
194.10403
  20
265.01721
  0
VERTEX
  5
10fe
  8
Layer_0
  10
194.06693
  20
264.92715
  0
VERTEX
  5
10ff
  8
Layer_0
  10
194.02725
  20
264.83942
  0
VERTEX
  5
1100
  8
Layer_0
  10
193.98514
  20
264.75403
  0
VERTEX
  5
1101
  8
Layer_0
  10
193.94034
  20
264.67099
  0
VERTEX
  5
1102
  8
Layer_0
  10
193.89297
  20
264.59033
  0
VERTEX
  5
1103
  8
Layer_0
  10
193.84317
  20
264.51199
  0
VERTEX
  5
1104
  8
Layer_0
  10
193.79068
  20
264.436
  0
VERTEX
  5
1105
  8
Layer_0
  10
193.73563
  20
264.36237
  0
VERTEX
  5
1106
  8
Layer_0
  10
193.67813
  20
264.29111
  0
VERTEX
  5
1107
  8
Layer_0
  10
193.61801
  20
264.22217
  0
VERTEX
  5
1108
  8
Layer_0
  10
193.55618
  20
264.15585
  0
VERTEX
  5
1109
  8
Layer_0
  10
193.49319
  20
264.09229
  0
VERTEX
  5
110a
  8
Layer_0
  10
193.42923
  20
264.03159
  0
VERTEX
  5
110b
  8
Layer_0
  10
193.36429
  20
263.97372
  0
VERTEX
  5
110c
  8
Layer_0
  10
193.29837
  20
263.91867
  0
VERTEX
  5
110d
  8
Layer_0
  10
193.23123
  20
263.86642
  0
VERTEX
  5
110e
  8
Layer_0
  10
193.16324
  20
263.81702
  0
VERTEX
  5
110f
  8
Layer_0
  10
193.09415
  20
263.77048
  0
VERTEX
  5
1110
  8
Layer_0
  10
193.02408
  20
263.72668
  0
VERTEX
  5
1111
  8
Layer_0
  10
192.95291
  20
263.68576
  0
VERTEX
  5
1112
  8
Layer_0
  10
192.88089
  20
263.64767
  0
VERTEX
  5
1113
  8
Layer_0
  10
192.80765
  20
263.61234
  0
VERTEX
  5
1114
  8
Layer_0
  10
192.73343
  20
263.57986
  0
VERTEX
  5
1115
  8
Layer_0
  10
192.65823
  20
263.55023
  0
VERTEX
  5
1116
  8
Layer_0
  10
192.58206
  20
263.52341
  0
VERTEX
  5
1117
  8
Layer_0
  10
192.50479
  20
263.49942
  0
VERTEX
  5
1118
  8
Layer_0
  10
192.42654
  20
263.47824
  0
VERTEX
  5
1119
  8
Layer_0
  10
192.3472
  20
263.45987
  0
VERTEX
  5
111a
  8
Layer_0
  10
192.26688
  20
263.44437
  0
VERTEX
  5
111b
  8
Layer_0
  10
192.18558
  20
263.43164
  0
VERTEX
  5
111c
  8
Layer_0
  10
192.10318
  20
263.42178
  0
VERTEX
  5
111d
  8
Layer_0
  10
192.01981
  20
263.4147
  0
VERTEX
  5
111e
  8
Layer_0
  10
191.93539
  20
263.41046
  0
VERTEX
  5
111f
  8
Layer_0
  10
191.84995
  20
263.40906
  0
VERTEX
  5
1120
  8
Layer_0
  10
191.76529
  20
263.41058
  0
VERTEX
  5
1121
  8
Layer_0
  10
191.68204
  20
263.41501
  0
VERTEX
  5
1122
  8
Layer_0
  10
191.60037
  20
263.42245
  0
VERTEX
  5
1123
  8
Layer_0
  10
191.52029
  20
263.43286
  0
VERTEX
  5
1124
  8
Layer_0
  10
191.44168
  20
263.44626
  0
VERTEX
  5
1125
  8
Layer_0
  10
191.36465
  20
263.46262
  0
VERTEX
  5
1126
  8
Layer_0
  10
191.28909
  20
263.48196
  0
VERTEX
  5
1127
  8
Layer_0
  10
191.21518
  20
263.50427
  0
VERTEX
  5
1128
  8
Layer_0
  10
191.14261
  20
263.52954
  0
VERTEX
  5
1129
  8
Layer_0
  10
191.07181
  20
263.5578
  0
VERTEX
  5
112a
  8
Layer_0
  10
191.00247
  20
263.58905
  0
VERTEX
  5
112b
  8
Layer_0
  10
190.93448
  20
263.62326
  0
VERTEX
  5
112c
  8
Layer_0
  10
190.86819
  20
263.66043
  0
VERTEX
  5
112d
  8
Layer_0
  10
190.80344
  20
263.70059
  0
VERTEX
  5
112e
  8
Layer_0
  10
190.74014
  20
263.74374
  0
VERTEX
  5
112f
  8
Layer_0
  10
190.6785
  20
263.78983
  0
VERTEX
  5
1130
  8
Layer_0
  10
190.61832
  20
263.83893
  0
VERTEX
  5
1131
  8
Layer_0
  10
190.55972
  20
263.89099
  0
VERTEX
  5
1132
  8
Layer_0
  10
190.50259
  20
263.94601
  0
VERTEX
  5
1133
  8
Layer_0
  10
190.44705
  20
264.00403
  0
VERTEX
  5
1134
  8
Layer_0
  10
190.39297
  20
264.06503
  0
VERTEX
  5
1135
  8
Layer_0
  10
190.34048
  20
264.12897
  0
VERTEX
  5
1136
  8
Layer_0
  10
190.28958
  20
264.19589
  0
VERTEX
  5
1137
  8
Layer_0
  10
190.24014
  20
264.26581
  0
SEQEND
  0
POLYLINE
  5
1139
  8
Layer_0
  62
0
  70
1
  66
1
  10
0
  20
0
  30
0
  0
VERTEX
  5
1139
  8
Layer_0
  10
191.7681
  20
264.21671
  0
VERTEX
  5
113a
  8
Layer_0
  10
191.8215
  20
264.21768
  0
VERTEX
  5
113b
  8
Layer_0
  10
191.9263
  20
264.22543
  0
VERTEX
  5
113c
  8
Layer_0
  10
191.97781
  20
264.23224
  0
VERTEX
  5
113d
  8
Layer_0
  10
192.02884
  20
264.241
  0
VERTEX
  5
113e
  8
Layer_0
  10
192.12881
  20
264.26428
  0
VERTEX
  5
113f
  8
Layer_0
  10
192.17801
  20
264.27887
  0
VERTEX
  5
1140
  8
Layer_0
  10
192.22647
  20
264.29535
  0
VERTEX
  5
1141
  8
Layer_0
  10
192.27438
  20
264.31381
  0
VERTEX
  5
1142
  8
Layer_0
  10
192.32175
  20
264.33423
  0
VERTEX
  5
1143
  8
Layer_0
  10
192.36832
  20
264.35654
  0
VERTEX
  5
1144
  8
Layer_0
  10
192.45993
  20
264.40704
  0
VERTEX
  5
1145
  8
Layer_0
  10
192.54904
  20
264.4653
  0
VERTEX
  5
1146
  8
Layer_0
  10
192.63577
  20
264.53134
  0
VERTEX
  5
1147
  8
Layer_0
  10
192.72
  20
264.60513
  0
VERTEX
  5
1148
  8
Layer_0
  10
192.80191
  20
264.68671
  0
VERTEX
  5
1149
  8
Layer_0
  10
192.88132
  20
264.77603
  0
VERTEX
  5
114a
  8
Layer_0
  10
192.91971
  20
264.82364
  0
VERTEX
  5
114b
  8
Layer_0
  10
192.95633
  20
264.87308
  0
VERTEX
  5
114c
  8
Layer_0
  10
192.9913
  20
264.92447
  0
VERTEX
  5
114d
  8
Layer_0
  10
193.02469
  20
264.97772
  0
VERTEX
  5
114e
  8
Layer_0
  10
193.05655
  20
265.03293
  0
VERTEX
  5
114f
  8
Layer_0
  10
193.08658
  20
265.09
  0
VERTEX
  5
1150
  8
Layer_0
  10
193.11514
  20
265.14899
  0
VERTEX
  5
1151
  8
Layer_0
  10
193.14212
  20
265.2099
  0
VERTEX
  5
1152
  8
Layer_0
  10
193.16727
  20
265.27267
  0
VERTEX
  5
1153
  8
Layer_0
  10
193.19095
  20
265.33737
  0
VERTEX
  5
1154
  8
Layer_0
  10
193.21304
  20
265.40402
  0
VERTEX
  5
1155
  8
Layer_0
  10
193.25198
  20
265.54291
  0
VERTEX
  5
1156
  8
Layer_0
  10
193.28458
  20
265.68945
  0
VERTEX
  5
1157
  8
Layer_0
  10
193.3107
  20
265.84363
  0
VERTEX
  5
1158
  8
Layer_0
  10
193.33023
  20
266.0054
  0
VERTEX
  5
1159
  8
Layer_0
  10
193.34329
  20
266.1748
  0
VERTEX
  5
115a
  8
Layer_0
  10
193.34976
  20
266.35181
  0
VERTEX
  5
115b
  8
Layer_0
  10
193.34988
  20
266.53674
  0
VERTEX
  5
115c
  8
Layer_0
  10
193.34354
  20
266.71765
  0
VERTEX
  5
115d
  8
Layer_0
  10
193.33109
  20
266.89032
  0
VERTEX
  5
115e
  8
Layer_0
  10
193.31229
  20
267.05469
  0
VERTEX
  5
115f
  8
Layer_0
  10
193.28732
  20
267.21082
  0
VERTEX
  5
1160
  8
Layer_0
  10
193.25613
  20
267.35873
  0
VERTEX
  5
1161
  8
Layer_0
  10
193.21854
  20
267.49829
  0
VERTEX
  5
1162
  8
Layer_0
  10
193.19742
  20
267.565
  0
VERTEX
  5
1163
  8
Layer_0
  10
193.17471
  20
267.62964
  0
VERTEX
  5
1164
  8
Layer_0
  10
193.15054
  20
267.69223
  0
VERTEX
  5
1165
  8
Layer_0
  10
193.12479
  20
267.75275
  0
VERTEX
  5
1166
  8
Layer_0
  10
193.09744
  20
267.81119
  0
VERTEX
  5
1167
  8
Layer_0
  10
193.06851
  20
267.86755
  0
VERTEX
  5
1168
  8
Layer_0
  10
193.03799
  20
267.92188
  0
VERTEX
  5
1169
  8
Layer_0
  10
193.00595
  20
267.97412
  0
VERTEX
  5
116a
  8
Layer_0
  10
192.97232
  20
268.02432
  0
VERTEX
  5
116b
  8
Layer_0
  10
192.93716
  20
268.07242
  0
VERTEX
  5
116c
  8
Layer_0
  10
192.90042
  20
268.11847
  0
VERTEX
  5
116d
  8
Layer_0
  10
192.86264
  20
268.16257
  0
VERTEX
  5
116e
  8
Layer_0
  10
192.78494
  20
268.24509
  0
VERTEX
  5
116f
  8
Layer_0
  10
192.70474
  20
268.32016
  0
VERTEX
  5
1170
  8
Layer_0
  10
192.6218
  20
268.38766
  0
VERTEX
  5
1171
  8
Layer_0
  10
192.53629
  20
268.44769
  0
VERTEX
  5
1172
  8
Layer_0
  10
192.44827
  20
268.50024
  0
VERTEX
  5
1173
  8
Layer_0
  10
192.40311
  20
268.52365
  0
VERTEX
  5
1174
  8
Layer_0
  10
192.31107
  20
268.56494
  0
VERTEX
  5
1175
  8
Layer_0
  10
192.26407
  20
268.58273
  0
VERTEX
  5
1176
  8
Layer_0
  10
192.16812
  20
268.61276
  0
VERTEX
  5
1177
  8
Layer_0
  10
192.06961
  20
268.63528
  0
VERTEX
  5
1178
  8
Layer_0
  10
191.96841
  20
268.6503
  0
VERTEX
  5
1179
  8
Layer_0
  10
191.86465
  20
268.65778
  0
VERTEX
  5
117a
  8
Layer_0
  10
191.75845
  20
268.65778
  0
VERTEX
  5
117b
  8
Layer_0
  10
191.65347
  20
268.64999
  0
VERTEX
  5
117c
  8
Layer_0
  10
191.55106
  20
268.63446
  0
VERTEX
  5
117d
  8
Layer_0
  10
191.50064
  20
268.62375
  0
VERTEX
  5
117e
  8
Layer_0
  10
191.45096
  20
268.61115
  0
VERTEX
  5
117f
  8
Layer_0
  10
191.40189
  20
268.59659
  0
VERTEX
  5
1180
  8
Layer_0
  10
191.3533
  20
268.58008
  0
VERTEX
  5
1181
  8
Layer_0
  10
191.30545
  20
268.56161
  0
VERTEX
  5
1182
  8
Layer_0
  10
191.21146
  20
268.51889
  0
VERTEX
  5
1183
  8
Layer_0
  10
191.1199
  20
268.46838
  0
VERTEX
  5
1184
  8
Layer_0
  10
191.03079
  20
268.41013
  0
VERTEX
  5
1185
  8
Layer_0
  10
190.944
  20
268.34409
  0
VERTEX
  5
1186
  8
Layer_0
  10
190.85977
  20
268.27029
  0
VERTEX
  5
1187
  8
Layer_0
  10
190.77786
  20
268.18872
  0
VERTEX
  5
1188
  8
Layer_0
  10
190.69852
  20
268.09937
  0
VERTEX
  5
1189
  8
Layer_0
  10
190.66025
  20
268.05191
  0
VERTEX
  5
118a
  8
Layer_0
  10
190.62357
  20
268.00269
  0
VERTEX
  5
118b
  8
Layer_0
  10
190.58853
  20
267.95175
  0
VERTEX
  5
118c
  8
Layer_0
  10
190.55508
  20
267.89905
  0
VERTEX
  5
118d
  8
Layer_0
  10
190.52341
  20
267.84467
  0
VERTEX
  5
118e
  8
Layer_0
  10
190.49313
  20
267.78848
  0
VERTEX
  5
118f
  8
Layer_0
  10
190.46463
  20
267.73062
  0
VERTEX
  5
1190
  8
Layer_0
  10
190.43784
  20
267.67102
  0
VERTEX
  5
1191
  8
Layer_0
  10
190.41251
  20
267.60965
  0
VERTEX
  5
1192
  8
Layer_0
  10
190.38889
  20
267.54657
  0
VERTEX
  5
1193
  8
Layer_0
  10
190.34647
  20
267.41519
  0
VERTEX
  5
1194
  8
Layer_0
  10
190.3107
  20
267.27692
  0
VERTEX
  5
1195
  8
Layer_0
  10
190.28134
  20
267.13165
  0
VERTEX
  5
1196
  8
Layer_0
  10
190.25845
  20
266.97949
  0
VERTEX
  5
1197
  8
Layer_0
  10
190.24222
  20
266.8204
  0
VERTEX
  5
1198
  8
Layer_0
  10
190.23245
  20
266.65436
  0
VERTEX
  5
1199
  8
Layer_0
  10
190.22916
  20
266.48135
  0
VERTEX
  5
119a
  8
Layer_0
  10
190.23111
  20
266.31168
  0
VERTEX
  5
119b
  8
Layer_0
  10
190.23709
  20
266.14999
  0
VERTEX
  5
119c
  8
Layer_0
  10
190.24692
  20
265.99637
  0
VERTEX
  5
119d
  8
Layer_0
  10
190.26077
  20
265.8508
  0
VERTEX
  5
119e
  8
Layer_0
  10
190.27847
  20
265.71323
  0
VERTEX
  5
119f
  8
Layer_0
  10
190.30008
  20
265.58368
  0
VERTEX
  5
11a0
  8
Layer_0
  10
190.32571
  20
265.46219
  0
VERTEX
  5
11a1
  8
Layer_0
  10
190.35526
  20
265.34872
  0
VERTEX
  5
11a2
  8
Layer_0
  10
190.38882
  20
265.24332
  0
VERTEX
  5
11a3
  8
Layer_0
  10
190.4263
  20
265.1459
  0
VERTEX
  5
11a4
  8
Layer_0
  10
190.46762
  20
265.05655
  0
VERTEX
  5
11a5
  8
Layer_0
  10
190.51297
  20
264.97522
  0
VERTEX
  5
11a6
  8
Layer_0
  10
190.55228
  20
264.91336
  0
VERTEX
  5
11a7
  8
Layer_0
  10
190.59256
  20
264.8541
  0
VERTEX
  5
11a8
  8
Layer_0
  10
190.63406
  20
264.79745
  0
VERTEX
  5
11a9
  8
Layer_0
  10
190.67667
  20
264.74344
  0
VERTEX
  5
11aa
  8
Layer_0
  10
190.72049
  20
264.69211
  0
VERTEX
  5
11ab
  8
Layer_0
  10
190.76535
  20
264.64337
  0
VERTEX
  5
11ac
  8
Layer_0
  10
190.81137
  20
264.59729
  0
VERTEX
  5
11ad
  8
Layer_0
  10
190.85867
  20
264.55386
  0
VERTEX
  5
11ae
  8
Layer_0
  10
190.90689
  20
264.513
  0
VERTEX
  5
11af
  8
Layer_0
  10
190.95633
  20
264.47482
  0
VERTEX
  5
11b0
  8
Layer_0
  10
191.00705
  20
264.43927
  0
VERTEX
  5
11b1
  8
Layer_0
  10
191.05862
  20
264.40634
  0
VERTEX
  5
11b2
  8
Layer_0
  10
191.11148
  20
264.37604
  0
VERTEX
  5
11b3
  8
Layer_0
  10
191.16556
  20
264.34839
  0
VERTEX
  5
11b4
  8
Layer_0
  10
191.22067
  20
264.32336
  0
VERTEX
  5
11b5
  8
Layer_0
  10
191.27689
  20
264.30099
  0
VERTEX
  5
11b6
  8
Layer_0
  10
191.33438
  20
264.28122
  0
VERTEX
  5
11b7
  8
Layer_0
  10
191.39285
  20
264.26413
  0
VERTEX
  5
11b8
  8
Layer_0
  10
191.45255
  20
264.24963
  0
VERTEX
  5
11b9
  8
Layer_0
  10
191.51346
  20
264.23776
  0
VERTEX
  5
11ba
  8
Layer_0
  10
191.57535
  20
264.22855
  0
VERTEX
  5
11bb
  8
Layer_0
  10
191.63846
  20
264.22198
  0
VERTEX
  5
11bc
  8
Layer_0
  10
191.70267
  20
264.21802
  0
VERTEX
  5
11bd
  8
Layer_0
  10
191.7681
  20
264.21671
  0
SEQEND
  0
POLYLINE
  5
11bf
  8
Layer_0
  62
0
  70
1
  66
1
  10
0
  20
0
  30
0
  0
VERTEX
  5
11bf
  8
Layer_0
  10
165.09686
  20
312.59598
  0
VERTEX
  5
11c0
  8
Layer_0
  10
165.09686
  20
305.54004
  0
VERTEX
  5
11c1
  8
Layer_0
  10
166.15552
  20
305.54004
  0
VERTEX
  5
11c2
  8
Layer_0
  10
166.15552
  20
312.59598
  0
VERTEX
  5
11c3
  8
Layer_0
  10
168.80222
  20
312.59598
  0
VERTEX
  5
11c4
  8
Layer_0
  10
168.80222
  20
313.54004
  0
VERTEX
  5
11c5
  8
Layer_0
  10
162.46112
  20
313.54004
  0
VERTEX
  5
11c6
  8
Layer_0
  10
162.46112
  20
312.59598
  0
VERTEX
  5
11c7
  8
Layer_0
  10
165.09686
  20
312.59598
  0
SEQEND
  0
POLYLINE
  5
11c9
  8
Layer_0
  62
0
  70
1
  66
1
  10
0
  20
0
  30
0
  0
VERTEX
  5
11c9
  8
Layer_0
  10
173.53348
  20
308.18671
  0
VERTEX
  5
11ca
  8
Layer_0
  10
169.21152
  20
308.18671
  0
VERTEX
  5
11cb
  8
Layer_0
  10
169.2236
  20
308.03067
  0
VERTEX
  5
11cc
  8
Layer_0
  10
169.24167
  20
307.8808
  0
VERTEX
  5
11cd
  8
Layer_0
  10
169.26572
  20
307.73718
  0
VERTEX
  5
11ce
  8
Layer_0
  10
169.29587
  20
307.59979
  0
VERTEX
  5
11cf
  8
Layer_0
  10
169.33182
  20
307.46857
  0
VERTEX
  5
11d0
  8
Layer_0
  10
169.37387
  20
307.3436
  0
VERTEX
  5
11d1
  8
Layer_0
  10
169.42184
  20
307.22485
  0
VERTEX
  5
11d2
  8
Layer_0
  10
169.47586
  20
307.1123
  0
VERTEX
  5
11d3
  8
Layer_0
  10
169.5051
  20
307.05835
  0
VERTEX
  5
11d4
  8
Layer_0
  10
169.53586
  20
307.00595
  0
VERTEX
  5
11d5
  8
Layer_0
  10
169.56808
  20
306.95511
  0
VERTEX
  5
11d6
  8
Layer_0
  10
169.60184
  20
306.90582
  0
VERTEX
  5
11d7
  8
Layer_0
  10
169.63705
  20
306.85809
  0
VERTEX
  5
11d8
  8
Layer_0
  10
169.6738
  20
306.81192
  0
VERTEX
  5
11d9
  8
Layer_0
  10
169.71201
  20
306.7673
  0
VERTEX
  5
11da
  8
Layer_0
  10
169.75174
  20
306.72424
  0
VERTEX
  5
11db
  8
Layer_0
  10
169.83438
  20
306.64319
  0
VERTEX
  5
11dc
  8
Layer_0
  10
169.92032
  20
306.56915
  0
VERTEX
  5
11dd
  8
Layer_0
  10
170.00961
  20
306.5022
  0
VERTEX
  5
11de
  8
Layer_0
  10
170.10226
  20
306.44229
  0
VERTEX
  5
11df
  8
Layer_0
  10
170.19815
  20
306.3894
  0
VERTEX
  5
11e0
  8
Layer_0
  10
170.29739
  20
306.3436
  0
VERTEX
  5
11e1
  8
Layer_0
  10
170.40005
  20
306.30484
  0
VERTEX
  5
11e2
  8
Layer_0
  10
170.50601
  20
306.27313
  0
VERTEX
  5
11e3
  8
Layer_0
  10
170.61526
  20
306.24844
  0
VERTEX
  5
11e4
  8
Layer_0
  10
170.72794
  20
306.23083
  0
VERTEX
  5
11e5
  8
Layer_0
  10
170.84384
  20
306.22025
  0
VERTEX
  5
11e6
  8
Layer_0
  10
170.96317
  20
306.21674
  0
VERTEX
  5
11e7
  8
Layer_0
  10
171.05215
  20
306.21869
  0
VERTEX
  5
11e8
  8
Layer_0
  10
171.13889
  20
306.22461
  0
VERTEX
  5
11e9
  8
Layer_0
  10
171.22342
  20
306.23447
  0
VERTEX
  5
11ea
  8
Layer_0
  10
171.30582
  20
306.24826
  0
VERTEX
  5
11eb
  8
Layer_0
  10
171.38589
  20
306.26599
  0
VERTEX
  5
11ec
  8
Layer_0
  10
171.4639
  20
306.28766
  0
VERTEX
  5
11ed
  8
Layer_0
  10
171.53964
  20
306.31329
  0
VERTEX
  5
11ee
  8
Layer_0
  10
171.61319
  20
306.34283
  0
VERTEX
  5
11ef
  8
Layer_0
  10
171.68454
  20
306.37634
  0
VERTEX
  5
11f0
  8
Layer_0
  10
171.75369
  20
306.41379
  0
VERTEX
  5
11f1
  8
Layer_0
  10
171.82065
  20
306.45517
  0
VERTEX
  5
11f2
  8
Layer_0
  10
171.88541
  20
306.50049
  0
VERTEX
  5
11f3
  8
Layer_0
  10
171.94797
  20
306.55014
  0
VERTEX
  5
11f4
  8
Layer_0
  10
172.00833
  20
306.60449
  0
VERTEX
  5
11f5
  8
Layer_0
  10
172.0665
  20
306.66351
  0
VERTEX
  5
11f6
  8
Layer_0
  10
172.12259
  20
306.72729
  0
VERTEX
  5
11f7
  8
Layer_0
  10
172.1763
  20
306.79572
  0
VERTEX
  5
11f8
  8
Layer_0
  10
172.22787
  20
306.86884
  0
VERTEX
  5
11f9
  8
Layer_0
  10
172.27725
  20
306.94669
  0
VERTEX
  5
11fa
  8
Layer_0
  10
172.32443
  20
307.02921
  0
VERTEX
  5
11fb
  8
Layer_0
  10
172.36942
  20
307.11646
  0
VERTEX
  5
11fc
  8
Layer_0
  10
172.4122
  20
307.20837
  0
VERTEX
  5
11fd
  8
Layer_0
  10
172.45279
  20
307.30502
  0
VERTEX
  5
11fe
  8
Layer_0
  10
172.49118
  20
307.40637
  0
VERTEX
  5
11ff
  8
Layer_0
  10
173.5062
  20
307.28085
  0
VERTEX
  5
1200
  8
Layer_0
  10
173.48557
  20
307.20743
  0
VERTEX
  5
1201
  8
Layer_0
  10
173.43979
  20
307.0647
  0
VERTEX
  5
1202
  8
Layer_0
  10
173.38846
  20
306.92752
  0
VERTEX
  5
1203
  8
Layer_0
  10
173.33133
  20
306.79587
  0
VERTEX
  5
1204
  8
Layer_0
  10
173.26859
  20
306.66974
  0
VERTEX
  5
1205
  8
Layer_0
  10
173.20023
  20
306.54919
  0
VERTEX
  5
1206
  8
Layer_0
  10
173.16379
  20
306.49094
  0
VERTEX
  5
1207
  8
Layer_0
  10
173.08682
  20
306.37866
  0
VERTEX
  5
1208
  8
Layer_0
  10
173.04617
  20
306.32458
  0
VERTEX
  5
1209
  8
Layer_0
  10
172.96066
  20
306.22058
  0
VERTEX
  5
120a
  8
Layer_0
  10
172.86954
  20
306.12213
  0
VERTEX
  5
120b
  8
Layer_0
  10
172.82181
  20
306.07501
  0
VERTEX
  5
120c
  8
Layer_0
  10
172.72208
  20
305.98483
  0
VERTEX
  5
120d
  8
Layer_0
  10
172.61667
  20
305.90021
  0
VERTEX
  5
120e
  8
Layer_0
  10
172.56204
  20
305.86017
  0
VERTEX
  5
120f
  8
Layer_0
  10
172.50601
  20
305.82178
  0
VERTEX
  5
1210
  8
Layer_0
  10
172.4487
  20
305.7851
  0
VERTEX
  5
1211
  8
Layer_0
  10
172.39023
  20
305.75015
  0
VERTEX
  5
1212
  8
Layer_0
  10
172.3306
  20
305.71692
  0
VERTEX
  5
1213
  8
Layer_0
  10
172.2695
  20
305.68536
  0
VERTEX
  5
1214
  8
Layer_0
  10
172.20724
  20
305.65552
  0
VERTEX
  5
1215
  8
Layer_0
  10
172.14383
  20
305.62738
  0
VERTEX
  5
1216
  8
Layer_0
  10
172.07901
  20
305.60095
  0
VERTEX
  5
1217
  8
Layer_0
  10
172.01297
  20
305.5762
  0
VERTEX
  5
1218
  8
Layer_0
  10
171.87729
  20
305.53186
  0
VERTEX
  5
1219
  8
Layer_0
  10
171.73648
  20
305.49435
  0
VERTEX
  5
121a
  8
Layer_0
  10
171.59079
  20
305.46365
  0
VERTEX
  5
121b
  8
Layer_0
  10
171.43997
  20
305.43979
  0
VERTEX
  5
121c
  8
Layer_0
  10
171.28427
  20
305.42273
  0
VERTEX
  5
121d
  8
Layer_0
  10
171.1235
  20
305.41251
  0
VERTEX
  5
121e
  8
Layer_0
  10
170.95773
  20
305.40909
  0
VERTEX
  5
121f
  8
Layer_0
  10
170.85281
  20
305.41046
  0
VERTEX
  5
1220
  8
Layer_0
  10
170.74948
  20
305.41452
  0
VERTEX
  5
1221
  8
Layer_0
  10
170.6481
  20
305.42133
  0
VERTEX
  5
1222
  8
Layer_0
  10
170.54855
  20
305.43085
  0
VERTEX
  5
1223
  8
Layer_0
  10
170.4509
  20
305.44308
  0
VERTEX
  5
1224
  8
Layer_0
  10
170.35489
  20
305.45804
  0
VERTEX
  5
1225
  8
Layer_0
  10
170.26083
  20
305.47571
  0
VERTEX
  5
1226
  8
Layer_0
  10
170.16867
  20
305.49612
  0
VERTEX
  5
1227
  8
Layer_0
  10
170.07816
  20
305.51923
  0
VERTEX
  5
1228
  8
Layer_0
  10
169.98959
  20
305.54504
  0
VERTEX
  5
1229
  8
Layer_0
  10
169.90292
  20
305.57361
  0
VERTEX
  5
122a
  8
Layer_0
  10
169.8179
  20
305.60486
  0
VERTEX
  5
122b
  8
Layer_0
  10
169.73483
  20
305.63885
  0
VERTEX
  5
122c
  8
Layer_0
  10
169.65353
  20
305.67554
  0
VERTEX
  5
122d
  8
Layer_0
  10
169.57413
  20
305.71497
  0
VERTEX
  5
122e
  8
Layer_0
  10
169.49649
  20
305.75714
  0
VERTEX
  5
122f
  8
Layer_0
  10
169.42068
  20
305.802
  0
VERTEX
  5
1230
  8
Layer_0
  10
169.34671
  20
305.84958
  0
VERTEX
  5
1231
  8
Layer_0
  10
169.27457
  20
305.89987
  0
VERTEX
  5
1232
  8
Layer_0
  10
169.20432
  20
305.95288
  0
VERTEX
  5
1233
  8
Layer_0
  10
169.13577
  20
306.00864
  0
VERTEX
  5
1234
  8
Layer_0
  10
169.06918
  20
306.06708
  0
VERTEX
  5
1235
  8
Layer_0
  10
169.00436
  20
306.12827
  0
VERTEX
  5
1236
  8
Layer_0
  10
168.94138
  20
306.19217
  0
VERTEX
  5
1237
  8
Layer_0
  10
168.88065
  20
306.25854
  0
VERTEX
  5
1238
  8
Layer_0
  10
168.82242
  20
306.32709
  0
VERTEX
  5
1239
  8
Layer_0
  10
168.76675
  20
306.3978
  0
VERTEX
  5
123a
  8
Layer_0
  10
168.71378
  20
306.4707
  0
VERTEX
  5
123b
  8
Layer_0
  10
168.66342
  20
306.54584
  0
VERTEX
  5
123c
  8
Layer_0
  10
168.61551
  20
306.62311
  0
VERTEX
  5
123d
  8
Layer_0
  10
168.57022
  20
306.70258
  0
VERTEX
  5
123e
  8
Layer_0
  10
168.52762
  20
306.78427
  0
VERTEX
  5
123f
  8
Layer_0
  10
168.48746
  20
306.8681
  0
VERTEX
  5
1240
  8
Layer_0
  10
168.44998
  20
306.95416
  0
VERTEX
  5
1241
  8
Layer_0
  10
168.41513
  20
307.04242
  0
VERTEX
  5
1242
  8
Layer_0
  10
168.38272
  20
307.13281
  0
VERTEX
  5
1243
  8
Layer_0
  10
168.35294
  20
307.22543
  0
VERTEX
  5
1244
  8
Layer_0
  10
168.32584
  20
307.32025
  0
VERTEX
  5
1245
  8
Layer_0
  10
168.3013
  20
307.41724
  0
VERTEX
  5
1246
  8
Layer_0
  10
168.27927
  20
307.51642
  0
VERTEX
  5
1247
  8
Layer_0
  10
168.25992
  20
307.61777
  0
VERTEX
  5
1248
  8
Layer_0
  10
168.24307
  20
307.72131
  0
VERTEX
  5
1249
  8
Layer_0
  10
168.22879
  20
307.82709
  0
VERTEX
  5
124a
  8
Layer_0
  10
168.21719
  20
307.935
  0
VERTEX
  5
124b
  8
Layer_0
  10
168.20816
  20
308.0451
  0
VERTEX
  5
124c
  8
Layer_0
  10
168.20169
  20
308.15744
  0
VERTEX
  5
124d
  8
Layer_0
  10
168.19778
  20
308.27191
  0
VERTEX
  5
124e
  8
Layer_0
  10
168.1965
  20
308.38861
  0
VERTEX
  5
124f
  8
Layer_0
  10
168.19791
  20
308.50937
  0
VERTEX
  5
1250
  8
Layer_0
  10
168.20175
  20
308.62781
  0
VERTEX
  5
1251
  8
Layer_0
  10
168.20828
  20
308.74402
  0
VERTEX
  5
1252
  8
Layer_0
  10
168.21744
  20
308.85791
  0
VERTEX
  5
1253
  8
Layer_0
  10
168.22928
  20
308.96957
  0
VERTEX
  5
1254
  8
Layer_0
  10
168.24356
  20
309.07892
  0
VERTEX
  5
1255
  8
Layer_0
  10
168.26059
  20
309.18604
  0
VERTEX
  5
1256
  8
Layer_0
  10
168.28024
  20
309.29086
  0
VERTEX
  5
1257
  8
Layer_0
  10
168.3024
  20
309.3934
  0
VERTEX
  5
1258
  8
Layer_0
  10
168.32724
  20
309.49365
  0
VERTEX
  5
1259
  8
Layer_0
  10
168.35477
  20
309.59167
  0
VERTEX
  5
125a
  8
Layer_0
  10
168.38474
  20
309.68738
  0
VERTEX
  5
125b
  8
Layer_0
  10
168.41745
  20
309.78085
  0
VERTEX
  5
125c
  8
Layer_0
  10
168.45279
  20
309.87201
  0
VERTEX
  5
125d
  8
Layer_0
  10
168.49063
  20
309.96094
  0
VERTEX
  5
125e
  8
Layer_0
  10
168.53116
  20
310.04755
  0
VERTEX
  5
125f
  8
Layer_0
  10
168.57431
  20
310.1319
  0
VERTEX
  5
1260
  8
Layer_0
  10
168.62009
  20
310.21399
  0
VERTEX
  5
1261
  8
Layer_0
  10
168.66849
  20
310.29382
  0
VERTEX
  5
1262
  8
Layer_0
  10
168.71951
  20
310.37134
  0
VERTEX
  5
1263
  8
Layer_0
  10
168.77304
  20
310.44659
  0
VERTEX
  5
1264
  8
Layer_0
  10
168.82925
  20
310.51959
  0
VERTEX
  5
1265
  8
Layer_0
  10
168.88809
  20
310.5903
  0
VERTEX
  5
1266
  8
Layer_0
  10
168.94955
  20
310.65875
  0
VERTEX
  5
1267
  8
Layer_0
  10
169.01315
  20
310.72467
  0
VERTEX
  5
1268
  8
Layer_0
  10
169.07816
  20
310.78775
  0
VERTEX
  5
1269
  8
Layer_0
  10
169.14481
  20
310.84802
  0
VERTEX
  5
126a
  8
Layer_0
  10
169.21304
  20
310.90552
  0
VERTEX
  5
126b
  8
Layer_0
  10
169.28287
  20
310.96024
  0
VERTEX
  5
126c
  8
Layer_0
  10
169.35403
  20
311.01208
  0
VERTEX
  5
126d
  8
Layer_0
  10
169.42691
  20
311.06116
  0
VERTEX
  5
126e
  8
Layer_0
  10
169.50137
  20
311.10745
  0
VERTEX
  5
126f
  8
Layer_0
  10
169.5773
  20
311.15091
  0
VERTEX
  5
1270
  8
Layer_0
  10
169.65482
  20
311.19156
  0
VERTEX
  5
1271
  8
Layer_0
  10
169.73398
  20
311.22943
  0
VERTEX
  5
1272
  8
Layer_0
  10
169.81448
  20
311.26447
  0
VERTEX
  5
1273
  8
Layer_0
  10
169.89664
  20
311.29672
  0
VERTEX
  5
1274
  8
Layer_0
  10
169.98038
  20
311.32617
  0
VERTEX
  5
1275
  8
Layer_0
  10
170.0657
  20
311.35281
  0
VERTEX
  5
1276
  8
Layer_0
  10
170.1525
  20
311.37665
  0
VERTEX
  5
1277
  8
Layer_0
  10
170.24094
  20
311.39767
  0
VERTEX
  5
1278
  8
Layer_0
  10
170.33084
  20
311.41589
  0
VERTEX
  5
1279
  8
Layer_0
  10
170.42239
  20
311.43134
  0
VERTEX
  5
127a
  8
Layer_0
  10
170.51541
  20
311.44397
  0
VERTEX
  5
127b
  8
Layer_0
  10
170.61002
  20
311.45377
  0
VERTEX
  5
127c
  8
Layer_0
  10
170.70621
  20
311.46075
  0
VERTEX
  5
127d
  8
Layer_0
  10
170.80392
  20
311.46497
  0
VERTEX
  5
127e
  8
Layer_0
  10
170.90317
  20
311.46637
  0
VERTEX
  5
127f
  8
Layer_0
  10
170.99936
  20
311.46503
  0
VERTEX
  5
1280
  8
Layer_0
  10
171.0939
  20
311.46088
  0
VERTEX
  5
1281
  8
Layer_0
  10
171.1871
  20
311.45404
  0
VERTEX
  5
1282
  8
Layer_0
  10
171.27878
  20
311.4444
  0
VERTEX
  5
1283
  8
Layer_0
  10
171.36911
  20
311.43207
  0
VERTEX
  5
1284
  8
Layer_0
  10
171.45773
  20
311.41693
  0
VERTEX
  5
1285
  8
Layer_0
  10
171.54501
  20
311.39908
  0
VERTEX
  5
1286
  8
Layer_0
  10
171.63089
  20
311.37848
  0
VERTEX
  5
1287
  8
Layer_0
  10
171.71506
  20
311.3551
  0
VERTEX
  5
1288
  8
Layer_0
  10
171.79788
  20
311.32901
  0
VERTEX
  5
1289
  8
Layer_0
  10
171.8793
  20
311.3002
  0
VERTEX
  5
128a
  8
Layer_0
  10
171.95914
  20
311.26855
  0
VERTEX
  5
128b
  8
Layer_0
  10
172.03751
  20
311.23422
  0
VERTEX
  5
128c
  8
Layer_0
  10
172.11441
  20
311.19714
  0
VERTEX
  5
128d
  8
Layer_0
  10
172.18985
  20
311.15729
  0
VERTEX
  5
128e
  8
Layer_0
  10
172.26376
  20
311.11472
  0
VERTEX
  5
128f
  8
Layer_0
  10
172.33627
  20
311.0694
  0
VERTEX
  5
1290
  8
Layer_0
  10
172.40726
  20
311.0213
  0
VERTEX
  5
1291
  8
Layer_0
  10
172.47678
  20
310.97046
  0
VERTEX
  5
1292
  8
Layer_0
  10
172.54483
  20
310.9169
  0
VERTEX
  5
1293
  8
Layer_0
  10
172.61136
  20
310.86057
  0
VERTEX
  5
1294
  8
Layer_0
  10
172.67648
  20
310.80151
  0
VERTEX
  5
1295
  8
Layer_0
  10
172.74008
  20
310.73969
  0
VERTEX
  5
1296
  8
Layer_0
  10
172.80222
  20
310.67511
  0
VERTEX
  5
1297
  8
Layer_0
  10
172.8624
  20
310.60809
  0
VERTEX
  5
1298
  8
Layer_0
  10
172.91989
  20
310.53876
  0
VERTEX
  5
1299
  8
Layer_0
  10
172.97488
  20
310.46722
  0
VERTEX
  5
129a
  8
Layer_0
  10
173.02731
  20
310.39346
  0
VERTEX
  5
129b
  8
Layer_0
  10
173.07724
  20
310.3175
  0
VERTEX
  5
129c
  8
Layer_0
  10
173.12454
  20
310.23923
  0
VERTEX
  5
129d
  8
Layer_0
  10
173.16928
  20
310.15875
  0
VERTEX
  5
129e
  8
Layer_0
  10
173.21158
  20
310.07608
  0
VERTEX
  5
129f
  8
Layer_0
  10
173.25113
  20
309.99112
  0
VERTEX
  5
12a0
  8
Layer_0
  10
173.28824
  20
309.90393
  0
VERTEX
  5
12a1
  8
Layer_0
  10
173.32285
  20
309.81451
  0
VERTEX
  5
12a2
  8
Layer_0
  10
173.35471
  20
309.72287
  0
VERTEX
  5
12a3
  8
Layer_0
  10
173.38412
  20
309.62897
  0
VERTEX
  5
12a4
  8
Layer_0
  10
173.41104
  20
309.53284
  0
VERTEX
  5
12a5
  8
Layer_0
  10
173.43533
  20
309.43451
  0
VERTEX
  5
12a6
  8
Layer_0
  10
173.45706
  20
309.33389
  0
VERTEX
  5
12a7
  8
Layer_0
  10
173.47623
  20
309.23108
  0
VERTEX
  5
12a8
  8
Layer_0
  10
173.49289
  20
309.12601
  0
VERTEX
  5
12a9
  8
Layer_0
  10
173.50693
  20
309.01868
  0
VERTEX
  5
12aa
  8
Layer_0
  10
173.51846
  20
308.90918
  0
VERTEX
  5
12ab
  8
Layer_0
  10
173.52737
  20
308.79736
  0
VERTEX
  5
12ac
  8
Layer_0
  10
173.53378
  20
308.68338
  0
VERTEX
  5
12ad
  8
Layer_0
  10
173.53763
  20
308.56714
  0
VERTEX
  5
12ae
  8
Layer_0
  10
173.53891
  20
308.44864
  0
VERTEX
  5
12af
  8
Layer_0
  10
173.53348
  20
308.18671
  0
SEQEND
  0
POLYLINE
  5
12b1
  8
Layer_0
  62
0
  70
1
  66
1
  10
0
  20
0
  30
0
  0
VERTEX
  5
12b1
  8
Layer_0
  10
169.26608
  20
308.99435
  0
VERTEX
  5
12b2
  8
Layer_0
  10
172.50211
  20
308.99435
  0
VERTEX
  5
12b3
  8
Layer_0
  10
172.48953
  20
309.11371
  0
VERTEX
  5
12b4
  8
Layer_0
  10
172.4736
  20
309.22794
  0
VERTEX
  5
12b5
  8
Layer_0
  10
172.45438
  20
309.33713
  0
VERTEX
  5
12b6
  8
Layer_0
  10
172.43185
  20
309.44122
  0
VERTEX
  5
12b7
  8
Layer_0
  10
172.40585
  20
309.54025
  0
VERTEX
  5
12b8
  8
Layer_0
  10
172.37662
  20
309.63419
  0
VERTEX
  5
12b9
  8
Layer_0
  10
172.34402
  20
309.72305
  0
VERTEX
  5
12ba
  8
Layer_0
  10
172.30807
  20
309.80682
  0
VERTEX
  5
12bb
  8
Layer_0
  10
172.26883
  20
309.88556
  0
VERTEX
  5
12bc
  8
Layer_0
  10
172.22623
  20
309.95917
  0
VERTEX
  5
12bd
  8
Layer_0
  10
172.18027
  20
310.02774
  0
VERTEX
  5
12be
  8
Layer_0
  10
172.13101
  20
310.09122
  0
VERTEX
  5
12bf
  8
Layer_0
  10
172.09152
  20
310.13754
  0
VERTEX
  5
12c0
  8
Layer_0
  10
172.00931
  20
310.22424
  0
VERTEX
  5
12c1
  8
Layer_0
  10
171.96689
  20
310.26462
  0
VERTEX
  5
12c2
  8
Layer_0
  10
171.92349
  20
310.30307
  0
VERTEX
  5
12c3
  8
Layer_0
  10
171.87894
  20
310.33951
  0
VERTEX
  5
12c4
  8
Layer_0
  10
171.83359
  20
310.37399
  0
VERTEX
  5
12c5
  8
Layer_0
  10
171.78732
  20
310.40652
  0
VERTEX
  5
12c6
  8
Layer_0
  10
171.7399
  20
310.43707
  0
VERTEX
  5
12c7
  8
Layer_0
  10
171.69162
  20
310.46564
  0
VERTEX
  5
12c8
  8
Layer_0
  10
171.64249
  20
310.49225
  0
VERTEX
  5
12c9
  8
Layer_0
  10
171.59213
  20
310.51685
  0
VERTEX
  5
12ca
  8
Layer_0
  10
171.54092
  20
310.53952
  0
VERTEX
  5
12cb
  8
Layer_0
  10
171.4888
  20
310.56021
  0
VERTEX
  5
12cc
  8
Layer_0
  10
171.4357
  20
310.57895
  0
VERTEX
  5
12cd
  8
Layer_0
  10
171.38162
  20
310.5957
  0
VERTEX
  5
12ce
  8
Layer_0
  10
171.32657
  20
310.61047
  0
VERTEX
  5
12cf
  8
Layer_0
  10
171.27054
  20
310.62329
  0
VERTEX
  5
12d0
  8
Layer_0
  10
171.21353
  20
310.63409
  0
VERTEX
  5
12d1
  8
Layer_0
  10
171.15561
  20
310.64301
  0
VERTEX
  5
12d2
  8
Layer_0
  10
171.09665
  20
310.64987
  0
VERTEX
  5
12d3
  8
Layer_0
  10
171.03677
  20
310.65482
  0
VERTEX
  5
12d4
  8
Layer_0
  10
170.97592
  20
310.65778
  0
VERTEX
  5
12d5
  8
Layer_0
  10
170.91409
  20
310.65875
  0
VERTEX
  5
12d6
  8
Layer_0
  10
170.80283
  20
310.65561
  0
VERTEX
  5
12d7
  8
Layer_0
  10
170.69449
  20
310.64618
  0
VERTEX
  5
12d8
  8
Layer_0
  10
170.5892
  20
310.63043
  0
VERTEX
  5
12d9
  8
Layer_0
  10
170.48697
  20
310.60843
  0
VERTEX
  5
12da
  8
Layer_0
  10
170.3876
  20
310.58011
  0
VERTEX
  5
12db
  8
Layer_0
  10
170.29129
  20
310.54553
  0
VERTEX
  5
12dc
  8
Layer_0
  10
170.19797
  20
310.50464
  0
VERTEX
  5
12dd
  8
Layer_0
  10
170.10764
  20
310.45743
  0
VERTEX
  5
12de
  8
Layer_0
  10
170.02029
  20
310.40399
  0
VERTEX
  5
12df
  8
Layer_0
  10
169.93594
  20
310.34421
  0
VERTEX
  5
12e0
  8
Layer_0
  10
169.85464
  20
310.27814
  0
VERTEX
  5
12e1
  8
Layer_0
  10
169.77628
  20
310.20581
  0
VERTEX
  5
12e2
  8
Layer_0
  10
169.7023
  20
310.1282
  0
VERTEX
  5
12e3
  8
Layer_0
  10
169.634
  20
310.04633
  0
VERTEX
  5
12e4
  8
Layer_0
  10
169.57144
  20
309.96027
  0
VERTEX
  5
12e5
  8
Layer_0
  10
169.51474
  20
309.86993
  0
VERTEX
  5
12e6
  8
Layer_0
  10
169.46353
  20
309.77533
  0
VERTEX
  5
12e7
  8
Layer_0
  10
169.41818
  20
309.67648
  0
VERTEX
  5
12e8
  8
Layer_0
  10
169.37851
  20
309.57339
  0
VERTEX
  5
12e9
  8
Layer_0
  10
169.34457
  20
309.46606
  0
VERTEX
  5
12ea
  8
Layer_0
  10
169.31638
  20
309.35452
  0
VERTEX
  5
12eb
  8
Layer_0
  10
169.29391
  20
309.23871
  0
VERTEX
  5
12ec
  8
Layer_0
  10
169.27713
  20
309.11865
  0
VERTEX
  5
12ed
  8
Layer_0
  10
169.26608
  20
308.99435
  0
SEQEND
  0
POLYLINE
  5
12ef
  8
Layer_0
  62
0
  70
1
  66
1
  10
0
  20
0
  30
0
  0
VERTEX
  5
12ef
  8
Layer_0
  10
183.86221
  20
308.54004
  0
VERTEX
  5
12f0
  8
Layer_0
  10
183.86221
  20
311.79245
  0
VERTEX
  5
12f1
  8
Layer_0
  10
185.91409
  20
311.79245
  0
VERTEX
  5
12f2
  8
Layer_0
  10
186.05362
  20
311.79367
  0
VERTEX
  5
12f3
  8
Layer_0
  10
186.18961
  20
311.79736
  0
VERTEX
  5
12f4
  8
Layer_0
  10
186.32193
  20
311.8035
  0
VERTEX
  5
12f5
  8
Layer_0
  10
186.45071
  20
311.81207
  0
VERTEX
  5
12f6
  8
Layer_0
  10
186.57571
  20
311.82312
  0
VERTEX
  5
12f7
  8
Layer_0
  10
186.69717
  20
311.83661
  0
VERTEX
  5
12f8
  8
Layer_0
  10
186.81491
  20
311.85257
  0
VERTEX
  5
12f9
  8
Layer_0
  10
186.92911
  20
311.87097
  0
VERTEX
  5
12fa
  8
Layer_0
  10
187.03958
  20
311.89182
  0
VERTEX
  5
12fb
  8
Layer_0
  10
187.14639
  20
311.91513
  0
VERTEX
  5
12fc
  8
Layer_0
  10
187.24966
  20
311.94089
  0
VERTEX
  5
12fd
  8
Layer_0
  10
187.34927
  20
311.96912
  0
VERTEX
  5
12fe
  8
Layer_0
  10
187.44528
  20
311.99982
  0
VERTEX
  5
12ff
  8
Layer_0
  10
187.53751
  20
312.0329
  0
VERTEX
  5
1300
  8
Layer_0
  10
187.62613
  20
312.06848
  0
VERTEX
  5
1301
  8
Layer_0
  10
187.71127
  20
312.10654
  0
VERTEX
  5
1302
  8
Layer_0
  10
187.79263
  20
312.147
  0
VERTEX
  5
1303
  8
Layer_0
  10
187.87039
  20
312.18994
  0
VERTEX
  5
1304
  8
Layer_0
  10
187.94461
  20
312.23535
  0
VERTEX
  5
1305
  8
Layer_0
  10
188.01492
  20
312.2832
  0
VERTEX
  5
1306
  8
Layer_0
  10
188.08182
  20
312.3335
  0
VERTEX
  5
1307
  8
Layer_0
  10
188.14505
  20
312.38626
  0
VERTEX
  5
1308
  8
Layer_0
  10
188.20468
  20
312.44147
  0
VERTEX
  5
1309
  8
Layer_0
  10
188.26053
  20
312.49911
  0
VERTEX
  5
130a
  8
Layer_0
  10
188.31351
  20
312.55856
  0
VERTEX
  5
130b
  8
Layer_0
  10
188.36429
  20
312.61908
  0
VERTEX
  5
130c
  8
Layer_0
  10
188.41275
  20
312.68069
  0
VERTEX
  5
130d
  8
Layer_0
  10
188.45901
  20
312.74341
  0
VERTEX
  5
130e
  8
Layer_0
  10
188.50302
  20
312.80719
  0
VERTEX
  5
130f
  8
Layer_0
  10
188.54471
  20
312.87207
  0
VERTEX
  5
1310
  8
Layer_0
  10
188.58414
  20
312.93805
  0
VERTEX
  5
1311
  8
Layer_0
  10
188.62137
  20
313.00513
  0
VERTEX
  5
1312
  8
Layer_0
  10
188.65628
  20
313.07327
  0
VERTEX
  5
1313
  8
Layer_0
  10
188.689
  20
313.14252
  0
VERTEX
  5
1314
  8
Layer_0
  10
188.71945
  20
313.21283
  0
VERTEX
  5
1315
  8
Layer_0
  10
188.74765
  20
313.28424
  0
VERTEX
  5
1316
  8
Layer_0
  10
188.77365
  20
313.35678
  0
VERTEX
  5
1317
  8
Layer_0
  10
188.79727
  20
313.43036
  0
VERTEX
  5
1318
  8
Layer_0
  10
188.81863
  20
313.50507
  0
VERTEX
  5
1319
  8
Layer_0
  10
188.83792
  20
313.58084
  0
VERTEX
  5
131a
  8
Layer_0
  10
188.85477
  20
313.65771
  0
VERTEX
  5
131b
  8
Layer_0
  10
188.86942
  20
313.73566
  0
VERTEX
  5
131c
  8
Layer_0
  10
188.88193
  20
313.8147
  0
VERTEX
  5
131d
  8
Layer_0
  10
188.89194
  20
313.89484
  0
VERTEX
  5
131e
  8
Layer_0
  10
188.89987
  20
313.97607
  0
VERTEX
  5
131f
  8
Layer_0
  10
188.90549
  20
314.05838
  0
VERTEX
  5
1320
  8
Layer_0
  10
188.90897
  20
314.14178
  0
VERTEX
  5
1321
  8
Layer_0
  10
188.91
  20
314.22626
  0
VERTEX
  5
1322
  8
Layer_0
  10
188.90829
  20
314.32471
  0
VERTEX
  5
1323
  8
Layer_0
  10
188.90323
  20
314.42181
  0
VERTEX
  5
1324
  8
Layer_0
  10
188.89481
  20
314.51755
  0
VERTEX
  5
1325
  8
Layer_0
  10
188.88303
  20
314.61191
  0
VERTEX
  5
1326
  8
Layer_0
  10
188.86783
  20
314.7049
  0
VERTEX
  5
1327
  8
Layer_0
  10
188.84927
  20
314.79654
  0
VERTEX
  5
1328
  8
Layer_0
  10
188.82736
  20
314.88681
  0
VERTEX
  5
1329
  8
Layer_0
  10
188.80215
  20
314.97571
  0
VERTEX
  5
132a
  8
Layer_0
  10
188.77341
  20
315.06323
  0
VERTEX
  5
132b
  8
Layer_0
  10
188.7413
  20
315.14941
  0
VERTEX
  5
132c
  8
Layer_0
  10
188.70596
  20
315.23425
  0
VERTEX
  5
132d
  8
Layer_0
  10
188.66714
  20
315.31769
  0
VERTEX
  5
132e
  8
Layer_0
  10
188.62558
  20
315.39893
  0
VERTEX
  5
132f
  8
Layer_0
  10
188.58194
  20
315.47708
  0
VERTEX
  5
1330
  8
Layer_0
  10
188.53598
  20
315.55215
  0
VERTEX
  5
1331
  8
Layer_0
  10
188.48795
  20
315.62418
  0
VERTEX
  5
1332
  8
Layer_0
  10
188.43777
  20
315.69315
  0
VERTEX
  5
1333
  8
Layer_0
  10
188.38541
  20
315.75903
  0
VERTEX
  5
1334
  8
Layer_0
  10
188.33084
  20
315.82184
  0
VERTEX
  5
1335
  8
Layer_0
  10
188.27426
  20
315.88159
  0
VERTEX
  5
1336
  8
Layer_0
  10
188.21536
  20
315.93823
  0
VERTEX
  5
1337
  8
Layer_0
  10
188.15439
  20
315.99185
  0
VERTEX
  5
1338
  8
Layer_0
  10
188.09122
  20
316.04239
  0
VERTEX
  5
1339
  8
Layer_0
  10
188.02591
  20
316.08984
  0
VERTEX
  5
133a
  8
Layer_0
  10
187.95816
  20
316.13455
  0
VERTEX
  5
133b
  8
Layer_0
  10
187.88785
  20
316.17679
  0
VERTEX
  5
133c
  8
Layer_0
  10
187.81485
  20
316.21655
  0
VERTEX
  5
133d
  8
Layer_0
  10
187.73917
  20
316.25385
  0
VERTEX
  5
133e
  8
Layer_0
  10
187.6608
  20
316.2887
  0
VERTEX
  5
133f
  8
Layer_0
  10
187.5798
  20
316.32111
  0
VERTEX
  5
1340
  8
Layer_0
  10
187.49612
  20
316.35101
  0
VERTEX
  5
1341
  8
Layer_0
  10
187.40994
  20
316.37848
  0
VERTEX
  5
1342
  8
Layer_0
  10
187.32095
  20
316.40344
  0
VERTEX
  5
1343
  8
Layer_0
  10
187.22934
  20
316.42596
  0
VERTEX
  5
1344
  8
Layer_0
  10
187.13516
  20
316.44604
  0
VERTEX
  5
1345
  8
Layer_0
  10
186.96555
  20
316.47586
  0
VERTEX
  5
1346
  8
Layer_0
  10
186.8046
  20
316.49707
  0
VERTEX
  5
1347
  8
Layer_0
  10
186.62265
  20
316.51404
  0
VERTEX
  5
1348
  8
Layer_0
  10
186.41983
  20
316.52679
  0
VERTEX
  5
1349
  8
Layer_0
  10
186.19608
  20
316.53528
  0
VERTEX
  5
134a
  8
Layer_0
  10
185.95145
  20
316.53952
  0
VERTEX
  5
134b
  8
Layer_0
  10
182.80356
  20
316.54004
  0
VERTEX
  5
134c
  8
Layer_0
  10
182.80356
  20
308.54004
  0
VERTEX
  5
134d
  8
Layer_0
  10
183.86221
  20
308.54004
  0
SEQEND
  0
POLYLINE
  5
134f
  8
Layer_0
  62
0
  70
1
  66
1
  10
0
  20
0
  30
0
  0
VERTEX
  5
134f
  8
Layer_0
  10
183.86221
  20
315.59598
  0
VERTEX
  5
1350
  8
Layer_0
  10
185.9086
  20
315.59598
  0
VERTEX
  5
1351
  8
Layer_0
  10
186.33853
  20
315.5881
  0
VERTEX
  5
1352
  8
Layer_0
  10
186.73434
  20
315.55609
  0
VERTEX
  5
1353
  8
Layer_0
  10
186.84866
  20
315.53638
  0
VERTEX
  5
1354
  8
Layer_0
  10
186.93057
  20
315.51508
  0
VERTEX
  5
1355
  8
Layer_0
  10
187.03018
  20
315.4801
  0
VERTEX
  5
1356
  8
Layer_0
  10
187.12454
  20
315.43756
  0
VERTEX
  5
1357
  8
Layer_0
  10
187.21402
  20
315.38739
  0
VERTEX
  5
1358
  8
Layer_0
  10
187.29849
  20
315.32968
  0
VERTEX
  5
1359
  8
Layer_0
  10
187.35184
  20
315.28693
  0
VERTEX
  5
135a
  8
Layer_0
  10
187.40311
  20
315.24084
  0
VERTEX
  5
135b
  8
Layer_0
  10
187.47574
  20
315.16541
  0
VERTEX
  5
135c
  8
Layer_0
  10
187.54349
  20
315.0824
  0
VERTEX
  5
135d
  8
Layer_0
  10
187.60532
  20
314.99243
  0
VERTEX
  5
135e
  8
Layer_0
  10
187.65952
  20
314.89783
  0
VERTEX
  5
135f
  8
Layer_0
  10
187.69119
  20
314.83221
  0
VERTEX
  5
1360
  8
Layer_0
  10
187.73221
  20
314.73004
  0
VERTEX
  5
1361
  8
Layer_0
  10
187.76535
  20
314.62338
  0
VERTEX
  5
1362
  8
Layer_0
  10
187.78287
  20
314.54974
  0
VERTEX
  5
1363
  8
Layer_0
  10
187.80264
  20
314.43552
  0
VERTEX
  5
1364
  8
Layer_0
  10
187.81461
  20
314.31677
  0
VERTEX
  5
1365
  8
Layer_0
  10
187.81851
  20
314.19354
  0
VERTEX
  5
1366
  8
Layer_0
  10
187.81558
  20
314.0802
  0
VERTEX
  5
1367
  8
Layer_0
  10
187.80655
  20
313.97116
  0
VERTEX
  5
1368
  8
Layer_0
  10
187.79153
  20
313.86646
  0
VERTEX
  5
1369
  8
Layer_0
  10
187.77066
  20
313.76605
  0
VERTEX
  5
136a
  8
Layer_0
  10
187.74368
  20
313.66998
  0
VERTEX
  5
136b
  8
Layer_0
  10
187.71072
  20
313.57825
  0
VERTEX
  5
136c
  8
Layer_0
  10
187.67184
  20
313.49084
  0
VERTEX
  5
136d
  8
Layer_0
  10
187.62698
  20
313.40775
  0
VERTEX
  5
136e
  8
Layer_0
  10
187.57608
  20
313.32892
  0
VERTEX
  5
136f
  8
Layer_0
  10
187.5192
  20
313.25446
  0
VERTEX
  5
1370
  8
Layer_0
  10
187.45633
  20
313.18433
  0
VERTEX
  5
1371
  8
Layer_0
  10
187.38748
  20
313.1185
  0
VERTEX
  5
1372
  8
Layer_0
  10
187.35049
  20
313.08734
  0
VERTEX
  5
1373
  8
Layer_0
  10
187.31143
  20
313.0575
  0
VERTEX
  5
1374
  8
Layer_0
  10
187.27042
  20
313.02896
  0
VERTEX
  5
1375
  8
Layer_0
  10
187.2272
  20
313.00177
  0
VERTEX
  5
1376
  8
Layer_0
  10
187.18204
  20
312.97592
  0
VERTEX
  5
1377
  8
Layer_0
  10
187.13474
  20
312.95139
  0
VERTEX
  5
1378
  8
Layer_0
  10
187.08536
  20
312.92816
  0
VERTEX
  5
1379
  8
Layer_0
  10
186.9805
  20
312.88574
  0
VERTEX
  5
137a
  8
Layer_0
  10
186.86734
  20
312.84857
  0
VERTEX
  5
137b
  8
Layer_0
  10
186.746
  20
312.81677
  0
VERTEX
  5
137c
  8
Layer_0
  10
186.61624
  20
312.79022
  0
VERTEX
  5
137d
  8
Layer_0
  10
186.4783
  20
312.76898
  0
VERTEX
  5
137e
  8
Layer_0
  10
186.33212
  20
312.75311
  0
VERTEX
  5
137f
  8
Layer_0
  10
186.17758
  20
312.74246
  0
VERTEX
  5
1380
  8
Layer_0
  10
186.01492
  20
312.73718
  0
VERTEX
  5
1381
  8
Layer_0
  10
183.86221
  20
312.73651
  0
VERTEX
  5
1382
  8
Layer_0
  10
183.86221
  20
315.59598
  0
SEQEND
  0
POLYLINE
  5
1384
  8
Layer_0
  62
0
  70
1
  66
1
  10
0
  20
0
  30
0
  0
VERTEX
  5
1384
  8
Layer_0
  10
194.86087
  20
309.7597
  0
VERTEX
  5
1385
  8
Layer_0
  10
194.88828
  20
309.81396
  0
VERTEX
  5
1386
  8
Layer_0
  10
194.93954
  20
309.92746
  0
VERTEX
  5
1387
  8
Layer_0
  10
194.98618
  20
310.04761
  0
VERTEX
  5
1388
  8
Layer_0
  10
195.02811
  20
310.17435
  0
VERTEX
  5
1389
  8
Layer_0
  10
195.0654
  20
310.30774
  0
VERTEX
  5
138a
  8
Layer_0
  10
195.09805
  20
310.44775
  0
VERTEX
  5
138b
  8
Layer_0
  10
195.12613
  20
310.59445
  0
VERTEX
  5
138c
  8
Layer_0
  10
195.14932
  20
310.74774
  0
VERTEX
  5
138d
  8
Layer_0
  10
195.16794
  20
310.90765
  0
VERTEX
  5
138e
  8
Layer_0
  10
195.18204
  20
311.07422
  0
VERTEX
  5
138f
  8
Layer_0
  10
195.19125
  20
311.24738
  0
VERTEX
  5
1390
  8
Layer_0
  10
195.19595
  20
311.42722
  0
VERTEX
  5
1391
  8
Layer_0
  10
195.19516
  20
311.63361
  0
VERTEX
  5
1392
  8
Layer_0
  10
195.19119
  20
311.74554
  0
VERTEX
  5
1393
  8
Layer_0
  10
195.18466
  20
311.85541
  0
VERTEX
  5
1394
  8
Layer_0
  10
195.17545
  20
311.9632
  0
VERTEX
  5
1395
  8
Layer_0
  10
195.1636
  20
312.06891
  0
VERTEX
  5
1396
  8
Layer_0
  10
195.14908
  20
312.17255
  0
VERTEX
  5
1397
  8
Layer_0
  10
195.13199
  20
312.27411
  0
VERTEX
  5
1398
  8
Layer_0
  10
195.11221
  20
312.3736
  0
VERTEX
  5
1399
  8
Layer_0
  10
195.08987
  20
312.47104
  0
VERTEX
  5
139a
  8
Layer_0
  10
195.06479
  20
312.56638
  0
VERTEX
  5
139b
  8
Layer_0
  10
195.03714
  20
312.65964
  0
VERTEX
  5
139c
  8
Layer_0
  10
195.00687
  20
312.75085
  0
VERTEX
  5
139d
  8
Layer_0
  10
194.97403
  20
312.83997
  0
VERTEX
  5
139e
  8
Layer_0
  10
194.93839
  20
312.927
  0
VERTEX
  5
139f
  8
Layer_0
  10
194.90024
  20
313.01196
  0
VERTEX
  5
13a0
  8
Layer_0
  10
194.85947
  20
313.09488
  0
VERTEX
  5
13a1
  8
Layer_0
  10
194.81595
  20
313.17566
  0
VERTEX
  5
13a2
  8
Layer_0
  10
194.76981
  20
313.25439
  0
VERTEX
  5
13a3
  8
Layer_0
  10
194.72122
  20
313.33112
  0
VERTEX
  5
13a4
  8
Layer_0
  10
194.66977
  20
313.40567
  0
VERTEX
  5
13a5
  8
Layer_0
  10
194.61575
  20
313.47821
  0
VERTEX
  5
13a6
  8
Layer_0
  10
194.55911
  20
313.54865
  0
VERTEX
  5
13a7
  8
Layer_0
  10
194.49991
  20
313.61703
  0
VERTEX
  5
13a8
  8
Layer_0
  10
194.43796
  20
313.68329
  0
VERTEX
  5
13a9
  8
Layer_0
  10
194.37399
  20
313.74719
  0
VERTEX
  5
13aa
  8
Layer_0
  10
194.3085
  20
313.80838
  0
VERTEX
  5
13ab
  8
Layer_0
  10
194.24149
  20
313.86682
  0
VERTEX
  5
13ac
  8
Layer_0
  10
194.173
  20
313.92258
  0
VERTEX
  5
13ad
  8
Layer_0
  10
194.10294
  20
313.97559
  0
VERTEX
  5
13ae
  8
Layer_0
  10
194.0314
  20
314.02591
  0
VERTEX
  5
13af
  8
Layer_0
  10
193.95834
  20
314.07349
  0
VERTEX
  5
13b0
  8
Layer_0
  10
193.88376
  20
314.11835
  0
VERTEX
  5
13b1
  8
Layer_0
  10
193.80765
  20
314.16049
  0
VERTEX
  5
13b2
  8
Layer_0
  10
193.73007
  20
314.19992
  0
VERTEX
  5
13b3
  8
Layer_0
  10
193.65091
  20
314.23663
  0
VERTEX
  5
13b4
  8
Layer_0
  10
193.57028
  20
314.27063
  0
VERTEX
  5
13b5
  8
Layer_0
  10
193.48819
  20
314.30191
  0
VERTEX
  5
13b6
  8
Layer_0
  10
193.40445
  20
314.33044
  0
VERTEX
  5
13b7
  8
Layer_0
  10
193.31924
  20
314.35626
  0
VERTEX
  5
13b8
  8
Layer_0
  10
193.23264
  20
314.37939
  0
VERTEX
  5
13b9
  8
Layer_0
  10
193.14432
  20
314.39978
  0
VERTEX
  5
13ba
  8
Layer_0
  10
193.0546
  20
314.41745
  0
VERTEX
  5
13bb
  8
Layer_0
  10
192.96341
  20
314.4324
  0
VERTEX
  5
13bc
  8
Layer_0
  10
192.87057
  20
314.44464
  0
VERTEX
  5
13bd
  8
Layer_0
  10
192.77628
  20
314.45416
  0
VERTEX
  5
13be
  8
Layer_0
  10
192.68051
  20
314.46094
  0
VERTEX
  5
13bf
  8
Layer_0
  10
192.58328
  20
314.46503
  0
VERTEX
  5
13c0
  8
Layer_0
  10
192.48434
  20
314.46637
  0
VERTEX
  5
13c1
  8
Layer_0
  10
192.39536
  20
314.46527
  0
VERTEX
  5
13c2
  8
Layer_0
  10
192.3074
  20
314.46191
  0
VERTEX
  5
13c3
  8
Layer_0
  10
192.22067
  20
314.45633
  0
VERTEX
  5
13c4
  8
Layer_0
  10
192.1351
  20
314.44849
  0
VERTEX
  5
13c5
  8
Layer_0
  10
192.05063
  20
314.43845
  0
VERTEX
  5
13c6
  8
Layer_0
  10
191.96732
  20
314.42615
  0
VERTEX
  5
13c7
  8
Layer_0
  10
191.8851
  20
314.41162
  0
VERTEX
  5
13c8
  8
Layer_0
  10
191.80405
  20
314.39484
  0
VERTEX
  5
13c9
  8
Layer_0
  10
191.72415
  20
314.37582
  0
VERTEX
  5
13ca
  8
Layer_0
  10
191.64536
  20
314.35458
  0
VERTEX
  5
13cb
  8
Layer_0
  10
191.56766
  20
314.33112
  0
VERTEX
  5
13cc
  8
Layer_0
  10
191.49118
  20
314.30542
  0
VERTEX
  5
13cd
  8
Layer_0
  10
191.41586
  20
314.27747
  0
VERTEX
  5
13ce
  8
Layer_0
  10
191.34158
  20
314.24725
  0
VERTEX
  5
13cf
  8
Layer_0
  10
191.26846
  20
314.21484
  0
VERTEX
  5
13d0
  8
Layer_0
  10
191.19662
  20
314.18021
  0
VERTEX
  5
13d1
  8
Layer_0
  10
191.1257
  20
314.14331
  0
VERTEX
  5
13d2
  8
Layer_0
  10
191.056
  20
314.10419
  0
VERTEX
  5
13d3
  8
Layer_0
  10
190.98752
  20
314.06284
  0
VERTEX
  5
13d4
  8
Layer_0
  10
190.92001
  20
314.01923
  0
VERTEX
  5
13d5
  8
Layer_0
  10
190.85373
  20
313.97339
  0
VERTEX
  5
13d6
  8
Layer_0
  10
190.7886
  20
313.92529
  0
VERTEX
  5
13d7
  8
Layer_0
  10
190.7247
  20
313.875
  0
VERTEX
  5
13d8
  8
Layer_0
  10
190.66171
  20
313.82245
  0
VERTEX
  5
13d9
  8
Layer_0
  10
190.58865
  20
313.75644
  0
VERTEX
  5
13da
  8
Layer_0
  10
190.51877
  20
313.6875
  0
VERTEX
  5
13db
  8
Layer_0
  10
190.45193
  20
313.61569
  0
VERTEX
  5
13dc
  8
Layer_0
  10
190.38828
  20
313.54095
  0
VERTEX
  5
13dd
  8
Layer_0
  10
190.32767
  20
313.46335
  0
VERTEX
  5
13de
  8
Layer_0
  10
190.27017
  20
313.38281
  0
VERTEX
  5
13df
  8
Layer_0
  10
190.21579
  20
313.29941
  0
VERTEX
  5
13e0
  8
Layer_0
  10
190.16452
  20
313.21307
  0
VERTEX
  5
13e1
  8
Layer_0
  10
190.11636
  20
313.12387
  0
VERTEX
  5
13e2
  8
Layer_0
  10
190.07126
  20
313.03174
  0
VERTEX
  5
13e3
  8
Layer_0
  10
190.02933
  20
312.93674
  0
VERTEX
  5
13e4
  8
Layer_0
  10
189.99051
  20
312.83884
  0
VERTEX
  5
13e5
  8
Layer_0
  10
189.95486
  20
312.73804
  0
VERTEX
  5
13e6
  8
Layer_0
  10
189.92215
  20
312.63431
  0
VERTEX
  5
13e7
  8
Layer_0
  10
189.89261
  20
312.52768
  0
VERTEX
  5
13e8
  8
Layer_0
  10
189.8663
  20
312.41818
  0
VERTEX
  5
13e9
  8
Layer_0
  10
189.84286
  20
312.30579
  0
VERTEX
  5
13ea
  8
Layer_0
  10
189.82272
  20
312.19046
  0
VERTEX
  5
13eb
  8
Layer_0
  10
189.80569
  20
312.07227
  0
VERTEX
  5
13ec
  8
Layer_0
  10
189.7916
  20
311.95114
  0
VERTEX
  5
13ed
  8
Layer_0
  10
189.78073
  20
311.82715
  0
VERTEX
  5
13ee
  8
Layer_0
  10
189.77298
  20
311.70026
  0
VERTEX
  5
13ef
  8
Layer_0
  10
189.7684
  20
311.57047
  0
VERTEX
  5
13f0
  8
Layer_0
  10
189.76675
  20
311.43774
  0
VERTEX
  5
13f1
  8
Layer_0
  10
189.76804
  20
311.31659
  0
VERTEX
  5
13f2
  8
Layer_0
  10
189.77194
  20
311.19785
  0
VERTEX
  5
13f3
  8
Layer_0
  10
189.77847
  20
311.08148
  0
VERTEX
  5
13f4
  8
Layer_0
  10
189.78763
  20
310.96753
  0
VERTEX
  5
13f5
  8
Layer_0
  10
189.79935
  20
310.85596
  0
VERTEX
  5
13f6
  8
Layer_0
  10
189.81363
  20
310.74673
  0
VERTEX
  5
13f7
  8
Layer_0
  10
189.8306
  20
310.63992
  0
VERTEX
  5
13f8
  8
Layer_0
  10
189.85013
  20
310.53552
  0
VERTEX
  5
13f9
  8
Layer_0
  10
189.87228
  20
310.43347
  0
VERTEX
  5
13fa
  8
Layer_0
  10
189.897
  20
310.33383
  0
VERTEX
  5
13fb
  8
Layer_0
  10
189.92435
  20
310.23657
  0
VERTEX
  5
13fc
  8
Layer_0
  10
189.95438
  20
310.14169
  0
VERTEX
  5
13fd
  8
Layer_0
  10
189.98697
  20
310.04922
  0
VERTEX
  5
13fe
  8
Layer_0
  10
190.02206
  20
309.95911
  0
VERTEX
  5
13ff
  8
Layer_0
  10
190.05984
  20
309.8714
  0
VERTEX
  5
1400
  8
Layer_0
  10
190.10031
  20
309.78607
  0
VERTEX
  5
1401
  8
Layer_0
  10
190.14322
  20
309.70313
  0
VERTEX
  5
1402
  8
Layer_0
  10
190.18881
  20
309.62259
  0
VERTEX
  5
1403
  8
Layer_0
  10
190.23709
  20
309.54443
  0
VERTEX
  5
1404
  8
Layer_0
  10
190.28781
  20
309.46866
  0
VERTEX
  5
1405
  8
Layer_0
  10
190.34122
  20
309.39526
  0
VERTEX
  5
1406
  8
Layer_0
  10
190.39719
  20
309.32428
  0
VERTEX
  5
1407
  8
Layer_0
  10
190.45596
  20
309.25568
  0
VERTEX
  5
1408
  8
Layer_0
  10
190.51706
  20
309.18945
  0
VERTEX
  5
1409
  8
Layer_0
  10
190.58041
  20
309.12576
  0
VERTEX
  5
140a
  8
Layer_0
  10
190.64536
  20
309.06479
  0
VERTEX
  5
140b
  8
Layer_0
  10
190.71194
  20
309.00653
  0
VERTEX
  5
140c
  8
Layer_0
  10
190.78018
  20
308.95099
  0
VERTEX
  5
140d
  8
Layer_0
  10
190.85001
  20
308.89816
  0
VERTEX
  5
140e
  8
Layer_0
  10
190.92142
  20
308.84802
  0
VERTEX
  5
140f
  8
Layer_0
  10
190.99448
  20
308.8006
  0
VERTEX
  5
1410
  8
Layer_0
  10
191.06912
  20
308.75592
  0
VERTEX
  5
1411
  8
Layer_0
  10
191.14542
  20
308.71393
  0
VERTEX
  5
1412
  8
Layer_0
  10
191.22336
  20
308.67462
  0
VERTEX
  5
1413
  8
Layer_0
  10
191.30289
  20
308.63806
  0
VERTEX
  5
1414
  8
Layer_0
  10
191.38406
  20
308.60419
  0
VERTEX
  5
1415
  8
Layer_0
  10
191.46689
  20
308.57303
  0
VERTEX
  5
1416
  8
Layer_0
  10
191.55124
  20
308.54456
  0
VERTEX
  5
1417
  8
Layer_0
  10
191.63724
  20
308.51883
  0
VERTEX
  5
1418
  8
Layer_0
  10
191.72501
  20
308.49579
  0
VERTEX
  5
1419
  8
Layer_0
  10
191.81418
  20
308.47546
  0
VERTEX
  5
141a
  8
Layer_0
  10
191.90506
  20
308.45786
  0
VERTEX
  5
141b
  8
Layer_0
  10
191.99759
  20
308.44296
  0
VERTEX
  5
141c
  8
Layer_0
  10
192.09164
  20
308.43076
  0
VERTEX
  5
141d
  8
Layer_0
  10
192.18741
  20
308.42126
  0
VERTEX
  5
141e
  8
Layer_0
  10
192.28482
  20
308.41449
  0
VERTEX
  5
141f
  8
Layer_0
  10
192.38388
  20
308.41046
  0
VERTEX
  5
1420
  8
Layer_0
  10
192.48434
  20
308.40909
  0
VERTEX
  5
1421
  8
Layer_0
  10
192.60995
  20
308.41156
  0
VERTEX
  5
1422
  8
Layer_0
  10
192.73392
  20
308.41895
  0
VERTEX
  5
1423
  8
Layer_0
  10
192.85629
  20
308.43127
  0
VERTEX
  5
1424
  8
Layer_0
  10
192.97696
  20
308.44849
  0
VERTEX
  5
1425
  8
Layer_0
  10
193.0961
  20
308.47067
  0
VERTEX
  5
1426
  8
Layer_0
  10
193.21353
  20
308.49774
  0
VERTEX
  5
1427
  8
Layer_0
  10
193.32938
  20
308.52979
  0
VERTEX
  5
1428
  8
Layer_0
  10
193.44363
  20
308.56674
  0
VERTEX
  5
1429
  8
Layer_0
  10
193.55612
  20
308.60861
  0
VERTEX
  5
142a
  8
Layer_0
  10
193.66708
  20
308.6554
  0
VERTEX
  5
142b
  8
Layer_0
  10
193.7764
  20
308.70715
  0
VERTEX
  5
142c
  8
Layer_0
  10
193.88406
  20
308.76379
  0
VERTEX
  5
142d
  8
Layer_0
  10
193.9888
  20
308.82489
  0
VERTEX
  5
142e
  8
Layer_0
  10
194.08939
  20
308.89001
  0
VERTEX
  5
142f
  8
Layer_0
  10
194.18558
  20
308.95905
  0
VERTEX
  5
1430
  8
Layer_0
  10
194.27762
  20
309.0321
  0
VERTEX
  5
1431
  8
Layer_0
  10
194.36539
  20
309.10913
  0
VERTEX
  5
1432
  8
Layer_0
  10
194.44888
  20
309.19012
  0
VERTEX
  5
1433
  8
Layer_0
  10
194.52817
  20
309.27509
  0
VERTEX
  5
1434
  8
Layer_0
  10
194.6033
  20
309.36407
  0
VERTEX
  5
1435
  8
Layer_0
  10
194.67398
  20
309.457
  0
VERTEX
  5
1436
  8
Layer_0
  10
194.74051
  20
309.55392
  0
VERTEX
  5
1437
  8
Layer_0
  10
194.80283
  20
309.65482
  0
VERTEX
  5
1438
  8
Layer_0
  10
194.86087
  20
309.7597
  0
SEQEND
  0
POLYLINE
  5
143a
  8
Layer_0
  62
0
  70
1
  66
1
  10
0
  20
0
  30
0
  0
VERTEX
  5
143a
  8
Layer_0
  10
192.48434
  20
309.21674
  0
VERTEX
  5
143b
  8
Layer_0
  10
192.60452
  20
309.22058
  0
VERTEX
  5
143c
  8
Layer_0
  10
192.72128
  20
309.23218
  0
VERTEX
  5
143d
  8
Layer_0
  10
192.77847
  20
309.24091
  0
VERTEX
  5
143e
  8
Layer_0
  10
192.83463
  20
309.25153
  0
VERTEX
  5
143f
  8
Layer_0
  10
192.89005
  20
309.26407
  0
VERTEX
  5
1440
  8
Layer_0
  10
192.94467
  20
309.27859
  0
VERTEX
  5
1441
  8
Layer_0
  10
192.99826
  20
309.29498
  0
VERTEX
  5
1442
  8
Layer_0
  10
193.05106
  20
309.31335
  0
VERTEX
  5
1443
  8
Layer_0
  10
193.10318
  20
309.33368
  0
VERTEX
  5
1444
  8
Layer_0
  10
193.15421
  20
309.3559
  0
VERTEX
  5
1445
  8
Layer_0
  10
193.2045
  20
309.38004
  0
VERTEX
  5
1446
  8
Layer_0
  10
193.25394
  20
309.40613
  0
VERTEX
  5
1447
  8
Layer_0
  10
193.30252
  20
309.43414
  0
VERTEX
  5
1448
  8
Layer_0
  10
193.35019
  20
309.46411
  0
VERTEX
  5
1449
  8
Layer_0
  10
193.39713
  20
309.496
  0
VERTEX
  5
144a
  8
Layer_0
  10
193.44308
  20
309.52982
  0
VERTEX
  5
144b
  8
Layer_0
  10
193.48825
  20
309.56558
  0
VERTEX
  5
144c
  8
Layer_0
  10
193.53256
  20
309.60327
  0
VERTEX
  5
144d
  8
Layer_0
  10
193.57602
  20
309.64288
  0
VERTEX
  5
144e
  8
Layer_0
  10
193.61862
  20
309.68445
  0
VERTEX
  5
144f
  8
Layer_0
  10
193.70126
  20
309.77335
  0
VERTEX
  5
1450
  8
Layer_0
  10
193.741
  20
309.82077
  0
VERTEX
  5
1451
  8
Layer_0
  10
193.77884
  20
309.87018
  0
VERTEX
  5
1452
  8
Layer_0
  10
193.81509
  20
309.92163
  0
VERTEX
  5
1453
  8
Layer_0
  10
193.84964
  20
309.9751
  0
VERTEX
  5
1454
  8
Layer_0
  10
193.8826
  20
310.03061
  0
VERTEX
  5
1455
  8
Layer_0
  10
193.91373
  20
310.08813
  0
VERTEX
  5
1456
  8
Layer_0
  10
193.94327
  20
310.14771
  0
VERTEX
  5
1457
  8
Layer_0
  10
193.97116
  20
310.20929
  0
VERTEX
  5
1458
  8
Layer_0
  10
193.99722
  20
310.27292
  0
VERTEX
  5
1459
  8
Layer_0
  10
194.0217
  20
310.33856
  0
VERTEX
  5
145a
  8
Layer_0
  10
194.04453
  20
310.40625
  0
VERTEX
  5
145b
  8
Layer_0
  10
194.06546
  20
310.47592
  0
VERTEX
  5
145c
  8
Layer_0
  10
194.08487
  20
310.54767
  0
VERTEX
  5
145d
  8
Layer_0
  10
194.10263
  20
310.6214
  0
VERTEX
  5
145e
  8
Layer_0
  10
194.11862
  20
310.6972
  0
VERTEX
  5
145f
  8
Layer_0
  10
194.14566
  20
310.85486
  0
VERTEX
  5
1460
  8
Layer_0
  10
194.16586
  20
311.0206
  0
VERTEX
  5
1461
  8
Layer_0
  10
194.17935
  20
311.19446
  0
VERTEX
  5
1462
  8
Layer_0
  10
194.18607
  20
311.37643
  0
VERTEX
  5
1463
  8
Layer_0
  10
194.18619
  20
311.55917
  0
VERTEX
  5
1464
  8
Layer_0
  10
194.17929
  20
311.73108
  0
VERTEX
  5
1465
  8
Layer_0
  10
194.1658
  20
311.89581
  0
VERTEX
  5
1466
  8
Layer_0
  10
194.1564
  20
311.9754
  0
VERTEX
  5
1467
  8
Layer_0
  10
194.13272
  20
312.12927
  0
VERTEX
  5
1468
  8
Layer_0
  10
194.11819
  20
312.20346
  0
VERTEX
  5
1469
  8
Layer_0
  10
194.08438
  20
312.34647
  0
VERTEX
  5
146a
  8
Layer_0
  10
194.06485
  20
312.41522
  0
VERTEX
  5
146b
  8
Layer_0
  10
194.04361
  20
312.48218
  0
VERTEX
  5
146c
  8
Layer_0
  10
194.02078
  20
312.54736
  0
VERTEX
  5
146d
  8
Layer_0
  10
193.99612
  20
312.61069
  0
VERTEX
  5
146e
  8
Layer_0
  10
193.96988
  20
312.67224
  0
VERTEX
  5
146f
  8
Layer_0
  10
193.94186
  20
312.73196
  0
VERTEX
  5
1470
  8
Layer_0
  10
193.91214
  20
312.78989
  0
VERTEX
  5
1471
  8
Layer_0
  10
193.88083
  20
312.84601
  0
VERTEX
  5
1472
  8
Layer_0
  10
193.84775
  20
312.9003
  0
VERTEX
  5
1473
  8
Layer_0
  10
193.81302
  20
312.95279
  0
VERTEX
  5
1474
  8
Layer_0
  10
193.77652
  20
313.00345
  0
VERTEX
  5
1475
  8
Layer_0
  10
193.73837
  20
313.05234
  0
VERTEX
  5
1476
  8
Layer_0
  10
193.69852
  20
313.0994
  0
VERTEX
  5
1477
  8
Layer_0
  10
193.6575
  20
313.14459
  0
VERTEX
  5
1478
  8
Layer_0
  10
193.57272
  20
313.22922
  0
VERTEX
  5
1479
  8
Layer_0
  10
193.48483
  20
313.30615
  0
VERTEX
  5
147a
  8
Layer_0
  10
193.43948
  20
313.34174
  0
VERTEX
  5
147b
  8
Layer_0
  10
193.34665
  20
313.40714
  0
VERTEX
  5
147c
  8
Layer_0
  10
193.25034
  20
313.46481
  0
VERTEX
  5
147d
  8
Layer_0
  10
193.20102
  20
313.49078
  0
VERTEX
  5
147e
  8
Layer_0
  10
193.15079
  20
313.51483
  0
VERTEX
  5
147f
  8
Layer_0
  10
193.09976
  20
313.53693
  0
VERTEX
  5
1480
  8
Layer_0
  10
193.04794
  20
313.55713
  0
VERTEX
  5
1481
  8
Layer_0
  10
192.99527
  20
313.57538
  0
VERTEX
  5
1482
  8
Layer_0
  10
192.9418
  20
313.59174
  0
VERTEX
  5
1483
  8
Layer_0
  10
192.88754
  20
313.60617
  0
VERTEX
  5
1484
  8
Layer_0
  10
192.77646
  20
313.62927
  0
VERTEX
  5
1485
  8
Layer_0
  10
192.7197
  20
313.63791
  0
VERTEX
  5
1486
  8
Layer_0
  10
192.66208
  20
313.64462
  0
VERTEX
  5
1487
  8
Layer_0
  10
192.5444
  20
313.65234
  0
VERTEX
  5
1488
  8
Layer_0
  10
192.42349
  20
313.65234
  0
VERTEX
  5
1489
  8
Layer_0
  10
192.30411
  20
313.64468
  0
VERTEX
  5
148a
  8
Layer_0
  10
192.18839
  20
313.62939
  0
VERTEX
  5
148b
  8
Layer_0
  10
192.13168
  20
313.61884
  0
VERTEX
  5
148c
  8
Layer_0
  10
192.07596
  20
313.60638
  0
VERTEX
  5
148d
  8
Layer_0
  10
192.02121
  20
313.59207
  0
VERTEX
  5
148e
  8
Layer_0
  10
191.96707
  20
313.57578
  0
VERTEX
  5
148f
  8
Layer_0
  10
191.91403
  20
313.55762
  0
VERTEX
  5
1490
  8
Layer_0
  10
191.86185
  20
313.53754
  0
VERTEX
  5
1491
  8
Layer_0
  10
191.81039
  20
313.5155
  0
VERTEX
  5
1492
  8
Layer_0
  10
191.75992
  20
313.49158
  0
VERTEX
  5
1493
  8
Layer_0
  10
191.7103
  20
313.46576
  0
VERTEX
  5
1494
  8
Layer_0
  10
191.66153
  20
313.43799
  0
VERTEX
  5
1495
  8
Layer_0
  10
191.61368
  20
313.40833
  0
VERTEX
  5
1496
  8
Layer_0
  10
191.56668
  20
313.37677
  0
VERTEX
  5
1497
  8
Layer_0
  10
191.52054
  20
313.34326
  0
VERTEX
  5
1498
  8
Layer_0
  10
191.47525
  20
313.30786
  0
VERTEX
  5
1499
  8
Layer_0
  10
191.38736
  20
313.23132
  0
VERTEX
  5
149a
  8
Layer_0
  10
191.3447
  20
313.19016
  0
VERTEX
  5
149b
  8
Layer_0
  10
191.26199
  20
313.10211
  0
VERTEX
  5
149c
  8
Layer_0
  10
191.22244
  20
313.05524
  0
VERTEX
  5
149d
  8
Layer_0
  10
191.18442
  20
313.00638
  0
VERTEX
  5
149e
  8
Layer_0
  10
191.14816
  20
312.95557
  0
VERTEX
  5
149f
  8
Layer_0
  10
191.11356
  20
312.9028
  0
VERTEX
  5
14a0
  8
Layer_0
  10
191.08078
  20
312.84808
  0
VERTEX
  5
14a1
  8
Layer_0
  10
191.04947
  20
312.79141
  0
VERTEX
  5
14a2
  8
Layer_0
  10
191.01999
  20
312.73279
  0
VERTEX
  5
14a3
  8
Layer_0
  10
190.99222
  20
312.67224
  0
VERTEX
  5
14a4
  8
Layer_0
  10
190.96597
  20
312.60971
  0
VERTEX
  5
14a5
  8
Layer_0
  10
190.94156
  20
312.54523
  0
VERTEX
  5
14a6
  8
Layer_0
  10
190.91891
  20
312.47885
  0
VERTEX
  5
14a7
  8
Layer_0
  10
190.89774
  20
312.41046
  0
VERTEX
  5
14a8
  8
Layer_0
  10
190.87833
  20
312.34012
  0
VERTEX
  5
14a9
  8
Layer_0
  10
190.86063
  20
312.26785
  0
VERTEX
  5
14aa
  8
Layer_0
  10
190.84457
  20
312.1936
  0
VERTEX
  5
14ab
  8
Layer_0
  10
190.83023
  20
312.11743
  0
VERTEX
  5
14ac
  8
Layer_0
  10
190.80667
  20
311.95923
  0
VERTEX
  5
14ad
  8
Layer_0
  10
190.78976
  20
311.79321
  0
VERTEX
  5
14ae
  8
Layer_0
  10
190.77963
  20
311.61938
  0
VERTEX
  5
14af
  8
Layer_0
  10
190.77628
  20
311.43774
  0
VERTEX
  5
14b0
  8
Layer_0
  10
190.77963
  20
311.25607
  0
VERTEX
  5
14b1
  8
Layer_0
  10
190.78976
  20
311.08218
  0
VERTEX
  5
14b2
  8
Layer_0
  10
190.80661
  20
310.91608
  0
VERTEX
  5
14b3
  8
Layer_0
  10
190.8176
  20
310.83594
  0
VERTEX
  5
14b4
  8
Layer_0
  10
190.84457
  20
310.68146
  0
VERTEX
  5
14b5
  8
Layer_0
  10
190.86063
  20
310.60715
  0
VERTEX
  5
14b6
  8
Layer_0
  10
190.87839
  20
310.53479
  0
VERTEX
  5
14b7
  8
Layer_0
  10
190.89774
  20
310.46436
  0
VERTEX
  5
14b8
  8
Layer_0
  10
190.91879
  20
310.39584
  0
VERTEX
  5
14b9
  8
Layer_0
  10
190.94156
  20
310.32928
  0
VERTEX
  5
14ba
  8
Layer_0
  10
190.96597
  20
310.26468
  0
VERTEX
  5
14bb
  8
Layer_0
  10
190.9921
  20
310.20203
  0
VERTEX
  5
14bc
  8
Layer_0
  10
191.01999
  20
310.1413
  0
VERTEX
  5
14bd
  8
Layer_0
  10
191.04947
  20
310.08252
  0
VERTEX
  5
14be
  8
Layer_0
  10
191.08072
  20
310.0257
  0
VERTEX
  5
14bf
  8
Layer_0
  10
191.11362
  20
309.97079
  0
VERTEX
  5
14c0
  8
Layer_0
  10
191.14816
  20
309.91782
  0
VERTEX
  5
14c1
  8
Layer_0
  10
191.18442
  20
309.86682
  0
VERTEX
  5
14c2
  8
Layer_0
  10
191.22232
  20
309.81775
  0
VERTEX
  5
14c3
  8
Layer_0
  10
191.26199
  20
309.77063
  0
VERTEX
  5
14c4
  8
Layer_0
  10
191.3447
  20
309.68216
  0
VERTEX
  5
14c5
  8
Layer_0
  10
191.3873
  20
309.64081
  0
VERTEX
  5
14c6
  8
Layer_0
  10
191.43082
  20
309.60138
  0
VERTEX
  5
14c7
  8
Layer_0
  10
191.52048
  20
309.52829
  0
VERTEX
  5
14c8
  8
Layer_0
  10
191.56668
  20
309.49463
  0
VERTEX
  5
14c9
  8
Layer_0
  10
191.66153
  20
309.43311
  0
VERTEX
  5
14ca
  8
Layer_0
  10
191.7103
  20
309.40521
  0
VERTEX
  5
14cb
  8
Layer_0
  10
191.75998
  20
309.37924
  0
VERTEX
  5
14cc
  8
Layer_0
  10
191.81039
  20
309.35519
  0
VERTEX
  5
14cd
  8
Layer_0
  10
191.86172
  20
309.33307
  0
VERTEX
  5
14ce
  8
Layer_0
  10
191.91403
  20
309.3129
  0
VERTEX
  5
14cf
  8
Layer_0
  10
191.96707
  20
309.29462
  0
VERTEX
  5
14d0
  8
Layer_0
  10
192.02115
  20
309.27826
  0
VERTEX
  5
14d1
  8
Layer_0
  10
192.07596
  20
309.26385
  0
VERTEX
  5
14d2
  8
Layer_0
  10
192.13168
  20
309.25134
  0
VERTEX
  5
14d3
  8
Layer_0
  10
192.18826
  20
309.24078
  0
VERTEX
  5
14d4
  8
Layer_0
  10
192.24576
  20
309.23212
  0
VERTEX
  5
14d5
  8
Layer_0
  10
192.36331
  20
309.22058
  0
VERTEX
  5
14d6
  8
Layer_0
  10
192.48434
  20
309.21674
  0
SEQEND
  0
ENDSEC
  0
EOF
