0
SECTION
2
HEADER
9
$INSUNITS
70
4
9
$ACADVER
1
AC1014
9
$HANDSEED
5
FFFF
0
ENDSEC
0
SECTION
2
TABLES
0
TABLE
2
VPORT
5
8
100
AcDbSymbolTable
0
ENDTAB
0
TABLE
2
LTYPE
5
5
100
AcDbSymbolTable
0
LTYPE
5
14
100
AcDbSymbolTableRecord
100
AcDbLinetypeTableRecord
2
BYBLOCK
70
0
0
LTYPE
5
15
100
AcDbSymbolTableRecord
100
AcDbLinetypeTableRecord
2
BYLAYER
70
0
0
ENDTAB
0
TABLE
2
LAYER
5
2
100
AcDbSymbolTable
70
2
0
LAYER
5
50
100
AcDbSymbolTableRecord
100
AcDbLayerTableRecord
2
0
70
0
6
CONTINUOUS
0
ENDTAB
0
TABLE
2
STYLE
5
3
100
AcDbSymbolTable
70
1
0
STYLE
5
11
100
AcDbSymbolTableRecord
100
AcDbTextStyleTableRecord
2
STANDARD
70
0
0
ENDTAB
0
TABLE
2
VIEW
5
6
100
AcDbSymbolTable
70
0
0
ENDTAB
0
TABLE
2
UCS
5
7
100
AcDbSymbolTable
70
0
0
ENDTAB
0
TABLE
2
APPID
5
9
100
AcDbSymbolTable
70
2
0
APPID
5
12
100
AcDbSymbolTableRecord
100
AcDbRegAppTableRecord
2
ACAD
70
0
0
ENDTAB
0
TABLE
2
DIMSTYLE
5
A
100
AcDbSymbolTable
70
1
0
ENDTAB
0
TABLE
2
BLOCK_RECORD
5
1
100
AcDbSymbolTable
70
1
0
BLOCK_RECORD
5
1F
100
AcDbSymbolTableRecord
100
AcDbBlockTableRecord
2
*MODEL_SPACE
0
BLOCK_RECORD
5
1B
100
AcDbSymbolTableRecord
100
AcDbBlockTableRecord
2
*PAPER_SPACE
0
ENDTAB
0
ENDSEC
0
SECTION
2
BLOCKS
0
BLOCK
5
20
100
AcDbEntity
100
AcDbBlockBegin
2
*MODEL_SPACE
0
ENDBLK
5
21
100
AcDbEntity
100
AcDbBlockEnd
0
BLOCK
5
1C
100
AcDbEntity
100
AcDbBlockBegin
2
*PAPER_SPACE
0
ENDBLK
5
1D
100
AcDbEntity
100
AcDbBlockEnd
0
ENDSEC
0
SECTION
2
ENTITIES
0
CIRCLE
5
100
100
AcDbEntity
8
0
100
AcDbCircle
10
-0.014904322842565799
20
94.512158584117543
30
0
40
1.5000000000000036
210
0
220
-0
230
1
0
CIRCLE
5
101
100
AcDbEntity
8
0
100
AcDbCircle
10
-0.019792942564000604
20
125.51215819865619
30
0
40
6.5
210
0
220
0
230
1
0
LINE
5
102
100
AcDbEntity
8
0
100
AcDbLine
10
-6.0187016679777905
20
108.99535613027453
30
0
11
-6.0187016679777834
21
94.512158584117543
31
0
0
LINE
5
103
100
AcDbEntity
8
0
100
AcDbLine
10
5.9807525828209416
20
108.99654533506344
30
0
11
5.9807525828209416
21
94.283908130515613
31
0
0
LINE
5
104
100
AcDbEntity
8
0
100
AcDbLine
10
-6.0187016679777834
20
94.512158584117543
30
0
11
-6.0149043228425665
21
94.512158584117543
31
0
0
ARC
5
105
100
AcDbEntity
8
0
100
AcDbCircle
10
-0.014904322842565799
20
94.512158584117543
30
0
40
6.0000000000000009
210
0
220
0
230
1
100
AcDbArc
50
174.4555912004331
51
270.00903539609175
0
ARC
5
106
100
AcDbEntity
8
0
100
AcDbCircle
10
-0.014904322842565799
20
94.512158584117543
30
0
40
6.0000000000000098
210
0
220
0
230
1
100
AcDbArc
50
270.00903539609175
51
357.81984266244456
0
ARC
5
107
100
AcDbEntity
8
0
100
AcDbCircle
10
29.464469362563204
20
115.93728084578871
30
0
40
6.0000000000000036
210
0
220
0
230
1
100
AcDbArc
50
246.45559120043319
51
342.00903539609163
0
ARC
5
108
100
AcDbEntity
8
0
100
AcDbCircle
10
29.464469362563204
20
115.93728084578871
30
0
40
6.0000000000000275
210
0
220
0
230
1
100
AcDbArc
50
-17.990964603908349
51
69.819842662444444
0
LINE
5
109
100
AcDbEntity
8
0
100
AcDbLine
10
13.834854549070631
20
114.70288443283437
30
0
11
27.609193952133229
21
110.22733025818229
31
0
0
LINE
5
110
100
AcDbEntity
8
0
100
AcDbLine
10
27.609193952133229
20
110.22733025818229
30
0
11
27.610367396313524
21
110.23094174801777
31
0
0
LINE
5
111
100
AcDbEntity
8
0
100
AcDbLine
10
17.541758834828464
20
126.11541107453164
30
0
11
31.534308320100184
21
121.56895614625324
31
0
0
CIRCLE
5
112
100
AcDbEntity
8
0
100
AcDbCircle
10
29.464469362563204
20
115.93728084578871
30
0
40
1.5000000000000036
210
0
220
-0
230
1
0
ARC
5
113
100
AcDbEntity
8
0
100
AcDbCircle
10
18.197594675500497
20
150.59455817101113
30
0
40
6.0000000000000044
210
0
220
0
230
1
100
AcDbArc
50
-41.544408799567215
51
54.009035396091676
0
ARC
5
114
100
AcDbEntity
8
0
100
AcDbCircle
10
18.197594675500497
20
150.59455817101113
30
0
40
6.0000000000000098
210
0
220
-0
230
1
100
AcDbArc
50
54.009035396091676
51
141.8198426624445
0
LINE
5
115
100
AcDbEntity
8
0
100
AcDbLine
10
14.541758834828464
20
135.34846168605739
30
0
11
23.054768758498085
21
147.06561463378793
31
0
0
LINE
5
116
100
AcDbEntity
8
0
100
AcDbLine
10
23.054768758498085
20
147.06561463378793
30
0
11
23.051696641750183
21
147.06784665725627
31
0
0
LINE
5
117
100
AcDbEntity
8
0
100
AcDbLine
10
4.8332974256707351
20
142.4006018433511
30
0
11
13.481168596833495
21
154.30337537390341
31
0
0
CIRCLE
5
118
100
AcDbEntity
8
0
100
AcDbCircle
10
18.197594675500497
20
150.59455817101113
30
0
40
1.5000000000000036
210
0
220
-0
230
1
0
ARC
5
119
100
AcDbEntity
8
0
100
AcDbCircle
10
-18.24509051349585
20
150.58881125385852
30
0
40
5.9999999999999956
210
0
220
-0
230
1
100
AcDbArc
50
30.455591200432703
51
126.0090353960918
0
ARC
5
120
100
AcDbEntity
8
0
100
AcDbCircle
10
-18.24509051349585
20
150.58881125385852
30
0
40
6.0000000000000053
210
0
220
0
230
1
100
AcDbArc
50
126.0090353960918
51
213.81984266244456
0
LINE
5
121
100
AcDbEntity
8
0
100
AcDbLine
10
-4.8749065068286281
20
142.4006018433511
30
0
11
-13.387916430498263
21
154.11775479108169
31
0
0
LINE
5
122
100
AcDbEntity
8
0
100
AcDbLine
10
-13.387916430498263
20
154.11775479108169
30
0
11
-13.390988547246163
21
154.11552276761336
31
0
0
LINE
5
123
100
AcDbEntity
8
0
100
AcDbLine
10
-14.581969921912636
20
135.34653751228939
30
0
11
-23.229841093075425
21
147.24931104284173
31
0
0
CIRCLE
5
124
100
AcDbEntity
8
0
100
AcDbCircle
10
-18.24509051349585
20
150.58881125385852
30
0
40
1.5000000000000036
210
0
220
-0
230
1
0
ARC
5
125
100
AcDbEntity
8
0
100
AcDbCircle
10
-29.501033914545278
20
115.92798213850517
30
0
40
5.999999999999984
210
0
220
0
230
1
100
AcDbArc
50
102.45559120043293
51
198.00903539609172
0
ARC
5
126
100
AcDbEntity
8
0
100
AcDbCircle
10
-29.501033914545278
20
115.92798213850517
30
0
40
6.0000000000000249
210
0
220
0
230
1
100
AcDbArc
50
198.00903539609172
51
285.81984266244456
0
LINE
5
127
100
AcDbEntity
8
0
100
AcDbLine
10
-17.581969921912638
20
126.11348690076362
30
0
11
-31.356309324975253
21
121.63793272611157
31
0
0
LINE
5
128
100
AcDbEntity
8
0
100
AcDbLine
10
-31.356309324975253
20
121.63793272611157
30
0
11
-31.355135880794958
21
121.63432123627609
31
0
0
LINE
5
129
100
AcDbEntity
8
0
100
AcDbLine
10
-13.872803634227475
20
114.70169522804545
30
0
11
-27.865353119499172
21
110.15524029976706
31
0
0
CIRCLE
5
130
100
AcDbEntity
8
0
100
AcDbCircle
10
-29.501033914545278
20
115.92798213850517
30
0
40
1.5000000000000036
210
0
220
-0
230
1
0
ARC
5
131
100
AcDbEntity
8
0
100
AcDbCircle
10
19.395860801078136
20
131.82175017230256
30
0
40
5.9999999999999876
210
0
220
0
230
1
100
AcDbArc
50
144
51
252.00000000000009
0
ARC
5
132
100
AcDbEntity
8
0
100
AcDbCircle
10
-0.020804540578946151
20
145.92731335710593
30
0
40
5.9999999999999964
210
0
220
0
230
1
100
AcDbArc
50
215.99999999999994
51
324.00000000000006
0
ARC
5
133
100
AcDbEntity
8
0
100
AcDbCircle
10
-19.436071888162353
20
131.81982599853455
30
0
40
6.0000000000000231
210
-0
220
0
230
1
100
AcDbArc
50
-71.999999999999787
51
35.999999999999773
0
ARC
5
134
100
AcDbEntity
8
0
100
AcDbCircle
10
-12.018701667977787
20
108.99535613027453
30
0
40
5.9999999999999964
210
0
220
-0
230
1
100
AcDbArc
50
0
51
108.00000000000003
0
ARC
5
135
100
AcDbEntity
8
0
100
AcDbCircle
10
11.980752582820937
20
108.99654533506344
30
0
40
6
210
0
220
-0
230
1
100
AcDbArc
50
71.999999999999929
51
180
0
ENDSEC
0
SECTION
2
OBJECTS
0
DICTIONARY
5
C
100
AcDbDictionary
3
ACAD_GROUP
350
D
3
ACAD_MLINESTYLE
350
17
0
DICTIONARY
5
D
100
AcDbDictionary
0
DICTIONARY
5
1A
330
C
100
AcDbDictionary
0
DICTIONARY
5
17
100
AcDbDictionary
0
ENDSEC
0
EOF
