  0
SECTION
  2
HEADER
  9
$ACADVER
  1
AC1014
  9
$HANDSEED
  5
FFFF
  9
$MEASUREMENT
 70
     1
  0
ENDSEC
  0
SECTION
  2
TABLES
  0
TABLE
  2
VPORT
  5
8
330
0
100
AcDbSymbolTable
 70
     4
  0
VPORT
  5
2E
330
8
100
AcDbSymbolTableRecord
100
AcDbViewportTableRecord
  2
*ACTIVE
 70
     0
 10
0.0
 20
0.0
 11
1.0
 21
1.0
 12
210.0
 22
148.5
 13
0.0
 23
0.0
 14
10.0
 24
10.0
 15
10.0
 25
10.0
 16
0.0
 26
0.0
 36
1.0
 17
0.0
 27
0.0
 37
0.0
 40
341.0
 41
1.24
 42
50.0
 43
0.0
 44
0.0
 50
0.0
 51
0.0
 71
     0
 72
   100
 73
     1
 74
     3
 75
     0
 76
     0
 77
     0
 78
     0
  0
ENDTAB
  0
TABLE
  2
LTYPE
  5
5
330
0
100
AcDbSymbolTable
 70
     1
  0
LTYPE
  5
14
330
5
100
AcDbSymbolTableRecord
100
AcDbLinetypeTableRecord
  2
BYBLOCK
 70
     0
  3

 72
    65
 73
     0
 40
0.0
  0
LTYPE
  5
15
330
5
100
AcDbSymbolTableRecord
100
AcDbLinetypeTableRecord
  2
BYLAYER
 70
     0
  3

 72
    65
 73
     0
 40
0.0
  0
LTYPE
  5
16
330
5
100
AcDbSymbolTableRecord
100
AcDbLinetypeTableRecord
  2
CONTINUOUS
 70
     0
  3
Solid line
 72
    65
 73
     0
 40
0.0
  0
ENDTAB
  0
TABLE
  2
LAYER
  5
2
100
AcDbSymbolTable
 70
1
  0
LAYER
  5
50
100
AcDbSymbolTableRecord
100
AcDbLayerTableRecord
  2
0
 70
0
  6
CONTINUOUS
  0
ENDTAB
  0
TABLE
  2
STYLE
  5
3
330
0
100
AcDbSymbolTable
 70
     1
  0
STYLE
  5
11
330
3
100
AcDbSymbolTableRecord
100
AcDbTextStyleTableRecord
  2
STANDARD
 70
     0
 40
0.0
 41
1.0
 50
0.0
 71
     0
 42
2.5
  3
txt
  4

  0
ENDTAB
  0
TABLE
  2
VIEW
  5
6
330
0
100
AcDbSymbolTable
 70
     0
  0
ENDTAB
  0
TABLE
  2
UCS
  5
7
330
0
100
AcDbSymbolTable
 70
     0
  0
ENDTAB
  0
TABLE
  2
APPID
  5
9
330
0
100
AcDbSymbolTable
 70
     2
  0
APPID
  5
12
330
9
100
AcDbSymbolTableRecord
100
AcDbRegAppTableRecord
  2
ACAD
 70
     0
  0
ENDTAB
  0
TABLE
  2
DIMSTYLE
  5
A
330
0
100
AcDbSymbolTable
 70
     1
  0
DIMSTYLE
105
27
330
A
100
AcDbSymbolTableRecord
100
AcDbDimStyleTableRecord
  2
ISO-25
 70
     0
  3

  4

  5

  6

  7

 40
1.0
 41
2.5
 42
0.625
 43
3.75
 44
1.25
 45
0.0
 46
0.0
 47
0.0
 48
0.0
140
2.5
141
2.5
142
0.0
143
0.03937007874016
144
1.0
145
0.0
146
1.0
147
0.625
 71
     0
 72
     0
 73
     0
 74
     0
 75
     0
 76
     0
 77
     1
 78
     8
170
     0
171
     3
172
     1
173
     0
174
     0
175
     0
176
     0
177
     0
178
     0
270
     2
271
     2
272
     2
273
     2
274
     3
340
11
275
     0
280
     0
281
     0
282
     0
283
     0
284
     8
285
     0
286
     0
287
     3
288
     0
  0
ENDTAB
  0
TABLE
  2
BLOCK_RECORD
  5
1
330
0
100
AcDbSymbolTable
 70
     1
  0
BLOCK_RECORD
  5
1F
330
1
100
AcDbSymbolTableRecord
100
AcDbBlockTableRecord
  2
*MODEL_SPACE
  0
BLOCK_RECORD
  5
1B
330
1
100
AcDbSymbolTableRecord
100
AcDbBlockTableRecord
  2
*PAPER_SPACE
  0
ENDTAB
  0
ENDSEC
  0
SECTION
  2
BLOCKS
  0
BLOCK
  5
20
330
1F
100
AcDbEntity
  8
0
100
AcDbBlockBegin
  2
*MODEL_SPACE
 70
     0
 10
0.0
 20
0.0
 30
0.0
  3
*MODEL_SPACE
  1

  0
ENDBLK
  5
21
330
1F
100
AcDbEntity
  8
0
100
AcDbBlockEnd
  0
BLOCK
  5
1C
330
1B
100
AcDbEntity
 67
     1
  8
0
100
AcDbBlockBegin
  2
*PAPER_SPACE
  1

  0
ENDBLK
  5
1D
330
1B
100
AcDbEntity
 67
     1
  8
0
100
AcDbBlockEnd
  0
ENDSEC
  0
SECTION
  2
ENTITIES
  0
LWPOLYLINE
  5
100
100
AcDbEntity
  8
0
 62
7
100
AcDbPolyline
 90
7
 70
1
 10
9.773219
 20
7.058572
 30
0.0
 10
12.006476
 20
7.058572
 30
0.0
 10
12.006476
 20
5.055376
 30
0.0
 10
11.906477
 20
5.055376
 30
0.0
 10
11.906477
 20
6.958572
 30
0.0
 10
9.773219
 20
6.958572
 30
0.0
 10
9.773219
 20
7.058572
 30
0.0
  0
LWPOLYLINE
  5
101
100
AcDbEntity
  8
0
 62
7
100
AcDbPolyline
 90
7
 70
1
 10
9.239734
 20
6.958572
 30
0.0
 10
7.106477
 20
6.958572
 30
0.0
 10
7.106477
 20
5.055376
 30
0.0
 10
7.006476
 20
5.055376
 30
0.0
 10
7.006476
 20
7.058572
 30
0.0
 10
9.239734
 20
7.058572
 30
0.0
 10
9.239734
 20
6.958572
 30
0.0
  0
LWPOLYLINE
  5
102
100
AcDbEntity
  8
0
 62
7
100
AcDbPolyline
 90
7
 70
1
 10
17.784277
 20
7.058572
 30
0.0
 10
20.017535
 20
7.058572
 30
0.0
 10
20.017535
 20
5.055376
 30
0.0
 10
19.917535
 20
5.055376
 30
0.0
 10
19.917535
 20
6.958572
 30
0.0
 10
17.784277
 20
6.958572
 30
0.0
 10
17.784277
 20
7.058572
 30
0.0
  0
LWPOLYLINE
  5
103
100
AcDbEntity
  8
0
 62
7
100
AcDbPolyline
 90
7
 70
1
 10
17.250792
 20
6.958572
 30
0.0
 10
15.117535
 20
6.958572
 30
0.0
 10
15.117535
 20
5.055376
 30
0.0
 10
15.017535
 20
5.055376
 30
0.0
 10
15.017535
 20
7.058572
 30
0.0
 10
17.250792
 20
7.058572
 30
0.0
 10
17.250792
 20
6.958572
 30
0.0
  0
LWPOLYLINE
  5
104
100
AcDbEntity
  8
0
 62
7
100
AcDbPolyline
 90
7
 70
1
 10
1.762161
 20
7.058572
 30
0.0
 10
3.995418
 20
7.058572
 30
0.0
 10
3.995418
 20
5.055376
 30
0.0
 10
3.895418
 20
5.055376
 30
0.0
 10
3.895418
 20
6.958572
 30
0.0
 10
1.762161
 20
6.958572
 30
0.0
 10
1.762161
 20
7.058572
 30
0.0
  0
LWPOLYLINE
  5
105
100
AcDbEntity
  8
0
 62
7
100
AcDbPolyline
 90
7
 70
1
 10
1.228676
 20
6.958572
 30
0.0
 10
-0.904582
 20
6.958572
 30
0.0
 10
-0.904582
 20
5.055376
 30
0.0
 10
-1.004582
 20
5.055376
 30
0.0
 10
-1.004582
 20
7.058572
 30
0.0
 10
1.228676
 20
7.058572
 30
0.0
 10
1.228676
 20
6.958572
 30
0.0
  0
LWPOLYLINE
  5
106
100
AcDbEntity
  8
0
 62
7
100
AcDbPolyline
 90
7
 70
1
 10
-4.015640
 20
7.058572
 30
0.0
 10
-4.015640
 20
5.055376
 30
0.0
 10
-4.115640
 20
5.055376
 30
0.0
 10
-4.115640
 20
6.958572
 30
0.0
 10
-6.248898
 20
6.958572
 30
0.0
 10
-6.248898
 20
7.058572
 30
0.0
 10
-4.015640
 20
7.058572
 30
0.0
  0
LWPOLYLINE
  5
107
100
AcDbEntity
  8
0
 62
7
100
AcDbPolyline
 90
7
 70
1
 10
25.795336
 20
7.058572
 30
0.0
 10
28.028593
 20
7.058572
 30
0.0
 10
28.028593
 20
5.055376
 30
0.0
 10
27.928593
 20
5.055376
 30
0.0
 10
27.928593
 20
6.958572
 30
0.0
 10
25.795336
 20
6.958572
 30
0.0
 10
25.795336
 20
7.058572
 30
0.0
  0
LWPOLYLINE
  5
108
100
AcDbEntity
  8
0
 62
7
100
AcDbPolyline
 90
7
 70
1
 10
33.806394
 20
7.058572
 30
0.0
 10
36.039652
 20
7.058572
 30
0.0
 10
36.039652
 20
5.055376
 30
0.0
 10
35.939651
 20
5.055376
 30
0.0
 10
35.939651
 20
6.958572
 30
0.0
 10
33.806394
 20
6.958572
 30
0.0
 10
33.806394
 20
7.058572
 30
0.0
  0
LWPOLYLINE
  5
109
100
AcDbEntity
  8
0
 62
7
100
AcDbPolyline
 90
7
 70
1
 10
33.272909
 20
6.958572
 30
0.0
 10
31.139651
 20
6.958572
 30
0.0
 10
31.139651
 20
5.055376
 30
0.0
 10
31.039652
 20
5.055376
 30
0.0
 10
31.039652
 20
7.058572
 30
0.0
 10
33.272909
 20
7.058572
 30
0.0
 10
33.272909
 20
6.958572
 30
0.0
  0
LWPOLYLINE
  5
10a
100
AcDbEntity
  8
0
 62
7
100
AcDbPolyline
 90
7
 70
1
 10
-6.782383
 20
6.958572
 30
0.0
 10
-8.915640
 20
6.958572
 30
0.0
 10
-8.915640
 20
5.055376
 30
0.0
 10
-9.015640
 20
5.055376
 30
0.0
 10
-9.015640
 20
7.058572
 30
0.0
 10
-6.782383
 20
7.058572
 30
0.0
 10
-6.782383
 20
6.958572
 30
0.0
  0
LWPOLYLINE
  5
10b
100
AcDbEntity
  8
0
 62
7
100
AcDbPolyline
 90
7
 70
1
 10
25.261851
 20
6.958572
 30
0.0
 10
23.128593
 20
6.958572
 30
0.0
 10
23.128593
 20
5.055376
 30
0.0
 10
23.028593
 20
5.055376
 30
0.0
 10
23.028593
 20
7.058572
 30
0.0
 10
25.261851
 20
7.058572
 30
0.0
 10
25.261851
 20
6.958572
 30
0.0
  0
LWPOLYLINE
  5
10c
100
AcDbEntity
  8
0
 62
7
100
AcDbPolyline
 90
227
 70
1
 10
36.045181
 20
2.058572
 30
0.0
 10
36.045181
 20
1.658572
 30
0.0
 10
37.545181
 20
1.658572
 30
0.0
 10
37.545181
 20
3.679445
 30
0.0
 10
38.545181
 20
3.679445
 30
0.0
 10
38.545181
 20
7.413729
 30
0.0
 10
37.545181
 20
7.413729
 30
0.0
 10
37.545181
 20
10.058572
 30
0.0
 10
36.510004
 20
10.058572
 30
0.0
 10
36.510004
 20
9.058572
 30
0.0
 10
36.210004
 20
9.058572
 30
0.0
 10
36.210004
 20
10.058572
 30
0.0
 10
35.174828
 20
10.058572
 30
0.0
 10
35.174828
 20
9.058572
 30
0.0
 10
34.874828
 20
9.058572
 30
0.0
 10
34.874828
 20
10.058572
 30
0.0
 10
33.839651
 20
10.058572
 30
0.0
 10
33.839651
 20
9.058572
 30
0.0
 10
33.539652
 20
9.058572
 30
0.0
 10
33.539652
 20
10.058572
 30
0.0
 10
32.504475
 20
10.058572
 30
0.0
 10
32.504475
 20
9.058572
 30
0.0
 10
32.204475
 20
9.058572
 30
0.0
 10
32.204475
 20
10.058572
 30
0.0
 10
31.169299
 20
10.058572
 30
0.0
 10
31.169299
 20
9.058572
 30
0.0
 10
30.869299
 20
9.058572
 30
0.0
 10
30.869299
 20
10.058572
 30
0.0
 10
29.834122
 20
10.058572
 30
0.0
 10
29.834122
 20
9.058572
 30
0.0
 10
29.534122
 20
9.058572
 30
0.0
 10
29.534122
 20
10.058572
 30
0.0
 10
28.498946
 20
10.058572
 30
0.0
 10
28.498946
 20
9.058572
 30
0.0
 10
28.198946
 20
9.058572
 30
0.0
 10
28.198946
 20
10.058572
 30
0.0
 10
27.163770
 20
10.058572
 30
0.0
 10
27.163770
 20
9.058572
 30
0.0
 10
26.863770
 20
9.058572
 30
0.0
 10
26.863770
 20
10.058572
 30
0.0
 10
25.828593
 20
10.058572
 30
0.0
 10
25.828593
 20
9.058572
 30
0.0
 10
25.528593
 20
9.058572
 30
0.0
 10
25.528593
 20
10.058572
 30
0.0
 10
24.493417
 20
10.058572
 30
0.0
 10
24.493417
 20
9.058572
 30
0.0
 10
24.193417
 20
9.058572
 30
0.0
 10
24.193417
 20
10.058572
 30
0.0
 10
23.158240
 20
10.058572
 30
0.0
 10
23.158240
 20
9.058572
 30
0.0
 10
22.858240
 20
9.058572
 30
0.0
 10
22.858240
 20
10.058572
 30
0.0
 10
21.823064
 20
10.058572
 30
0.0
 10
21.823064
 20
9.058572
 30
0.0
 10
21.523064
 20
9.058572
 30
0.0
 10
21.523064
 20
10.058572
 30
0.0
 10
20.487888
 20
10.058572
 30
0.0
 10
20.487888
 20
9.058572
 30
0.0
 10
20.187888
 20
9.058572
 30
0.0
 10
20.187888
 20
10.058572
 30
0.0
 10
19.152711
 20
10.058572
 30
0.0
 10
19.152711
 20
9.058572
 30
0.0
 10
18.852711
 20
9.058572
 30
0.0
 10
18.852711
 20
10.058572
 30
0.0
 10
17.817535
 20
10.058572
 30
0.0
 10
17.817535
 20
9.058572
 30
0.0
 10
17.517535
 20
9.058572
 30
0.0
 10
17.517535
 20
10.058572
 30
0.0
 10
16.482358
 20
10.058572
 30
0.0
 10
16.482358
 20
9.058572
 30
0.0
 10
16.182358
 20
9.058572
 30
0.0
 10
16.182358
 20
10.058572
 30
0.0
 10
15.147182
 20
10.058572
 30
0.0
 10
15.147182
 20
9.058572
 30
0.0
 10
14.847182
 20
9.058572
 30
0.0
 10
14.847182
 20
10.058572
 30
0.0
 10
13.812006
 20
10.058572
 30
0.0
 10
13.812006
 20
9.058572
 30
0.0
 10
13.512006
 20
9.058572
 30
0.0
 10
13.512006
 20
10.058572
 30
0.0
 10
12.476829
 20
10.058572
 30
0.0
 10
12.476829
 20
9.058572
 30
0.0
 10
12.176829
 20
9.058572
 30
0.0
 10
12.176829
 20
10.058572
 30
0.0
 10
11.141653
 20
10.058572
 30
0.0
 10
11.141653
 20
9.058572
 30
0.0
 10
10.841653
 20
9.058572
 30
0.0
 10
10.841653
 20
10.058572
 30
0.0
 10
9.806477
 20
10.058572
 30
0.0
 10
9.806477
 20
9.058572
 30
0.0
 10
9.506476
 20
9.058572
 30
0.0
 10
9.506476
 20
10.058572
 30
0.0
 10
8.471300
 20
10.058572
 30
0.0
 10
8.471300
 20
9.058572
 30
0.0
 10
8.171300
 20
9.058572
 30
0.0
 10
8.171300
 20
10.058572
 30
0.0
 10
7.136124
 20
10.058572
 30
0.0
 10
7.136124
 20
9.058572
 30
0.0
 10
6.836124
 20
9.058572
 30
0.0
 10
6.836124
 20
10.058572
 30
0.0
 10
5.800947
 20
10.058572
 30
0.0
 10
5.800947
 20
9.058572
 30
0.0
 10
5.500947
 20
9.058572
 30
0.0
 10
5.500947
 20
10.058572
 30
0.0
 10
4.465771
 20
10.058572
 30
0.0
 10
4.465771
 20
9.058572
 30
0.0
 10
4.165771
 20
9.058572
 30
0.0
 10
4.165771
 20
10.058572
 30
0.0
 10
3.130595
 20
10.058572
 30
0.0
 10
3.130595
 20
9.058572
 30
0.0
 10
2.830595
 20
9.058572
 30
0.0
 10
2.830595
 20
10.058572
 30
0.0
 10
1.795418
 20
10.058572
 30
0.0
 10
1.795418
 20
9.058572
 30
0.0
 10
1.495418
 20
9.058572
 30
0.0
 10
1.495418
 20
10.058572
 30
0.0
 10
0.460242
 20
10.058572
 30
0.0
 10
0.460242
 20
9.058572
 30
0.0
 10
0.160242
 20
9.058572
 30
0.0
 10
0.160242
 20
10.058572
 30
0.0
 10
-0.874935
 20
10.058572
 30
0.0
 10
-0.874935
 20
9.058572
 30
0.0
 10
-1.174935
 20
9.058572
 30
0.0
 10
-1.174935
 20
10.058572
 30
0.0
 10
-2.210111
 20
10.058572
 30
0.0
 10
-2.210111
 20
9.058572
 30
0.0
 10
-2.510111
 20
9.058572
 30
0.0
 10
-2.510111
 20
10.058572
 30
0.0
 10
-3.545287
 20
10.058572
 30
0.0
 10
-3.545287
 20
9.058572
 30
0.0
 10
-3.845287
 20
9.058572
 30
0.0
 10
-3.845287
 20
10.058572
 30
0.0
 10
-4.880464
 20
10.058572
 30
0.0
 10
-4.880464
 20
9.058572
 30
0.0
 10
-5.180464
 20
9.058572
 30
0.0
 10
-5.180464
 20
10.058572
 30
0.0
 10
-6.215640
 20
10.058572
 30
0.0
 10
-6.215640
 20
9.058572
 30
0.0
 10
-6.515640
 20
9.058572
 30
0.0
 10
-6.515640
 20
10.058572
 30
0.0
 10
-7.550817
 20
10.058572
 30
0.0
 10
-7.550817
 20
9.058572
 30
0.0
 10
-7.850817
 20
9.058572
 30
0.0
 10
-7.850817
 20
10.058572
 30
0.0
 10
-8.885993
 20
10.058572
 30
0.0
 10
-8.885993
 20
9.058572
 30
0.0
 10
-9.185993
 20
9.058572
 30
0.0
 10
-9.185993
 20
10.058572
 30
0.0
 10
-10.221169
 20
10.058572
 30
0.0
 10
-10.221169
 20
9.058572
 30
0.0
 10
-10.521169
 20
9.058572
 30
0.0
 10
-10.521169
 20
7.413729
 30
0.0
 10
-9.521169
 20
7.413729
 30
0.0
 10
-9.521169
 20
3.679445
 30
0.0
 10
-10.521169
 20
3.679445
 30
0.0
 10
-10.521169
 20
1.658572
 30
0.0
 10
-9.021169
 20
1.658572
 30
0.0
 10
-9.021169
 20
2.058572
 30
0.0
 10
-9.015640
 20
2.058572
 30
0.0
 10
-9.015640
 20
4.508572
 30
0.0
 10
-8.915640
 20
4.508572
 30
0.0
 10
-8.915640
 20
2.058572
 30
0.0
 10
-4.115640
 20
2.058572
 30
0.0
 10
-4.115640
 20
4.508572
 30
0.0
 10
-4.015640
 20
4.508572
 30
0.0
 10
-4.015640
 20
2.058572
 30
0.0
 10
-4.010111
 20
2.058572
 30
0.0
 10
-4.010111
 20
1.658572
 30
0.0
 10
-1.010111
 20
1.658572
 30
0.0
 10
-1.010111
 20
2.058572
 30
0.0
 10
-1.004582
 20
2.058572
 30
0.0
 10
-1.004582
 20
4.508572
 30
0.0
 10
-0.904582
 20
4.508572
 30
0.0
 10
-0.904582
 20
2.058572
 30
0.0
 10
3.895418
 20
2.058572
 30
0.0
 10
3.895418
 20
4.508572
 30
0.0
 10
3.995418
 20
4.508572
 30
0.0
 10
3.995418
 20
2.058572
 30
0.0
 10
4.000947
 20
2.058572
 30
0.0
 10
4.000947
 20
1.658572
 30
0.0
 10
7.000947
 20
1.658572
 30
0.0
 10
7.000947
 20
2.058572
 30
0.0
 10
7.006476
 20
2.058572
 30
0.0
 10
7.006476
 20
4.508572
 30
0.0
 10
7.106477
 20
4.508572
 30
0.0
 10
7.106477
 20
2.058572
 30
0.0
 10
11.906477
 20
2.058572
 30
0.0
 10
11.906477
 20
4.508572
 30
0.0
 10
12.006476
 20
4.508572
 30
0.0
 10
12.006476
 20
2.058572
 30
0.0
 10
12.012006
 20
2.058572
 30
0.0
 10
12.012006
 20
1.658572
 30
0.0
 10
15.012006
 20
1.658572
 30
0.0
 10
15.012006
 20
2.058572
 30
0.0
 10
15.017535
 20
2.058572
 30
0.0
 10
15.017535
 20
4.508572
 30
0.0
 10
15.117535
 20
4.508572
 30
0.0
 10
15.117535
 20
2.058572
 30
0.0
 10
19.917535
 20
2.058572
 30
0.0
 10
19.917535
 20
4.508572
 30
0.0
 10
20.017535
 20
4.508572
 30
0.0
 10
20.017535
 20
2.058572
 30
0.0
 10
20.023064
 20
2.058572
 30
0.0
 10
20.023064
 20
1.658572
 30
0.0
 10
23.023064
 20
1.658572
 30
0.0
 10
23.023064
 20
2.058572
 30
0.0
 10
23.028593
 20
2.058572
 30
0.0
 10
23.028593
 20
4.508572
 30
0.0
 10
23.128593
 20
4.508572
 30
0.0
 10
23.128593
 20
2.058572
 30
0.0
 10
27.928593
 20
2.058572
 30
0.0
 10
27.928593
 20
4.508572
 30
0.0
 10
28.028593
 20
4.508572
 30
0.0
 10
28.028593
 20
2.058572
 30
0.0
 10
28.034122
 20
2.058572
 30
0.0
 10
28.034122
 20
1.658572
 30
0.0
 10
31.034122
 20
1.658572
 30
0.0
 10
31.034122
 20
2.058572
 30
0.0
 10
31.039652
 20
2.058572
 30
0.0
 10
31.039652
 20
4.508572
 30
0.0
 10
31.139651
 20
4.508572
 30
0.0
 10
31.139651
 20
2.058572
 30
0.0
 10
35.939651
 20
2.058572
 30
0.0
 10
35.939651
 20
4.508572
 30
0.0
 10
36.039652
 20
4.508572
 30
0.0
 10
36.039652
 20
2.058572
 30
0.0
 10
36.045181
 20
2.058572
 30
0.0
  0
ENDSEC
  0
SECTION
  2
OBJECTS
  0
DICTIONARY
  5
C
330
0
100
AcDbDictionary
  3
ACAD_GROUP
350
D
  3
ACAD_MLINESTYLE
350
17
  0
DICTIONARY
  5
D
330
C
100
AcDbDictionary
  0
DICTIONARY
  5
1A
330
C
100
AcDbDictionary
  0
DICTIONARY
  5
17
330
C
100
AcDbDictionary
  3
STANDARD
350
18
  0
DICTIONARY
  5
19
330
C
100
AcDbDictionary
  0
ENDSEC
  0
EOF
