  0
SECTION
  2
HEADER
  9
$ACADVER
  1
AC1014
  9
$HANDSEED
  5
FFFF
  9
$MEASUREMENT
 70
     1
  0
ENDSEC
  0
SECTION
  2
TABLES
  0
TABLE
  2
VPORT
  5
8
330
0
100
AcDbSymbolTable
 70
     4
  0
VPORT
  5
2E
330
8
100
AcDbSymbolTableRecord
100
AcDbViewportTableRecord
  2
*ACTIVE
 70
     0
 10
0.0
 20
0.0
 11
1.0
 21
1.0
 12
210.0
 22
148.5
 13
0.0
 23
0.0
 14
10.0
 24
10.0
 15
10.0
 25
10.0
 16
0.0
 26
0.0
 36
1.0
 17
0.0
 27
0.0
 37
0.0
 40
341.0
 41
1.24
 42
50.0
 43
0.0
 44
0.0
 50
0.0
 51
0.0
 71
     0
 72
   100
 73
     1
 74
     3
 75
     0
 76
     0
 77
     0
 78
     0
  0
ENDTAB
  0
TABLE
  2
LTYPE
  5
5
330
0
100
AcDbSymbolTable
 70
     1
  0
LTYPE
  5
14
330
5
100
AcDbSymbolTableRecord
100
AcDbLinetypeTableRecord
  2
BYBLOCK
 70
     0
  3

 72
    65
 73
     0
 40
0.0
  0
LTYPE
  5
15
330
5
100
AcDbSymbolTableRecord
100
AcDbLinetypeTableRecord
  2
BYLAYER
 70
     0
  3

 72
    65
 73
     0
 40
0.0
  0
LTYPE
  5
16
330
5
100
AcDbSymbolTableRecord
100
AcDbLinetypeTableRecord
  2
CONTINUOUS
 70
     0
  3
Solid line
 72
    65
 73
     0
 40
0.0
  0
ENDTAB
  0
TABLE
  2
LAYER
  5
2
100
AcDbSymbolTable
 70
2
  0
LAYER
  5
50
100
AcDbSymbolTableRecord
100
AcDbLayerTableRecord
  2
0
 70
0
  6
CONTINUOUS
  0
LAYER
  5
51
100
AcDbSymbolTableRecord
100
AcDbLayerTableRecord
  2
To_laser_cut
 70
0
  6
CONTINUOUS
  0
ENDTAB
  0
TABLE
  2
STYLE
  5
3
330
0
100
AcDbSymbolTable
 70
     1
  0
STYLE
  5
11
330
3
100
AcDbSymbolTableRecord
100
AcDbTextStyleTableRecord
  2
STANDARD
 70
     0
 40
0.0
 41
1.0
 50
0.0
 71
     0
 42
2.5
  3
txt
  4

  0
ENDTAB
  0
TABLE
  2
VIEW
  5
6
330
0
100
AcDbSymbolTable
 70
     0
  0
ENDTAB
  0
TABLE
  2
UCS
  5
7
330
0
100
AcDbSymbolTable
 70
     0
  0
ENDTAB
  0
TABLE
  2
APPID
  5
9
330
0
100
AcDbSymbolTable
 70
     2
  0
APPID
  5
12
330
9
100
AcDbSymbolTableRecord
100
AcDbRegAppTableRecord
  2
ACAD
 70
     0
  0
ENDTAB
  0
TABLE
  2
DIMSTYLE
  5
A
330
0
100
AcDbSymbolTable
 70
     1
  0
DIMSTYLE
105
27
330
A
100
AcDbSymbolTableRecord
100
AcDbDimStyleTableRecord
  2
ISO-25
 70
     0
  3

  4

  5

  6

  7

 40
1.0
 41
2.5
 42
0.625
 43
3.75
 44
1.25
 45
0.0
 46
0.0
 47
0.0
 48
0.0
140
2.5
141
2.5
142
0.0
143
0.03937007874016
144
1.0
145
0.0
146
1.0
147
0.625
 71
     0
 72
     0
 73
     0
 74
     0
 75
     0
 76
     0
 77
     1
 78
     8
170
     0
171
     3
172
     1
173
     0
174
     0
175
     0
176
     0
177
     0
178
     0
270
     2
271
     2
272
     2
273
     2
274
     3
340
11
275
     0
280
     0
281
     0
282
     0
283
     0
284
     8
285
     0
286
     0
287
     3
288
     0
  0
ENDTAB
  0
TABLE
  2
BLOCK_RECORD
  5
1
330
0
100
AcDbSymbolTable
 70
     1
  0
BLOCK_RECORD
  5
1F
330
1
100
AcDbSymbolTableRecord
100
AcDbBlockTableRecord
  2
*MODEL_SPACE
  0
BLOCK_RECORD
  5
1B
330
1
100
AcDbSymbolTableRecord
100
AcDbBlockTableRecord
  2
*PAPER_SPACE
  0
ENDTAB
  0
ENDSEC
  0
SECTION
  2
BLOCKS
  0
BLOCK
  5
20
330
1F
100
AcDbEntity
  8
0
100
AcDbBlockBegin
  2
*MODEL_SPACE
 70
     0
 10
0.0
 20
0.0
 30
0.0
  3
*MODEL_SPACE
  1

  0
ENDBLK
  5
21
330
1F
100
AcDbEntity
  8
0
100
AcDbBlockEnd
  0
BLOCK
  5
1C
330
1B
100
AcDbEntity
 67
     1
  8
0
100
AcDbBlockBegin
  2
*PAPER_SPACE
  1

  0
ENDBLK
  5
1D
330
1B
100
AcDbEntity
 67
     1
  8
0
100
AcDbBlockEnd
  0
ENDSEC
  0
SECTION
  2
ENTITIES
  0
LINE
  5
100
100
AcDbEntity
  8
To_laser_cut
 62
1
100
AcDbLine
 10
-318.454789
 20
966.025818
 30
0.0
 11
-318.454789
 21
966.025818
 31
0.0
  0
LINE
  5
101
100
AcDbEntity
  8
To_laser_cut
 62
1
100
AcDbLine
 10
-318.454789
 20
966.025818
 30
0.0
 11
-318.454789
 21
966.025818
 31
0.0
  0
LINE
  5
102
100
AcDbEntity
  8
To_laser_cut
 62
1
100
AcDbLine
 10
-318.454789
 20
966.025818
 30
0.0
 11
-318.454789
 21
981.265818
 31
0.0
  0
LINE
  5
103
100
AcDbEntity
  8
To_laser_cut
 62
1
100
AcDbLine
 10
-318.454789
 20
981.265818
 30
0.0
 11
-333.704789
 21
981.265818
 31
0.0
  0
LINE
  5
104
100
AcDbEntity
  8
To_laser_cut
 62
1
100
AcDbLine
 10
-333.704789
 20
981.265818
 30
0.0
 11
-333.704789
 21
981.265818
 31
0.0
  0
LINE
  5
105
100
AcDbEntity
  8
To_laser_cut
 62
1
100
AcDbLine
 10
-333.704789
 20
981.265818
 30
0.0
 11
-333.704789
 21
1098.105814
 31
0.0
  0
LINE
  5
106
100
AcDbEntity
  8
To_laser_cut
 62
1
100
AcDbLine
 10
-333.704789
 20
1098.105814
 30
0.0
 11
-333.704789
 21
1098.105814
 31
0.0
  0
LINE
  5
107
100
AcDbEntity
  8
To_laser_cut
 62
1
100
AcDbLine
 10
-333.704789
 20
1098.105814
 30
0.0
 11
-318.454789
 21
1098.105814
 31
0.0
  0
LINE
  5
108
100
AcDbEntity
  8
To_laser_cut
 62
1
100
AcDbLine
 10
-318.454789
 20
1098.105814
 30
0.0
 11
-318.454789
 21
1138.745813
 31
0.0
  0
LINE
  5
109
100
AcDbEntity
  8
To_laser_cut
 62
1
100
AcDbLine
 10
-318.454789
 20
1138.745813
 30
0.0
 11
-333.704789
 21
1138.745813
 31
0.0
  0
LINE
  5
10a
100
AcDbEntity
  8
To_laser_cut
 62
1
100
AcDbLine
 10
-333.704789
 20
1138.745813
 30
0.0
 11
-333.704789
 21
1138.745813
 31
0.0
  0
LINE
  5
10b
100
AcDbEntity
  8
To_laser_cut
 62
1
100
AcDbLine
 10
-333.704789
 20
1138.745813
 30
0.0
 11
-333.704789
 21
1255.585799
 31
0.0
  0
LINE
  5
10c
100
AcDbEntity
  8
To_laser_cut
 62
1
100
AcDbLine
 10
-333.704789
 20
1255.585799
 30
0.0
 11
-333.704789
 21
1255.585799
 31
0.0
  0
LINE
  5
10d
100
AcDbEntity
  8
To_laser_cut
 62
1
100
AcDbLine
 10
-333.704789
 20
1255.585799
 30
0.0
 11
-318.454789
 21
1255.585799
 31
0.0
  0
LINE
  5
10e
100
AcDbEntity
  8
To_laser_cut
 62
1
100
AcDbLine
 10
-318.454789
 20
1255.585799
 30
0.0
 11
-318.454789
 21
1270.825788
 31
0.0
  0
LINE
  5
10f
100
AcDbEntity
  8
To_laser_cut
 62
1
100
AcDbLine
 10
-318.454789
 20
1270.825788
 30
0.0
 11
-318.454789
 21
1270.825778
 31
0.0
  0
LINE
  5
110
100
AcDbEntity
  8
To_laser_cut
 62
1
100
AcDbLine
 10
-318.454789
 20
1270.825778
 30
0.0
 11
-31.674299
 21
1270.825788
 31
0.0
  0
LINE
  5
111
100
AcDbEntity
  8
To_laser_cut
 62
1
100
AcDbLine
 10
-31.674299
 20
1270.825788
 30
0.0
 11
-31.674299
 21
966.025818
 31
0.0
  0
LINE
  5
112
100
AcDbEntity
  8
To_laser_cut
 62
1
100
AcDbLine
 10
-31.674299
 20
966.025818
 30
0.0
 11
-318.454789
 21
966.025818
 31
0.0
  0
SPLINE
  5
113
100
AcDbEntity
  8
To_laser_cut
 62
1
100
AcDbSpline
 70
8
 71
3
 72
8
 73
4
 74
0
 40
0
 40
0
 40
0
 40
0
 40
1
 40
1
 40
1
 40
1
 10
-317.829790
 20
1037.185806
 30
0.0
 10
-314.496490
 20
1037.185806
 30
0.0
 10
-314.496490
 20
1042.185806
 30
0.0
 10
-317.829790
 20
1042.185806
 30
0.0
  0
SPLINE
  5
114
100
AcDbEntity
  8
To_laser_cut
 62
1
100
AcDbSpline
 70
8
 71
3
 72
8
 73
4
 74
0
 40
0
 40
0
 40
0
 40
0
 40
1
 40
1
 40
1
 40
1
 10
-317.829790
 20
1042.185806
 30
0.0
 10
-321.163089
 20
1042.185806
 30
0.0
 10
-321.163089
 20
1037.185806
 30
0.0
 10
-317.829790
 20
1037.185806
 30
0.0
  0
LINE
  5
115
100
AcDbEntity
  8
To_laser_cut
 62
1
100
AcDbLine
 10
-317.829790
 20
1037.185806
 30
0.0
 11
-317.829790
 21
1037.185806
 31
0.0
  0
SPLINE
  5
116
100
AcDbEntity
  8
To_laser_cut
 62
1
100
AcDbSpline
 70
8
 71
3
 72
8
 73
4
 74
0
 40
0
 40
0
 40
0
 40
0
 40
1
 40
1
 40
1
 40
1
 10
-44.779799
 20
1001.625807
 30
0.0
 10
-41.446499
 20
1001.625807
 30
0.0
 10
-41.446499
 20
1006.625807
 30
0.0
 10
-44.779799
 20
1006.625807
 30
0.0
  0
SPLINE
  5
117
100
AcDbEntity
  8
To_laser_cut
 62
1
100
AcDbSpline
 70
8
 71
3
 72
8
 73
4
 74
0
 40
0
 40
0
 40
0
 40
0
 40
1
 40
1
 40
1
 40
1
 10
-44.779799
 20
1006.625807
 30
0.0
 10
-48.113098
 20
1006.625807
 30
0.0
 10
-48.113098
 20
1001.625807
 30
0.0
 10
-44.779799
 20
1001.625807
 30
0.0
  0
LINE
  5
118
100
AcDbEntity
  8
To_laser_cut
 62
1
100
AcDbLine
 10
-44.779799
 20
1001.625807
 30
0.0
 11
-44.779799
 21
1001.625807
 31
0.0
  0
SPLINE
  5
119
100
AcDbEntity
  8
To_laser_cut
 62
1
100
AcDbSpline
 70
8
 71
3
 72
8
 73
4
 74
0
 40
0
 40
0
 40
0
 40
0
 40
1
 40
1
 40
1
 40
1
 10
-317.829790
 20
1194.665801
 30
0.0
 10
-314.496490
 20
1194.665801
 30
0.0
 10
-314.496490
 20
1199.665801
 30
0.0
 10
-317.829790
 20
1199.665801
 30
0.0
  0
SPLINE
  5
11a
100
AcDbEntity
  8
To_laser_cut
 62
1
100
AcDbSpline
 70
8
 71
3
 72
8
 73
4
 74
0
 40
0
 40
0
 40
0
 40
0
 40
1
 40
1
 40
1
 40
1
 10
-317.829790
 20
1199.665801
 30
0.0
 10
-321.163089
 20
1199.665801
 30
0.0
 10
-321.163089
 20
1194.665801
 30
0.0
 10
-317.829790
 20
1194.665801
 30
0.0
  0
LINE
  5
11b
100
AcDbEntity
  8
To_laser_cut
 62
1
100
AcDbLine
 10
-317.829790
 20
1194.665801
 30
0.0
 11
-317.829790
 21
1194.665801
 31
0.0
  0
SPLINE
  5
11c
100
AcDbEntity
  8
To_laser_cut
 62
1
100
AcDbSpline
 70
8
 71
3
 72
8
 73
4
 74
0
 40
0
 40
0
 40
0
 40
0
 40
1
 40
1
 40
1
 40
1
 10
-44.779799
 20
1115.925803
 30
0.0
 10
-41.446499
 20
1115.925803
 30
0.0
 10
-41.446499
 20
1120.925803
 30
0.0
 10
-44.779799
 20
1120.925803
 30
0.0
  0
SPLINE
  5
11d
100
AcDbEntity
  8
To_laser_cut
 62
1
100
AcDbSpline
 70
8
 71
3
 72
8
 73
4
 74
0
 40
0
 40
0
 40
0
 40
0
 40
1
 40
1
 40
1
 40
1
 10
-44.779799
 20
1120.925803
 30
0.0
 10
-48.113098
 20
1120.925803
 30
0.0
 10
-48.113098
 20
1115.925803
 30
0.0
 10
-44.779799
 20
1115.925803
 30
0.0
  0
LINE
  5
11e
100
AcDbEntity
  8
To_laser_cut
 62
1
100
AcDbLine
 10
-44.779799
 20
1115.925803
 30
0.0
 11
-44.779799
 21
1115.925803
 31
0.0
  0
SPLINE
  5
11f
100
AcDbEntity
  8
To_laser_cut
 62
1
100
AcDbSpline
 70
8
 71
3
 72
8
 73
4
 74
0
 40
0
 40
0
 40
0
 40
0
 40
1
 40
1
 40
1
 40
1
 10
-44.779799
 20
1230.225800
 30
0.0
 10
-41.446499
 20
1230.225800
 30
0.0
 10
-41.446499
 20
1235.225799
 30
0.0
 10
-44.779799
 20
1235.225799
 30
0.0
  0
SPLINE
  5
120
100
AcDbEntity
  8
To_laser_cut
 62
1
100
AcDbSpline
 70
8
 71
3
 72
8
 73
4
 74
0
 40
0
 40
0
 40
0
 40
0
 40
1
 40
1
 40
1
 40
1
 10
-44.779799
 20
1235.225799
 30
0.0
 10
-48.113098
 20
1235.225799
 30
0.0
 10
-48.113098
 20
1230.225800
 30
0.0
 10
-44.779799
 20
1230.225800
 30
0.0
  0
LINE
  5
121
100
AcDbEntity
  8
To_laser_cut
 62
1
100
AcDbLine
 10
-44.779799
 20
1230.225800
 30
0.0
 11
-44.779799
 21
1230.225800
 31
0.0
  0
LINE
  5
122
100
AcDbEntity
  8
To_laser_cut
 62
1
100
AcDbLine
 10
-31.674799
 20
910.145670
 30
0.0
 11
-29.174799
 21
910.145670
 31
0.0
  0
LINE
  5
123
100
AcDbEntity
  8
To_laser_cut
 62
1
100
AcDbLine
 10
-29.174799
 20
910.145670
 30
0.0
 11
-29.174799
 21
950.785669
 31
0.0
  0
LINE
  5
124
100
AcDbEntity
  8
To_laser_cut
 62
1
100
AcDbLine
 10
-29.174799
 20
950.785669
 30
0.0
 11
-31.674799
 21
950.785669
 31
0.0
  0
LINE
  5
125
100
AcDbEntity
  8
To_laser_cut
 62
1
100
AcDbLine
 10
-31.674799
 20
950.785669
 30
0.0
 11
-31.674799
 21
1067.625665
 31
0.0
  0
LINE
  5
126
100
AcDbEntity
  8
To_laser_cut
 62
1
100
AcDbLine
 10
-31.674799
 20
1067.625665
 30
0.0
 11
-29.174799
 21
1067.625665
 31
0.0
  0
LINE
  5
127
100
AcDbEntity
  8
To_laser_cut
 62
1
100
AcDbLine
 10
-29.174799
 20
1067.625665
 30
0.0
 11
-29.174799
 21
1108.265664
 31
0.0
  0
LINE
  5
128
100
AcDbEntity
  8
To_laser_cut
 62
1
100
AcDbLine
 10
-29.174799
 20
1108.265664
 30
0.0
 11
-31.674799
 21
1108.265664
 31
0.0
  0
LINE
  5
129
100
AcDbEntity
  8
To_laser_cut
 62
1
100
AcDbLine
 10
-31.674799
 20
1108.265664
 30
0.0
 11
-31.674799
 21
1225.105660
 31
0.0
  0
LINE
  5
12a
100
AcDbEntity
  8
To_laser_cut
 62
1
100
AcDbLine
 10
-31.674799
 20
1225.105660
 30
0.0
 11
-29.174799
 21
1225.105660
 31
0.0
  0
LINE
  5
12b
100
AcDbEntity
  8
To_laser_cut
 62
1
100
AcDbLine
 10
-29.174799
 20
1225.105660
 30
0.0
 11
-29.174799
 21
1265.745658
 31
0.0
  0
LINE
  5
12c
100
AcDbEntity
  8
To_laser_cut
 62
1
100
AcDbLine
 10
-29.174799
 20
1265.745658
 30
0.0
 11
-31.674799
 21
1265.745658
 31
0.0
  0
LINE
  5
12d
100
AcDbEntity
  8
To_laser_cut
 62
1
100
AcDbLine
 10
-31.674799
 20
1265.745658
 30
0.0
 11
-31.674799
 21
1270.825658
 31
0.0
  0
LINE
  5
12e
100
AcDbEntity
  8
To_laser_cut
 62
1
100
AcDbLine
 10
-31.674799
 20
1270.825658
 30
0.0
 11
283.285191
 21
1270.825658
 31
0.0
  0
LINE
  5
12f
100
AcDbEntity
  8
To_laser_cut
 62
1
100
AcDbLine
 10
283.285191
 20
1270.825658
 30
0.0
 11
283.285191
 21
905.065670
 31
0.0
  0
LINE
  5
130
100
AcDbEntity
  8
To_laser_cut
 62
1
100
AcDbLine
 10
283.285191
 20
905.065670
 30
0.0
 11
-31.674799
 21
905.065670
 31
0.0
  0
LINE
  5
131
100
AcDbEntity
  8
To_laser_cut
 62
1
100
AcDbLine
 10
-31.674799
 20
905.065670
 30
0.0
 11
-31.674799
 21
910.145670
 31
0.0
  0
SPLINE
  5
132
100
AcDbEntity
  8
To_laser_cut
 62
1
100
AcDbSpline
 70
8
 71
3
 72
8
 73
4
 74
0
 40
0
 40
0
 40
0
 40
0
 40
1
 40
1
 40
1
 40
1
 10
-21.874799
 20
1073.045665
 30
0.0
 10
-21.053088
 20
1073.045665
 30
0.0
 10
-20.293796
 20
1073.484042
 30
0.0
 10
-19.882941
 20
1074.195665
 30
0.0
  0
SPLINE
  5
133
100
AcDbEntity
  8
To_laser_cut
 62
1
100
AcDbSpline
 70
8
 71
3
 72
8
 73
4
 74
0
 40
0
 40
0
 40
0
 40
0
 40
1
 40
1
 40
1
 40
1
 10
-19.882941
 20
1074.195665
 30
0.0
 10
-19.472086
 20
1074.907287
 30
0.0
 10
-19.472086
 20
1075.784042
 30
0.0
 10
-19.882941
 20
1076.495665
 30
0.0
  0
SPLINE
  5
134
100
AcDbEntity
  8
To_laser_cut
 62
1
100
AcDbSpline
 70
8
 71
3
 72
8
 73
4
 74
0
 40
0
 40
0
 40
0
 40
0
 40
1
 40
1
 40
1
 40
1
 10
-19.882941
 20
1076.495665
 30
0.0
 10
-20.293796
 20
1077.207287
 30
0.0
 10
-21.053088
 20
1077.645665
 30
0.0
 10
-21.874799
 20
1077.645665
 30
0.0
  0
SPLINE
  5
135
100
AcDbEntity
  8
To_laser_cut
 62
1
100
AcDbSpline
 70
8
 71
3
 72
8
 73
4
 74
0
 40
0
 40
0
 40
0
 40
0
 40
1
 40
1
 40
1
 40
1
 10
-21.874799
 20
1077.645665
 30
0.0
 10
-22.696510
 20
1077.645665
 30
0.0
 10
-23.455802
 20
1077.207287
 30
0.0
 10
-23.866658
 20
1076.495665
 30
0.0
  0
SPLINE
  5
136
100
AcDbEntity
  8
To_laser_cut
 62
1
100
AcDbSpline
 70
8
 71
3
 72
8
 73
4
 74
0
 40
0
 40
0
 40
0
 40
0
 40
1
 40
1
 40
1
 40
1
 10
-23.866658
 20
1076.495665
 30
0.0
 10
-24.277513
 20
1075.784042
 30
0.0
 10
-24.277513
 20
1074.907287
 30
0.0
 10
-23.866658
 20
1074.195665
 30
0.0
  0
SPLINE
  5
137
100
AcDbEntity
  8
To_laser_cut
 62
1
100
AcDbSpline
 70
8
 71
3
 72
8
 73
4
 74
0
 40
0
 40
0
 40
0
 40
0
 40
1
 40
1
 40
1
 40
1
 10
-23.866658
 20
1074.195665
 30
0.0
 10
-23.455802
 20
1073.484042
 30
0.0
 10
-22.696510
 20
1073.045665
 30
0.0
 10
-21.874799
 20
1073.045665
 30
0.0
  0
LINE
  5
138
100
AcDbEntity
  8
To_laser_cut
 62
1
100
AcDbLine
 10
-21.874799
 20
1073.045665
 30
0.0
 11
-21.874799
 21
1073.045665
 31
0.0
  0
SPLINE
  5
139
100
AcDbEntity
  8
To_laser_cut
 62
1
100
AcDbSpline
 70
8
 71
3
 72
8
 73
4
 74
0
 40
0
 40
0
 40
0
 40
0
 40
1
 40
1
 40
1
 40
1
 10
-21.874799
 20
1098.245664
 30
0.0
 10
-21.053088
 20
1098.245664
 30
0.0
 10
-20.293796
 20
1098.684041
 30
0.0
 10
-19.882941
 20
1099.395664
 30
0.0
  0
SPLINE
  5
13a
100
AcDbEntity
  8
To_laser_cut
 62
1
100
AcDbSpline
 70
8
 71
3
 72
8
 73
4
 74
0
 40
0
 40
0
 40
0
 40
0
 40
1
 40
1
 40
1
 40
1
 10
-19.882941
 20
1099.395664
 30
0.0
 10
-19.472086
 20
1100.107286
 30
0.0
 10
-19.472086
 20
1100.984041
 30
0.0
 10
-19.882941
 20
1101.695664
 30
0.0
  0
SPLINE
  5
13b
100
AcDbEntity
  8
To_laser_cut
 62
1
100
AcDbSpline
 70
8
 71
3
 72
8
 73
4
 74
0
 40
0
 40
0
 40
0
 40
0
 40
1
 40
1
 40
1
 40
1
 10
-19.882941
 20
1101.695664
 30
0.0
 10
-20.293796
 20
1102.407286
 30
0.0
 10
-21.053088
 20
1102.845664
 30
0.0
 10
-21.874799
 20
1102.845664
 30
0.0
  0
SPLINE
  5
13c
100
AcDbEntity
  8
To_laser_cut
 62
1
100
AcDbSpline
 70
8
 71
3
 72
8
 73
4
 74
0
 40
0
 40
0
 40
0
 40
0
 40
1
 40
1
 40
1
 40
1
 10
-21.874799
 20
1102.845664
 30
0.0
 10
-22.696510
 20
1102.845664
 30
0.0
 10
-23.455802
 20
1102.407286
 30
0.0
 10
-23.866658
 20
1101.695664
 30
0.0
  0
SPLINE
  5
13d
100
AcDbEntity
  8
To_laser_cut
 62
1
100
AcDbSpline
 70
8
 71
3
 72
8
 73
4
 74
0
 40
0
 40
0
 40
0
 40
0
 40
1
 40
1
 40
1
 40
1
 10
-23.866658
 20
1101.695664
 30
0.0
 10
-24.277513
 20
1100.984041
 30
0.0
 10
-24.277513
 20
1100.107286
 30
0.0
 10
-23.866658
 20
1099.395664
 30
0.0
  0
SPLINE
  5
13e
100
AcDbEntity
  8
To_laser_cut
 62
1
100
AcDbSpline
 70
8
 71
3
 72
8
 73
4
 74
0
 40
0
 40
0
 40
0
 40
0
 40
1
 40
1
 40
1
 40
1
 10
-23.866658
 20
1099.395664
 30
0.0
 10
-23.455802
 20
1098.684041
 30
0.0
 10
-22.696510
 20
1098.245664
 30
0.0
 10
-21.874799
 20
1098.245664
 30
0.0
  0
LINE
  5
13f
100
AcDbEntity
  8
To_laser_cut
 62
1
100
AcDbLine
 10
-21.874799
 20
1098.245664
 30
0.0
 11
-21.874799
 21
1098.245664
 31
0.0
  0
SPLINE
  5
140
100
AcDbEntity
  8
To_laser_cut
 62
1
100
AcDbSpline
 70
8
 71
3
 72
8
 73
4
 74
0
 40
0
 40
0
 40
0
 40
0
 40
1
 40
1
 40
1
 40
1
 10
-21.874799
 20
940.765669
 30
0.0
 10
-21.053088
 20
940.765669
 30
0.0
 10
-20.293796
 20
941.204047
 30
0.0
 10
-19.882941
 20
941.915669
 30
0.0
  0
SPLINE
  5
141
100
AcDbEntity
  8
To_laser_cut
 62
1
100
AcDbSpline
 70
8
 71
3
 72
8
 73
4
 74
0
 40
0
 40
0
 40
0
 40
0
 40
1
 40
1
 40
1
 40
1
 10
-19.882941
 20
941.915669
 30
0.0
 10
-19.472086
 20
942.627292
 30
0.0
 10
-19.472086
 20
943.504047
 30
0.0
 10
-19.882941
 20
944.215669
 30
0.0
  0
SPLINE
  5
142
100
AcDbEntity
  8
To_laser_cut
 62
1
100
AcDbSpline
 70
8
 71
3
 72
8
 73
4
 74
0
 40
0
 40
0
 40
0
 40
0
 40
1
 40
1
 40
1
 40
1
 10
-19.882941
 20
944.215669
 30
0.0
 10
-20.293796
 20
944.927291
 30
0.0
 10
-21.053088
 20
945.365669
 30
0.0
 10
-21.874799
 20
945.365669
 30
0.0
  0
SPLINE
  5
143
100
AcDbEntity
  8
To_laser_cut
 62
1
100
AcDbSpline
 70
8
 71
3
 72
8
 73
4
 74
0
 40
0
 40
0
 40
0
 40
0
 40
1
 40
1
 40
1
 40
1
 10
-21.874799
 20
945.365669
 30
0.0
 10
-22.696510
 20
945.365669
 30
0.0
 10
-23.455802
 20
944.927291
 30
0.0
 10
-23.866658
 20
944.215669
 30
0.0
  0
SPLINE
  5
144
100
AcDbEntity
  8
To_laser_cut
 62
1
100
AcDbSpline
 70
8
 71
3
 72
8
 73
4
 74
0
 40
0
 40
0
 40
0
 40
0
 40
1
 40
1
 40
1
 40
1
 10
-23.866658
 20
944.215669
 30
0.0
 10
-24.277513
 20
943.504047
 30
0.0
 10
-24.277513
 20
942.627292
 30
0.0
 10
-23.866658
 20
941.915669
 30
0.0
  0
SPLINE
  5
145
100
AcDbEntity
  8
To_laser_cut
 62
1
100
AcDbSpline
 70
8
 71
3
 72
8
 73
4
 74
0
 40
0
 40
0
 40
0
 40
0
 40
1
 40
1
 40
1
 40
1
 10
-23.866658
 20
941.915669
 30
0.0
 10
-23.455802
 20
941.204047
 30
0.0
 10
-22.696510
 20
940.765669
 30
0.0
 10
-21.874799
 20
940.765669
 30
0.0
  0
LINE
  5
146
100
AcDbEntity
  8
To_laser_cut
 62
1
100
AcDbLine
 10
-21.874799
 20
940.765669
 30
0.0
 11
-21.874799
 21
940.765669
 31
0.0
  0
SPLINE
  5
147
100
AcDbEntity
  8
To_laser_cut
 62
1
100
AcDbSpline
 70
8
 71
3
 72
8
 73
4
 74
0
 40
0
 40
0
 40
0
 40
0
 40
1
 40
1
 40
1
 40
1
 10
-21.874799
 20
1255.725659
 30
0.0
 10
-21.053088
 20
1255.725659
 30
0.0
 10
-20.293796
 20
1256.164036
 30
0.0
 10
-19.882941
 20
1256.875659
 30
0.0
  0
SPLINE
  5
148
100
AcDbEntity
  8
To_laser_cut
 62
1
100
AcDbSpline
 70
8
 71
3
 72
8
 73
4
 74
0
 40
0
 40
0
 40
0
 40
0
 40
1
 40
1
 40
1
 40
1
 10
-19.882941
 20
1256.875659
 30
0.0
 10
-19.472086
 20
1257.587281
 30
0.0
 10
-19.472086
 20
1258.464036
 30
0.0
 10
-19.882941
 20
1259.175659
 30
0.0
  0
SPLINE
  5
149
100
AcDbEntity
  8
To_laser_cut
 62
1
100
AcDbSpline
 70
8
 71
3
 72
8
 73
4
 74
0
 40
0
 40
0
 40
0
 40
0
 40
1
 40
1
 40
1
 40
1
 10
-19.882941
 20
1259.175659
 30
0.0
 10
-20.293796
 20
1259.887281
 30
0.0
 10
-21.053088
 20
1260.325659
 30
0.0
 10
-21.874799
 20
1260.325659
 30
0.0
  0
SPLINE
  5
14a
100
AcDbEntity
  8
To_laser_cut
 62
1
100
AcDbSpline
 70
8
 71
3
 72
8
 73
4
 74
0
 40
0
 40
0
 40
0
 40
0
 40
1
 40
1
 40
1
 40
1
 10
-21.874799
 20
1260.325659
 30
0.0
 10
-22.696510
 20
1260.325659
 30
0.0
 10
-23.455802
 20
1259.887281
 30
0.0
 10
-23.866658
 20
1259.175659
 30
0.0
  0
SPLINE
  5
14b
100
AcDbEntity
  8
To_laser_cut
 62
1
100
AcDbSpline
 70
8
 71
3
 72
8
 73
4
 74
0
 40
0
 40
0
 40
0
 40
0
 40
1
 40
1
 40
1
 40
1
 10
-23.866658
 20
1259.175659
 30
0.0
 10
-24.277513
 20
1258.464036
 30
0.0
 10
-24.277513
 20
1257.587281
 30
0.0
 10
-23.866658
 20
1256.875659
 30
0.0
  0
SPLINE
  5
14c
100
AcDbEntity
  8
To_laser_cut
 62
1
100
AcDbSpline
 70
8
 71
3
 72
8
 73
4
 74
0
 40
0
 40
0
 40
0
 40
0
 40
1
 40
1
 40
1
 40
1
 10
-23.866658
 20
1256.875659
 30
0.0
 10
-23.455802
 20
1256.164036
 30
0.0
 10
-22.696510
 20
1255.725659
 30
0.0
 10
-21.874799
 20
1255.725659
 30
0.0
  0
LINE
  5
14d
100
AcDbEntity
  8
To_laser_cut
 62
1
100
AcDbLine
 10
-21.874799
 20
1255.725659
 30
0.0
 11
-21.874799
 21
1255.725659
 31
0.0
  0
SPLINE
  5
14e
100
AcDbEntity
  8
To_laser_cut
 62
1
100
AcDbSpline
 70
8
 71
3
 72
8
 73
4
 74
0
 40
0
 40
0
 40
0
 40
0
 40
1
 40
1
 40
1
 40
1
 10
-21.874799
 20
1230.525660
 30
0.0
 10
-21.053088
 20
1230.525660
 30
0.0
 10
-20.293796
 20
1230.964037
 30
0.0
 10
-19.882941
 20
1231.675660
 30
0.0
  0
SPLINE
  5
14f
100
AcDbEntity
  8
To_laser_cut
 62
1
100
AcDbSpline
 70
8
 71
3
 72
8
 73
4
 74
0
 40
0
 40
0
 40
0
 40
0
 40
1
 40
1
 40
1
 40
1
 10
-19.882941
 20
1231.675660
 30
0.0
 10
-19.472086
 20
1232.387282
 30
0.0
 10
-19.472086
 20
1233.264037
 30
0.0
 10
-19.882941
 20
1233.975659
 30
0.0
  0
SPLINE
  5
150
100
AcDbEntity
  8
To_laser_cut
 62
1
100
AcDbSpline
 70
8
 71
3
 72
8
 73
4
 74
0
 40
0
 40
0
 40
0
 40
0
 40
1
 40
1
 40
1
 40
1
 10
-19.882941
 20
1233.975659
 30
0.0
 10
-20.293796
 20
1234.687282
 30
0.0
 10
-21.053088
 20
1235.125659
 30
0.0
 10
-21.874799
 20
1235.125659
 30
0.0
  0
SPLINE
  5
151
100
AcDbEntity
  8
To_laser_cut
 62
1
100
AcDbSpline
 70
8
 71
3
 72
8
 73
4
 74
0
 40
0
 40
0
 40
0
 40
0
 40
1
 40
1
 40
1
 40
1
 10
-21.874799
 20
1235.125659
 30
0.0
 10
-22.696510
 20
1235.125659
 30
0.0
 10
-23.455802
 20
1234.687282
 30
0.0
 10
-23.866658
 20
1233.975659
 30
0.0
  0
SPLINE
  5
152
100
AcDbEntity
  8
To_laser_cut
 62
1
100
AcDbSpline
 70
8
 71
3
 72
8
 73
4
 74
0
 40
0
 40
0
 40
0
 40
0
 40
1
 40
1
 40
1
 40
1
 10
-23.866658
 20
1233.975659
 30
0.0
 10
-24.277513
 20
1233.264037
 30
0.0
 10
-24.277513
 20
1232.387282
 30
0.0
 10
-23.866658
 20
1231.675660
 30
0.0
  0
SPLINE
  5
153
100
AcDbEntity
  8
To_laser_cut
 62
1
100
AcDbSpline
 70
8
 71
3
 72
8
 73
4
 74
0
 40
0
 40
0
 40
0
 40
0
 40
1
 40
1
 40
1
 40
1
 10
-23.866658
 20
1231.675660
 30
0.0
 10
-23.455802
 20
1230.964037
 30
0.0
 10
-22.696510
 20
1230.525660
 30
0.0
 10
-21.874799
 20
1230.525660
 30
0.0
  0
LINE
  5
154
100
AcDbEntity
  8
To_laser_cut
 62
1
100
AcDbLine
 10
-21.874799
 20
1230.525660
 30
0.0
 11
-21.874799
 21
1230.525660
 31
0.0
  0
SPLINE
  5
155
100
AcDbEntity
  8
To_laser_cut
 62
1
100
AcDbSpline
 70
8
 71
3
 72
8
 73
4
 74
0
 40
0
 40
0
 40
0
 40
0
 40
1
 40
1
 40
1
 40
1
 10
-21.874799
 20
915.565670
 30
0.0
 10
-21.053088
 20
915.565670
 30
0.0
 10
-20.293796
 20
916.004047
 30
0.0
 10
-19.882941
 20
916.715670
 30
0.0
  0
SPLINE
  5
156
100
AcDbEntity
  8
To_laser_cut
 62
1
100
AcDbSpline
 70
8
 71
3
 72
8
 73
4
 74
0
 40
0
 40
0
 40
0
 40
0
 40
1
 40
1
 40
1
 40
1
 10
-19.882941
 20
916.715670
 30
0.0
 10
-19.472086
 20
917.427292
 30
0.0
 10
-19.472086
 20
918.304047
 30
0.0
 10
-19.882941
 20
919.015670
 30
0.0
  0
SPLINE
  5
157
100
AcDbEntity
  8
To_laser_cut
 62
1
100
AcDbSpline
 70
8
 71
3
 72
8
 73
4
 74
0
 40
0
 40
0
 40
0
 40
0
 40
1
 40
1
 40
1
 40
1
 10
-19.882941
 20
919.015670
 30
0.0
 10
-20.293796
 20
919.727292
 30
0.0
 10
-21.053088
 20
920.165670
 30
0.0
 10
-21.874799
 20
920.165670
 30
0.0
  0
SPLINE
  5
158
100
AcDbEntity
  8
To_laser_cut
 62
1
100
AcDbSpline
 70
8
 71
3
 72
8
 73
4
 74
0
 40
0
 40
0
 40
0
 40
0
 40
1
 40
1
 40
1
 40
1
 10
-21.874799
 20
920.165670
 30
0.0
 10
-22.696510
 20
920.165670
 30
0.0
 10
-23.455802
 20
919.727292
 30
0.0
 10
-23.866658
 20
919.015670
 30
0.0
  0
SPLINE
  5
159
100
AcDbEntity
  8
To_laser_cut
 62
1
100
AcDbSpline
 70
8
 71
3
 72
8
 73
4
 74
0
 40
0
 40
0
 40
0
 40
0
 40
1
 40
1
 40
1
 40
1
 10
-23.866658
 20
919.015670
 30
0.0
 10
-24.277513
 20
918.304047
 30
0.0
 10
-24.277513
 20
917.427292
 30
0.0
 10
-23.866658
 20
916.715670
 30
0.0
  0
SPLINE
  5
15a
100
AcDbEntity
  8
To_laser_cut
 62
1
100
AcDbSpline
 70
8
 71
3
 72
8
 73
4
 74
0
 40
0
 40
0
 40
0
 40
0
 40
1
 40
1
 40
1
 40
1
 10
-23.866658
 20
916.715670
 30
0.0
 10
-23.455802
 20
916.004047
 30
0.0
 10
-22.696510
 20
915.565670
 30
0.0
 10
-21.874799
 20
915.565670
 30
0.0
  0
LINE
  5
15b
100
AcDbEntity
  8
To_laser_cut
 62
1
100
AcDbLine
 10
-21.874799
 20
915.565670
 30
0.0
 11
-21.874799
 21
915.565670
 31
0.0
  0
LINE
  5
15c
100
AcDbEntity
  8
To_laser_cut
 62
1
100
AcDbLine
 10
10.235200
 20
1228.915660
 30
0.0
 11
10.235200
 21
946.975669
 31
0.0
  0
LINE
  5
15d
100
AcDbEntity
  8
To_laser_cut
 62
1
100
AcDbLine
 10
10.235200
 20
946.975669
 30
0.0
 11
241.375192
 21
946.975669
 31
0.0
  0
LINE
  5
15e
100
AcDbEntity
  8
To_laser_cut
 62
1
100
AcDbLine
 10
241.375192
 20
946.975669
 30
0.0
 11
241.375192
 21
1228.915660
 31
0.0
  0
LINE
  5
15f
100
AcDbEntity
  8
To_laser_cut
 62
1
100
AcDbLine
 10
241.375192
 20
1228.915660
 30
0.0
 11
10.235200
 21
1228.915660
 31
0.0
  0
SPLINE
  5
160
100
AcDbEntity
  8
To_laser_cut
 62
1
100
AcDbSpline
 70
8
 71
3
 72
8
 73
4
 74
0
 40
0
 40
0
 40
0
 40
0
 40
1
 40
1
 40
1
 40
1
 10
214.705193
 20
924.195670
 30
0.0
 10
215.598357
 20
924.195670
 30
0.0
 10
216.423674
 20
924.672167
 30
0.0
 10
216.870256
 20
925.445670
 30
0.0
  0
SPLINE
  5
161
100
AcDbEntity
  8
To_laser_cut
 62
1
100
AcDbSpline
 70
8
 71
3
 72
8
 73
4
 74
0
 40
0
 40
0
 40
0
 40
0
 40
1
 40
1
 40
1
 40
1
 10
216.870256
 20
925.445670
 30
0.0
 10
217.316838
 20
926.219172
 30
0.0
 10
217.316838
 20
927.172167
 30
0.0
 10
216.870256
 20
927.945670
 30
0.0
  0
SPLINE
  5
162
100
AcDbEntity
  8
To_laser_cut
 62
1
100
AcDbSpline
 70
8
 71
3
 72
8
 73
4
 74
0
 40
0
 40
0
 40
0
 40
0
 40
1
 40
1
 40
1
 40
1
 10
216.870256
 20
927.945670
 30
0.0
 10
216.423674
 20
928.719172
 30
0.0
 10
215.598357
 20
929.195670
 30
0.0
 10
214.705193
 20
929.195670
 30
0.0
  0
SPLINE
  5
163
100
AcDbEntity
  8
To_laser_cut
 62
1
100
AcDbSpline
 70
8
 71
3
 72
8
 73
4
 74
0
 40
0
 40
0
 40
0
 40
0
 40
1
 40
1
 40
1
 40
1
 10
214.705193
 20
929.195670
 30
0.0
 10
213.812029
 20
929.195670
 30
0.0
 10
212.986711
 20
928.719172
 30
0.0
 10
212.540129
 20
927.945670
 30
0.0
  0
SPLINE
  5
164
100
AcDbEntity
  8
To_laser_cut
 62
1
100
AcDbSpline
 70
8
 71
3
 72
8
 73
4
 74
0
 40
0
 40
0
 40
0
 40
0
 40
1
 40
1
 40
1
 40
1
 10
212.540129
 20
927.945670
 30
0.0
 10
212.093548
 20
927.172167
 30
0.0
 10
212.093548
 20
926.219172
 30
0.0
 10
212.540129
 20
925.445670
 30
0.0
  0
SPLINE
  5
165
100
AcDbEntity
  8
To_laser_cut
 62
1
100
AcDbSpline
 70
8
 71
3
 72
8
 73
4
 74
0
 40
0
 40
0
 40
0
 40
0
 40
1
 40
1
 40
1
 40
1
 10
212.540129
 20
925.445670
 30
0.0
 10
212.986711
 20
924.672167
 30
0.0
 10
213.812029
 20
924.195670
 30
0.0
 10
214.705193
 20
924.195670
 30
0.0
  0
LINE
  5
166
100
AcDbEntity
  8
To_laser_cut
 62
1
100
AcDbLine
 10
214.705193
 20
924.195670
 30
0.0
 11
214.705193
 21
924.195670
 31
0.0
  0
SPLINE
  5
167
100
AcDbEntity
  8
To_laser_cut
 62
1
100
AcDbSpline
 70
8
 71
3
 72
8
 73
4
 74
0
 40
0
 40
0
 40
0
 40
0
 40
1
 40
1
 40
1
 40
1
 10
125.805196
 20
924.195670
 30
0.0
 10
126.698360
 20
924.195670
 30
0.0
 10
127.523677
 20
924.672167
 30
0.0
 10
127.970259
 20
925.445670
 30
0.0
  0
SPLINE
  5
168
100
AcDbEntity
  8
To_laser_cut
 62
1
100
AcDbSpline
 70
8
 71
3
 72
8
 73
4
 74
0
 40
0
 40
0
 40
0
 40
0
 40
1
 40
1
 40
1
 40
1
 10
127.970259
 20
925.445670
 30
0.0
 10
128.416841
 20
926.219172
 30
0.0
 10
128.416841
 20
927.172167
 30
0.0
 10
127.970259
 20
927.945670
 30
0.0
  0
SPLINE
  5
169
100
AcDbEntity
  8
To_laser_cut
 62
1
100
AcDbSpline
 70
8
 71
3
 72
8
 73
4
 74
0
 40
0
 40
0
 40
0
 40
0
 40
1
 40
1
 40
1
 40
1
 10
127.970259
 20
927.945670
 30
0.0
 10
127.523677
 20
928.719172
 30
0.0
 10
126.698360
 20
929.195670
 30
0.0
 10
125.805196
 20
929.195670
 30
0.0
  0
SPLINE
  5
16a
100
AcDbEntity
  8
To_laser_cut
 62
1
100
AcDbSpline
 70
8
 71
3
 72
8
 73
4
 74
0
 40
0
 40
0
 40
0
 40
0
 40
1
 40
1
 40
1
 40
1
 10
125.805196
 20
929.195670
 30
0.0
 10
124.424484
 20
929.195670
 30
0.0
 10
123.305196
 20
928.076381
 30
0.0
 10
123.305196
 20
926.695670
 30
0.0
  0
SPLINE
  5
16b
100
AcDbEntity
  8
To_laser_cut
 62
1
100
AcDbSpline
 70
8
 71
3
 72
8
 73
4
 74
0
 40
0
 40
0
 40
0
 40
0
 40
1
 40
1
 40
1
 40
1
 10
123.305196
 20
926.695670
 30
0.0
 10
123.305196
 20
925.314958
 30
0.0
 10
124.424484
 20
924.195670
 30
0.0
 10
125.805196
 20
924.195670
 30
0.0
  0
LINE
  5
16c
100
AcDbEntity
  8
To_laser_cut
 62
1
100
AcDbLine
 10
125.805196
 20
924.195670
 30
0.0
 11
125.805196
 21
924.195670
 31
0.0
  0
SPLINE
  5
16d
100
AcDbEntity
  8
To_laser_cut
 62
1
100
AcDbSpline
 70
8
 71
3
 72
8
 73
4
 74
0
 40
0
 40
0
 40
0
 40
0
 40
1
 40
1
 40
1
 40
1
 10
36.905199
 20
924.195670
 30
0.0
 10
37.798363
 20
924.195670
 30
0.0
 10
38.623680
 20
924.672167
 30
0.0
 10
39.070262
 20
925.445670
 30
0.0
  0
SPLINE
  5
16e
100
AcDbEntity
  8
To_laser_cut
 62
1
100
AcDbSpline
 70
8
 71
3
 72
8
 73
4
 74
0
 40
0
 40
0
 40
0
 40
0
 40
1
 40
1
 40
1
 40
1
 10
39.070262
 20
925.445670
 30
0.0
 10
39.516844
 20
926.219172
 30
0.0
 10
39.516844
 20
927.172167
 30
0.0
 10
39.070262
 20
927.945670
 30
0.0
  0
SPLINE
  5
16f
100
AcDbEntity
  8
To_laser_cut
 62
1
100
AcDbSpline
 70
8
 71
3
 72
8
 73
4
 74
0
 40
0
 40
0
 40
0
 40
0
 40
1
 40
1
 40
1
 40
1
 10
39.070262
 20
927.945670
 30
0.0
 10
38.623680
 20
928.719172
 30
0.0
 10
37.798363
 20
929.195670
 30
0.0
 10
36.905199
 20
929.195670
 30
0.0
  0
SPLINE
  5
170
100
AcDbEntity
  8
To_laser_cut
 62
1
100
AcDbSpline
 70
8
 71
3
 72
8
 73
4
 74
0
 40
0
 40
0
 40
0
 40
0
 40
1
 40
1
 40
1
 40
1
 10
36.905199
 20
929.195670
 30
0.0
 10
36.012035
 20
929.195670
 30
0.0
 10
35.186717
 20
928.719172
 30
0.0
 10
34.740135
 20
927.945670
 30
0.0
  0
SPLINE
  5
171
100
AcDbEntity
  8
To_laser_cut
 62
1
100
AcDbSpline
 70
8
 71
3
 72
8
 73
4
 74
0
 40
0
 40
0
 40
0
 40
0
 40
1
 40
1
 40
1
 40
1
 10
34.740135
 20
927.945670
 30
0.0
 10
34.293553
 20
927.172167
 30
0.0
 10
34.293553
 20
926.219172
 30
0.0
 10
34.740135
 20
925.445670
 30
0.0
  0
SPLINE
  5
172
100
AcDbEntity
  8
To_laser_cut
 62
1
100
AcDbSpline
 70
8
 71
3
 72
8
 73
4
 74
0
 40
0
 40
0
 40
0
 40
0
 40
1
 40
1
 40
1
 40
1
 10
34.740135
 20
925.445670
 30
0.0
 10
35.186717
 20
924.672167
 30
0.0
 10
36.012035
 20
924.195670
 30
0.0
 10
36.905199
 20
924.195670
 30
0.0
  0
LINE
  5
173
100
AcDbEntity
  8
To_laser_cut
 62
1
100
AcDbLine
 10
36.905199
 20
924.195670
 30
0.0
 11
36.905199
 21
924.195670
 31
0.0
  0
SPLINE
  5
174
100
AcDbEntity
  8
To_laser_cut
 62
1
100
AcDbSpline
 70
8
 71
3
 72
8
 73
4
 74
0
 40
0
 40
0
 40
0
 40
0
 40
1
 40
1
 40
1
 40
1
 10
-10.719800
 20
1006.705667
 30
0.0
 10
-9.826636
 20
1006.705667
 30
0.0
 10
-9.001318
 20
1007.182164
 30
0.0
 10
-8.554736
 20
1007.955667
 30
0.0
  0
SPLINE
  5
175
100
AcDbEntity
  8
To_laser_cut
 62
1
100
AcDbSpline
 70
8
 71
3
 72
8
 73
4
 74
0
 40
0
 40
0
 40
0
 40
0
 40
1
 40
1
 40
1
 40
1
 10
-8.554736
 20
1007.955667
 30
0.0
 10
-8.108154
 20
1008.729170
 30
0.0
 10
-8.108154
 20
1009.682164
 30
0.0
 10
-8.554736
 20
1010.455667
 30
0.0
  0
SPLINE
  5
176
100
AcDbEntity
  8
To_laser_cut
 62
1
100
AcDbSpline
 70
8
 71
3
 72
8
 73
4
 74
0
 40
0
 40
0
 40
0
 40
0
 40
1
 40
1
 40
1
 40
1
 10
-8.554736
 20
1010.455667
 30
0.0
 10
-9.001318
 20
1011.229170
 30
0.0
 10
-9.826636
 20
1011.705667
 30
0.0
 10
-10.719800
 20
1011.705667
 30
0.0
  0
SPLINE
  5
177
100
AcDbEntity
  8
To_laser_cut
 62
1
100
AcDbSpline
 70
8
 71
3
 72
8
 73
4
 74
0
 40
0
 40
0
 40
0
 40
0
 40
1
 40
1
 40
1
 40
1
 10
-10.719800
 20
1011.705667
 30
0.0
 10
-11.612964
 20
1011.705667
 30
0.0
 10
-12.438281
 20
1011.229170
 30
0.0
 10
-12.884863
 20
1010.455667
 30
0.0
  0
SPLINE
  5
178
100
AcDbEntity
  8
To_laser_cut
 62
1
100
AcDbSpline
 70
8
 71
3
 72
8
 73
4
 74
0
 40
0
 40
0
 40
0
 40
0
 40
1
 40
1
 40
1
 40
1
 10
-12.884863
 20
1010.455667
 30
0.0
 10
-13.331445
 20
1009.682164
 30
0.0
 10
-13.331445
 20
1008.729170
 30
0.0
 10
-12.884863
 20
1007.955667
 30
0.0
  0
SPLINE
  5
179
100
AcDbEntity
  8
To_laser_cut
 62
1
100
AcDbSpline
 70
8
 71
3
 72
8
 73
4
 74
0
 40
0
 40
0
 40
0
 40
0
 40
1
 40
1
 40
1
 40
1
 10
-12.884863
 20
1007.955667
 30
0.0
 10
-12.438281
 20
1007.182164
 30
0.0
 10
-11.612964
 20
1006.705667
 30
0.0
 10
-10.719800
 20
1006.705667
 30
0.0
  0
LINE
  5
17a
100
AcDbEntity
  8
To_laser_cut
 62
1
100
AcDbLine
 10
-10.719800
 20
1006.705667
 30
0.0
 11
-10.719800
 21
1006.705667
 31
0.0
  0
SPLINE
  5
17b
100
AcDbEntity
  8
To_laser_cut
 62
1
100
AcDbSpline
 70
8
 71
3
 72
8
 73
4
 74
0
 40
0
 40
0
 40
0
 40
0
 40
1
 40
1
 40
1
 40
1
 10
262.330191
 20
971.145668
 30
0.0
 10
263.223355
 20
971.145668
 30
0.0
 10
264.048673
 20
971.622165
 30
0.0
 10
264.495255
 20
972.395668
 30
0.0
  0
SPLINE
  5
17c
100
AcDbEntity
  8
To_laser_cut
 62
1
100
AcDbSpline
 70
8
 71
3
 72
8
 73
4
 74
0
 40
0
 40
0
 40
0
 40
0
 40
1
 40
1
 40
1
 40
1
 10
264.495255
 20
972.395668
 30
0.0
 10
264.941837
 20
973.169171
 30
0.0
 10
264.941837
 20
974.122165
 30
0.0
 10
264.495255
 20
974.895668
 30
0.0
  0
SPLINE
  5
17d
100
AcDbEntity
  8
To_laser_cut
 62
1
100
AcDbSpline
 70
8
 71
3
 72
8
 73
4
 74
0
 40
0
 40
0
 40
0
 40
0
 40
1
 40
1
 40
1
 40
1
 10
264.495255
 20
974.895668
 30
0.0
 10
264.048673
 20
975.669171
 30
0.0
 10
263.223355
 20
976.145668
 30
0.0
 10
262.330191
 20
976.145668
 30
0.0
  0
SPLINE
  5
17e
100
AcDbEntity
  8
To_laser_cut
 62
1
100
AcDbSpline
 70
8
 71
3
 72
8
 73
4
 74
0
 40
0
 40
0
 40
0
 40
0
 40
1
 40
1
 40
1
 40
1
 10
262.330191
 20
976.145668
 30
0.0
 10
261.437027
 20
976.145668
 30
0.0
 10
260.611710
 20
975.669171
 30
0.0
 10
260.165128
 20
974.895668
 30
0.0
  0
SPLINE
  5
17f
100
AcDbEntity
  8
To_laser_cut
 62
1
100
AcDbSpline
 70
8
 71
3
 72
8
 73
4
 74
0
 40
0
 40
0
 40
0
 40
0
 40
1
 40
1
 40
1
 40
1
 10
260.165128
 20
974.895668
 30
0.0
 10
259.718546
 20
974.122165
 30
0.0
 10
259.718546
 20
973.169171
 30
0.0
 10
260.165128
 20
972.395668
 30
0.0
  0
SPLINE
  5
180
100
AcDbEntity
  8
To_laser_cut
 62
1
100
AcDbSpline
 70
8
 71
3
 72
8
 73
4
 74
0
 40
0
 40
0
 40
0
 40
0
 40
1
 40
1
 40
1
 40
1
 10
260.165128
 20
972.395668
 30
0.0
 10
260.611710
 20
971.622165
 30
0.0
 10
261.437027
 20
971.145668
 30
0.0
 10
262.330191
 20
971.145668
 30
0.0
  0
LINE
  5
181
100
AcDbEntity
  8
To_laser_cut
 62
1
100
AcDbLine
 10
262.330191
 20
971.145668
 30
0.0
 11
262.330191
 21
971.145668
 31
0.0
  0
SPLINE
  5
182
100
AcDbEntity
  8
To_laser_cut
 62
1
100
AcDbSpline
 70
8
 71
3
 72
8
 73
4
 74
0
 40
0
 40
0
 40
0
 40
0
 40
1
 40
1
 40
1
 40
1
 10
-10.719800
 20
1164.185662
 30
0.0
 10
-9.826636
 20
1164.185662
 30
0.0
 10
-9.001318
 20
1164.662159
 30
0.0
 10
-8.554736
 20
1165.435662
 30
0.0
  0
SPLINE
  5
183
100
AcDbEntity
  8
To_laser_cut
 62
1
100
AcDbSpline
 70
8
 71
3
 72
8
 73
4
 74
0
 40
0
 40
0
 40
0
 40
0
 40
1
 40
1
 40
1
 40
1
 10
-8.554736
 20
1165.435662
 30
0.0
 10
-8.108154
 20
1166.209164
 30
0.0
 10
-8.108154
 20
1167.162159
 30
0.0
 10
-8.554736
 20
1167.935662
 30
0.0
  0
SPLINE
  5
184
100
AcDbEntity
  8
To_laser_cut
 62
1
100
AcDbSpline
 70
8
 71
3
 72
8
 73
4
 74
0
 40
0
 40
0
 40
0
 40
0
 40
1
 40
1
 40
1
 40
1
 10
-8.554736
 20
1167.935662
 30
0.0
 10
-9.001318
 20
1168.709164
 30
0.0
 10
-9.826636
 20
1169.185662
 30
0.0
 10
-10.719800
 20
1169.185662
 30
0.0
  0
SPLINE
  5
185
100
AcDbEntity
  8
To_laser_cut
 62
1
100
AcDbSpline
 70
8
 71
3
 72
8
 73
4
 74
0
 40
0
 40
0
 40
0
 40
0
 40
1
 40
1
 40
1
 40
1
 10
-10.719800
 20
1169.185662
 30
0.0
 10
-11.612964
 20
1169.185662
 30
0.0
 10
-12.438281
 20
1168.709164
 30
0.0
 10
-12.884863
 20
1167.935662
 30
0.0
  0
SPLINE
  5
186
100
AcDbEntity
  8
To_laser_cut
 62
1
100
AcDbSpline
 70
8
 71
3
 72
8
 73
4
 74
0
 40
0
 40
0
 40
0
 40
0
 40
1
 40
1
 40
1
 40
1
 10
-12.884863
 20
1167.935662
 30
0.0
 10
-13.331445
 20
1167.162159
 30
0.0
 10
-13.331445
 20
1166.209164
 30
0.0
 10
-12.884863
 20
1165.435662
 30
0.0
  0
SPLINE
  5
187
100
AcDbEntity
  8
To_laser_cut
 62
1
100
AcDbSpline
 70
8
 71
3
 72
8
 73
4
 74
0
 40
0
 40
0
 40
0
 40
0
 40
1
 40
1
 40
1
 40
1
 10
-12.884863
 20
1165.435662
 30
0.0
 10
-12.438281
 20
1164.662159
 30
0.0
 10
-11.612964
 20
1164.185662
 30
0.0
 10
-10.719800
 20
1164.185662
 30
0.0
  0
LINE
  5
188
100
AcDbEntity
  8
To_laser_cut
 62
1
100
AcDbLine
 10
-10.719800
 20
1164.185662
 30
0.0
 11
-10.719800
 21
1164.185662
 31
0.0
  0
SPLINE
  5
189
100
AcDbEntity
  8
To_laser_cut
 62
1
100
AcDbSpline
 70
8
 71
3
 72
8
 73
4
 74
0
 40
0
 40
0
 40
0
 40
0
 40
1
 40
1
 40
1
 40
1
 10
262.330191
 20
1085.445664
 30
0.0
 10
263.223355
 20
1085.445664
 30
0.0
 10
264.048673
 20
1085.922162
 30
0.0
 10
264.495255
 20
1086.695664
 30
0.0
  0
SPLINE
  5
18a
100
AcDbEntity
  8
To_laser_cut
 62
1
100
AcDbSpline
 70
8
 71
3
 72
8
 73
4
 74
0
 40
0
 40
0
 40
0
 40
0
 40
1
 40
1
 40
1
 40
1
 10
264.495255
 20
1086.695664
 30
0.0
 10
264.941837
 20
1087.469167
 30
0.0
 10
264.941837
 20
1088.422162
 30
0.0
 10
264.495255
 20
1089.195664
 30
0.0
  0
SPLINE
  5
18b
100
AcDbEntity
  8
To_laser_cut
 62
1
100
AcDbSpline
 70
8
 71
3
 72
8
 73
4
 74
0
 40
0
 40
0
 40
0
 40
0
 40
1
 40
1
 40
1
 40
1
 10
264.495255
 20
1089.195664
 30
0.0
 10
264.048673
 20
1089.969167
 30
0.0
 10
263.223355
 20
1090.445664
 30
0.0
 10
262.330191
 20
1090.445664
 30
0.0
  0
SPLINE
  5
18c
100
AcDbEntity
  8
To_laser_cut
 62
1
100
AcDbSpline
 70
8
 71
3
 72
8
 73
4
 74
0
 40
0
 40
0
 40
0
 40
0
 40
1
 40
1
 40
1
 40
1
 10
262.330191
 20
1090.445664
 30
0.0
 10
261.437027
 20
1090.445664
 30
0.0
 10
260.611710
 20
1089.969167
 30
0.0
 10
260.165128
 20
1089.195664
 30
0.0
  0
SPLINE
  5
18d
100
AcDbEntity
  8
To_laser_cut
 62
1
100
AcDbSpline
 70
8
 71
3
 72
8
 73
4
 74
0
 40
0
 40
0
 40
0
 40
0
 40
1
 40
1
 40
1
 40
1
 10
260.165128
 20
1089.195664
 30
0.0
 10
259.718546
 20
1088.422162
 30
0.0
 10
259.718546
 20
1087.469167
 30
0.0
 10
260.165128
 20
1086.695664
 30
0.0
  0
SPLINE
  5
18e
100
AcDbEntity
  8
To_laser_cut
 62
1
100
AcDbSpline
 70
8
 71
3
 72
8
 73
4
 74
0
 40
0
 40
0
 40
0
 40
0
 40
1
 40
1
 40
1
 40
1
 10
260.165128
 20
1086.695664
 30
0.0
 10
260.611710
 20
1085.922162
 30
0.0
 10
261.437027
 20
1085.445664
 30
0.0
 10
262.330191
 20
1085.445664
 30
0.0
  0
LINE
  5
18f
100
AcDbEntity
  8
To_laser_cut
 62
1
100
AcDbLine
 10
262.330191
 20
1085.445664
 30
0.0
 11
262.330191
 21
1085.445664
 31
0.0
  0
SPLINE
  5
190
100
AcDbEntity
  8
To_laser_cut
 62
1
100
AcDbSpline
 70
8
 71
3
 72
8
 73
4
 74
0
 40
0
 40
0
 40
0
 40
0
 40
1
 40
1
 40
1
 40
1
 10
262.330191
 20
1199.745661
 30
0.0
 10
263.223355
 20
1199.745661
 30
0.0
 10
264.048673
 20
1200.222158
 30
0.0
 10
264.495255
 20
1200.995661
 30
0.0
  0
SPLINE
  5
191
100
AcDbEntity
  8
To_laser_cut
 62
1
100
AcDbSpline
 70
8
 71
3
 72
8
 73
4
 74
0
 40
0
 40
0
 40
0
 40
0
 40
1
 40
1
 40
1
 40
1
 10
264.495255
 20
1200.995661
 30
0.0
 10
264.941837
 20
1201.769163
 30
0.0
 10
264.941837
 20
1202.722158
 30
0.0
 10
264.495255
 20
1203.495660
 30
0.0
  0
SPLINE
  5
192
100
AcDbEntity
  8
To_laser_cut
 62
1
100
AcDbSpline
 70
8
 71
3
 72
8
 73
4
 74
0
 40
0
 40
0
 40
0
 40
0
 40
1
 40
1
 40
1
 40
1
 10
264.495255
 20
1203.495660
 30
0.0
 10
264.048673
 20
1204.269163
 30
0.0
 10
263.223355
 20
1204.745660
 30
0.0
 10
262.330191
 20
1204.745660
 30
0.0
  0
SPLINE
  5
193
100
AcDbEntity
  8
To_laser_cut
 62
1
100
AcDbSpline
 70
8
 71
3
 72
8
 73
4
 74
0
 40
0
 40
0
 40
0
 40
0
 40
1
 40
1
 40
1
 40
1
 10
262.330191
 20
1204.745660
 30
0.0
 10
261.437027
 20
1204.745660
 30
0.0
 10
260.611710
 20
1204.269163
 30
0.0
 10
260.165128
 20
1203.495660
 30
0.0
  0
SPLINE
  5
194
100
AcDbEntity
  8
To_laser_cut
 62
1
100
AcDbSpline
 70
8
 71
3
 72
8
 73
4
 74
0
 40
0
 40
0
 40
0
 40
0
 40
1
 40
1
 40
1
 40
1
 10
260.165128
 20
1203.495660
 30
0.0
 10
259.718546
 20
1202.722158
 30
0.0
 10
259.718546
 20
1201.769163
 30
0.0
 10
260.165128
 20
1200.995661
 30
0.0
  0
SPLINE
  5
195
100
AcDbEntity
  8
To_laser_cut
 62
1
100
AcDbSpline
 70
8
 71
3
 72
8
 73
4
 74
0
 40
0
 40
0
 40
0
 40
0
 40
1
 40
1
 40
1
 40
1
 10
260.165128
 20
1200.995661
 30
0.0
 10
260.611710
 20
1200.222158
 30
0.0
 10
261.437027
 20
1199.745661
 30
0.0
 10
262.330191
 20
1199.745661
 30
0.0
  0
LINE
  5
196
100
AcDbEntity
  8
To_laser_cut
 62
1
100
AcDbLine
 10
262.330191
 20
1199.745661
 30
0.0
 11
262.330191
 21
1199.745661
 31
0.0
  0
SPLINE
  5
197
100
AcDbEntity
  8
To_laser_cut
 62
1
100
AcDbSpline
 70
8
 71
3
 72
8
 73
4
 74
0
 40
0
 40
0
 40
0
 40
0
 40
1
 40
1
 40
1
 40
1
 10
36.905199
 20
1246.695659
 30
0.0
 10
37.798363
 20
1246.695659
 30
0.0
 10
38.623680
 20
1247.172156
 30
0.0
 10
39.070262
 20
1247.945659
 30
0.0
  0
SPLINE
  5
198
100
AcDbEntity
  8
To_laser_cut
 62
1
100
AcDbSpline
 70
8
 71
3
 72
8
 73
4
 74
0
 40
0
 40
0
 40
0
 40
0
 40
1
 40
1
 40
1
 40
1
 10
39.070262
 20
1247.945659
 30
0.0
 10
39.516844
 20
1248.719162
 30
0.0
 10
39.516844
 20
1249.672156
 30
0.0
 10
39.070262
 20
1250.445659
 30
0.0
  0
SPLINE
  5
199
100
AcDbEntity
  8
To_laser_cut
 62
1
100
AcDbSpline
 70
8
 71
3
 72
8
 73
4
 74
0
 40
0
 40
0
 40
0
 40
0
 40
1
 40
1
 40
1
 40
1
 10
39.070262
 20
1250.445659
 30
0.0
 10
38.623680
 20
1251.219162
 30
0.0
 10
37.798363
 20
1251.695659
 30
0.0
 10
36.905199
 20
1251.695659
 30
0.0
  0
SPLINE
  5
19a
100
AcDbEntity
  8
To_laser_cut
 62
1
100
AcDbSpline
 70
8
 71
3
 72
8
 73
4
 74
0
 40
0
 40
0
 40
0
 40
0
 40
1
 40
1
 40
1
 40
1
 10
36.905199
 20
1251.695659
 30
0.0
 10
36.012035
 20
1251.695659
 30
0.0
 10
35.186717
 20
1251.219162
 30
0.0
 10
34.740135
 20
1250.445659
 30
0.0
  0
SPLINE
  5
19b
100
AcDbEntity
  8
To_laser_cut
 62
1
100
AcDbSpline
 70
8
 71
3
 72
8
 73
4
 74
0
 40
0
 40
0
 40
0
 40
0
 40
1
 40
1
 40
1
 40
1
 10
34.740135
 20
1250.445659
 30
0.0
 10
34.293553
 20
1249.672156
 30
0.0
 10
34.293553
 20
1248.719162
 30
0.0
 10
34.740135
 20
1247.945659
 30
0.0
  0
SPLINE
  5
19c
100
AcDbEntity
  8
To_laser_cut
 62
1
100
AcDbSpline
 70
8
 71
3
 72
8
 73
4
 74
0
 40
0
 40
0
 40
0
 40
0
 40
1
 40
1
 40
1
 40
1
 10
34.740135
 20
1247.945659
 30
0.0
 10
35.186717
 20
1247.172156
 30
0.0
 10
36.012035
 20
1246.695659
 30
0.0
 10
36.905199
 20
1246.695659
 30
0.0
  0
LINE
  5
19d
100
AcDbEntity
  8
To_laser_cut
 62
1
100
AcDbLine
 10
36.905199
 20
1246.695659
 30
0.0
 11
36.905199
 21
1246.695659
 31
0.0
  0
SPLINE
  5
19e
100
AcDbEntity
  8
To_laser_cut
 62
1
100
AcDbSpline
 70
8
 71
3
 72
8
 73
4
 74
0
 40
0
 40
0
 40
0
 40
0
 40
1
 40
1
 40
1
 40
1
 10
214.705193
 20
1246.695659
 30
0.0
 10
215.598357
 20
1246.695659
 30
0.0
 10
216.423674
 20
1247.172156
 30
0.0
 10
216.870256
 20
1247.945659
 30
0.0
  0
SPLINE
  5
19f
100
AcDbEntity
  8
To_laser_cut
 62
1
100
AcDbSpline
 70
8
 71
3
 72
8
 73
4
 74
0
 40
0
 40
0
 40
0
 40
0
 40
1
 40
1
 40
1
 40
1
 10
216.870256
 20
1247.945659
 30
0.0
 10
217.316838
 20
1248.719162
 30
0.0
 10
217.316838
 20
1249.672156
 30
0.0
 10
216.870256
 20
1250.445659
 30
0.0
  0
SPLINE
  5
1a0
100
AcDbEntity
  8
To_laser_cut
 62
1
100
AcDbSpline
 70
8
 71
3
 72
8
 73
4
 74
0
 40
0
 40
0
 40
0
 40
0
 40
1
 40
1
 40
1
 40
1
 10
216.870256
 20
1250.445659
 30
0.0
 10
216.423674
 20
1251.219162
 30
0.0
 10
215.598357
 20
1251.695659
 30
0.0
 10
214.705193
 20
1251.695659
 30
0.0
  0
SPLINE
  5
1a1
100
AcDbEntity
  8
To_laser_cut
 62
1
100
AcDbSpline
 70
8
 71
3
 72
8
 73
4
 74
0
 40
0
 40
0
 40
0
 40
0
 40
1
 40
1
 40
1
 40
1
 10
214.705193
 20
1251.695659
 30
0.0
 10
213.812029
 20
1251.695659
 30
0.0
 10
212.986711
 20
1251.219162
 30
0.0
 10
212.540129
 20
1250.445659
 30
0.0
  0
SPLINE
  5
1a2
100
AcDbEntity
  8
To_laser_cut
 62
1
100
AcDbSpline
 70
8
 71
3
 72
8
 73
4
 74
0
 40
0
 40
0
 40
0
 40
0
 40
1
 40
1
 40
1
 40
1
 10
212.540129
 20
1250.445659
 30
0.0
 10
212.093548
 20
1249.672156
 30
0.0
 10
212.093548
 20
1248.719162
 30
0.0
 10
212.540129
 20
1247.945659
 30
0.0
  0
SPLINE
  5
1a3
100
AcDbEntity
  8
To_laser_cut
 62
1
100
AcDbSpline
 70
8
 71
3
 72
8
 73
4
 74
0
 40
0
 40
0
 40
0
 40
0
 40
1
 40
1
 40
1
 40
1
 10
212.540129
 20
1247.945659
 30
0.0
 10
212.986711
 20
1247.172156
 30
0.0
 10
213.812029
 20
1246.695659
 30
0.0
 10
214.705193
 20
1246.695659
 30
0.0
  0
LINE
  5
1a4
100
AcDbEntity
  8
To_laser_cut
 62
1
100
AcDbLine
 10
214.705193
 20
1246.695659
 30
0.0
 11
214.705193
 21
1246.695659
 31
0.0
  0
SPLINE
  5
1a5
100
AcDbEntity
  8
To_laser_cut
 62
1
100
AcDbSpline
 70
8
 71
3
 72
8
 73
4
 74
0
 40
0
 40
0
 40
0
 40
0
 40
1
 40
1
 40
1
 40
1
 10
125.805196
 20
1246.695659
 30
0.0
 10
126.698360
 20
1246.695659
 30
0.0
 10
127.523677
 20
1247.172156
 30
0.0
 10
127.970259
 20
1247.945659
 30
0.0
  0
SPLINE
  5
1a6
100
AcDbEntity
  8
To_laser_cut
 62
1
100
AcDbSpline
 70
8
 71
3
 72
8
 73
4
 74
0
 40
0
 40
0
 40
0
 40
0
 40
1
 40
1
 40
1
 40
1
 10
127.970259
 20
1247.945659
 30
0.0
 10
128.416841
 20
1248.719162
 30
0.0
 10
128.416841
 20
1249.672156
 30
0.0
 10
127.970259
 20
1250.445659
 30
0.0
  0
SPLINE
  5
1a7
100
AcDbEntity
  8
To_laser_cut
 62
1
100
AcDbSpline
 70
8
 71
3
 72
8
 73
4
 74
0
 40
0
 40
0
 40
0
 40
0
 40
1
 40
1
 40
1
 40
1
 10
127.970259
 20
1250.445659
 30
0.0
 10
127.523677
 20
1251.219162
 30
0.0
 10
126.698360
 20
1251.695659
 30
0.0
 10
125.805196
 20
1251.695659
 30
0.0
  0
SPLINE
  5
1a8
100
AcDbEntity
  8
To_laser_cut
 62
1
100
AcDbSpline
 70
8
 71
3
 72
8
 73
4
 74
0
 40
0
 40
0
 40
0
 40
0
 40
1
 40
1
 40
1
 40
1
 10
125.805196
 20
1251.695659
 30
0.0
 10
124.424484
 20
1251.695659
 30
0.0
 10
123.305196
 20
1250.576371
 30
0.0
 10
123.305196
 20
1249.195659
 30
0.0
  0
SPLINE
  5
1a9
100
AcDbEntity
  8
To_laser_cut
 62
1
100
AcDbSpline
 70
8
 71
3
 72
8
 73
4
 74
0
 40
0
 40
0
 40
0
 40
0
 40
1
 40
1
 40
1
 40
1
 10
123.305196
 20
1249.195659
 30
0.0
 10
123.305196
 20
1247.814947
 30
0.0
 10
124.424484
 20
1246.695659
 30
0.0
 10
125.805196
 20
1246.695659
 30
0.0
  0
LINE
  5
1aa
100
AcDbEntity
  8
To_laser_cut
 62
1
100
AcDbLine
 10
125.805196
 20
1246.695659
 30
0.0
 11
125.805196
 21
1246.695659
 31
0.0
  0
LINE
  5
1ab
100
AcDbEntity
  8
To_laser_cut
 62
1
100
AcDbLine
 10
-527.174713
 20
1136.436563
 30
0.0
 11
-527.174713
 21
1168.763832
 31
0.0
  0
LINE
  5
1ac
100
AcDbEntity
  8
To_laser_cut
 62
1
100
AcDbLine
 10
-527.174713
 20
1168.763832
 30
0.0
 11
-522.094713
 21
1168.763832
 31
0.0
  0
LINE
  5
1ad
100
AcDbEntity
  8
To_laser_cut
 62
1
100
AcDbLine
 10
-522.094713
 20
1168.763832
 30
0.0
 11
-522.094713
 21
1201.091101
 31
0.0
  0
LINE
  5
1ae
100
AcDbEntity
  8
To_laser_cut
 62
1
100
AcDbLine
 10
-522.094713
 20
1201.091101
 30
0.0
 11
-527.174713
 21
1201.091101
 31
0.0
  0
LINE
  5
1af
100
AcDbEntity
  8
To_laser_cut
 62
1
100
AcDbLine
 10
-527.174713
 20
1201.091101
 30
0.0
 11
-527.174713
 21
1233.418380
 31
0.0
  0
LINE
  5
1b0
100
AcDbEntity
  8
To_laser_cut
 62
1
100
AcDbLine
 10
-527.174713
 20
1233.418380
 30
0.0
 11
-522.094713
 21
1233.418380
 31
0.0
  0
LINE
  5
1b1
100
AcDbEntity
  8
To_laser_cut
 62
1
100
AcDbLine
 10
-522.094713
 20
1233.418380
 30
0.0
 11
-522.094713
 21
1265.745648
 31
0.0
  0
LINE
  5
1b2
100
AcDbEntity
  8
To_laser_cut
 62
1
100
AcDbLine
 10
-522.094713
 20
1265.745648
 30
0.0
 11
-547.494712
 21
1265.745648
 31
0.0
  0
LINE
  5
1b3
100
AcDbEntity
  8
To_laser_cut
 62
1
100
AcDbLine
 10
-547.494712
 20
1265.745648
 30
0.0
 11
-547.494712
 21
1270.825648
 31
0.0
  0
LINE
  5
1b4
100
AcDbEntity
  8
To_laser_cut
 62
1
100
AcDbLine
 10
-547.494712
 20
1270.825648
 30
0.0
 11
-572.894711
 21
1270.825648
 31
0.0
  0
LINE
  5
1b5
100
AcDbEntity
  8
To_laser_cut
 62
1
100
AcDbLine
 10
-572.894711
 20
1270.825648
 30
0.0
 11
-572.894711
 21
1265.745648
 31
0.0
  0
LINE
  5
1b6
100
AcDbEntity
  8
To_laser_cut
 62
1
100
AcDbLine
 10
-572.894711
 20
1265.745648
 30
0.0
 11
-588.134711
 21
1265.745648
 31
0.0
  0
LINE
  5
1b7
100
AcDbEntity
  8
To_laser_cut
 62
1
100
AcDbLine
 10
-588.134711
 20
1265.745648
 30
0.0
 11
-588.134711
 21
1245.775649
 31
0.0
  0
LINE
  5
1b8
100
AcDbEntity
  8
To_laser_cut
 62
1
100
AcDbLine
 10
-588.134711
 20
1245.775649
 30
0.0
 11
-593.214710
 21
1245.775649
 31
0.0
  0
LINE
  5
1b9
100
AcDbEntity
  8
To_laser_cut
 62
1
100
AcDbLine
 10
-593.214710
 20
1245.775649
 30
0.0
 11
-593.214710
 21
1265.745648
 31
0.0
  0
LINE
  5
1ba
100
AcDbEntity
  8
To_laser_cut
 62
1
100
AcDbLine
 10
-593.214710
 20
1265.745648
 30
0.0
 11
-598.294710
 21
1265.745648
 31
0.0
  0
LINE
  5
1bb
100
AcDbEntity
  8
To_laser_cut
 62
1
100
AcDbLine
 10
-598.294710
 20
1265.745648
 30
0.0
 11
-598.294710
 21
1189.545651
 31
0.0
  0
SPLINE
  5
1bc
100
AcDbEntity
  8
To_laser_cut
 62
1
100
AcDbSpline
 70
8
 71
3
 72
8
 73
4
 74
0
 40
0
 40
0
 40
0
 40
0
 40
1
 40
1
 40
1
 40
1
 10
-598.294710
 20
1189.545651
 30
0.0
 10
-598.294710
 20
1184.230021
 30
0.0
 10
-595.364972
 20
1179.347124
 30
0.0
 10
-590.674711
 20
1176.845651
 30
0.0
  0
SPLINE
  5
1bd
100
AcDbEntity
  8
To_laser_cut
 62
1
100
AcDbSpline
 70
8
 71
3
 72
8
 73
4
 74
0
 40
0
 40
0
 40
0
 40
0
 40
1
 40
1
 40
1
 40
1
 10
-590.674711
 20
1176.845651
 30
0.0
 10
-585.984449
 20
1174.344179
 30
0.0
 10
-583.054711
 20
1169.461282
 30
0.0
 10
-583.054711
 20
1164.145652
 30
0.0
  0
LINE
  5
1be
100
AcDbEntity
  8
To_laser_cut
 62
1
100
AcDbLine
 10
-583.054711
 20
1164.145652
 30
0.0
 11
-583.054711
 21
1011.745657
 31
0.0
  0
SPLINE
  5
1bf
100
AcDbEntity
  8
To_laser_cut
 62
1
100
AcDbSpline
 70
8
 71
3
 72
8
 73
4
 74
0
 40
0
 40
0
 40
0
 40
0
 40
1
 40
1
 40
1
 40
1
 10
-583.054711
 20
1011.745657
 30
0.0
 10
-583.054710
 20
1006.430027
 30
0.0
 10
-585.984448
 20
1001.547129
 30
0.0
 10
-590.674711
 20
999.045657
 30
0.0
  0
SPLINE
  5
1c0
100
AcDbEntity
  8
To_laser_cut
 62
1
100
AcDbSpline
 70
8
 71
3
 72
8
 73
4
 74
0
 40
0
 40
0
 40
0
 40
0
 40
1
 40
1
 40
1
 40
1
 10
-590.674711
 20
999.045657
 30
0.0
 10
-595.364973
 20
996.544185
 30
0.0
 10
-598.294711
 20
991.661288
 30
0.0
 10
-598.294710
 20
986.345658
 30
0.0
  0
LINE
  5
1c1
100
AcDbEntity
  8
To_laser_cut
 62
1
100
AcDbLine
 10
-598.294710
 20
986.345658
 30
0.0
 11
-598.294710
 21
910.145660
 31
0.0
  0
LINE
  5
1c2
100
AcDbEntity
  8
To_laser_cut
 62
1
100
AcDbLine
 10
-598.294710
 20
910.145660
 30
0.0
 11
-593.214710
 21
910.145660
 31
0.0
  0
LINE
  5
1c3
100
AcDbEntity
  8
To_laser_cut
 62
1
100
AcDbLine
 10
-593.214710
 20
910.145660
 30
0.0
 11
-593.214710
 21
930.115660
 31
0.0
  0
LINE
  5
1c4
100
AcDbEntity
  8
To_laser_cut
 62
1
100
AcDbLine
 10
-593.214710
 20
930.115660
 30
0.0
 11
-588.134711
 21
930.115660
 31
0.0
  0
LINE
  5
1c5
100
AcDbEntity
  8
To_laser_cut
 62
1
100
AcDbLine
 10
-588.134711
 20
930.115660
 30
0.0
 11
-588.134711
 21
910.145660
 31
0.0
  0
LINE
  5
1c6
100
AcDbEntity
  8
To_laser_cut
 62
1
100
AcDbLine
 10
-588.134711
 20
910.145660
 30
0.0
 11
-572.894711
 21
910.145660
 31
0.0
  0
LINE
  5
1c7
100
AcDbEntity
  8
To_laser_cut
 62
1
100
AcDbLine
 10
-572.894711
 20
910.145660
 30
0.0
 11
-572.894711
 21
905.065660
 31
0.0
  0
LINE
  5
1c8
100
AcDbEntity
  8
To_laser_cut
 62
1
100
AcDbLine
 10
-572.894711
 20
905.065660
 30
0.0
 11
-547.494712
 21
905.065660
 31
0.0
  0
LINE
  5
1c9
100
AcDbEntity
  8
To_laser_cut
 62
1
100
AcDbLine
 10
-547.494712
 20
905.065660
 30
0.0
 11
-547.494712
 21
910.145660
 31
0.0
  0
LINE
  5
1ca
100
AcDbEntity
  8
To_laser_cut
 62
1
100
AcDbLine
 10
-547.494712
 20
910.145660
 30
0.0
 11
-522.094713
 21
910.145660
 31
0.0
  0
LINE
  5
1cb
100
AcDbEntity
  8
To_laser_cut
 62
1
100
AcDbLine
 10
-522.094713
 20
910.145660
 30
0.0
 11
-522.094713
 21
942.472929
 31
0.0
  0
LINE
  5
1cc
100
AcDbEntity
  8
To_laser_cut
 62
1
100
AcDbLine
 10
-522.094713
 20
942.472929
 30
0.0
 11
-527.174713
 21
942.472929
 31
0.0
  0
LINE
  5
1cd
100
AcDbEntity
  8
To_laser_cut
 62
1
100
AcDbLine
 10
-527.174713
 20
942.472929
 30
0.0
 11
-527.174713
 21
974.800198
 31
0.0
  0
LINE
  5
1ce
100
AcDbEntity
  8
To_laser_cut
 62
1
100
AcDbLine
 10
-527.174713
 20
974.800198
 30
0.0
 11
-522.094713
 21
974.800198
 31
0.0
  0
LINE
  5
1cf
100
AcDbEntity
  8
To_laser_cut
 62
1
100
AcDbLine
 10
-522.094713
 20
974.800198
 30
0.0
 11
-522.094713
 21
1007.127467
 31
0.0
  0
LINE
  5
1d0
100
AcDbEntity
  8
To_laser_cut
 62
1
100
AcDbLine
 10
-522.094713
 20
1007.127467
 30
0.0
 11
-527.174713
 21
1007.127467
 31
0.0
  0
LINE
  5
1d1
100
AcDbEntity
  8
To_laser_cut
 62
1
100
AcDbLine
 10
-527.174713
 20
1007.127467
 30
0.0
 11
-527.174713
 21
1039.454746
 31
0.0
  0
LINE
  5
1d2
100
AcDbEntity
  8
To_laser_cut
 62
1
100
AcDbLine
 10
-527.174713
 20
1039.454746
 30
0.0
 11
-522.094713
 21
1039.454746
 31
0.0
  0
LINE
  5
1d3
100
AcDbEntity
  8
To_laser_cut
 62
1
100
AcDbLine
 10
-522.094713
 20
1039.454746
 30
0.0
 11
-522.094713
 21
1071.782015
 31
0.0
  0
LINE
  5
1d4
100
AcDbEntity
  8
To_laser_cut
 62
1
100
AcDbLine
 10
-522.094713
 20
1071.782015
 30
0.0
 11
-527.174713
 21
1071.782015
 31
0.0
  0
LINE
  5
1d5
100
AcDbEntity
  8
To_laser_cut
 62
1
100
AcDbLine
 10
-527.174713
 20
1071.782015
 30
0.0
 11
-527.174713
 21
1104.109284
 31
0.0
  0
LINE
  5
1d6
100
AcDbEntity
  8
To_laser_cut
 62
1
100
AcDbLine
 10
-527.174713
 20
1104.109284
 30
0.0
 11
-522.094713
 21
1104.109284
 31
0.0
  0
LINE
  5
1d7
100
AcDbEntity
  8
To_laser_cut
 62
1
100
AcDbLine
 10
-522.094713
 20
1104.109284
 30
0.0
 11
-522.094713
 21
1136.436563
 31
0.0
  0
LINE
  5
1d8
100
AcDbEntity
  8
To_laser_cut
 62
1
100
AcDbLine
 10
-522.094713
 20
1136.436563
 30
0.0
 11
-527.174713
 21
1136.436563
 31
0.0
  0
LINE
  5
1d9
100
AcDbEntity
  8
To_laser_cut
 62
1
100
AcDbLine
 10
-517.014713
 20
1245.775659
 30
0.0
 11
-511.934713
 21
1245.775659
 31
0.0
  0
LINE
  5
1da
100
AcDbEntity
  8
To_laser_cut
 62
1
100
AcDbLine
 10
-511.934713
 20
1245.775659
 30
0.0
 11
-511.934713
 21
1270.825648
 31
0.0
  0
LINE
  5
1db
100
AcDbEntity
  8
To_laser_cut
 62
1
100
AcDbLine
 10
-511.934713
 20
1270.825648
 30
0.0
 11
-496.694714
 21
1270.825648
 31
0.0
  0
LINE
  5
1dc
100
AcDbEntity
  8
To_laser_cut
 62
1
100
AcDbLine
 10
-496.694714
 20
1270.825648
 30
0.0
 11
-496.694714
 21
1265.745648
 31
0.0
  0
LINE
  5
1dd
100
AcDbEntity
  8
To_laser_cut
 62
1
100
AcDbLine
 10
-496.694714
 20
1265.745648
 30
0.0
 11
-471.294714
 21
1265.745648
 31
0.0
  0
LINE
  5
1de
100
AcDbEntity
  8
To_laser_cut
 62
1
100
AcDbLine
 10
-471.294714
 20
1265.745648
 30
0.0
 11
-471.294714
 21
1270.825648
 31
0.0
  0
LINE
  5
1df
100
AcDbEntity
  8
To_laser_cut
 62
1
100
AcDbLine
 10
-471.294714
 20
1270.825648
 30
0.0
 11
-445.894715
 21
1270.825648
 31
0.0
  0
LINE
  5
1e0
100
AcDbEntity
  8
To_laser_cut
 62
1
100
AcDbLine
 10
-445.894715
 20
1270.825648
 30
0.0
 11
-445.894715
 21
1231.879000
 31
0.0
  0
LINE
  5
1e1
100
AcDbEntity
  8
To_laser_cut
 62
1
100
AcDbLine
 10
-445.894715
 20
1231.879000
 30
0.0
 11
-450.974715
 21
1231.879000
 31
0.0
  0
LINE
  5
1e2
100
AcDbEntity
  8
To_laser_cut
 62
1
100
AcDbLine
 10
-450.974715
 20
1231.879000
 30
0.0
 11
-450.974715
 21
1198.012331
 31
0.0
  0
LINE
  5
1e3
100
AcDbEntity
  8
To_laser_cut
 62
1
100
AcDbLine
 10
-450.974715
 20
1198.012331
 30
0.0
 11
-445.894715
 21
1198.012331
 31
0.0
  0
LINE
  5
1e4
100
AcDbEntity
  8
To_laser_cut
 62
1
100
AcDbLine
 10
-445.894715
 20
1198.012331
 30
0.0
 11
-445.894715
 21
1164.145662
 31
0.0
  0
LINE
  5
1e5
100
AcDbEntity
  8
To_laser_cut
 62
1
100
AcDbLine
 10
-445.894715
 20
1164.145662
 30
0.0
 11
-450.974715
 21
1164.145662
 31
0.0
  0
LINE
  5
1e6
100
AcDbEntity
  8
To_laser_cut
 62
1
100
AcDbLine
 10
-450.974715
 20
1164.145662
 30
0.0
 11
-450.974715
 21
1130.278993
 31
0.0
  0
LINE
  5
1e7
100
AcDbEntity
  8
To_laser_cut
 62
1
100
AcDbLine
 10
-450.974715
 20
1130.278993
 30
0.0
 11
-445.894715
 21
1130.278993
 31
0.0
  0
LINE
  5
1e8
100
AcDbEntity
  8
To_laser_cut
 62
1
100
AcDbLine
 10
-445.894715
 20
1130.278993
 30
0.0
 11
-445.894715
 21
1096.412324
 31
0.0
  0
LINE
  5
1e9
100
AcDbEntity
  8
To_laser_cut
 62
1
100
AcDbLine
 10
-445.894715
 20
1096.412324
 30
0.0
 11
-450.974715
 21
1096.412324
 31
0.0
  0
LINE
  5
1ea
100
AcDbEntity
  8
To_laser_cut
 62
1
100
AcDbLine
 10
-450.974715
 20
1096.412324
 30
0.0
 11
-450.974715
 21
1062.545665
 31
0.0
  0
LINE
  5
1eb
100
AcDbEntity
  8
To_laser_cut
 62
1
100
AcDbLine
 10
-450.974715
 20
1062.545665
 30
0.0
 11
-445.894715
 21
1062.545665
 31
0.0
  0
LINE
  5
1ec
100
AcDbEntity
  8
To_laser_cut
 62
1
100
AcDbLine
 10
-445.894715
 20
1062.545665
 30
0.0
 11
-445.894715
 21
1028.678996
 31
0.0
  0
LINE
  5
1ed
100
AcDbEntity
  8
To_laser_cut
 62
1
100
AcDbLine
 10
-445.894715
 20
1028.678996
 30
0.0
 11
-450.974715
 21
1028.678996
 31
0.0
  0
LINE
  5
1ee
100
AcDbEntity
  8
To_laser_cut
 62
1
100
AcDbLine
 10
-450.974715
 20
1028.678996
 30
0.0
 11
-450.974715
 21
994.812327
 31
0.0
  0
LINE
  5
1ef
100
AcDbEntity
  8
To_laser_cut
 62
1
100
AcDbLine
 10
-450.974715
 20
994.812327
 30
0.0
 11
-445.894715
 21
994.812327
 31
0.0
  0
LINE
  5
1f0
100
AcDbEntity
  8
To_laser_cut
 62
1
100
AcDbLine
 10
-445.894715
 20
994.812327
 30
0.0
 11
-445.894715
 21
955.865659
 31
0.0
  0
LINE
  5
1f1
100
AcDbEntity
  8
To_laser_cut
 62
1
100
AcDbLine
 10
-445.894715
 20
955.865659
 30
0.0
 11
-471.294714
 21
955.865659
 31
0.0
  0
LINE
  5
1f2
100
AcDbEntity
  8
To_laser_cut
 62
1
100
AcDbLine
 10
-471.294714
 20
955.865659
 30
0.0
 11
-471.294714
 21
960.945658
 31
0.0
  0
LINE
  5
1f3
100
AcDbEntity
  8
To_laser_cut
 62
1
100
AcDbLine
 10
-471.294714
 20
960.945658
 30
0.0
 11
-496.694714
 21
960.945658
 31
0.0
  0
LINE
  5
1f4
100
AcDbEntity
  8
To_laser_cut
 62
1
100
AcDbLine
 10
-496.694714
 20
960.945658
 30
0.0
 11
-496.694714
 21
955.865659
 31
0.0
  0
LINE
  5
1f5
100
AcDbEntity
  8
To_laser_cut
 62
1
100
AcDbLine
 10
-496.694714
 20
955.865659
 30
0.0
 11
-522.094713
 21
955.865659
 31
0.0
  0
LINE
  5
1f6
100
AcDbEntity
  8
To_laser_cut
 62
1
100
AcDbLine
 10
-522.094713
 20
955.865659
 30
0.0
 11
-522.094713
 21
1270.825648
 31
0.0
  0
LINE
  5
1f7
100
AcDbEntity
  8
To_laser_cut
 62
1
100
AcDbLine
 10
-522.094713
 20
1270.825648
 30
0.0
 11
-517.014713
 21
1270.825648
 31
0.0
  0
LINE
  5
1f8
100
AcDbEntity
  8
To_laser_cut
 62
1
100
AcDbLine
 10
-517.014713
 20
1270.825648
 30
0.0
 11
-517.014713
 21
1245.775659
 31
0.0
  0
LINE
  5
1f9
100
AcDbEntity
  8
To_laser_cut
 62
1
100
AcDbLine
 10
-669.497498
 20
1265.745678
 30
0.0
 11
-649.094699
 21
1265.745678
 31
0.0
  0
LINE
  5
1fa
100
AcDbEntity
  8
To_laser_cut
 62
1
100
AcDbLine
 10
-649.094699
 20
1265.745678
 30
0.0
 11
-649.094699
 21
1270.825678
 31
0.0
  0
LINE
  5
1fb
100
AcDbEntity
  8
To_laser_cut
 62
1
100
AcDbLine
 10
-649.094699
 20
1270.825678
 30
0.0
 11
-623.694699
 21
1270.825678
 31
0.0
  0
LINE
  5
1fc
100
AcDbEntity
  8
To_laser_cut
 62
1
100
AcDbLine
 10
-623.694699
 20
1270.825678
 30
0.0
 11
-623.694699
 21
1265.745678
 31
0.0
  0
LINE
  5
1fd
100
AcDbEntity
  8
To_laser_cut
 62
1
100
AcDbLine
 10
-623.694699
 20
1265.745678
 30
0.0
 11
-598.294700
 21
1265.745678
 31
0.0
  0
LINE
  5
1fe
100
AcDbEntity
  8
To_laser_cut
 62
1
100
AcDbLine
 10
-598.294700
 20
1265.745678
 30
0.0
 11
-598.294700
 21
1233.418410
 31
0.0
  0
LINE
  5
1ff
100
AcDbEntity
  8
To_laser_cut
 62
1
100
AcDbLine
 10
-598.294700
 20
1233.418410
 30
0.0
 11
-603.374700
 21
1233.418410
 31
0.0
  0
LINE
  5
200
100
AcDbEntity
  8
To_laser_cut
 62
1
100
AcDbLine
 10
-603.374700
 20
1233.418410
 30
0.0
 11
-603.374700
 21
1201.091141
 31
0.0
  0
LINE
  5
201
100
AcDbEntity
  8
To_laser_cut
 62
1
100
AcDbLine
 10
-603.374700
 20
1201.091141
 30
0.0
 11
-598.294700
 21
1201.091141
 31
0.0
  0
LINE
  5
202
100
AcDbEntity
  8
To_laser_cut
 62
1
100
AcDbLine
 10
-598.294700
 20
1201.091141
 30
0.0
 11
-598.294700
 21
1168.763862
 31
0.0
  0
LINE
  5
203
100
AcDbEntity
  8
To_laser_cut
 62
1
100
AcDbLine
 10
-598.294700
 20
1168.763862
 30
0.0
 11
-603.374700
 21
1168.763862
 31
0.0
  0
LINE
  5
204
100
AcDbEntity
  8
To_laser_cut
 62
1
100
AcDbLine
 10
-603.374700
 20
1168.763862
 30
0.0
 11
-603.374700
 21
1136.436593
 31
0.0
  0
LINE
  5
205
100
AcDbEntity
  8
To_laser_cut
 62
1
100
AcDbLine
 10
-603.374700
 20
1136.436593
 30
0.0
 11
-598.294700
 21
1136.436593
 31
0.0
  0
LINE
  5
206
100
AcDbEntity
  8
To_laser_cut
 62
1
100
AcDbLine
 10
-598.294700
 20
1136.436593
 30
0.0
 11
-598.294700
 21
1104.109324
 31
0.0
  0
LINE
  5
207
100
AcDbEntity
  8
To_laser_cut
 62
1
100
AcDbLine
 10
-598.294700
 20
1104.109324
 30
0.0
 11
-603.374700
 21
1104.109324
 31
0.0
  0
LINE
  5
208
100
AcDbEntity
  8
To_laser_cut
 62
1
100
AcDbLine
 10
-603.374700
 20
1104.109324
 30
0.0
 11
-603.374700
 21
1071.782045
 31
0.0
  0
LINE
  5
209
100
AcDbEntity
  8
To_laser_cut
 62
1
100
AcDbLine
 10
-603.374700
 20
1071.782045
 30
0.0
 11
-598.294700
 21
1071.782045
 31
0.0
  0
LINE
  5
20a
100
AcDbEntity
  8
To_laser_cut
 62
1
100
AcDbLine
 10
-598.294700
 20
1071.782045
 30
0.0
 11
-598.294700
 21
1039.454776
 31
0.0
  0
LINE
  5
20b
100
AcDbEntity
  8
To_laser_cut
 62
1
100
AcDbLine
 10
-598.294700
 20
1039.454776
 30
0.0
 11
-603.374700
 21
1039.454776
 31
0.0
  0
LINE
  5
20c
100
AcDbEntity
  8
To_laser_cut
 62
1
100
AcDbLine
 10
-603.374700
 20
1039.454776
 30
0.0
 11
-603.374700
 21
1007.127507
 31
0.0
  0
LINE
  5
20d
100
AcDbEntity
  8
To_laser_cut
 62
1
100
AcDbLine
 10
-603.374700
 20
1007.127507
 30
0.0
 11
-598.294700
 21
1007.127507
 31
0.0
  0
LINE
  5
20e
100
AcDbEntity
  8
To_laser_cut
 62
1
100
AcDbLine
 10
-598.294700
 20
1007.127507
 30
0.0
 11
-598.294700
 21
974.800238
 31
0.0
  0
LINE
  5
20f
100
AcDbEntity
  8
To_laser_cut
 62
1
100
AcDbLine
 10
-598.294700
 20
974.800238
 30
0.0
 11
-603.374700
 21
974.800238
 31
0.0
  0
LINE
  5
210
100
AcDbEntity
  8
To_laser_cut
 62
1
100
AcDbLine
 10
-603.374700
 20
974.800238
 30
0.0
 11
-603.374700
 21
942.472959
 31
0.0
  0
LINE
  5
211
100
AcDbEntity
  8
To_laser_cut
 62
1
100
AcDbLine
 10
-603.374700
 20
942.472959
 30
0.0
 11
-598.294700
 21
942.472959
 31
0.0
  0
LINE
  5
212
100
AcDbEntity
  8
To_laser_cut
 62
1
100
AcDbLine
 10
-598.294700
 20
942.472959
 30
0.0
 11
-598.294700
 21
910.145690
 31
0.0
  0
LINE
  5
213
100
AcDbEntity
  8
To_laser_cut
 62
1
100
AcDbLine
 10
-598.294700
 20
910.145690
 30
0.0
 11
-623.694699
 21
910.145690
 31
0.0
  0
LINE
  5
214
100
AcDbEntity
  8
To_laser_cut
 62
1
100
AcDbLine
 10
-623.694699
 20
910.145690
 30
0.0
 11
-623.694699
 21
905.065690
 31
0.0
  0
LINE
  5
215
100
AcDbEntity
  8
To_laser_cut
 62
1
100
AcDbLine
 10
-623.694699
 20
905.065690
 30
0.0
 11
-649.094699
 21
905.065690
 31
0.0
  0
LINE
  5
216
100
AcDbEntity
  8
To_laser_cut
 62
1
100
AcDbLine
 10
-649.094699
 20
905.065690
 30
0.0
 11
-649.094699
 21
910.145690
 31
0.0
  0
LINE
  5
217
100
AcDbEntity
  8
To_laser_cut
 62
1
100
AcDbLine
 10
-649.094699
 20
910.145690
 30
0.0
 11
-669.497498
 21
910.145690
 31
0.0
  0
LINE
  5
218
100
AcDbEntity
  8
To_laser_cut
 62
1
100
AcDbLine
 10
-669.497498
 20
910.145690
 30
0.0
 11
-669.497498
 21
950.785689
 31
0.0
  0
LINE
  5
219
100
AcDbEntity
  8
To_laser_cut
 62
1
100
AcDbLine
 10
-669.497498
 20
950.785689
 30
0.0
 11
-674.494698
 21
950.785689
 31
0.0
  0
LINE
  5
21a
100
AcDbEntity
  8
To_laser_cut
 62
1
100
AcDbLine
 10
-674.494698
 20
950.785689
 30
0.0
 11
-674.494698
 21
1067.625685
 31
0.0
  0
LINE
  5
21b
100
AcDbEntity
  8
To_laser_cut
 62
1
100
AcDbLine
 10
-674.494698
 20
1067.625685
 30
0.0
 11
-669.497498
 21
1067.625685
 31
0.0
  0
LINE
  5
21c
100
AcDbEntity
  8
To_laser_cut
 62
1
100
AcDbLine
 10
-669.497498
 20
1067.625685
 30
0.0
 11
-669.497498
 21
1108.265684
 31
0.0
  0
LINE
  5
21d
100
AcDbEntity
  8
To_laser_cut
 62
1
100
AcDbLine
 10
-669.497498
 20
1108.265684
 30
0.0
 11
-674.494698
 21
1108.265684
 31
0.0
  0
LINE
  5
21e
100
AcDbEntity
  8
To_laser_cut
 62
1
100
AcDbLine
 10
-674.494698
 20
1108.265684
 30
0.0
 11
-674.494698
 21
1225.105680
 31
0.0
  0
LINE
  5
21f
100
AcDbEntity
  8
To_laser_cut
 62
1
100
AcDbLine
 10
-674.494698
 20
1225.105680
 30
0.0
 11
-669.497498
 21
1225.105680
 31
0.0
  0
LINE
  5
220
100
AcDbEntity
  8
To_laser_cut
 62
1
100
AcDbLine
 10
-669.497498
 20
1225.105680
 30
0.0
 11
-669.497498
 21
1265.745678
 31
0.0
  0
SPLINE
  5
221
100
AcDbEntity
  8
To_laser_cut
 62
1
100
AcDbSpline
 70
8
 71
3
 72
8
 73
4
 74
0
 40
0
 40
0
 40
0
 40
0
 40
1
 40
1
 40
1
 40
1
 10
-663.197498
 20
1077.645685
 30
0.0
 10
-664.019209
 20
1077.645685
 30
0.0
 10
-664.778501
 20
1077.207307
 30
0.0
 10
-665.189356
 20
1076.495685
 30
0.0
  0
SPLINE
  5
222
100
AcDbEntity
  8
To_laser_cut
 62
1
100
AcDbSpline
 70
8
 71
3
 72
8
 73
4
 74
0
 40
0
 40
0
 40
0
 40
0
 40
1
 40
1
 40
1
 40
1
 10
-665.189356
 20
1076.495685
 30
0.0
 10
-665.600212
 20
1075.784062
 30
0.0
 10
-665.600212
 20
1074.907307
 30
0.0
 10
-665.189356
 20
1074.195685
 30
0.0
  0
SPLINE
  5
223
100
AcDbEntity
  8
To_laser_cut
 62
1
100
AcDbSpline
 70
8
 71
3
 72
8
 73
4
 74
0
 40
0
 40
0
 40
0
 40
0
 40
1
 40
1
 40
1
 40
1
 10
-665.189356
 20
1074.195685
 30
0.0
 10
-664.778501
 20
1073.484062
 30
0.0
 10
-664.019209
 20
1073.045685
 30
0.0
 10
-663.197498
 20
1073.045685
 30
0.0
  0
SPLINE
  5
224
100
AcDbEntity
  8
To_laser_cut
 62
1
100
AcDbSpline
 70
8
 71
3
 72
8
 73
4
 74
0
 40
0
 40
0
 40
0
 40
0
 40
1
 40
1
 40
1
 40
1
 10
-663.197498
 20
1073.045685
 30
0.0
 10
-662.375787
 20
1073.045685
 30
0.0
 10
-661.616495
 20
1073.484062
 30
0.0
 10
-661.205639
 20
1074.195685
 30
0.0
  0
SPLINE
  5
225
100
AcDbEntity
  8
To_laser_cut
 62
1
100
AcDbSpline
 70
8
 71
3
 72
8
 73
4
 74
0
 40
0
 40
0
 40
0
 40
0
 40
1
 40
1
 40
1
 40
1
 10
-661.205639
 20
1074.195685
 30
0.0
 10
-660.794784
 20
1074.907307
 30
0.0
 10
-660.794784
 20
1075.784062
 30
0.0
 10
-661.205639
 20
1076.495685
 30
0.0
  0
SPLINE
  5
226
100
AcDbEntity
  8
To_laser_cut
 62
1
100
AcDbSpline
 70
8
 71
3
 72
8
 73
4
 74
0
 40
0
 40
0
 40
0
 40
0
 40
1
 40
1
 40
1
 40
1
 10
-661.205639
 20
1076.495685
 30
0.0
 10
-661.616495
 20
1077.207307
 30
0.0
 10
-662.375787
 20
1077.645685
 30
0.0
 10
-663.197498
 20
1077.645685
 30
0.0
  0
LINE
  5
227
100
AcDbEntity
  8
To_laser_cut
 62
1
100
AcDbLine
 10
-663.197498
 20
1077.645685
 30
0.0
 11
-663.197498
 21
1077.645685
 31
0.0
  0
SPLINE
  5
228
100
AcDbEntity
  8
To_laser_cut
 62
1
100
AcDbSpline
 70
8
 71
3
 72
8
 73
4
 74
0
 40
0
 40
0
 40
0
 40
0
 40
1
 40
1
 40
1
 40
1
 10
-663.197498
 20
1260.325679
 30
0.0
 10
-664.019209
 20
1260.325679
 30
0.0
 10
-664.778501
 20
1259.887301
 30
0.0
 10
-665.189356
 20
1259.175679
 30
0.0
  0
SPLINE
  5
229
100
AcDbEntity
  8
To_laser_cut
 62
1
100
AcDbSpline
 70
8
 71
3
 72
8
 73
4
 74
0
 40
0
 40
0
 40
0
 40
0
 40
1
 40
1
 40
1
 40
1
 10
-665.189356
 20
1259.175679
 30
0.0
 10
-665.600212
 20
1258.464056
 30
0.0
 10
-665.600212
 20
1257.587301
 30
0.0
 10
-665.189356
 20
1256.875679
 30
0.0
  0
SPLINE
  5
22a
100
AcDbEntity
  8
To_laser_cut
 62
1
100
AcDbSpline
 70
8
 71
3
 72
8
 73
4
 74
0
 40
0
 40
0
 40
0
 40
0
 40
1
 40
1
 40
1
 40
1
 10
-665.189356
 20
1256.875679
 30
0.0
 10
-664.778501
 20
1256.164056
 30
0.0
 10
-664.019209
 20
1255.725679
 30
0.0
 10
-663.197498
 20
1255.725679
 30
0.0
  0
SPLINE
  5
22b
100
AcDbEntity
  8
To_laser_cut
 62
1
100
AcDbSpline
 70
8
 71
3
 72
8
 73
4
 74
0
 40
0
 40
0
 40
0
 40
0
 40
1
 40
1
 40
1
 40
1
 10
-663.197498
 20
1255.725679
 30
0.0
 10
-662.375787
 20
1255.725679
 30
0.0
 10
-661.616495
 20
1256.164056
 30
0.0
 10
-661.205640
 20
1256.875679
 30
0.0
  0
SPLINE
  5
22c
100
AcDbEntity
  8
To_laser_cut
 62
1
100
AcDbSpline
 70
8
 71
3
 72
8
 73
4
 74
0
 40
0
 40
0
 40
0
 40
0
 40
1
 40
1
 40
1
 40
1
 10
-661.205640
 20
1256.875679
 30
0.0
 10
-660.794784
 20
1257.587301
 30
0.0
 10
-660.794784
 20
1258.464056
 30
0.0
 10
-661.205640
 20
1259.175679
 30
0.0
  0
SPLINE
  5
22d
100
AcDbEntity
  8
To_laser_cut
 62
1
100
AcDbSpline
 70
8
 71
3
 72
8
 73
4
 74
0
 40
0
 40
0
 40
0
 40
0
 40
1
 40
1
 40
1
 40
1
 10
-661.205640
 20
1259.175679
 30
0.0
 10
-661.616495
 20
1259.887301
 30
0.0
 10
-662.375787
 20
1260.325679
 30
0.0
 10
-663.197498
 20
1260.325679
 30
0.0
  0
LINE
  5
22e
100
AcDbEntity
  8
To_laser_cut
 62
1
100
AcDbLine
 10
-663.197498
 20
1260.325679
 30
0.0
 11
-663.197498
 21
1260.325679
 31
0.0
  0
SPLINE
  5
22f
100
AcDbEntity
  8
To_laser_cut
 62
1
100
AcDbSpline
 70
8
 71
3
 72
8
 73
4
 74
0
 40
0
 40
0
 40
0
 40
0
 40
1
 40
1
 40
1
 40
1
 10
-663.197498
 20
945.365689
 30
0.0
 10
-664.019209
 20
945.365689
 30
0.0
 10
-664.778501
 20
944.927311
 30
0.0
 10
-665.189356
 20
944.215689
 30
0.0
  0
SPLINE
  5
230
100
AcDbEntity
  8
To_laser_cut
 62
1
100
AcDbSpline
 70
8
 71
3
 72
8
 73
4
 74
0
 40
0
 40
0
 40
0
 40
0
 40
1
 40
1
 40
1
 40
1
 10
-665.189356
 20
944.215689
 30
0.0
 10
-665.600212
 20
943.504067
 30
0.0
 10
-665.600212
 20
942.627312
 30
0.0
 10
-665.189356
 20
941.915689
 30
0.0
  0
SPLINE
  5
231
100
AcDbEntity
  8
To_laser_cut
 62
1
100
AcDbSpline
 70
8
 71
3
 72
8
 73
4
 74
0
 40
0
 40
0
 40
0
 40
0
 40
1
 40
1
 40
1
 40
1
 10
-665.189356
 20
941.915689
 30
0.0
 10
-664.778501
 20
941.204067
 30
0.0
 10
-664.019209
 20
940.765689
 30
0.0
 10
-663.197498
 20
940.765689
 30
0.0
  0
SPLINE
  5
232
100
AcDbEntity
  8
To_laser_cut
 62
1
100
AcDbSpline
 70
8
 71
3
 72
8
 73
4
 74
0
 40
0
 40
0
 40
0
 40
0
 40
1
 40
1
 40
1
 40
1
 10
-663.197498
 20
940.765689
 30
0.0
 10
-662.375787
 20
940.765689
 30
0.0
 10
-661.616495
 20
941.204067
 30
0.0
 10
-661.205640
 20
941.915689
 30
0.0
  0
SPLINE
  5
233
100
AcDbEntity
  8
To_laser_cut
 62
1
100
AcDbSpline
 70
8
 71
3
 72
8
 73
4
 74
0
 40
0
 40
0
 40
0
 40
0
 40
1
 40
1
 40
1
 40
1
 10
-661.205640
 20
941.915689
 30
0.0
 10
-660.794784
 20
942.627312
 30
0.0
 10
-660.794784
 20
943.504067
 30
0.0
 10
-661.205640
 20
944.215689
 30
0.0
  0
SPLINE
  5
234
100
AcDbEntity
  8
To_laser_cut
 62
1
100
AcDbSpline
 70
8
 71
3
 72
8
 73
4
 74
0
 40
0
 40
0
 40
0
 40
0
 40
1
 40
1
 40
1
 40
1
 10
-661.205640
 20
944.215689
 30
0.0
 10
-661.616495
 20
944.927311
 30
0.0
 10
-662.375787
 20
945.365689
 30
0.0
 10
-663.197498
 20
945.365689
 30
0.0
  0
LINE
  5
235
100
AcDbEntity
  8
To_laser_cut
 62
1
100
AcDbLine
 10
-663.197498
 20
945.365689
 30
0.0
 11
-663.197498
 21
945.365689
 31
0.0
  0
SPLINE
  5
236
100
AcDbEntity
  8
To_laser_cut
 62
1
100
AcDbSpline
 70
8
 71
3
 72
8
 73
4
 74
0
 40
0
 40
0
 40
0
 40
0
 40
1
 40
1
 40
1
 40
1
 10
-663.197498
 20
1102.845684
 30
0.0
 10
-664.019209
 20
1102.845684
 30
0.0
 10
-664.778501
 20
1102.407306
 30
0.0
 10
-665.189356
 20
1101.695684
 30
0.0
  0
SPLINE
  5
237
100
AcDbEntity
  8
To_laser_cut
 62
1
100
AcDbSpline
 70
8
 71
3
 72
8
 73
4
 74
0
 40
0
 40
0
 40
0
 40
0
 40
1
 40
1
 40
1
 40
1
 10
-665.189356
 20
1101.695684
 30
0.0
 10
-665.600212
 20
1100.984061
 30
0.0
 10
-665.600212
 20
1100.107306
 30
0.0
 10
-665.189356
 20
1099.395684
 30
0.0
  0
SPLINE
  5
238
100
AcDbEntity
  8
To_laser_cut
 62
1
100
AcDbSpline
 70
8
 71
3
 72
8
 73
4
 74
0
 40
0
 40
0
 40
0
 40
0
 40
1
 40
1
 40
1
 40
1
 10
-665.189356
 20
1099.395684
 30
0.0
 10
-664.778501
 20
1098.684061
 30
0.0
 10
-664.019209
 20
1098.245684
 30
0.0
 10
-663.197498
 20
1098.245684
 30
0.0
  0
SPLINE
  5
239
100
AcDbEntity
  8
To_laser_cut
 62
1
100
AcDbSpline
 70
8
 71
3
 72
8
 73
4
 74
0
 40
0
 40
0
 40
0
 40
0
 40
1
 40
1
 40
1
 40
1
 10
-663.197498
 20
1098.245684
 30
0.0
 10
-662.375787
 20
1098.245684
 30
0.0
 10
-661.616495
 20
1098.684061
 30
0.0
 10
-661.205640
 20
1099.395684
 30
0.0
  0
SPLINE
  5
23a
100
AcDbEntity
  8
To_laser_cut
 62
1
100
AcDbSpline
 70
8
 71
3
 72
8
 73
4
 74
0
 40
0
 40
0
 40
0
 40
0
 40
1
 40
1
 40
1
 40
1
 10
-661.205640
 20
1099.395684
 30
0.0
 10
-660.794784
 20
1100.107306
 30
0.0
 10
-660.794784
 20
1100.984061
 30
0.0
 10
-661.205640
 20
1101.695684
 30
0.0
  0
SPLINE
  5
23b
100
AcDbEntity
  8
To_laser_cut
 62
1
100
AcDbSpline
 70
8
 71
3
 72
8
 73
4
 74
0
 40
0
 40
0
 40
0
 40
0
 40
1
 40
1
 40
1
 40
1
 10
-661.205640
 20
1101.695684
 30
0.0
 10
-661.616495
 20
1102.407306
 30
0.0
 10
-662.375787
 20
1102.845684
 30
0.0
 10
-663.197498
 20
1102.845684
 30
0.0
  0
LINE
  5
23c
100
AcDbEntity
  8
To_laser_cut
 62
1
100
AcDbLine
 10
-663.197498
 20
1102.845684
 30
0.0
 11
-663.197498
 21
1102.845684
 31
0.0
  0
SPLINE
  5
23d
100
AcDbEntity
  8
To_laser_cut
 62
1
100
AcDbSpline
 70
8
 71
3
 72
8
 73
4
 74
0
 40
0
 40
0
 40
0
 40
0
 40
1
 40
1
 40
1
 40
1
 10
-663.197498
 20
1235.125679
 30
0.0
 10
-664.019209
 20
1235.125679
 30
0.0
 10
-664.778501
 20
1234.687302
 30
0.0
 10
-665.189356
 20
1233.975679
 30
0.0
  0
SPLINE
  5
23e
100
AcDbEntity
  8
To_laser_cut
 62
1
100
AcDbSpline
 70
8
 71
3
 72
8
 73
4
 74
0
 40
0
 40
0
 40
0
 40
0
 40
1
 40
1
 40
1
 40
1
 10
-665.189356
 20
1233.975679
 30
0.0
 10
-665.600212
 20
1233.264057
 30
0.0
 10
-665.600212
 20
1232.387302
 30
0.0
 10
-665.189356
 20
1231.675680
 30
0.0
  0
SPLINE
  5
23f
100
AcDbEntity
  8
To_laser_cut
 62
1
100
AcDbSpline
 70
8
 71
3
 72
8
 73
4
 74
0
 40
0
 40
0
 40
0
 40
0
 40
1
 40
1
 40
1
 40
1
 10
-665.189356
 20
1231.675680
 30
0.0
 10
-664.778501
 20
1230.964057
 30
0.0
 10
-664.019209
 20
1230.525680
 30
0.0
 10
-663.197498
 20
1230.525680
 30
0.0
  0
SPLINE
  5
240
100
AcDbEntity
  8
To_laser_cut
 62
1
100
AcDbSpline
 70
8
 71
3
 72
8
 73
4
 74
0
 40
0
 40
0
 40
0
 40
0
 40
1
 40
1
 40
1
 40
1
 10
-663.197498
 20
1230.525680
 30
0.0
 10
-662.375787
 20
1230.525680
 30
0.0
 10
-661.616495
 20
1230.964057
 30
0.0
 10
-661.205640
 20
1231.675680
 30
0.0
  0
SPLINE
  5
241
100
AcDbEntity
  8
To_laser_cut
 62
1
100
AcDbSpline
 70
8
 71
3
 72
8
 73
4
 74
0
 40
0
 40
0
 40
0
 40
0
 40
1
 40
1
 40
1
 40
1
 10
-661.205640
 20
1231.675680
 30
0.0
 10
-660.794784
 20
1232.387302
 30
0.0
 10
-660.794784
 20
1233.264057
 30
0.0
 10
-661.205640
 20
1233.975679
 30
0.0
  0
SPLINE
  5
242
100
AcDbEntity
  8
To_laser_cut
 62
1
100
AcDbSpline
 70
8
 71
3
 72
8
 73
4
 74
0
 40
0
 40
0
 40
0
 40
0
 40
1
 40
1
 40
1
 40
1
 10
-661.205640
 20
1233.975679
 30
0.0
 10
-661.616495
 20
1234.687302
 30
0.0
 10
-662.375787
 20
1235.125679
 30
0.0
 10
-663.197498
 20
1235.125679
 30
0.0
  0
LINE
  5
243
100
AcDbEntity
  8
To_laser_cut
 62
1
100
AcDbLine
 10
-663.197498
 20
1235.125679
 30
0.0
 11
-663.197498
 21
1235.125679
 31
0.0
  0
SPLINE
  5
244
100
AcDbEntity
  8
To_laser_cut
 62
1
100
AcDbSpline
 70
8
 71
3
 72
8
 73
4
 74
0
 40
0
 40
0
 40
0
 40
0
 40
1
 40
1
 40
1
 40
1
 10
-663.197498
 20
920.165690
 30
0.0
 10
-664.019209
 20
920.165690
 30
0.0
 10
-664.778501
 20
919.727312
 30
0.0
 10
-665.189356
 20
919.015690
 30
0.0
  0
SPLINE
  5
245
100
AcDbEntity
  8
To_laser_cut
 62
1
100
AcDbSpline
 70
8
 71
3
 72
8
 73
4
 74
0
 40
0
 40
0
 40
0
 40
0
 40
1
 40
1
 40
1
 40
1
 10
-665.189356
 20
919.015690
 30
0.0
 10
-665.600212
 20
918.304067
 30
0.0
 10
-665.600212
 20
917.427312
 30
0.0
 10
-665.189356
 20
916.715690
 30
0.0
  0
SPLINE
  5
246
100
AcDbEntity
  8
To_laser_cut
 62
1
100
AcDbSpline
 70
8
 71
3
 72
8
 73
4
 74
0
 40
0
 40
0
 40
0
 40
0
 40
1
 40
1
 40
1
 40
1
 10
-665.189356
 20
916.715690
 30
0.0
 10
-664.778501
 20
916.004067
 30
0.0
 10
-664.019209
 20
915.565690
 30
0.0
 10
-663.197498
 20
915.565690
 30
0.0
  0
SPLINE
  5
247
100
AcDbEntity
  8
To_laser_cut
 62
1
100
AcDbSpline
 70
8
 71
3
 72
8
 73
4
 74
0
 40
0
 40
0
 40
0
 40
0
 40
1
 40
1
 40
1
 40
1
 10
-663.197498
 20
915.565690
 30
0.0
 10
-662.375787
 20
915.565690
 30
0.0
 10
-661.616495
 20
916.004067
 30
0.0
 10
-661.205640
 20
916.715690
 30
0.0
  0
SPLINE
  5
248
100
AcDbEntity
  8
To_laser_cut
 62
1
100
AcDbSpline
 70
8
 71
3
 72
8
 73
4
 74
0
 40
0
 40
0
 40
0
 40
0
 40
1
 40
1
 40
1
 40
1
 10
-661.205640
 20
916.715690
 30
0.0
 10
-660.794784
 20
917.427312
 30
0.0
 10
-660.794784
 20
918.304067
 30
0.0
 10
-661.205640
 20
919.015690
 30
0.0
  0
SPLINE
  5
249
100
AcDbEntity
  8
To_laser_cut
 62
1
100
AcDbSpline
 70
8
 71
3
 72
8
 73
4
 74
0
 40
0
 40
0
 40
0
 40
0
 40
1
 40
1
 40
1
 40
1
 10
-661.205640
 20
919.015690
 30
0.0
 10
-661.616495
 20
919.727312
 30
0.0
 10
-662.375787
 20
920.165690
 30
0.0
 10
-663.197498
 20
920.165690
 30
0.0
  0
LINE
  5
24a
100
AcDbEntity
  8
To_laser_cut
 62
1
100
AcDbLine
 10
-663.197498
 20
920.165690
 30
0.0
 11
-663.197498
 21
920.165690
 31
0.0
  0
LINE
  5
24b
100
AcDbEntity
  8
To_laser_cut
 62
1
100
AcDbLine
 10
-369.694718
 20
1028.678976
 30
0.0
 11
-369.694718
 21
1062.545645
 31
0.0
  0
LINE
  5
24c
100
AcDbEntity
  8
To_laser_cut
 62
1
100
AcDbLine
 10
-369.694718
 20
1062.545645
 30
0.0
 11
-374.774718
 21
1062.545645
 31
0.0
  0
LINE
  5
24d
100
AcDbEntity
  8
To_laser_cut
 62
1
100
AcDbLine
 10
-374.774718
 20
1062.545645
 30
0.0
 11
-374.774718
 21
1096.412304
 31
0.0
  0
LINE
  5
24e
100
AcDbEntity
  8
To_laser_cut
 62
1
100
AcDbLine
 10
-374.774718
 20
1096.412304
 30
0.0
 11
-369.694718
 21
1096.412304
 31
0.0
  0
LINE
  5
24f
100
AcDbEntity
  8
To_laser_cut
 62
1
100
AcDbLine
 10
-369.694718
 20
1096.412304
 30
0.0
 11
-369.694718
 21
1130.278983
 31
0.0
  0
LINE
  5
250
100
AcDbEntity
  8
To_laser_cut
 62
1
100
AcDbLine
 10
-369.694718
 20
1130.278983
 30
0.0
 11
-374.774718
 21
1130.278983
 31
0.0
  0
LINE
  5
251
100
AcDbEntity
  8
To_laser_cut
 62
1
100
AcDbLine
 10
-374.774718
 20
1130.278983
 30
0.0
 11
-374.774718
 21
1164.145652
 31
0.0
  0
LINE
  5
252
100
AcDbEntity
  8
To_laser_cut
 62
1
100
AcDbLine
 10
-374.774718
 20
1164.145652
 30
0.0
 11
-369.694718
 21
1164.145652
 31
0.0
  0
LINE
  5
253
100
AcDbEntity
  8
To_laser_cut
 62
1
100
AcDbLine
 10
-369.694718
 20
1164.145652
 30
0.0
 11
-369.694718
 21
1198.012311
 31
0.0
  0
LINE
  5
254
100
AcDbEntity
  8
To_laser_cut
 62
1
100
AcDbLine
 10
-369.694718
 20
1198.012311
 30
0.0
 11
-374.774718
 21
1198.012311
 31
0.0
  0
LINE
  5
255
100
AcDbEntity
  8
To_laser_cut
 62
1
100
AcDbLine
 10
-374.774718
 20
1198.012311
 30
0.0
 11
-374.774718
 21
1231.878980
 31
0.0
  0
LINE
  5
256
100
AcDbEntity
  8
To_laser_cut
 62
1
100
AcDbLine
 10
-374.774718
 20
1231.878980
 30
0.0
 11
-369.694718
 21
1231.878980
 31
0.0
  0
LINE
  5
257
100
AcDbEntity
  8
To_laser_cut
 62
1
100
AcDbLine
 10
-369.694718
 20
1231.878980
 30
0.0
 11
-369.694718
 21
1270.825648
 31
0.0
  0
LINE
  5
258
100
AcDbEntity
  8
To_laser_cut
 62
1
100
AcDbLine
 10
-369.694718
 20
1270.825648
 30
0.0
 11
-395.094717
 21
1270.825648
 31
0.0
  0
LINE
  5
259
100
AcDbEntity
  8
To_laser_cut
 62
1
100
AcDbLine
 10
-395.094717
 20
1270.825648
 30
0.0
 11
-395.094717
 21
1265.745648
 31
0.0
  0
LINE
  5
25a
100
AcDbEntity
  8
To_laser_cut
 62
1
100
AcDbLine
 10
-395.094717
 20
1265.745648
 30
0.0
 11
-420.494726
 21
1265.745648
 31
0.0
  0
LINE
  5
25b
100
AcDbEntity
  8
To_laser_cut
 62
1
100
AcDbLine
 10
-420.494726
 20
1265.745648
 30
0.0
 11
-420.494726
 21
1270.825648
 31
0.0
  0
LINE
  5
25c
100
AcDbEntity
  8
To_laser_cut
 62
1
100
AcDbLine
 10
-420.494726
 20
1270.825648
 30
0.0
 11
-445.894715
 21
1270.825648
 31
0.0
  0
LINE
  5
25d
100
AcDbEntity
  8
To_laser_cut
 62
1
100
AcDbLine
 10
-445.894715
 20
1270.825648
 30
0.0
 11
-445.894715
 21
955.865649
 31
0.0
  0
LINE
  5
25e
100
AcDbEntity
  8
To_laser_cut
 62
1
100
AcDbLine
 10
-445.894715
 20
955.865649
 30
0.0
 11
-440.814715
 21
955.865649
 31
0.0
  0
LINE
  5
25f
100
AcDbEntity
  8
To_laser_cut
 62
1
100
AcDbLine
 10
-440.814715
 20
955.865649
 30
0.0
 11
-440.814715
 21
980.915648
 31
0.0
  0
LINE
  5
260
100
AcDbEntity
  8
To_laser_cut
 62
1
100
AcDbLine
 10
-440.814715
 20
980.915648
 30
0.0
 11
-435.734716
 21
980.915648
 31
0.0
  0
LINE
  5
261
100
AcDbEntity
  8
To_laser_cut
 62
1
100
AcDbLine
 10
-435.734716
 20
980.915648
 30
0.0
 11
-435.734716
 21
955.865649
 31
0.0
  0
LINE
  5
262
100
AcDbEntity
  8
To_laser_cut
 62
1
100
AcDbLine
 10
-435.734716
 20
955.865649
 30
0.0
 11
-420.494726
 21
955.865649
 31
0.0
  0
LINE
  5
263
100
AcDbEntity
  8
To_laser_cut
 62
1
100
AcDbLine
 10
-420.494726
 20
955.865649
 30
0.0
 11
-420.494726
 21
960.945648
 31
0.0
  0
LINE
  5
264
100
AcDbEntity
  8
To_laser_cut
 62
1
100
AcDbLine
 10
-420.494726
 20
960.945648
 30
0.0
 11
-395.094717
 21
960.945648
 31
0.0
  0
LINE
  5
265
100
AcDbEntity
  8
To_laser_cut
 62
1
100
AcDbLine
 10
-395.094717
 20
960.945648
 30
0.0
 11
-395.094717
 21
955.865649
 31
0.0
  0
LINE
  5
266
100
AcDbEntity
  8
To_laser_cut
 62
1
100
AcDbLine
 10
-395.094717
 20
955.865649
 30
0.0
 11
-369.694718
 21
955.865649
 31
0.0
  0
LINE
  5
267
100
AcDbEntity
  8
To_laser_cut
 62
1
100
AcDbLine
 10
-369.694718
 20
955.865649
 30
0.0
 11
-369.694718
 21
994.812307
 31
0.0
  0
LINE
  5
268
100
AcDbEntity
  8
To_laser_cut
 62
1
100
AcDbLine
 10
-369.694718
 20
994.812307
 30
0.0
 11
-374.774718
 21
994.812307
 31
0.0
  0
LINE
  5
269
100
AcDbEntity
  8
To_laser_cut
 62
1
100
AcDbLine
 10
-374.774718
 20
994.812307
 30
0.0
 11
-374.774718
 21
1028.678976
 31
0.0
  0
LINE
  5
26a
100
AcDbEntity
  8
To_laser_cut
 62
1
100
AcDbLine
 10
-374.774718
 20
1028.678976
 30
0.0
 11
-369.694718
 21
1028.678976
 31
0.0
  0
LINE
  5
26b
100
AcDbEntity
  8
To_laser_cut
 62
1
100
AcDbLine
 10
-746.914025
 20
905.065610
 30
0.0
 11
-746.914025
 21
910.145610
 31
0.0
  0
LINE
  5
26c
100
AcDbEntity
  8
To_laser_cut
 62
1
100
AcDbLine
 10
-746.914025
 20
910.145610
 30
0.0
 11
-713.047326
 21
910.145610
 31
0.0
  0
LINE
  5
26d
100
AcDbEntity
  8
To_laser_cut
 62
1
100
AcDbLine
 10
-713.047326
 20
910.145610
 30
0.0
 11
-713.047326
 21
942.472889
 31
0.0
  0
LINE
  5
26e
100
AcDbEntity
  8
To_laser_cut
 62
1
100
AcDbLine
 10
-713.047326
 20
942.472889
 30
0.0
 11
-707.967327
 21
942.472889
 31
0.0
  0
LINE
  5
26f
100
AcDbEntity
  8
To_laser_cut
 62
1
100
AcDbLine
 10
-707.967327
 20
942.472889
 30
0.0
 11
-707.967327
 21
974.800158
 31
0.0
  0
LINE
  5
270
100
AcDbEntity
  8
To_laser_cut
 62
1
100
AcDbLine
 10
-707.967327
 20
974.800158
 30
0.0
 11
-713.047326
 21
974.800158
 31
0.0
  0
LINE
  5
271
100
AcDbEntity
  8
To_laser_cut
 62
1
100
AcDbLine
 10
-713.047326
 20
974.800158
 30
0.0
 11
-713.047326
 21
1007.127427
 31
0.0
  0
LINE
  5
272
100
AcDbEntity
  8
To_laser_cut
 62
1
100
AcDbLine
 10
-713.047326
 20
1007.127427
 30
0.0
 11
-707.967327
 21
1007.127427
 31
0.0
  0
LINE
  5
273
100
AcDbEntity
  8
To_laser_cut
 62
1
100
AcDbLine
 10
-707.967327
 20
1007.127427
 30
0.0
 11
-707.967327
 21
1039.454706
 31
0.0
  0
LINE
  5
274
100
AcDbEntity
  8
To_laser_cut
 62
1
100
AcDbLine
 10
-707.967327
 20
1039.454706
 30
0.0
 11
-713.047326
 21
1039.454706
 31
0.0
  0
LINE
  5
275
100
AcDbEntity
  8
To_laser_cut
 62
1
100
AcDbLine
 10
-713.047326
 20
1039.454706
 30
0.0
 11
-713.047326
 21
1071.781975
 31
0.0
  0
LINE
  5
276
100
AcDbEntity
  8
To_laser_cut
 62
1
100
AcDbLine
 10
-713.047326
 20
1071.781975
 30
0.0
 11
-707.967327
 21
1071.781975
 31
0.0
  0
LINE
  5
277
100
AcDbEntity
  8
To_laser_cut
 62
1
100
AcDbLine
 10
-707.967327
 20
1071.781975
 30
0.0
 11
-707.967327
 21
1104.109244
 31
0.0
  0
LINE
  5
278
100
AcDbEntity
  8
To_laser_cut
 62
1
100
AcDbLine
 10
-707.967327
 20
1104.109244
 30
0.0
 11
-713.047326
 21
1104.109244
 31
0.0
  0
LINE
  5
279
100
AcDbEntity
  8
To_laser_cut
 62
1
100
AcDbLine
 10
-713.047326
 20
1104.109244
 30
0.0
 11
-713.047326
 21
1136.436523
 31
0.0
  0
LINE
  5
27a
100
AcDbEntity
  8
To_laser_cut
 62
1
100
AcDbLine
 10
-713.047326
 20
1136.436523
 30
0.0
 11
-707.967327
 21
1136.436523
 31
0.0
  0
LINE
  5
27b
100
AcDbEntity
  8
To_laser_cut
 62
1
100
AcDbLine
 10
-707.967327
 20
1136.436523
 30
0.0
 11
-707.967327
 21
1168.763792
 31
0.0
  0
LINE
  5
27c
100
AcDbEntity
  8
To_laser_cut
 62
1
100
AcDbLine
 10
-707.967327
 20
1168.763792
 30
0.0
 11
-713.047326
 21
1168.763792
 31
0.0
  0
LINE
  5
27d
100
AcDbEntity
  8
To_laser_cut
 62
1
100
AcDbLine
 10
-713.047326
 20
1168.763792
 30
0.0
 11
-713.047326
 21
1201.091061
 31
0.0
  0
LINE
  5
27e
100
AcDbEntity
  8
To_laser_cut
 62
1
100
AcDbLine
 10
-713.047326
 20
1201.091061
 30
0.0
 11
-707.967327
 21
1201.091061
 31
0.0
  0
LINE
  5
27f
100
AcDbEntity
  8
To_laser_cut
 62
1
100
AcDbLine
 10
-707.967327
 20
1201.091061
 30
0.0
 11
-707.967327
 21
1233.418350
 31
0.0
  0
LINE
  5
280
100
AcDbEntity
  8
To_laser_cut
 62
1
100
AcDbLine
 10
-707.967327
 20
1233.418350
 30
0.0
 11
-713.047326
 21
1233.418350
 31
0.0
  0
LINE
  5
281
100
AcDbEntity
  8
To_laser_cut
 62
1
100
AcDbLine
 10
-713.047326
 20
1233.418350
 30
0.0
 11
-713.047326
 21
1265.745648
 31
0.0
  0
LINE
  5
282
100
AcDbEntity
  8
To_laser_cut
 62
1
100
AcDbLine
 10
-713.047326
 20
1265.745648
 30
0.0
 11
-746.914025
 21
1265.745648
 31
0.0
  0
LINE
  5
283
100
AcDbEntity
  8
To_laser_cut
 62
1
100
AcDbLine
 10
-746.914025
 20
1265.745648
 30
0.0
 11
-746.914025
 21
1270.825648
 31
0.0
  0
LINE
  5
284
100
AcDbEntity
  8
To_laser_cut
 62
1
100
AcDbLine
 10
-746.914025
 20
1270.825648
 30
0.0
 11
-780.780724
 21
1270.825648
 31
0.0
  0
LINE
  5
285
100
AcDbEntity
  8
To_laser_cut
 62
1
100
AcDbLine
 10
-780.780724
 20
1270.825648
 30
0.0
 11
-780.780724
 21
1265.745648
 31
0.0
  0
LINE
  5
286
100
AcDbEntity
  8
To_laser_cut
 62
1
100
AcDbLine
 10
-780.780724
 20
1265.745648
 30
0.0
 11
-814.647323
 21
1265.745648
 31
0.0
  0
LINE
  5
287
100
AcDbEntity
  8
To_laser_cut
 62
1
100
AcDbLine
 10
-814.647323
 20
1265.745648
 30
0.0
 11
-814.647323
 21
1270.825648
 31
0.0
  0
LINE
  5
288
100
AcDbEntity
  8
To_laser_cut
 62
1
100
AcDbLine
 10
-814.647323
 20
1270.825648
 30
0.0
 11
-848.514022
 21
1270.825648
 31
0.0
  0
LINE
  5
289
100
AcDbEntity
  8
To_laser_cut
 62
1
100
AcDbLine
 10
-848.514022
 20
1270.825648
 30
0.0
 11
-848.514022
 21
1265.745648
 31
0.0
  0
LINE
  5
28a
100
AcDbEntity
  8
To_laser_cut
 62
1
100
AcDbLine
 10
-848.514022
 20
1265.745648
 30
0.0
 11
-882.380721
 21
1265.745648
 31
0.0
  0
LINE
  5
28b
100
AcDbEntity
  8
To_laser_cut
 62
1
100
AcDbLine
 10
-882.380721
 20
1265.745648
 30
0.0
 11
-882.380721
 21
1270.825648
 31
0.0
  0
LINE
  5
28c
100
AcDbEntity
  8
To_laser_cut
 62
1
100
AcDbLine
 10
-882.380721
 20
1270.825648
 30
0.0
 11
-916.247320
 21
1270.825648
 31
0.0
  0
LINE
  5
28d
100
AcDbEntity
  8
To_laser_cut
 62
1
100
AcDbLine
 10
-916.247320
 20
1270.825648
 30
0.0
 11
-916.247320
 21
1265.745648
 31
0.0
  0
LINE
  5
28e
100
AcDbEntity
  8
To_laser_cut
 62
1
100
AcDbLine
 10
-916.247320
 20
1265.745648
 30
0.0
 11
-950.114019
 21
1265.745648
 31
0.0
  0
LINE
  5
28f
100
AcDbEntity
  8
To_laser_cut
 62
1
100
AcDbLine
 10
-950.114019
 20
1265.745648
 30
0.0
 11
-950.114019
 21
1270.825648
 31
0.0
  0
LINE
  5
290
100
AcDbEntity
  8
To_laser_cut
 62
1
100
AcDbLine
 10
-950.114019
 20
1270.825648
 30
0.0
 11
-983.980718
 21
1270.825648
 31
0.0
  0
LINE
  5
291
100
AcDbEntity
  8
To_laser_cut
 62
1
100
AcDbLine
 10
-983.980718
 20
1270.825648
 30
0.0
 11
-983.980718
 21
1265.745648
 31
0.0
  0
LINE
  5
292
100
AcDbEntity
  8
To_laser_cut
 62
1
100
AcDbLine
 10
-983.980718
 20
1265.745648
 30
0.0
 11
-1017.847366
 21
1265.745648
 31
0.0
  0
LINE
  5
293
100
AcDbEntity
  8
To_laser_cut
 62
1
100
AcDbLine
 10
-1017.847366
 20
1265.745648
 30
0.0
 11
-1017.847366
 21
1233.418350
 31
0.0
  0
LINE
  5
294
100
AcDbEntity
  8
To_laser_cut
 62
1
100
AcDbLine
 10
-1017.847366
 20
1233.418350
 30
0.0
 11
-1022.927366
 21
1233.418350
 31
0.0
  0
LINE
  5
295
100
AcDbEntity
  8
To_laser_cut
 62
1
100
AcDbLine
 10
-1022.927366
 20
1233.418350
 30
0.0
 11
-1022.927366
 21
1201.091061
 31
0.0
  0
LINE
  5
296
100
AcDbEntity
  8
To_laser_cut
 62
1
100
AcDbLine
 10
-1022.927366
 20
1201.091061
 30
0.0
 11
-1017.847366
 21
1201.091061
 31
0.0
  0
LINE
  5
297
100
AcDbEntity
  8
To_laser_cut
 62
1
100
AcDbLine
 10
-1017.847366
 20
1201.091061
 30
0.0
 11
-1017.847366
 21
1168.763792
 31
0.0
  0
LINE
  5
298
100
AcDbEntity
  8
To_laser_cut
 62
1
100
AcDbLine
 10
-1017.847366
 20
1168.763792
 30
0.0
 11
-1022.927366
 21
1168.763792
 31
0.0
  0
LINE
  5
299
100
AcDbEntity
  8
To_laser_cut
 62
1
100
AcDbLine
 10
-1022.927366
 20
1168.763792
 30
0.0
 11
-1022.927366
 21
1136.436523
 31
0.0
  0
LINE
  5
29a
100
AcDbEntity
  8
To_laser_cut
 62
1
100
AcDbLine
 10
-1022.927366
 20
1136.436523
 30
0.0
 11
-1017.847366
 21
1136.436523
 31
0.0
  0
LINE
  5
29b
100
AcDbEntity
  8
To_laser_cut
 62
1
100
AcDbLine
 10
-1017.847366
 20
1136.436523
 30
0.0
 11
-1017.847366
 21
1104.109244
 31
0.0
  0
LINE
  5
29c
100
AcDbEntity
  8
To_laser_cut
 62
1
100
AcDbLine
 10
-1017.847366
 20
1104.109244
 30
0.0
 11
-1022.927366
 21
1104.109244
 31
0.0
  0
LINE
  5
29d
100
AcDbEntity
  8
To_laser_cut
 62
1
100
AcDbLine
 10
-1022.927366
 20
1104.109244
 30
0.0
 11
-1022.927366
 21
1071.781975
 31
0.0
  0
LINE
  5
29e
100
AcDbEntity
  8
To_laser_cut
 62
1
100
AcDbLine
 10
-1022.927366
 20
1071.781975
 30
0.0
 11
-1017.847366
 21
1071.781975
 31
0.0
  0
LINE
  5
29f
100
AcDbEntity
  8
To_laser_cut
 62
1
100
AcDbLine
 10
-1017.847366
 20
1071.781975
 30
0.0
 11
-1017.847366
 21
1039.454706
 31
0.0
  0
LINE
  5
2a0
100
AcDbEntity
  8
To_laser_cut
 62
1
100
AcDbLine
 10
-1017.847366
 20
1039.454706
 30
0.0
 11
-1022.927366
 21
1039.454706
 31
0.0
  0
LINE
  5
2a1
100
AcDbEntity
  8
To_laser_cut
 62
1
100
AcDbLine
 10
-1022.927366
 20
1039.454706
 30
0.0
 11
-1022.927366
 21
1007.127427
 31
0.0
  0
LINE
  5
2a2
100
AcDbEntity
  8
To_laser_cut
 62
1
100
AcDbLine
 10
-1022.927366
 20
1007.127427
 30
0.0
 11
-1017.847366
 21
1007.127427
 31
0.0
  0
LINE
  5
2a3
100
AcDbEntity
  8
To_laser_cut
 62
1
100
AcDbLine
 10
-1017.847366
 20
1007.127427
 30
0.0
 11
-1017.847366
 21
974.800158
 31
0.0
  0
LINE
  5
2a4
100
AcDbEntity
  8
To_laser_cut
 62
1
100
AcDbLine
 10
-1017.847366
 20
974.800158
 30
0.0
 11
-1022.927366
 21
974.800158
 31
0.0
  0
LINE
  5
2a5
100
AcDbEntity
  8
To_laser_cut
 62
1
100
AcDbLine
 10
-1022.927366
 20
974.800158
 30
0.0
 11
-1022.927366
 21
942.472889
 31
0.0
  0
LINE
  5
2a6
100
AcDbEntity
  8
To_laser_cut
 62
1
100
AcDbLine
 10
-1022.927366
 20
942.472889
 30
0.0
 11
-1017.847366
 21
942.472889
 31
0.0
  0
LINE
  5
2a7
100
AcDbEntity
  8
To_laser_cut
 62
1
100
AcDbLine
 10
-1017.847366
 20
942.472889
 30
0.0
 11
-1017.847366
 21
910.145610
 31
0.0
  0
LINE
  5
2a8
100
AcDbEntity
  8
To_laser_cut
 62
1
100
AcDbLine
 10
-1017.847366
 20
910.145610
 30
0.0
 11
-983.980718
 21
910.145610
 31
0.0
  0
LINE
  5
2a9
100
AcDbEntity
  8
To_laser_cut
 62
1
100
AcDbLine
 10
-983.980718
 20
910.145610
 30
0.0
 11
-983.980718
 21
905.065610
 31
0.0
  0
LINE
  5
2aa
100
AcDbEntity
  8
To_laser_cut
 62
1
100
AcDbLine
 10
-983.980718
 20
905.065610
 30
0.0
 11
-950.114019
 21
905.065610
 31
0.0
  0
LINE
  5
2ab
100
AcDbEntity
  8
To_laser_cut
 62
1
100
AcDbLine
 10
-950.114019
 20
905.065610
 30
0.0
 11
-950.114019
 21
910.145610
 31
0.0
  0
LINE
  5
2ac
100
AcDbEntity
  8
To_laser_cut
 62
1
100
AcDbLine
 10
-950.114019
 20
910.145610
 30
0.0
 11
-916.247320
 21
910.145610
 31
0.0
  0
LINE
  5
2ad
100
AcDbEntity
  8
To_laser_cut
 62
1
100
AcDbLine
 10
-916.247320
 20
910.145610
 30
0.0
 11
-916.247320
 21
905.065610
 31
0.0
  0
LINE
  5
2ae
100
AcDbEntity
  8
To_laser_cut
 62
1
100
AcDbLine
 10
-916.247320
 20
905.065610
 30
0.0
 11
-882.380721
 21
905.065610
 31
0.0
  0
LINE
  5
2af
100
AcDbEntity
  8
To_laser_cut
 62
1
100
AcDbLine
 10
-882.380721
 20
905.065610
 30
0.0
 11
-882.380721
 21
910.145610
 31
0.0
  0
LINE
  5
2b0
100
AcDbEntity
  8
To_laser_cut
 62
1
100
AcDbLine
 10
-882.380721
 20
910.145610
 30
0.0
 11
-848.514022
 21
910.145610
 31
0.0
  0
LINE
  5
2b1
100
AcDbEntity
  8
To_laser_cut
 62
1
100
AcDbLine
 10
-848.514022
 20
910.145610
 30
0.0
 11
-848.514022
 21
905.065610
 31
0.0
  0
LINE
  5
2b2
100
AcDbEntity
  8
To_laser_cut
 62
1
100
AcDbLine
 10
-848.514022
 20
905.065610
 30
0.0
 11
-814.647323
 21
905.065610
 31
0.0
  0
LINE
  5
2b3
100
AcDbEntity
  8
To_laser_cut
 62
1
100
AcDbLine
 10
-814.647323
 20
905.065610
 30
0.0
 11
-814.647323
 21
910.145610
 31
0.0
  0
LINE
  5
2b4
100
AcDbEntity
  8
To_laser_cut
 62
1
100
AcDbLine
 10
-814.647323
 20
910.145610
 30
0.0
 11
-780.780724
 21
910.145610
 31
0.0
  0
LINE
  5
2b5
100
AcDbEntity
  8
To_laser_cut
 62
1
100
AcDbLine
 10
-780.780724
 20
910.145610
 30
0.0
 11
-780.780724
 21
905.065610
 31
0.0
  0
LINE
  5
2b6
100
AcDbEntity
  8
To_laser_cut
 62
1
100
AcDbLine
 10
-780.780724
 20
905.065610
 30
0.0
 11
-746.914025
 21
905.065610
 31
0.0
  0
LINE
  5
2b7
100
AcDbEntity
  8
To_laser_cut
 62
5
100
AcDbLine
 10
-793.438624
 20
1227.010610
 30
0.0
 11
-785.056624
 21
1227.010610
 31
0.0
  0
SPLINE
  5
2b8
100
AcDbEntity
  8
To_laser_cut
 62
5
100
AcDbSpline
 70
8
 71
3
 72
8
 73
4
 74
0
 40
0
 40
0
 40
0
 40
0
 40
1
 40
1
 40
1
 40
1
 10
-785.056624
 20
1227.010610
 30
0.0
 10
-783.709317
 20
1227.010610
 30
0.0
 10
-782.417194
 20
1227.545828
 30
0.0
 10
-781.464508
 20
1228.498521
 30
0.0
  0
SPLINE
  5
2b9
100
AcDbEntity
  8
To_laser_cut
 62
5
100
AcDbSpline
 70
8
 71
3
 72
8
 73
4
 74
0
 40
0
 40
0
 40
0
 40
0
 40
1
 40
1
 40
1
 40
1
 10
-781.464508
 20
1228.498521
 30
0.0
 10
-780.511822
 20
1229.451215
 30
0.0
 10
-779.976614
 20
1230.743343
 30
0.0
 10
-779.976624
 20
1232.090650
 30
0.0
  0
LINE
  5
2ba
100
AcDbEntity
  8
To_laser_cut
 62
5
100
AcDbLine
 10
-779.976624
 20
1232.090650
 30
0.0
 11
-779.976624
 21
1254.315649
 31
0.0
  0
SPLINE
  5
2bb
100
AcDbEntity
  8
To_laser_cut
 62
5
100
AcDbSpline
 70
8
 71
3
 72
8
 73
4
 74
0
 40
0
 40
0
 40
0
 40
0
 40
1
 40
1
 40
1
 40
1
 10
-779.976624
 20
1254.315649
 30
0.0
 10
-779.976624
 20
1255.662949
 30
0.0
 10
-780.511837
 20
1256.955066
 30
0.0
 10
-781.464522
 20
1257.907751
 30
0.0
  0
SPLINE
  5
2bc
100
AcDbEntity
  8
To_laser_cut
 62
5
100
AcDbSpline
 70
8
 71
3
 72
8
 73
4
 74
0
 40
0
 40
0
 40
0
 40
0
 40
1
 40
1
 40
1
 40
1
 10
-781.464522
 20
1257.907751
 30
0.0
 10
-782.417207
 20
1258.860436
 30
0.0
 10
-783.709324
 20
1259.395649
 30
0.0
 10
-785.056624
 20
1259.395649
 30
0.0
  0
LINE
  5
2bd
100
AcDbEntity
  8
To_laser_cut
 62
5
100
AcDbLine
 10
-785.056624
 20
1259.395649
 30
0.0
 11
-793.438624
 21
1259.395649
 31
0.0
  0
SPLINE
  5
2be
100
AcDbEntity
  8
To_laser_cut
 62
5
100
AcDbSpline
 70
8
 71
3
 72
8
 73
4
 74
0
 40
0
 40
0
 40
0
 40
0
 40
1
 40
1
 40
1
 40
1
 10
-793.438624
 20
1259.395649
 30
0.0
 10
-794.785924
 20
1259.395649
 30
0.0
 10
-796.078041
 20
1258.860436
 30
0.0
 10
-797.030726
 20
1257.907751
 30
0.0
  0
SPLINE
  5
2bf
100
AcDbEntity
  8
To_laser_cut
 62
5
100
AcDbSpline
 70
8
 71
3
 72
8
 73
4
 74
0
 40
0
 40
0
 40
0
 40
0
 40
1
 40
1
 40
1
 40
1
 10
-797.030726
 20
1257.907751
 30
0.0
 10
-797.983411
 20
1256.955066
 30
0.0
 10
-798.518624
 20
1255.662949
 30
0.0
 10
-798.518624
 20
1254.315649
 30
0.0
  0
LINE
  5
2c0
100
AcDbEntity
  8
To_laser_cut
 62
5
100
AcDbLine
 10
-798.518624
 20
1254.315649
 30
0.0
 11
-798.518624
 21
1232.090650
 31
0.0
  0
SPLINE
  5
2c1
100
AcDbEntity
  8
To_laser_cut
 62
5
100
AcDbSpline
 70
8
 71
3
 72
8
 73
4
 74
0
 40
0
 40
0
 40
0
 40
0
 40
1
 40
1
 40
1
 40
1
 10
-798.518624
 20
1232.090650
 30
0.0
 10
-798.518634
 20
1230.743343
 30
0.0
 10
-797.983426
 20
1229.451215
 30
0.0
 10
-797.030740
 20
1228.498521
 30
0.0
  0
SPLINE
  5
2c2
100
AcDbEntity
  8
To_laser_cut
 62
5
100
AcDbSpline
 70
8
 71
3
 72
8
 73
4
 74
0
 40
0
 40
0
 40
0
 40
0
 40
1
 40
1
 40
1
 40
1
 10
-797.030740
 20
1228.498521
 30
0.0
 10
-796.078054
 20
1227.545828
 30
0.0
 10
-794.785930
 20
1227.010610
 30
0.0
 10
-793.438624
 20
1227.010610
 30
0.0
  0
LINE
  5
2c3
100
AcDbEntity
  8
To_laser_cut
 62
5
100
AcDbLine
 10
-793.438624
 20
1227.010610
 30
0.0
 11
-793.438624
 21
1227.010610
 31
0.0
  0
LINE
  5
2c4
100
AcDbEntity
  8
To_laser_cut
 62
5
100
AcDbLine
 10
-945.838519
 20
1227.010610
 30
0.0
 11
-937.456519
 21
1227.010610
 31
0.0
  0
SPLINE
  5
2c5
100
AcDbEntity
  8
To_laser_cut
 62
5
100
AcDbSpline
 70
8
 71
3
 72
8
 73
4
 74
0
 40
0
 40
0
 40
0
 40
0
 40
1
 40
1
 40
1
 40
1
 10
-937.456519
 20
1227.010610
 30
0.0
 10
-936.109212
 20
1227.010610
 30
0.0
 10
-934.817089
 20
1227.545828
 30
0.0
 10
-933.864403
 20
1228.498521
 30
0.0
  0
SPLINE
  5
2c6
100
AcDbEntity
  8
To_laser_cut
 62
5
100
AcDbSpline
 70
8
 71
3
 72
8
 73
4
 74
0
 40
0
 40
0
 40
0
 40
0
 40
1
 40
1
 40
1
 40
1
 10
-933.864403
 20
1228.498521
 30
0.0
 10
-932.911717
 20
1229.451215
 30
0.0
 10
-932.376509
 20
1230.743343
 30
0.0
 10
-932.376519
 20
1232.090650
 30
0.0
  0
LINE
  5
2c7
100
AcDbEntity
  8
To_laser_cut
 62
5
100
AcDbLine
 10
-932.376519
 20
1232.090650
 30
0.0
 11
-932.376519
 21
1254.315649
 31
0.0
  0
SPLINE
  5
2c8
100
AcDbEntity
  8
To_laser_cut
 62
5
100
AcDbSpline
 70
8
 71
3
 72
8
 73
4
 74
0
 40
0
 40
0
 40
0
 40
0
 40
1
 40
1
 40
1
 40
1
 10
-932.376519
 20
1254.315649
 30
0.0
 10
-932.376519
 20
1255.662949
 30
0.0
 10
-932.911732
 20
1256.955066
 30
0.0
 10
-933.864417
 20
1257.907751
 30
0.0
  0
SPLINE
  5
2c9
100
AcDbEntity
  8
To_laser_cut
 62
5
100
AcDbSpline
 70
8
 71
3
 72
8
 73
4
 74
0
 40
0
 40
0
 40
0
 40
0
 40
1
 40
1
 40
1
 40
1
 10
-933.864417
 20
1257.907751
 30
0.0
 10
-934.817102
 20
1258.860436
 30
0.0
 10
-936.109219
 20
1259.395649
 30
0.0
 10
-937.456519
 20
1259.395649
 30
0.0
  0
LINE
  5
2ca
100
AcDbEntity
  8
To_laser_cut
 62
5
100
AcDbLine
 10
-937.456519
 20
1259.395649
 30
0.0
 11
-945.838519
 21
1259.395649
 31
0.0
  0
SPLINE
  5
2cb
100
AcDbEntity
  8
To_laser_cut
 62
5
100
AcDbSpline
 70
8
 71
3
 72
8
 73
4
 74
0
 40
0
 40
0
 40
0
 40
0
 40
1
 40
1
 40
1
 40
1
 10
-945.838519
 20
1259.395649
 30
0.0
 10
-947.185819
 20
1259.395649
 30
0.0
 10
-948.477936
 20
1258.860436
 30
0.0
 10
-949.430621
 20
1257.907751
 30
0.0
  0
SPLINE
  5
2cc
100
AcDbEntity
  8
To_laser_cut
 62
5
100
AcDbSpline
 70
8
 71
3
 72
8
 73
4
 74
0
 40
0
 40
0
 40
0
 40
0
 40
1
 40
1
 40
1
 40
1
 10
-949.430621
 20
1257.907751
 30
0.0
 10
-950.383306
 20
1256.955066
 30
0.0
 10
-950.918519
 20
1255.662949
 30
0.0
 10
-950.918519
 20
1254.315649
 30
0.0
  0
LINE
  5
2cd
100
AcDbEntity
  8
To_laser_cut
 62
5
100
AcDbLine
 10
-950.918519
 20
1254.315649
 30
0.0
 11
-950.918519
 21
1232.090650
 31
0.0
  0
SPLINE
  5
2ce
100
AcDbEntity
  8
To_laser_cut
 62
5
100
AcDbSpline
 70
8
 71
3
 72
8
 73
4
 74
0
 40
0
 40
0
 40
0
 40
0
 40
1
 40
1
 40
1
 40
1
 10
-950.918519
 20
1232.090650
 30
0.0
 10
-950.918529
 20
1230.743343
 30
0.0
 10
-950.383321
 20
1229.451215
 30
0.0
 10
-949.430635
 20
1228.498521
 30
0.0
  0
SPLINE
  5
2cf
100
AcDbEntity
  8
To_laser_cut
 62
5
100
AcDbSpline
 70
8
 71
3
 72
8
 73
4
 74
0
 40
0
 40
0
 40
0
 40
0
 40
1
 40
1
 40
1
 40
1
 10
-949.430635
 20
1228.498521
 30
0.0
 10
-948.477949
 20
1227.545828
 30
0.0
 10
-947.185825
 20
1227.010610
 30
0.0
 10
-945.838519
 20
1227.010610
 30
0.0
  0
LINE
  5
2d0
100
AcDbEntity
  8
To_laser_cut
 62
5
100
AcDbLine
 10
-945.838519
 20
1227.010610
 30
0.0
 11
-945.838519
 21
1227.010610
 31
0.0
  0
LINE
  5
2d1
100
AcDbEntity
  8
To_laser_cut
 62
5
100
AcDbLine
 10
-945.838519
 20
1067.625615
 30
0.0
 11
-937.456519
 21
1067.625615
 31
0.0
  0
SPLINE
  5
2d2
100
AcDbEntity
  8
To_laser_cut
 62
5
100
AcDbSpline
 70
8
 71
3
 72
8
 73
4
 74
0
 40
0
 40
0
 40
0
 40
0
 40
1
 40
1
 40
1
 40
1
 10
-937.456519
 20
1067.625615
 30
0.0
 10
-936.109219
 20
1067.625615
 30
0.0
 10
-934.817102
 20
1068.160828
 30
0.0
 10
-933.864417
 20
1069.113512
 30
0.0
  0
SPLINE
  5
2d3
100
AcDbEntity
  8
To_laser_cut
 62
5
100
AcDbSpline
 70
8
 71
3
 72
8
 73
4
 74
0
 40
0
 40
0
 40
0
 40
0
 40
1
 40
1
 40
1
 40
1
 10
-933.864417
 20
1069.113512
 30
0.0
 10
-932.911732
 20
1070.066197
 30
0.0
 10
-932.376519
 20
1071.358315
 30
0.0
 10
-932.376519
 20
1072.705615
 30
0.0
  0
LINE
  5
2d4
100
AcDbEntity
  8
To_laser_cut
 62
5
100
AcDbLine
 10
-932.376519
 20
1072.705615
 30
0.0
 11
-932.376519
 21
1094.930614
 31
0.0
  0
SPLINE
  5
2d5
100
AcDbEntity
  8
To_laser_cut
 62
5
100
AcDbSpline
 70
8
 71
3
 72
8
 73
4
 74
0
 40
0
 40
0
 40
0
 40
0
 40
1
 40
1
 40
1
 40
1
 10
-932.376519
 20
1094.930614
 30
0.0
 10
-932.376519
 20
1096.277914
 30
0.0
 10
-932.911732
 20
1097.570032
 30
0.0
 10
-933.864417
 20
1098.522716
 30
0.0
  0
SPLINE
  5
2d6
100
AcDbEntity
  8
To_laser_cut
 62
5
100
AcDbSpline
 70
8
 71
3
 72
8
 73
4
 74
0
 40
0
 40
0
 40
0
 40
0
 40
1
 40
1
 40
1
 40
1
 10
-933.864417
 20
1098.522716
 30
0.0
 10
-934.817102
 20
1099.475401
 30
0.0
 10
-936.109219
 20
1100.010614
 30
0.0
 10
-937.456519
 20
1100.010614
 30
0.0
  0
LINE
  5
2d7
100
AcDbEntity
  8
To_laser_cut
 62
5
100
AcDbLine
 10
-937.456519
 20
1100.010614
 30
0.0
 11
-945.838519
 21
1100.010614
 31
0.0
  0
SPLINE
  5
2d8
100
AcDbEntity
  8
To_laser_cut
 62
5
100
AcDbSpline
 70
8
 71
3
 72
8
 73
4
 74
0
 40
0
 40
0
 40
0
 40
0
 40
1
 40
1
 40
1
 40
1
 10
-945.838519
 20
1100.010614
 30
0.0
 10
-947.185819
 20
1100.010614
 30
0.0
 10
-948.477936
 20
1099.475401
 30
0.0
 10
-949.430621
 20
1098.522716
 30
0.0
  0
SPLINE
  5
2d9
100
AcDbEntity
  8
To_laser_cut
 62
5
100
AcDbSpline
 70
8
 71
3
 72
8
 73
4
 74
0
 40
0
 40
0
 40
0
 40
0
 40
1
 40
1
 40
1
 40
1
 10
-949.430621
 20
1098.522716
 30
0.0
 10
-950.383306
 20
1097.570032
 30
0.0
 10
-950.918519
 20
1096.277914
 30
0.0
 10
-950.918519
 20
1094.930614
 30
0.0
  0
LINE
  5
2da
100
AcDbEntity
  8
To_laser_cut
 62
5
100
AcDbLine
 10
-950.918519
 20
1094.930614
 30
0.0
 11
-950.918519
 21
1072.705615
 31
0.0
  0
SPLINE
  5
2db
100
AcDbEntity
  8
To_laser_cut
 62
5
100
AcDbSpline
 70
8
 71
3
 72
8
 73
4
 74
0
 40
0
 40
0
 40
0
 40
0
 40
1
 40
1
 40
1
 40
1
 10
-950.918519
 20
1072.705615
 30
0.0
 10
-950.918519
 20
1071.358315
 30
0.0
 10
-950.383306
 20
1070.066197
 30
0.0
 10
-949.430621
 20
1069.113512
 30
0.0
  0
SPLINE
  5
2dc
100
AcDbEntity
  8
To_laser_cut
 62
5
100
AcDbSpline
 70
8
 71
3
 72
8
 73
4
 74
0
 40
0
 40
0
 40
0
 40
0
 40
1
 40
1
 40
1
 40
1
 10
-949.430621
 20
1069.113512
 30
0.0
 10
-948.477936
 20
1068.160828
 30
0.0
 10
-947.185819
 20
1067.625615
 30
0.0
 10
-945.838519
 20
1067.625615
 30
0.0
  0
LINE
  5
2dd
100
AcDbEntity
  8
To_laser_cut
 62
5
100
AcDbLine
 10
-945.838519
 20
1067.625615
 30
0.0
 11
-945.838519
 21
1067.625615
 31
0.0
  0
LINE
  5
2de
100
AcDbEntity
  8
To_laser_cut
 62
5
100
AcDbLine
 10
-793.438624
 20
1067.625615
 30
0.0
 11
-785.056624
 21
1067.625615
 31
0.0
  0
SPLINE
  5
2df
100
AcDbEntity
  8
To_laser_cut
 62
5
100
AcDbSpline
 70
8
 71
3
 72
8
 73
4
 74
0
 40
0
 40
0
 40
0
 40
0
 40
1
 40
1
 40
1
 40
1
 10
-785.056624
 20
1067.625615
 30
0.0
 10
-783.709324
 20
1067.625615
 30
0.0
 10
-782.417207
 20
1068.160828
 30
0.0
 10
-781.464522
 20
1069.113512
 30
0.0
  0
SPLINE
  5
2e0
100
AcDbEntity
  8
To_laser_cut
 62
5
100
AcDbSpline
 70
8
 71
3
 72
8
 73
4
 74
0
 40
0
 40
0
 40
0
 40
0
 40
1
 40
1
 40
1
 40
1
 10
-781.464522
 20
1069.113512
 30
0.0
 10
-780.511837
 20
1070.066197
 30
0.0
 10
-779.976624
 20
1071.358315
 30
0.0
 10
-779.976624
 20
1072.705615
 30
0.0
  0
LINE
  5
2e1
100
AcDbEntity
  8
To_laser_cut
 62
5
100
AcDbLine
 10
-779.976624
 20
1072.705615
 30
0.0
 11
-779.976624
 21
1094.930614
 31
0.0
  0
SPLINE
  5
2e2
100
AcDbEntity
  8
To_laser_cut
 62
5
100
AcDbSpline
 70
8
 71
3
 72
8
 73
4
 74
0
 40
0
 40
0
 40
0
 40
0
 40
1
 40
1
 40
1
 40
1
 10
-779.976624
 20
1094.930614
 30
0.0
 10
-779.976624
 20
1096.277914
 30
0.0
 10
-780.511837
 20
1097.570032
 30
0.0
 10
-781.464522
 20
1098.522716
 30
0.0
  0
SPLINE
  5
2e3
100
AcDbEntity
  8
To_laser_cut
 62
5
100
AcDbSpline
 70
8
 71
3
 72
8
 73
4
 74
0
 40
0
 40
0
 40
0
 40
0
 40
1
 40
1
 40
1
 40
1
 10
-781.464522
 20
1098.522716
 30
0.0
 10
-782.417207
 20
1099.475401
 30
0.0
 10
-783.709324
 20
1100.010614
 30
0.0
 10
-785.056624
 20
1100.010614
 30
0.0
  0
LINE
  5
2e4
100
AcDbEntity
  8
To_laser_cut
 62
5
100
AcDbLine
 10
-785.056624
 20
1100.010614
 30
0.0
 11
-793.438624
 21
1100.010614
 31
0.0
  0
SPLINE
  5
2e5
100
AcDbEntity
  8
To_laser_cut
 62
5
100
AcDbSpline
 70
8
 71
3
 72
8
 73
4
 74
0
 40
0
 40
0
 40
0
 40
0
 40
1
 40
1
 40
1
 40
1
 10
-793.438624
 20
1100.010614
 30
0.0
 10
-794.785924
 20
1100.010614
 30
0.0
 10
-796.078041
 20
1099.475401
 30
0.0
 10
-797.030726
 20
1098.522716
 30
0.0
  0
SPLINE
  5
2e6
100
AcDbEntity
  8
To_laser_cut
 62
5
100
AcDbSpline
 70
8
 71
3
 72
8
 73
4
 74
0
 40
0
 40
0
 40
0
 40
0
 40
1
 40
1
 40
1
 40
1
 10
-797.030726
 20
1098.522716
 30
0.0
 10
-797.983411
 20
1097.570032
 30
0.0
 10
-798.518624
 20
1096.277914
 30
0.0
 10
-798.518624
 20
1094.930614
 30
0.0
  0
LINE
  5
2e7
100
AcDbEntity
  8
To_laser_cut
 62
5
100
AcDbLine
 10
-798.518624
 20
1094.930614
 30
0.0
 11
-798.518624
 21
1072.705615
 31
0.0
  0
SPLINE
  5
2e8
100
AcDbEntity
  8
To_laser_cut
 62
5
100
AcDbSpline
 70
8
 71
3
 72
8
 73
4
 74
0
 40
0
 40
0
 40
0
 40
0
 40
1
 40
1
 40
1
 40
1
 10
-798.518624
 20
1072.705615
 30
0.0
 10
-798.518624
 20
1071.358315
 30
0.0
 10
-797.983411
 20
1070.066197
 30
0.0
 10
-797.030726
 20
1069.113512
 30
0.0
  0
SPLINE
  5
2e9
100
AcDbEntity
  8
To_laser_cut
 62
5
100
AcDbSpline
 70
8
 71
3
 72
8
 73
4
 74
0
 40
0
 40
0
 40
0
 40
0
 40
1
 40
1
 40
1
 40
1
 10
-797.030726
 20
1069.113512
 30
0.0
 10
-796.078041
 20
1068.160828
 30
0.0
 10
-794.785924
 20
1067.625615
 30
0.0
 10
-793.438624
 20
1067.625615
 30
0.0
  0
LINE
  5
2ea
100
AcDbEntity
  8
To_laser_cut
 62
5
100
AcDbLine
 10
-793.438624
 20
1067.625615
 30
0.0
 11
-793.438624
 21
1067.625615
 31
0.0
  0
LINE
  5
2eb
100
AcDbEntity
  8
To_laser_cut
 62
1
100
AcDbLine
 10
105.234397
 20
1159.804512
 30
0.0
 11
105.234397
 21
1134.754513
 31
0.0
  0
LINE
  5
2ec
100
AcDbEntity
  8
To_laser_cut
 62
1
100
AcDbLine
 10
105.234397
 20
1134.754513
 30
0.0
 11
89.534402
 21
1134.754513
 31
0.0
  0
SPLINE
  5
2ed
100
AcDbEntity
  8
To_laser_cut
 62
1
100
AcDbSpline
 70
8
 71
3
 72
8
 73
4
 74
0
 40
0
 40
0
 40
0
 40
0
 40
1
 40
1
 40
1
 40
1
 10
89.534402
 20
1134.754513
 30
0.0
 10
87.054628
 20
1134.754513
 30
0.0
 10
84.676419
 20
1135.739599
 30
0.0
 10
82.922954
 20
1137.493064
 30
0.0
  0
SPLINE
  5
2ee
100
AcDbEntity
  8
To_laser_cut
 62
1
100
AcDbSpline
 70
8
 71
3
 72
8
 73
4
 74
0
 40
0
 40
0
 40
0
 40
0
 40
1
 40
1
 40
1
 40
1
 10
82.922954
 20
1137.493064
 30
0.0
 10
81.169489
 20
1139.246529
 30
0.0
 10
80.184402
 20
1141.624738
 30
0.0
 10
80.184402
 20
1144.104512
 30
0.0
  0
LINE
  5
2ef
100
AcDbEntity
  8
To_laser_cut
 62
1
100
AcDbLine
 10
80.184402
 20
1144.104512
 30
0.0
 11
80.184402
 21
1159.804512
 31
0.0
  0
LINE
  5
2f0
100
AcDbEntity
  8
To_laser_cut
 62
1
100
AcDbLine
 10
80.184402
 20
1159.804512
 30
0.0
 11
105.234397
 21
1159.804512
 31
0.0
  0
SPLINE
  5
2f1
100
AcDbEntity
  8
To_laser_cut
 62
1
100
AcDbSpline
 70
8
 71
3
 72
8
 73
4
 74
0
 40
0
 40
0
 40
0
 40
0
 40
1
 40
1
 40
1
 40
1
 10
89.534402
 20
1141.104513
 30
0.0
 10
90.606199
 20
1141.104513
 30
0.0
 10
91.596580
 20
1141.676309
 30
0.0
 10
92.132478
 20
1142.604512
 30
0.0
  0
SPLINE
  5
2f2
100
AcDbEntity
  8
To_laser_cut
 62
1
100
AcDbSpline
 70
8
 71
3
 72
8
 73
4
 74
0
 40
0
 40
0
 40
0
 40
0
 40
1
 40
1
 40
1
 40
1
 10
92.132478
 20
1142.604512
 30
0.0
 10
92.668377
 20
1143.532716
 30
0.0
 10
92.668377
 20
1144.676309
 30
0.0
 10
92.132478
 20
1145.604512
 30
0.0
  0
SPLINE
  5
2f3
100
AcDbEntity
  8
To_laser_cut
 62
1
100
AcDbSpline
 70
8
 71
3
 72
8
 73
4
 74
0
 40
0
 40
0
 40
0
 40
0
 40
1
 40
1
 40
1
 40
1
 10
92.132478
 20
1145.604512
 30
0.0
 10
91.596580
 20
1146.532716
 30
0.0
 10
90.606199
 20
1147.104512
 30
0.0
 10
89.534402
 20
1147.104512
 30
0.0
  0
SPLINE
  5
2f4
100
AcDbEntity
  8
To_laser_cut
 62
1
100
AcDbSpline
 70
8
 71
3
 72
8
 73
4
 74
0
 40
0
 40
0
 40
0
 40
0
 40
1
 40
1
 40
1
 40
1
 10
89.534402
 20
1147.104512
 30
0.0
 10
88.462605
 20
1147.104512
 30
0.0
 10
87.472224
 20
1146.532716
 30
0.0
 10
86.936326
 20
1145.604512
 30
0.0
  0
SPLINE
  5
2f5
100
AcDbEntity
  8
To_laser_cut
 62
1
100
AcDbSpline
 70
8
 71
3
 72
8
 73
4
 74
0
 40
0
 40
0
 40
0
 40
0
 40
1
 40
1
 40
1
 40
1
 10
86.936326
 20
1145.604512
 30
0.0
 10
86.400428
 20
1144.676309
 30
0.0
 10
86.400428
 20
1143.532716
 30
0.0
 10
86.936326
 20
1142.604512
 30
0.0
  0
SPLINE
  5
2f6
100
AcDbEntity
  8
To_laser_cut
 62
1
100
AcDbSpline
 70
8
 71
3
 72
8
 73
4
 74
0
 40
0
 40
0
 40
0
 40
0
 40
1
 40
1
 40
1
 40
1
 10
86.936326
 20
1142.604512
 30
0.0
 10
87.472224
 20
1141.676309
 30
0.0
 10
88.462605
 20
1141.104513
 30
0.0
 10
89.534402
 20
1141.104513
 30
0.0
  0
LINE
  5
2f7
100
AcDbEntity
  8
To_laser_cut
 62
1
100
AcDbLine
 10
89.534402
 20
1141.104513
 30
0.0
 11
89.534402
 21
1141.104513
 31
0.0
  0
LINE
  5
2f8
100
AcDbEntity
  8
To_laser_cut
 62
1
100
AcDbLine
 10
105.234397
 20
1184.854511
 30
0.0
 11
105.234397
 21
1159.804512
 31
0.0
  0
LINE
  5
2f9
100
AcDbEntity
  8
To_laser_cut
 62
1
100
AcDbLine
 10
105.234397
 20
1159.804512
 30
0.0
 11
89.534402
 21
1159.804512
 31
0.0
  0
SPLINE
  5
2fa
100
AcDbEntity
  8
To_laser_cut
 62
1
100
AcDbSpline
 70
8
 71
3
 72
8
 73
4
 74
0
 40
0
 40
0
 40
0
 40
0
 40
1
 40
1
 40
1
 40
1
 10
89.534402
 20
1159.804512
 30
0.0
 10
87.054628
 20
1159.804512
 30
0.0
 10
84.676419
 20
1160.789598
 30
0.0
 10
82.922954
 20
1162.543063
 30
0.0
  0
SPLINE
  5
2fb
100
AcDbEntity
  8
To_laser_cut
 62
1
100
AcDbSpline
 70
8
 71
3
 72
8
 73
4
 74
0
 40
0
 40
0
 40
0
 40
0
 40
1
 40
1
 40
1
 40
1
 10
82.922954
 20
1162.543063
 30
0.0
 10
81.169489
 20
1164.296528
 30
0.0
 10
80.184402
 20
1166.674737
 30
0.0
 10
80.184402
 20
1169.154512
 30
0.0
  0
LINE
  5
2fc
100
AcDbEntity
  8
To_laser_cut
 62
1
100
AcDbLine
 10
80.184402
 20
1169.154512
 30
0.0
 11
80.184402
 21
1184.854511
 31
0.0
  0
LINE
  5
2fd
100
AcDbEntity
  8
To_laser_cut
 62
1
100
AcDbLine
 10
80.184402
 20
1184.854511
 30
0.0
 11
105.234397
 21
1184.854511
 31
0.0
  0
SPLINE
  5
2fe
100
AcDbEntity
  8
To_laser_cut
 62
1
100
AcDbSpline
 70
8
 71
3
 72
8
 73
4
 74
0
 40
0
 40
0
 40
0
 40
0
 40
1
 40
1
 40
1
 40
1
 10
89.534402
 20
1166.154512
 30
0.0
 10
90.606199
 20
1166.154512
 30
0.0
 10
91.596580
 20
1166.726308
 30
0.0
 10
92.132478
 20
1167.654512
 30
0.0
  0
SPLINE
  5
2ff
100
AcDbEntity
  8
To_laser_cut
 62
1
100
AcDbSpline
 70
8
 71
3
 72
8
 73
4
 74
0
 40
0
 40
0
 40
0
 40
0
 40
1
 40
1
 40
1
 40
1
 10
92.132478
 20
1167.654512
 30
0.0
 10
92.668377
 20
1168.582715
 30
0.0
 10
92.668377
 20
1169.726308
 30
0.0
 10
92.132478
 20
1170.654512
 30
0.0
  0
SPLINE
  5
300
100
AcDbEntity
  8
To_laser_cut
 62
1
100
AcDbSpline
 70
8
 71
3
 72
8
 73
4
 74
0
 40
0
 40
0
 40
0
 40
0
 40
1
 40
1
 40
1
 40
1
 10
92.132478
 20
1170.654512
 30
0.0
 10
91.596580
 20
1171.582715
 30
0.0
 10
90.606199
 20
1172.154512
 30
0.0
 10
89.534402
 20
1172.154512
 30
0.0
  0
SPLINE
  5
301
100
AcDbEntity
  8
To_laser_cut
 62
1
100
AcDbSpline
 70
8
 71
3
 72
8
 73
4
 74
0
 40
0
 40
0
 40
0
 40
0
 40
1
 40
1
 40
1
 40
1
 10
89.534402
 20
1172.154512
 30
0.0
 10
88.462605
 20
1172.154512
 30
0.0
 10
87.472224
 20
1171.582715
 30
0.0
 10
86.936326
 20
1170.654512
 30
0.0
  0
SPLINE
  5
302
100
AcDbEntity
  8
To_laser_cut
 62
1
100
AcDbSpline
 70
8
 71
3
 72
8
 73
4
 74
0
 40
0
 40
0
 40
0
 40
0
 40
1
 40
1
 40
1
 40
1
 10
86.936326
 20
1170.654512
 30
0.0
 10
86.400428
 20
1169.726308
 30
0.0
 10
86.400428
 20
1168.582715
 30
0.0
 10
86.936326
 20
1167.654512
 30
0.0
  0
SPLINE
  5
303
100
AcDbEntity
  8
To_laser_cut
 62
1
100
AcDbSpline
 70
8
 71
3
 72
8
 73
4
 74
0
 40
0
 40
0
 40
0
 40
0
 40
1
 40
1
 40
1
 40
1
 10
86.936326
 20
1167.654512
 30
0.0
 10
87.472224
 20
1166.726308
 30
0.0
 10
88.462605
 20
1166.154512
 30
0.0
 10
89.534402
 20
1166.154512
 30
0.0
  0
LINE
  5
304
100
AcDbEntity
  8
To_laser_cut
 62
1
100
AcDbLine
 10
89.534402
 20
1166.154512
 30
0.0
 11
89.534402
 21
1166.154512
 31
0.0
  0
SPLINE
  5
305
100
AcDbEntity
  8
To_laser_cut
 62
1
100
AcDbSpline
 70
8
 71
3
 72
8
 73
4
 74
0
 40
0
 40
0
 40
0
 40
0
 40
1
 40
1
 40
1
 40
1
 10
69.539903
 20
1143.085212
 30
0.0
 10
72.880336
 20
1143.085212
 30
0.0
 10
75.967023
 20
1144.867312
 30
0.0
 10
77.637240
 20
1147.760212
 30
0.0
  0
SPLINE
  5
306
100
AcDbEntity
  8
To_laser_cut
 62
1
100
AcDbSpline
 70
8
 71
3
 72
8
 73
4
 74
0
 40
0
 40
0
 40
0
 40
0
 40
1
 40
1
 40
1
 40
1
 10
77.637240
 20
1147.760212
 30
0.0
 10
79.307457
 20
1150.653112
 30
0.0
 10
79.307457
 20
1154.217312
 30
0.0
 10
77.637240
 20
1157.110212
 30
0.0
  0
SPLINE
  5
307
100
AcDbEntity
  8
To_laser_cut
 62
1
100
AcDbSpline
 70
8
 71
3
 72
8
 73
4
 74
0
 40
0
 40
0
 40
0
 40
0
 40
1
 40
1
 40
1
 40
1
 10
77.637240
 20
1157.110212
 30
0.0
 10
75.967023
 20
1160.003112
 30
0.0
 10
72.880336
 20
1161.785212
 30
0.0
 10
69.539903
 20
1161.785212
 30
0.0
  0
SPLINE
  5
308
100
AcDbEntity
  8
To_laser_cut
 62
1
100
AcDbSpline
 70
8
 71
3
 72
8
 73
4
 74
0
 40
0
 40
0
 40
0
 40
0
 40
1
 40
1
 40
1
 40
1
 10
69.539903
 20
1161.785212
 30
0.0
 10
66.199469
 20
1161.785212
 30
0.0
 10
63.112781
 20
1160.003112
 30
0.0
 10
61.442565
 20
1157.110212
 30
0.0
  0
SPLINE
  5
309
100
AcDbEntity
  8
To_laser_cut
 62
1
100
AcDbSpline
 70
8
 71
3
 72
8
 73
4
 74
0
 40
0
 40
0
 40
0
 40
0
 40
1
 40
1
 40
1
 40
1
 10
61.442565
 20
1157.110212
 30
0.0
 10
59.772348
 20
1154.217312
 30
0.0
 10
59.772348
 20
1150.653112
 30
0.0
 10
61.442565
 20
1147.760212
 30
0.0
  0
SPLINE
  5
30a
100
AcDbEntity
  8
To_laser_cut
 62
1
100
AcDbSpline
 70
8
 71
3
 72
8
 73
4
 74
0
 40
0
 40
0
 40
0
 40
0
 40
1
 40
1
 40
1
 40
1
 10
61.442565
 20
1147.760212
 30
0.0
 10
63.112781
 20
1144.867312
 30
0.0
 10
66.199469
 20
1143.085212
 30
0.0
 10
69.539903
 20
1143.085212
 30
0.0
  0
LINE
  5
30b
100
AcDbEntity
  8
To_laser_cut
 62
1
100
AcDbLine
 10
69.539903
 20
1143.085212
 30
0.0
 11
69.539903
 21
1143.085212
 31
0.0
  0
SPLINE
  5
30c
100
AcDbEntity
  8
To_laser_cut
 62
1
100
AcDbSpline
 70
8
 71
3
 72
8
 73
4
 74
0
 40
0
 40
0
 40
0
 40
0
 40
1
 40
1
 40
1
 40
1
 10
69.539903
 20
1149.435212
 30
0.0
 10
70.611699
 20
1149.435212
 30
0.0
 10
71.602080
 20
1150.007009
 30
0.0
 10
72.137979
 20
1150.935212
 30
0.0
  0
SPLINE
  5
30d
100
AcDbEntity
  8
To_laser_cut
 62
1
100
AcDbSpline
 70
8
 71
3
 72
8
 73
4
 74
0
 40
0
 40
0
 40
0
 40
0
 40
1
 40
1
 40
1
 40
1
 10
72.137979
 20
1150.935212
 30
0.0
 10
72.673877
 20
1151.863415
 30
0.0
 10
72.673877
 20
1153.007009
 30
0.0
 10
72.137979
 20
1153.935212
 30
0.0
  0
SPLINE
  5
30e
100
AcDbEntity
  8
To_laser_cut
 62
1
100
AcDbSpline
 70
8
 71
3
 72
8
 73
4
 74
0
 40
0
 40
0
 40
0
 40
0
 40
1
 40
1
 40
1
 40
1
 10
72.137979
 20
1153.935212
 30
0.0
 10
71.602080
 20
1154.863415
 30
0.0
 10
70.611699
 20
1155.435212
 30
0.0
 10
69.539903
 20
1155.435212
 30
0.0
  0
SPLINE
  5
30f
100
AcDbEntity
  8
To_laser_cut
 62
1
100
AcDbSpline
 70
8
 71
3
 72
8
 73
4
 74
0
 40
0
 40
0
 40
0
 40
0
 40
1
 40
1
 40
1
 40
1
 10
69.539903
 20
1155.435212
 30
0.0
 10
68.468106
 20
1155.435212
 30
0.0
 10
67.477725
 20
1154.863415
 30
0.0
 10
66.941827
 20
1153.935212
 30
0.0
  0
SPLINE
  5
310
100
AcDbEntity
  8
To_laser_cut
 62
1
100
AcDbSpline
 70
8
 71
3
 72
8
 73
4
 74
0
 40
0
 40
0
 40
0
 40
0
 40
1
 40
1
 40
1
 40
1
 10
66.941827
 20
1153.935212
 30
0.0
 10
66.405928
 20
1153.007009
 30
0.0
 10
66.405928
 20
1151.863415
 30
0.0
 10
66.941827
 20
1150.935212
 30
0.0
  0
SPLINE
  5
311
100
AcDbEntity
  8
To_laser_cut
 62
1
100
AcDbSpline
 70
8
 71
3
 72
8
 73
4
 74
0
 40
0
 40
0
 40
0
 40
0
 40
1
 40
1
 40
1
 40
1
 10
66.941827
 20
1150.935212
 30
0.0
 10
67.477725
 20
1150.007009
 30
0.0
 10
68.468106
 20
1149.435212
 30
0.0
 10
69.539903
 20
1149.435212
 30
0.0
  0
LINE
  5
312
100
AcDbEntity
  8
To_laser_cut
 62
1
100
AcDbLine
 10
69.539903
 20
1149.435212
 30
0.0
 11
69.539903
 21
1149.435212
 31
0.0
  0
SPLINE
  5
313
100
AcDbEntity
  8
To_laser_cut
 62
1
100
AcDbSpline
 70
8
 71
3
 72
8
 73
4
 74
0
 40
0
 40
0
 40
0
 40
0
 40
1
 40
1
 40
1
 40
1
 10
69.394003
 20
1162.649622
 30
0.0
 10
72.734436
 20
1162.649622
 30
0.0
 10
75.821123
 20
1164.431722
 30
0.0
 10
77.491340
 20
1167.324622
 30
0.0
  0
SPLINE
  5
314
100
AcDbEntity
  8
To_laser_cut
 62
1
100
AcDbSpline
 70
8
 71
3
 72
8
 73
4
 74
0
 40
0
 40
0
 40
0
 40
0
 40
1
 40
1
 40
1
 40
1
 10
77.491340
 20
1167.324622
 30
0.0
 10
79.161557
 20
1170.217522
 30
0.0
 10
79.161557
 20
1173.781721
 30
0.0
 10
77.491340
 20
1176.674621
 30
0.0
  0
SPLINE
  5
315
100
AcDbEntity
  8
To_laser_cut
 62
1
100
AcDbSpline
 70
8
 71
3
 72
8
 73
4
 74
0
 40
0
 40
0
 40
0
 40
0
 40
1
 40
1
 40
1
 40
1
 10
77.491340
 20
1176.674621
 30
0.0
 10
75.821123
 20
1179.567521
 30
0.0
 10
72.734436
 20
1181.349621
 30
0.0
 10
69.394003
 20
1181.349621
 30
0.0
  0
SPLINE
  5
316
100
AcDbEntity
  8
To_laser_cut
 62
1
100
AcDbSpline
 70
8
 71
3
 72
8
 73
4
 74
0
 40
0
 40
0
 40
0
 40
0
 40
1
 40
1
 40
1
 40
1
 10
69.394003
 20
1181.349621
 30
0.0
 10
66.053570
 20
1181.349621
 30
0.0
 10
62.966882
 20
1179.567521
 30
0.0
 10
61.296665
 20
1176.674621
 30
0.0
  0
SPLINE
  5
317
100
AcDbEntity
  8
To_laser_cut
 62
1
100
AcDbSpline
 70
8
 71
3
 72
8
 73
4
 74
0
 40
0
 40
0
 40
0
 40
0
 40
1
 40
1
 40
1
 40
1
 10
61.296665
 20
1176.674621
 30
0.0
 10
59.626449
 20
1173.781721
 30
0.0
 10
59.626449
 20
1170.217522
 30
0.0
 10
61.296665
 20
1167.324622
 30
0.0
  0
SPLINE
  5
318
100
AcDbEntity
  8
To_laser_cut
 62
1
100
AcDbSpline
 70
8
 71
3
 72
8
 73
4
 74
0
 40
0
 40
0
 40
0
 40
0
 40
1
 40
1
 40
1
 40
1
 10
61.296665
 20
1167.324622
 30
0.0
 10
62.966882
 20
1164.431722
 30
0.0
 10
66.053570
 20
1162.649622
 30
0.0
 10
69.394003
 20
1162.649622
 30
0.0
  0
LINE
  5
319
100
AcDbEntity
  8
To_laser_cut
 62
1
100
AcDbLine
 10
69.394003
 20
1162.649622
 30
0.0
 11
69.394003
 21
1162.649622
 31
0.0
  0
SPLINE
  5
31a
100
AcDbEntity
  8
To_laser_cut
 62
1
100
AcDbSpline
 70
8
 71
3
 72
8
 73
4
 74
0
 40
0
 40
0
 40
0
 40
0
 40
1
 40
1
 40
1
 40
1
 10
69.394003
 20
1168.999622
 30
0.0
 10
70.465799
 20
1168.999622
 30
0.0
 10
71.456180
 20
1169.571418
 30
0.0
 10
71.992079
 20
1170.499622
 30
0.0
  0
SPLINE
  5
31b
100
AcDbEntity
  8
To_laser_cut
 62
1
100
AcDbSpline
 70
8
 71
3
 72
8
 73
4
 74
0
 40
0
 40
0
 40
0
 40
0
 40
1
 40
1
 40
1
 40
1
 10
71.992079
 20
1170.499622
 30
0.0
 10
72.527977
 20
1171.427825
 30
0.0
 10
72.527977
 20
1172.571418
 30
0.0
 10
71.992079
 20
1173.499621
 30
0.0
  0
SPLINE
  5
31c
100
AcDbEntity
  8
To_laser_cut
 62
1
100
AcDbSpline
 70
8
 71
3
 72
8
 73
4
 74
0
 40
0
 40
0
 40
0
 40
0
 40
1
 40
1
 40
1
 40
1
 10
71.992079
 20
1173.499621
 30
0.0
 10
71.456180
 20
1174.427825
 30
0.0
 10
70.465799
 20
1174.999621
 30
0.0
 10
69.394003
 20
1174.999621
 30
0.0
  0
SPLINE
  5
31d
100
AcDbEntity
  8
To_laser_cut
 62
1
100
AcDbSpline
 70
8
 71
3
 72
8
 73
4
 74
0
 40
0
 40
0
 40
0
 40
0
 40
1
 40
1
 40
1
 40
1
 10
69.394003
 20
1174.999621
 30
0.0
 10
67.737149
 20
1174.999621
 30
0.0
 10
66.394003
 20
1173.656476
 30
0.0
 10
66.394003
 20
1171.999622
 30
0.0
  0
SPLINE
  5
31e
100
AcDbEntity
  8
To_laser_cut
 62
1
100
AcDbSpline
 70
8
 71
3
 72
8
 73
4
 74
0
 40
0
 40
0
 40
0
 40
0
 40
1
 40
1
 40
1
 40
1
 10
66.394003
 20
1171.999622
 30
0.0
 10
66.394003
 20
1170.342767
 30
0.0
 10
67.737149
 20
1168.999622
 30
0.0
 10
69.394003
 20
1168.999622
 30
0.0
  0
LINE
  5
31f
100
AcDbEntity
  8
To_laser_cut
 62
1
100
AcDbLine
 10
69.394003
 20
1168.999622
 30
0.0
 11
69.394003
 21
1168.999622
 31
0.0
  0
SPLINE
  5
320
100
AcDbEntity
  8
To_laser_cut
 62
1
100
AcDbSpline
 70
8
 71
3
 72
8
 73
4
 74
0
 40
0
 40
0
 40
0
 40
0
 40
1
 40
1
 40
1
 40
1
 10
105.234397
 20
1175.504511
 30
0.0
 10
105.234396
 20
1171.722789
 30
0.0
 10
107.512451
 20
1168.313440
 30
0.0
 10
111.006306
 20
1166.866237
 30
0.0
  0
SPLINE
  5
321
100
AcDbEntity
  8
To_laser_cut
 62
1
100
AcDbSpline
 70
8
 71
3
 72
8
 73
4
 74
0
 40
0
 40
0
 40
0
 40
0
 40
1
 40
1
 40
1
 40
1
 10
111.006306
 20
1166.866237
 30
0.0
 10
114.500162
 20
1165.419035
 30
0.0
 10
118.521764
 20
1166.218981
 30
0.0
 10
121.195845
 20
1168.893062
 30
0.0
  0
SPLINE
  5
322
100
AcDbEntity
  8
To_laser_cut
 62
1
100
AcDbSpline
 70
8
 71
3
 72
8
 73
4
 74
0
 40
0
 40
0
 40
0
 40
0
 40
1
 40
1
 40
1
 40
1
 10
121.195845
 20
1168.893062
 30
0.0
 10
123.869927
 20
1171.567144
 30
0.0
 10
124.669873
 20
1175.588746
 30
0.0
 10
123.222670
 20
1179.082601
 30
0.0
  0
SPLINE
  5
323
100
AcDbEntity
  8
To_laser_cut
 62
1
100
AcDbSpline
 70
8
 71
3
 72
8
 73
4
 74
0
 40
0
 40
0
 40
0
 40
0
 40
1
 40
1
 40
1
 40
1
 10
123.222670
 20
1179.082601
 30
0.0
 10
121.775468
 20
1182.576457
 30
0.0
 10
118.366118
 20
1184.854511
 30
0.0
 10
114.584396
 20
1184.854511
 30
0.0
  0
LINE
  5
324
100
AcDbEntity
  8
To_laser_cut
 62
1
100
AcDbLine
 10
114.584396
 20
1184.854511
 30
0.0
 11
130.284396
 21
1184.854511
 31
0.0
  0
LINE
  5
325
100
AcDbEntity
  8
To_laser_cut
 62
1
100
AcDbLine
 10
130.284396
 20
1184.854511
 30
0.0
 11
130.284396
 21
1159.804512
 31
0.0
  0
LINE
  5
326
100
AcDbEntity
  8
To_laser_cut
 62
1
100
AcDbLine
 10
130.284396
 20
1159.804512
 30
0.0
 11
105.234397
 21
1159.804512
 31
0.0
  0
LINE
  5
327
100
AcDbEntity
  8
To_laser_cut
 62
1
100
AcDbLine
 10
105.234397
 20
1159.804512
 30
0.0
 11
105.234397
 21
1175.504511
 31
0.0
  0
SPLINE
  5
328
100
AcDbEntity
  8
To_laser_cut
 62
1
100
AcDbSpline
 70
8
 71
3
 72
8
 73
4
 74
0
 40
0
 40
0
 40
0
 40
0
 40
1
 40
1
 40
1
 40
1
 10
105.234397
 20
1150.454512
 30
0.0
 10
105.234396
 20
1146.672790
 30
0.0
 10
107.512451
 20
1143.263441
 30
0.0
 10
111.006306
 20
1141.816238
 30
0.0
  0
SPLINE
  5
329
100
AcDbEntity
  8
To_laser_cut
 62
1
100
AcDbSpline
 70
8
 71
3
 72
8
 73
4
 74
0
 40
0
 40
0
 40
0
 40
0
 40
1
 40
1
 40
1
 40
1
 10
111.006306
 20
1141.816238
 30
0.0
 10
114.500162
 20
1140.369036
 30
0.0
 10
118.521764
 20
1141.168982
 30
0.0
 10
121.195845
 20
1143.843063
 30
0.0
  0
SPLINE
  5
32a
100
AcDbEntity
  8
To_laser_cut
 62
1
100
AcDbSpline
 70
8
 71
3
 72
8
 73
4
 74
0
 40
0
 40
0
 40
0
 40
0
 40
1
 40
1
 40
1
 40
1
 10
121.195845
 20
1143.843063
 30
0.0
 10
123.869927
 20
1146.517145
 30
0.0
 10
124.669873
 20
1150.538746
 30
0.0
 10
123.222670
 20
1154.032602
 30
0.0
  0
SPLINE
  5
32b
100
AcDbEntity
  8
To_laser_cut
 62
1
100
AcDbSpline
 70
8
 71
3
 72
8
 73
4
 74
0
 40
0
 40
0
 40
0
 40
0
 40
1
 40
1
 40
1
 40
1
 10
123.222670
 20
1154.032602
 30
0.0
 10
121.775468
 20
1157.526458
 30
0.0
 10
118.366118
 20
1159.804512
 30
0.0
 10
114.584396
 20
1159.804512
 30
0.0
  0
LINE
  5
32c
100
AcDbEntity
  8
To_laser_cut
 62
1
100
AcDbLine
 10
114.584396
 20
1159.804512
 30
0.0
 11
130.284396
 21
1159.804512
 31
0.0
  0
LINE
  5
32d
100
AcDbEntity
  8
To_laser_cut
 62
1
100
AcDbLine
 10
130.284396
 20
1159.804512
 30
0.0
 11
130.284396
 21
1134.754513
 31
0.0
  0
LINE
  5
32e
100
AcDbEntity
  8
To_laser_cut
 62
1
100
AcDbLine
 10
130.284396
 20
1134.754513
 30
0.0
 11
105.234397
 21
1134.754513
 31
0.0
  0
LINE
  5
32f
100
AcDbEntity
  8
To_laser_cut
 62
1
100
AcDbLine
 10
105.234397
 20
1134.754513
 30
0.0
 11
105.234397
 21
1150.454512
 31
0.0
  0
ENDSEC
  0
SECTION
  2
OBJECTS
  0
DICTIONARY
  5
C
330
0
100
AcDbDictionary
  3
ACAD_GROUP
350
D
  3
ACAD_MLINESTYLE
350
17
  0
DICTIONARY
  5
D
330
C
100
AcDbDictionary
  0
DICTIONARY
  5
1A
330
C
100
AcDbDictionary
  0
DICTIONARY
  5
17
330
C
100
AcDbDictionary
  3
STANDARD
350
18
  0
DICTIONARY
  5
19
330
C
100
AcDbDictionary
  0
ENDSEC
  0
EOF
