  0
SECTION
  2
HEADER
  9
$ACADVER
  1
AC1014
  9
$HANDSEED
  5
FFFF
  9
$MEASUREMENT
 70
     1
  0
ENDSEC
  0
SECTION
  2
TABLES
  0
TABLE
  2
VPORT
  5
8
330
0
100
AcDbSymbolTable
 70
     4
  0
VPORT
  5
2E
330
8
100
AcDbSymbolTableRecord
100
AcDbViewportTableRecord
  2
*ACTIVE
 70
     0
 10
0.0
 20
0.0
 11
1.0
 21
1.0
 12
210.0
 22
148.5
 13
0.0
 23
0.0
 14
10.0
 24
10.0
 15
10.0
 25
10.0
 16
0.0
 26
0.0
 36
1.0
 17
0.0
 27
0.0
 37
0.0
 40
341.0
 41
1.24
 42
50.0
 43
0.0
 44
0.0
 50
0.0
 51
0.0
 71
     0
 72
   100
 73
     1
 74
     3
 75
     0
 76
     0
 77
     0
 78
     0
  0
ENDTAB
  0
TABLE
  2
LTYPE
  5
5
330
0
100
AcDbSymbolTable
 70
     1
  0
LTYPE
  5
14
330
5
100
AcDbSymbolTableRecord
100
AcDbLinetypeTableRecord
  2
BYBLOCK
 70
     0
  3

 72
    65
 73
     0
 40
0.0
  0
LTYPE
  5
15
330
5
100
AcDbSymbolTableRecord
100
AcDbLinetypeTableRecord
  2
BYLAYER
 70
     0
  3

 72
    65
 73
     0
 40
0.0
  0
LTYPE
  5
16
330
5
100
AcDbSymbolTableRecord
100
AcDbLinetypeTableRecord
  2
CONTINUOUS
 70
     0
  3
Solid line
 72
    65
 73
     0
 40
0.0
  0
ENDTAB
  0
TABLE
  2
LAYER
  5
2
100
AcDbSymbolTable
 70
1
  0
LAYER
  5
50
100
AcDbSymbolTableRecord
100
AcDbLayerTableRecord
  2
0
 70
0
  6
CONTINUOUS
  0
ENDTAB
  0
TABLE
  2
STYLE
  5
3
330
0
100
AcDbSymbolTable
 70
     1
  0
STYLE
  5
11
330
3
100
AcDbSymbolTableRecord
100
AcDbTextStyleTableRecord
  2
STANDARD
 70
     0
 40
0.0
 41
1.0
 50
0.0
 71
     0
 42
2.5
  3
txt
  4

  0
ENDTAB
  0
TABLE
  2
VIEW
  5
6
330
0
100
AcDbSymbolTable
 70
     0
  0
ENDTAB
  0
TABLE
  2
UCS
  5
7
330
0
100
AcDbSymbolTable
 70
     0
  0
ENDTAB
  0
TABLE
  2
APPID
  5
9
330
0
100
AcDbSymbolTable
 70
     2
  0
APPID
  5
12
330
9
100
AcDbSymbolTableRecord
100
AcDbRegAppTableRecord
  2
ACAD
 70
     0
  0
ENDTAB
  0
TABLE
  2
DIMSTYLE
  5
A
330
0
100
AcDbSymbolTable
 70
     1
  0
DIMSTYLE
105
27
330
A
100
AcDbSymbolTableRecord
100
AcDbDimStyleTableRecord
  2
ISO-25
 70
     0
  3

  4

  5

  6

  7

 40
1.0
 41
2.5
 42
0.625
 43
3.75
 44
1.25
 45
0.0
 46
0.0
 47
0.0
 48
0.0
140
2.5
141
2.5
142
0.0
143
0.03937007874016
144
1.0
145
0.0
146
1.0
147
0.625
 71
     0
 72
     0
 73
     0
 74
     0
 75
     0
 76
     0
 77
     1
 78
     8
170
     0
171
     3
172
     1
173
     0
174
     0
175
     0
176
     0
177
     0
178
     0
270
     2
271
     2
272
     2
273
     2
274
     3
340
11
275
     0
280
     0
281
     0
282
     0
283
     0
284
     8
285
     0
286
     0
287
     3
288
     0
  0
ENDTAB
  0
TABLE
  2
BLOCK_RECORD
  5
1
330
0
100
AcDbSymbolTable
 70
     1
  0
BLOCK_RECORD
  5
1F
330
1
100
AcDbSymbolTableRecord
100
AcDbBlockTableRecord
  2
*MODEL_SPACE
  0
BLOCK_RECORD
  5
1B
330
1
100
AcDbSymbolTableRecord
100
AcDbBlockTableRecord
  2
*PAPER_SPACE
  0
ENDTAB
  0
ENDSEC
  0
SECTION
  2
BLOCKS
  0
BLOCK
  5
20
330
1F
100
AcDbEntity
  8
0
100
AcDbBlockBegin
  2
*MODEL_SPACE
 70
     0
 10
0.0
 20
0.0
 30
0.0
  3
*MODEL_SPACE
  1

  0
ENDBLK
  5
21
330
1F
100
AcDbEntity
  8
0
100
AcDbBlockEnd
  0
BLOCK
  5
1C
330
1B
100
AcDbEntity
 67
     1
  8
0
100
AcDbBlockBegin
  2
*PAPER_SPACE
  1

  0
ENDBLK
  5
1D
330
1B
100
AcDbEntity
 67
     1
  8
0
100
AcDbBlockEnd
  0
ENDSEC
  0
SECTION
  2
ENTITIES
  0
LWPOLYLINE
  5
100
100
AcDbEntity
  8
0
 62
7
100
AcDbPolyline
 90
251
 70
1
 10
33.737329
 20
34.100001
 30
0.0
 10
33.737329
 20
35.863459
 30
0.0
 10
35.237329
 20
35.863459
 30
0.0
 10
35.237329
 20
39.863459
 30
0.0
 10
33.737329
 20
39.863459
 30
0.0
 10
33.737329
 20
42.500000
 30
0.0
 10
32.212788
 20
42.500000
 30
0.0
 10
32.212788
 20
41.500000
 30
0.0
 10
31.912788
 20
41.500000
 30
0.0
 10
31.912788
 20
42.500000
 30
0.0
 10
30.388248
 20
42.500000
 30
0.0
 10
30.388248
 20
41.500000
 30
0.0
 10
30.088248
 20
41.500000
 30
0.0
 10
30.088248
 20
42.500000
 30
0.0
 10
28.563708
 20
42.500000
 30
0.0
 10
28.563708
 20
41.500000
 30
0.0
 10
28.263708
 20
41.500000
 30
0.0
 10
28.263708
 20
42.500000
 30
0.0
 10
26.739167
 20
42.500000
 30
0.0
 10
26.739167
 20
41.500000
 30
0.0
 10
26.439167
 20
41.500000
 30
0.0
 10
26.439167
 20
42.500000
 30
0.0
 10
24.914627
 20
42.500000
 30
0.0
 10
24.914627
 20
41.500000
 30
0.0
 10
24.614627
 20
41.500000
 30
0.0
 10
24.614627
 20
42.500000
 30
0.0
 10
23.090086
 20
42.500000
 30
0.0
 10
23.090086
 20
41.500000
 30
0.0
 10
22.790086
 20
41.500000
 30
0.0
 10
22.790086
 20
42.500000
 30
0.0
 10
21.265546
 20
42.500000
 30
0.0
 10
21.265546
 20
41.500000
 30
0.0
 10
20.965546
 20
41.500000
 30
0.0
 10
20.965546
 20
42.500000
 30
0.0
 10
19.441006
 20
42.500000
 30
0.0
 10
19.441006
 20
41.500000
 30
0.0
 10
19.141006
 20
41.500000
 30
0.0
 10
19.141006
 20
42.500000
 30
0.0
 10
17.616465
 20
42.500000
 30
0.0
 10
17.616465
 20
41.500000
 30
0.0
 10
17.316465
 20
41.500000
 30
0.0
 10
17.316465
 20
42.500000
 30
0.0
 10
15.791925
 20
42.500000
 30
0.0
 10
15.791925
 20
41.500000
 30
0.0
 10
15.491925
 20
41.500000
 30
0.0
 10
15.491925
 20
42.500000
 30
0.0
 10
13.967384
 20
42.500000
 30
0.0
 10
13.967384
 20
41.500000
 30
0.0
 10
13.667384
 20
41.500000
 30
0.0
 10
13.667384
 20
42.500000
 30
0.0
 10
12.142844
 20
42.500000
 30
0.0
 10
12.142844
 20
41.500000
 30
0.0
 10
11.842844
 20
41.500000
 30
0.0
 10
11.842844
 20
42.500000
 30
0.0
 10
10.318304
 20
42.500000
 30
0.0
 10
10.318304
 20
41.500000
 30
0.0
 10
10.018304
 20
41.500000
 30
0.0
 10
10.018304
 20
42.500000
 30
0.0
 10
8.493763
 20
42.500000
 30
0.0
 10
8.493763
 20
41.500000
 30
0.0
 10
8.193763
 20
41.500000
 30
0.0
 10
8.193763
 20
42.500000
 30
0.0
 10
6.669223
 20
42.500000
 30
0.0
 10
6.669223
 20
41.500000
 30
0.0
 10
6.369223
 20
41.500000
 30
0.0
 10
6.369223
 20
42.500000
 30
0.0
 10
4.844683
 20
42.500000
 30
0.0
 10
4.844683
 20
41.500000
 30
0.0
 10
4.544683
 20
41.500000
 30
0.0
 10
4.544683
 20
42.500000
 30
0.0
 10
3.020142
 20
42.500000
 30
0.0
 10
3.020142
 20
41.500000
 30
0.0
 10
2.720142
 20
41.500000
 30
0.0
 10
2.720142
 20
42.500000
 30
0.0
 10
1.195602
 20
42.500000
 30
0.0
 10
1.195602
 20
41.500000
 30
0.0
 10
0.895602
 20
41.500000
 30
0.0
 10
0.895602
 20
42.500000
 30
0.0
 10
-0.628939
 20
42.500000
 30
0.0
 10
-0.628939
 20
41.500000
 30
0.0
 10
-0.928939
 20
41.500000
 30
0.0
 10
-0.928939
 20
42.500000
 30
0.0
 10
-2.453479
 20
42.500000
 30
0.0
 10
-2.453479
 20
41.500000
 30
0.0
 10
-2.753479
 20
41.500000
 30
0.0
 10
-2.753479
 20
42.500000
 30
0.0
 10
-4.278019
 20
42.500000
 30
0.0
 10
-4.278019
 20
41.500000
 30
0.0
 10
-4.578019
 20
41.500000
 30
0.0
 10
-4.578019
 20
42.500000
 30
0.0
 10
-6.102560
 20
42.500000
 30
0.0
 10
-6.102560
 20
41.500000
 30
0.0
 10
-6.402560
 20
41.500000
 30
0.0
 10
-6.402560
 20
42.500000
 30
0.0
 10
-7.927100
 20
42.500000
 30
0.0
 10
-7.927100
 20
41.500000
 30
0.0
 10
-8.227100
 20
41.500000
 30
0.0
 10
-8.227100
 20
42.500000
 30
0.0
 10
-9.751641
 20
42.500000
 30
0.0
 10
-9.751641
 20
41.500000
 30
0.0
 10
-10.051641
 20
41.500000
 30
0.0
 10
-10.051641
 20
42.500000
 30
0.0
 10
-11.576181
 20
42.500000
 30
0.0
 10
-11.576181
 20
41.500000
 30
0.0
 10
-11.876181
 20
41.500000
 30
0.0
 10
-11.876181
 20
42.500000
 30
0.0
 10
-13.400721
 20
42.500000
 30
0.0
 10
-13.400721
 20
41.500000
 30
0.0
 10
-13.700721
 20
41.500000
 30
0.0
 10
-13.700721
 20
42.500000
 30
0.0
 10
-15.225262
 20
42.500000
 30
0.0
 10
-15.225262
 20
41.500000
 30
0.0
 10
-15.525262
 20
41.500000
 30
0.0
 10
-15.525262
 20
42.500000
 30
0.0
 10
-17.049802
 20
42.500000
 30
0.0
 10
-17.049802
 20
41.500000
 30
0.0
 10
-17.349802
 20
41.500000
 30
0.0
 10
-17.349802
 20
42.500000
 30
0.0
 10
-18.874342
 20
42.500000
 30
0.0
 10
-18.874342
 20
41.500000
 30
0.0
 10
-19.174342
 20
41.500000
 30
0.0
 10
-19.174342
 20
42.500000
 30
0.0
 10
-20.698883
 20
42.500000
 30
0.0
 10
-20.698883
 20
41.500000
 30
0.0
 10
-20.998883
 20
41.500000
 30
0.0
 10
-20.998883
 20
42.500000
 30
0.0
 10
-22.523423
 20
42.500000
 30
0.0
 10
-22.523423
 20
41.500000
 30
0.0
 10
-22.823423
 20
41.500000
 30
0.0
 10
-22.823423
 20
42.500000
 30
0.0
 10
-24.347964
 20
42.500000
 30
0.0
 10
-24.347964
 20
41.500000
 30
0.0
 10
-24.647964
 20
41.500000
 30
0.0
 10
-24.647964
 20
42.500000
 30
0.0
 10
-26.172504
 20
42.500000
 30
0.0
 10
-26.172504
 20
41.500000
 30
0.0
 10
-26.472504
 20
41.500000
 30
0.0
 10
-26.472504
 20
42.500000
 30
0.0
 10
-27.997044
 20
42.500000
 30
0.0
 10
-27.997044
 20
41.500000
 30
0.0
 10
-28.297044
 20
41.500000
 30
0.0
 10
-28.297044
 20
42.500000
 30
0.0
 10
-29.821585
 20
42.500000
 30
0.0
 10
-29.821585
 20
41.500000
 30
0.0
 10
-30.121585
 20
41.500000
 30
0.0
 10
-30.121585
 20
42.500000
 30
0.0
 10
-31.646125
 20
42.500000
 30
0.0
 10
-31.646125
 20
41.500000
 30
0.0
 10
-31.946125
 20
41.500000
 30
0.0
 10
-31.946125
 20
42.500000
 30
0.0
 10
-33.470666
 20
42.500000
 30
0.0
 10
-33.470666
 20
41.500000
 30
0.0
 10
-33.770666
 20
41.500000
 30
0.0
 10
-33.770666
 20
42.500000
 30
0.0
 10
-35.295206
 20
42.500000
 30
0.0
 10
-35.295206
 20
41.500000
 30
0.0
 10
-35.595206
 20
41.500000
 30
0.0
 10
-35.595206
 20
42.500000
 30
0.0
 10
-37.119746
 20
42.500000
 30
0.0
 10
-37.119746
 20
41.500000
 30
0.0
 10
-37.419746
 20
41.500000
 30
0.0
 10
-37.419746
 20
39.863459
 30
0.0
 10
-35.919746
 20
39.863459
 30
0.0
 10
-35.919746
 20
35.863459
 30
0.0
 10
-37.419746
 20
35.863459
 30
0.0
 10
-37.419746
 20
34.100001
 30
0.0
 10
-35.919746
 20
34.100001
 30
0.0
 10
-35.919746
 20
34.500001
 30
0.0
 10
-34.837098
 20
34.500001
 30
0.0
 10
-34.837098
 20
36.950001
 30
0.0
 10
-34.737098
 20
36.950001
 30
0.0
 10
-34.737098
 20
34.500001
 30
0.0
 10
-29.937098
 20
34.500001
 30
0.0
 10
-29.937098
 20
36.950001
 30
0.0
 10
-29.837098
 20
36.950001
 30
0.0
 10
-29.837098
 20
34.500001
 30
0.0
 10
-28.754450
 20
34.500001
 30
0.0
 10
-28.754450
 20
34.100001
 30
0.0
 10
-25.754450
 20
34.100001
 30
0.0
 10
-25.754450
 20
34.500001
 30
0.0
 10
-24.671802
 20
34.500001
 30
0.0
 10
-24.671802
 20
36.950001
 30
0.0
 10
-24.571802
 20
36.950001
 30
0.0
 10
-24.571802
 20
34.500001
 30
0.0
 10
-19.771802
 20
34.500001
 30
0.0
 10
-19.771802
 20
36.950001
 30
0.0
 10
-19.671802
 20
36.950001
 30
0.0
 10
-19.671802
 20
34.500001
 30
0.0
 10
-18.589153
 20
34.500001
 30
0.0
 10
-18.589153
 20
34.100001
 30
0.0
 10
-15.589153
 20
34.100001
 30
0.0
 10
-15.589153
 20
34.500001
 30
0.0
 10
-14.506505
 20
34.500001
 30
0.0
 10
-14.506505
 20
36.950001
 30
0.0
 10
-14.406505
 20
36.950001
 30
0.0
 10
-14.406505
 20
34.500001
 30
0.0
 10
-9.606505
 20
34.500001
 30
0.0
 10
-9.606505
 20
36.950001
 30
0.0
 10
-9.506505
 20
36.950001
 30
0.0
 10
-9.506505
 20
34.500001
 30
0.0
 10
-8.423857
 20
34.500001
 30
0.0
 10
-8.423857
 20
34.100001
 30
0.0
 10
-5.423857
 20
34.100001
 30
0.0
 10
-5.423857
 20
34.500001
 30
0.0
 10
-4.341209
 20
34.500001
 30
0.0
 10
-4.341209
 20
36.950001
 30
0.0
 10
-4.241209
 20
36.950001
 30
0.0
 10
-4.241209
 20
34.500001
 30
0.0
 10
0.558791
 20
34.500001
 30
0.0
 10
0.558791
 20
36.950001
 30
0.0
 10
0.658791
 20
36.950001
 30
0.0
 10
0.658791
 20
34.500001
 30
0.0
 10
1.741439
 20
34.500001
 30
0.0
 10
1.741439
 20
34.100001
 30
0.0
 10
4.741439
 20
34.100001
 30
0.0
 10
4.741439
 20
34.500001
 30
0.0
 10
5.824088
 20
34.500001
 30
0.0
 10
5.824088
 20
36.950001
 30
0.0
 10
5.924088
 20
36.950001
 30
0.0
 10
5.924088
 20
34.500001
 30
0.0
 10
10.724088
 20
34.500001
 30
0.0
 10
10.724088
 20
36.950001
 30
0.0
 10
10.824088
 20
36.950001
 30
0.0
 10
10.824088
 20
34.500001
 30
0.0
 10
11.906736
 20
34.500001
 30
0.0
 10
11.906736
 20
34.100001
 30
0.0
 10
14.906736
 20
34.100001
 30
0.0
 10
14.906736
 20
34.500001
 30
0.0
 10
15.989384
 20
34.500001
 30
0.0
 10
15.989384
 20
36.950001
 30
0.0
 10
16.089384
 20
36.950001
 30
0.0
 10
16.089384
 20
34.500001
 30
0.0
 10
20.889384
 20
34.500001
 30
0.0
 10
20.889384
 20
36.950001
 30
0.0
 10
20.989384
 20
36.950001
 30
0.0
 10
20.989384
 20
34.500001
 30
0.0
 10
22.072032
 20
34.500001
 30
0.0
 10
22.072032
 20
34.100001
 30
0.0
 10
25.072032
 20
34.100001
 30
0.0
 10
25.072032
 20
34.500001
 30
0.0
 10
26.154680
 20
34.500001
 30
0.0
 10
26.154680
 20
36.950001
 30
0.0
 10
26.254680
 20
36.950001
 30
0.0
 10
26.254680
 20
34.500001
 30
0.0
 10
31.054680
 20
34.500001
 30
0.0
 10
31.054680
 20
36.950001
 30
0.0
 10
31.154680
 20
36.950001
 30
0.0
 10
31.154680
 20
34.500001
 30
0.0
 10
32.237329
 20
34.500001
 30
0.0
 10
32.237329
 20
34.100001
 30
0.0
 10
33.737329
 20
34.100001
 30
0.0
  0
LWPOLYLINE
  5
101
100
AcDbEntity
  8
0
 62
7
100
AcDbPolyline
 90
7
 70
1
 10
0.558791
 20
37.459601
 30
0.0
 10
0.558791
 20
39.400000
 30
0.0
 10
-1.579506
 20
39.400000
 30
0.0
 10
-1.579506
 20
39.500001
 30
0.0
 10
0.658791
 20
39.500001
 30
0.0
 10
0.658791
 20
37.459601
 30
0.0
 10
0.558791
 20
37.459601
 30
0.0
  0
LWPOLYLINE
  5
102
100
AcDbEntity
  8
0
 62
7
100
AcDbPolyline
 90
7
 70
1
 10
-4.341209
 20
39.500001
 30
0.0
 10
-2.102911
 20
39.500001
 30
0.0
 10
-2.102911
 20
39.400000
 30
0.0
 10
-4.241209
 20
39.400000
 30
0.0
 10
-4.241209
 20
37.459601
 30
0.0
 10
-4.341209
 20
37.459601
 30
0.0
 10
-4.341209
 20
39.500001
 30
0.0
  0
LWPOLYLINE
  5
103
100
AcDbEntity
  8
0
 62
7
100
AcDbPolyline
 90
7
 70
1
 10
-9.606505
 20
37.459601
 30
0.0
 10
-9.606505
 20
39.400000
 30
0.0
 10
-11.744803
 20
39.400000
 30
0.0
 10
-11.744803
 20
39.500001
 30
0.0
 10
-9.506505
 20
39.500001
 30
0.0
 10
-9.506505
 20
37.459601
 30
0.0
 10
-9.606505
 20
37.459601
 30
0.0
  0
LWPOLYLINE
  5
104
100
AcDbEntity
  8
0
 62
7
100
AcDbPolyline
 90
7
 70
1
 10
-29.837098
 20
37.459601
 30
0.0
 10
-29.937098
 20
37.459601
 30
0.0
 10
-29.937098
 20
39.400000
 30
0.0
 10
-32.075396
 20
39.400000
 30
0.0
 10
-32.075396
 20
39.500001
 30
0.0
 10
-29.837098
 20
39.500001
 30
0.0
 10
-29.837098
 20
37.459601
 30
0.0
  0
LWPOLYLINE
  5
105
100
AcDbEntity
  8
0
 62
7
100
AcDbPolyline
 90
7
 70
1
 10
-19.771802
 20
37.459601
 30
0.0
 10
-19.771802
 20
39.400000
 30
0.0
 10
-21.910099
 20
39.400000
 30
0.0
 10
-21.910099
 20
39.500001
 30
0.0
 10
-19.671802
 20
39.500001
 30
0.0
 10
-19.671802
 20
37.459601
 30
0.0
 10
-19.771802
 20
37.459601
 30
0.0
  0
LWPOLYLINE
  5
106
100
AcDbEntity
  8
0
 62
7
100
AcDbPolyline
 90
7
 70
1
 10
-34.837098
 20
37.459601
 30
0.0
 10
-34.837098
 20
39.500001
 30
0.0
 10
-32.598801
 20
39.500001
 30
0.0
 10
-32.598801
 20
39.400000
 30
0.0
 10
-34.737098
 20
39.400000
 30
0.0
 10
-34.737098
 20
37.459601
 30
0.0
 10
-34.837098
 20
37.459601
 30
0.0
  0
LWPOLYLINE
  5
107
100
AcDbEntity
  8
0
 62
7
100
AcDbPolyline
 90
7
 70
1
 10
31.054680
 20
37.459601
 30
0.0
 10
31.054680
 20
39.400000
 30
0.0
 10
28.916383
 20
39.400000
 30
0.0
 10
28.916383
 20
39.500001
 30
0.0
 10
31.154680
 20
39.500001
 30
0.0
 10
31.154680
 20
37.459601
 30
0.0
 10
31.054680
 20
37.459601
 30
0.0
  0
LWPOLYLINE
  5
108
100
AcDbEntity
  8
0
 62
7
100
AcDbPolyline
 90
7
 70
1
 10
-14.506505
 20
39.500001
 30
0.0
 10
-12.268208
 20
39.500001
 30
0.0
 10
-12.268208
 20
39.400000
 30
0.0
 10
-14.406505
 20
39.400000
 30
0.0
 10
-14.406505
 20
37.459601
 30
0.0
 10
-14.506505
 20
37.459601
 30
0.0
 10
-14.506505
 20
39.500001
 30
0.0
  0
LWPOLYLINE
  5
109
100
AcDbEntity
  8
0
 62
7
100
AcDbPolyline
 90
7
 70
1
 10
5.824088
 20
39.500001
 30
0.0
 10
8.062385
 20
39.500001
 30
0.0
 10
8.062385
 20
39.400000
 30
0.0
 10
5.924088
 20
39.400000
 30
0.0
 10
5.924088
 20
37.459601
 30
0.0
 10
5.824088
 20
37.459601
 30
0.0
 10
5.824088
 20
39.500001
 30
0.0
  0
LWPOLYLINE
  5
10a
100
AcDbEntity
  8
0
 62
7
100
AcDbPolyline
 90
7
 70
1
 10
-24.671802
 20
39.500001
 30
0.0
 10
-22.433504
 20
39.500001
 30
0.0
 10
-22.433504
 20
39.400000
 30
0.0
 10
-24.571802
 20
39.400000
 30
0.0
 10
-24.571802
 20
37.459601
 30
0.0
 10
-24.671802
 20
37.459601
 30
0.0
 10
-24.671802
 20
39.500001
 30
0.0
  0
LWPOLYLINE
  5
10b
100
AcDbEntity
  8
0
 62
7
100
AcDbPolyline
 90
7
 70
1
 10
20.889384
 20
37.459601
 30
0.0
 10
20.889384
 20
39.400000
 30
0.0
 10
18.751087
 20
39.400000
 30
0.0
 10
18.751087
 20
39.500001
 30
0.0
 10
20.989384
 20
39.500001
 30
0.0
 10
20.989384
 20
37.459601
 30
0.0
 10
20.889384
 20
37.459601
 30
0.0
  0
LWPOLYLINE
  5
10c
100
AcDbEntity
  8
0
 62
7
100
AcDbPolyline
 90
7
 70
1
 10
26.154680
 20
39.500001
 30
0.0
 10
28.392978
 20
39.500001
 30
0.0
 10
28.392978
 20
39.400000
 30
0.0
 10
26.254680
 20
39.400000
 30
0.0
 10
26.254680
 20
37.459601
 30
0.0
 10
26.154680
 20
37.459601
 30
0.0
 10
26.154680
 20
39.500001
 30
0.0
  0
LWPOLYLINE
  5
10d
100
AcDbEntity
  8
0
 62
7
100
AcDbPolyline
 90
7
 70
1
 10
15.989384
 20
39.500001
 30
0.0
 10
18.227682
 20
39.500001
 30
0.0
 10
18.227682
 20
39.400000
 30
0.0
 10
16.089384
 20
39.400000
 30
0.0
 10
16.089384
 20
37.459601
 30
0.0
 10
15.989384
 20
37.459601
 30
0.0
 10
15.989384
 20
39.500001
 30
0.0
  0
LWPOLYLINE
  5
10e
100
AcDbEntity
  8
0
 62
7
100
AcDbPolyline
 90
7
 70
1
 10
10.724088
 20
37.459601
 30
0.0
 10
10.724088
 20
39.400000
 30
0.0
 10
8.585790
 20
39.400000
 30
0.0
 10
8.585790
 20
39.500001
 30
0.0
 10
10.824088
 20
39.500001
 30
0.0
 10
10.824088
 20
37.459601
 30
0.0
 10
10.724088
 20
37.459601
 30
0.0
  0
ENDSEC
  0
SECTION
  2
OBJECTS
  0
DICTIONARY
  5
C
330
0
100
AcDbDictionary
  3
ACAD_GROUP
350
D
  3
ACAD_MLINESTYLE
350
17
  0
DICTIONARY
  5
D
330
C
100
AcDbDictionary
  0
DICTIONARY
  5
1A
330
C
100
AcDbDictionary
  0
DICTIONARY
  5
17
330
C
100
AcDbDictionary
  3
STANDARD
350
18
  0
DICTIONARY
  5
19
330
C
100
AcDbDictionary
  0
ENDSEC
  0
EOF
