0
SECTION
2
HEADER
9
$INSUNITS
70
4
9
$ACADVER
1
AC1014
9
$HANDSEED
5
FFFF
0
ENDSEC
0
SECTION
2
TABLES
0
TABLE
2
VPORT
5
8
100
AcDbSymbolTable
0
ENDTAB
0
TABLE
2
LTYPE
5
5
100
AcDbSymbolTable
0
LTYPE
5
14
100
AcDbSymbolTableRecord
100
AcDbLinetypeTableRecord
2
BYBLOCK
70
0
0
LTYPE
5
15
100
AcDbSymbolTableRecord
100
AcDbLinetypeTableRecord
2
BYLAYER
70
0
0
ENDTAB
0
TABLE
2
LAYER
5
2
100
AcDbSymbolTable
70
2
0
LAYER
5
50
100
AcDbSymbolTableRecord
100
AcDbLayerTableRecord
2
0
70
0
6
CONTINUOUS
0
ENDTAB
0
TABLE
2
STYLE
5
3
100
AcDbSymbolTable
70
1
0
STYLE
5
11
100
AcDbSymbolTableRecord
100
AcDbTextStyleTableRecord
2
STANDARD
70
0
0
ENDTAB
0
TABLE
2
VIEW
5
6
100
AcDbSymbolTable
70
0
0
ENDTAB
0
TABLE
2
UCS
5
7
100
AcDbSymbolTable
70
0
0
ENDTAB
0
TABLE
2
APPID
5
9
100
AcDbSymbolTable
70
2
0
APPID
5
12
100
AcDbSymbolTableRecord
100
AcDbRegAppTableRecord
2
ACAD
70
0
0
ENDTAB
0
TABLE
2
DIMSTYLE
5
A
100
AcDbSymbolTable
70
1
0
ENDTAB
0
TABLE
2
BLOCK_RECORD
5
1
100
AcDbSymbolTable
70
1
0
BLOCK_RECORD
5
1F
100
AcDbSymbolTableRecord
100
AcDbBlockTableRecord
2
*MODEL_SPACE
0
BLOCK_RECORD
5
1B
100
AcDbSymbolTableRecord
100
AcDbBlockTableRecord
2
*PAPER_SPACE
0
ENDTAB
0
ENDSEC
0
SECTION
2
BLOCKS
0
BLOCK
5
20
100
AcDbEntity
100
AcDbBlockBegin
2
*MODEL_SPACE
0
ENDBLK
5
21
100
AcDbEntity
100
AcDbBlockEnd
0
BLOCK
5
1C
100
AcDbEntity
100
AcDbBlockBegin
2
*PAPER_SPACE
0
ENDBLK
5
1D
100
AcDbEntity
100
AcDbBlockEnd
0
ENDSEC
0
SECTION
2
ENTITIES
0
CIRCLE
5
100
100
AcDbEntity
8
0
100
AcDbCircle
10
27.56042676224698
20
40.430916855279911
30
0
40
1.4999999999999889
210
-8.8072942726951905e-47
220
1.8488927466117464e-32
230
1
0
CIRCLE
5
101
100
AcDbEntity
8
0
100
AcDbCircle
10
15.560426762247285
20
-41.569083144719343
30
0
40
1.4999999999999889
210
-8.8072942726951905e-47
220
1.8488927466117464e-32
230
1
0
CIRCLE
5
102
100
AcDbEntity
8
0
100
AcDbCircle
10
15.560426762247175
20
40.43091685527984
30
0
40
1.49999999999998
210
-1.1743059030260256e-46
220
2.4651903288156619e-32
230
1
0
CIRCLE
5
103
100
AcDbEntity
8
0
100
AcDbCircle
10
27.560426762247094
20
-41.569083144719286
30
0
40
1.4999999999999845
210
-6.3108872417680944e-30
220
2.4651903288147932e-32
230
1
0
CIRCLE
5
104
100
AcDbEntity
8
0
100
AcDbCircle
10
21.560426762247161
20
-18.569083144719542
30
0
40
1.4999999999999845
210
-6.3108872417680944e-30
220
2.4651903288147932e-32
230
1
0
LWPOLYLINE
5
105
100
AcDbEntity
8
0
100
AcDbPolyline
90
4
70
1
43
0.0
10
18.560426762247172
20
2.430916855280238
10
24.560426762247076
20
2.4309168552802674
10
24.560426762247062
20
14.430916855280152
10
18.560426762247161
20
14.430916855280122
0
LWPOLYLINE
5
106
100
AcDbEntity
8
0
100
AcDbPolyline
90
4
70
1
43
0.0
10
24.560426762247122
20
-25.935083144719453
10
24.560426762247118
20
-21.569083144719492
10
18.560426762247214
20
-21.569083144719524
10
18.560426762247218
20
-25.935083144719485
0
CIRCLE
5
107
100
AcDbEntity
8
0
100
AcDbCircle
10
21.560426762247133
20
-0.56908314471971821
30
0
40
1.4999999999999856
210
-2.935764757565064e-47
220
6.1629758220391547e-33
230
1
0
LWPOLYLINE
5
108
100
AcDbEntity
8
0
100
AcDbPolyline
90
4
70
1
43
0.0
10
18.560426762247147
20
20.43091685528006
10
24.560426762247051
20
20.430916855280085
10
24.560426762247047
20
24.796916855280038
10
18.560426762247143
20
24.796916855280013
0
LWPOLYLINE
5
109
100
AcDbEntity
8
0
100
AcDbPolyline
90
4
70
1
43
0.0
10
18.560426762247204
20
-15.569083144719585
10
24.560426762247104
20
-15.569083144719556
10
24.56042676224709
20
-3.5690831447196745
10
18.560426762247189
20
-3.5690831447197024
0
CIRCLE
5
110
100
AcDbEntity
8
0
100
AcDbCircle
10
21.560426762247104
20
17.430916855280103
30
0
40
1.4999999999999845
210
-6.3108872417680944e-30
220
2.4651903288147932e-32
230
1
0
LWPOLYLINE
5
111
100
AcDbEntity
8
0
100
AcDbPolyline
90
8
70
1
43
0.0
10
33.240426762247004
20
-44.569083144719229
10
11.380426762247355
20
-44.569083144719329
10
11.38042676224735
20
-38.569083144719386
10
9.8804267622473709
20
-38.569083144719386
10
9.8804267622472679
20
37.430916855279847
10
11.380426762247243
20
37.430916855279854
10
11.380426762247238
20
43.430916855279797
10
33.240426762246884
20
43.430916855279911
0
ENDSEC
0
SECTION
2
OBJECTS
0
DICTIONARY
5
C
100
AcDbDictionary
3
ACAD_GROUP
350
D
3
ACAD_MLINESTYLE
350
17
0
DICTIONARY
5
D
100
AcDbDictionary
0
DICTIONARY
5
1A
330
C
100
AcDbDictionary
0
DICTIONARY
5
17
100
AcDbDictionary
0
ENDSEC
0
EOF
