ISO-10303-21;
HEADER;
/* Generated by software containing ST-Developer
 * from STEP Tools, Inc. (www.steptools.com) 
 */

FILE_DESCRIPTION(
/* description */ (''),
/* implementation_level */ '2;1');

FILE_NAME(
/* name */ 'C:/Users/jjsch/Desktop/Puzzlebox Files/Lock Strut v1.step',

/* time_stamp */ '2022-02-24T15:33:33-08:00',
/* author */ (''),
/* organization */ (''),
/* preprocessor_version */ 'ST-DEVELOPER v18.1',
/* originating_system */ 'Autodesk Translation Framework v10.13.0.1454',

/* authorisation */ '');

FILE_SCHEMA (('AUTOMOTIVE_DESIGN { 1 0 10303 214 3 1 1 }'));
ENDSEC;

DATA;
#10=MECHANICAL_DESIGN_GEOMETRIC_PRESENTATION_REPRESENTATION('',(#13),#315);
#11=SHAPE_REPRESENTATION_RELATIONSHIP('SRR','None',#325,#12);
#12=ADVANCED_BREP_SHAPE_REPRESENTATION('',(#14),#314);
#13=STYLED_ITEM('',(#334),#14);
#14=MANIFOLD_SOLID_BREP('Body1',#191);
#15=FACE_OUTER_BOUND('',#25,.T.);
#16=FACE_OUTER_BOUND('',#26,.T.);
#17=FACE_OUTER_BOUND('',#27,.T.);
#18=FACE_OUTER_BOUND('',#28,.T.);
#19=FACE_OUTER_BOUND('',#29,.T.);
#20=FACE_OUTER_BOUND('',#30,.T.);
#21=FACE_OUTER_BOUND('',#31,.T.);
#22=FACE_OUTER_BOUND('',#32,.T.);
#23=FACE_OUTER_BOUND('',#33,.T.);
#24=FACE_OUTER_BOUND('',#34,.T.);
#25=EDGE_LOOP('',(#123,#124,#125,#126));
#26=EDGE_LOOP('',(#127,#128,#129,#130));
#27=EDGE_LOOP('',(#131,#132,#133,#134));
#28=EDGE_LOOP('',(#135,#136,#137,#138));
#29=EDGE_LOOP('',(#139,#140,#141,#142));
#30=EDGE_LOOP('',(#143,#144,#145,#146));
#31=EDGE_LOOP('',(#147,#148,#149,#150));
#32=EDGE_LOOP('',(#151,#152,#153,#154));
#33=EDGE_LOOP('',(#155,#156,#157,#158,#159,#160,#161,#162));
#34=EDGE_LOOP('',(#163,#164,#165,#166,#167,#168,#169,#170));
#35=LINE('',#265,#59);
#36=LINE('',#267,#60);
#37=LINE('',#269,#61);
#38=LINE('',#270,#62);
#39=LINE('',#273,#63);
#40=LINE('',#275,#64);
#41=LINE('',#276,#65);
#42=LINE('',#279,#66);
#43=LINE('',#281,#67);
#44=LINE('',#282,#68);
#45=LINE('',#285,#69);
#46=LINE('',#287,#70);
#47=LINE('',#288,#71);
#48=LINE('',#291,#72);
#49=LINE('',#293,#73);
#50=LINE('',#294,#74);
#51=LINE('',#297,#75);
#52=LINE('',#299,#76);
#53=LINE('',#300,#77);
#54=LINE('',#303,#78);
#55=LINE('',#305,#79);
#56=LINE('',#306,#80);
#57=LINE('',#308,#81);
#58=LINE('',#309,#82);
#59=VECTOR('',#219,0.393700787401575);
#60=VECTOR('',#220,0.393700787401575);
#61=VECTOR('',#221,0.393700787401575);
#62=VECTOR('',#222,0.393700787401575);
#63=VECTOR('',#225,0.393700787401575);
#64=VECTOR('',#226,0.393700787401575);
#65=VECTOR('',#227,0.393700787401575);
#66=VECTOR('',#230,0.393700787401575);
#67=VECTOR('',#231,0.393700787401575);
#68=VECTOR('',#232,0.393700787401575);
#69=VECTOR('',#235,0.393700787401575);
#70=VECTOR('',#236,0.393700787401575);
#71=VECTOR('',#237,0.393700787401575);
#72=VECTOR('',#240,0.393700787401575);
#73=VECTOR('',#241,0.393700787401575);
#74=VECTOR('',#242,0.393700787401575);
#75=VECTOR('',#245,0.393700787401575);
#76=VECTOR('',#246,0.393700787401575);
#77=VECTOR('',#247,0.393700787401575);
#78=VECTOR('',#250,0.393700787401575);
#79=VECTOR('',#251,0.393700787401575);
#80=VECTOR('',#252,0.393700787401575);
#81=VECTOR('',#255,0.393700787401575);
#82=VECTOR('',#256,0.393700787401575);
#83=VERTEX_POINT('',#263);
#84=VERTEX_POINT('',#264);
#85=VERTEX_POINT('',#266);
#86=VERTEX_POINT('',#268);
#87=VERTEX_POINT('',#272);
#88=VERTEX_POINT('',#274);
#89=VERTEX_POINT('',#278);
#90=VERTEX_POINT('',#280);
#91=VERTEX_POINT('',#284);
#92=VERTEX_POINT('',#286);
#93=VERTEX_POINT('',#290);
#94=VERTEX_POINT('',#292);
#95=VERTEX_POINT('',#296);
#96=VERTEX_POINT('',#298);
#97=VERTEX_POINT('',#302);
#98=VERTEX_POINT('',#304);
#99=EDGE_CURVE('',#83,#84,#35,.T.);
#100=EDGE_CURVE('',#83,#85,#36,.T.);
#101=EDGE_CURVE('',#86,#85,#37,.T.);
#102=EDGE_CURVE('',#84,#86,#38,.T.);
#103=EDGE_CURVE('',#84,#87,#39,.T.);
#104=EDGE_CURVE('',#88,#86,#40,.T.);
#105=EDGE_CURVE('',#87,#88,#41,.T.);
#106=EDGE_CURVE('',#87,#89,#42,.T.);
#107=EDGE_CURVE('',#90,#88,#43,.T.);
#108=EDGE_CURVE('',#89,#90,#44,.T.);
#109=EDGE_CURVE('',#91,#89,#45,.T.);
#110=EDGE_CURVE('',#92,#90,#46,.T.);
#111=EDGE_CURVE('',#91,#92,#47,.T.);
#112=EDGE_CURVE('',#93,#91,#48,.T.);
#113=EDGE_CURVE('',#94,#92,#49,.T.);
#114=EDGE_CURVE('',#93,#94,#50,.T.);
#115=EDGE_CURVE('',#95,#93,#51,.T.);
#116=EDGE_CURVE('',#96,#94,#52,.T.);
#117=EDGE_CURVE('',#95,#96,#53,.T.);
#118=EDGE_CURVE('',#97,#95,#54,.T.);
#119=EDGE_CURVE('',#98,#96,#55,.T.);
#120=EDGE_CURVE('',#97,#98,#56,.T.);
#121=EDGE_CURVE('',#83,#97,#57,.T.);
#122=EDGE_CURVE('',#85,#98,#58,.T.);
#123=ORIENTED_EDGE('',*,*,#99,.F.);
#124=ORIENTED_EDGE('',*,*,#100,.T.);
#125=ORIENTED_EDGE('',*,*,#101,.F.);
#126=ORIENTED_EDGE('',*,*,#102,.F.);
#127=ORIENTED_EDGE('',*,*,#103,.F.);
#128=ORIENTED_EDGE('',*,*,#102,.T.);
#129=ORIENTED_EDGE('',*,*,#104,.F.);
#130=ORIENTED_EDGE('',*,*,#105,.F.);
#131=ORIENTED_EDGE('',*,*,#106,.F.);
#132=ORIENTED_EDGE('',*,*,#105,.T.);
#133=ORIENTED_EDGE('',*,*,#107,.F.);
#134=ORIENTED_EDGE('',*,*,#108,.F.);
#135=ORIENTED_EDGE('',*,*,#109,.T.);
#136=ORIENTED_EDGE('',*,*,#108,.T.);
#137=ORIENTED_EDGE('',*,*,#110,.F.);
#138=ORIENTED_EDGE('',*,*,#111,.F.);
#139=ORIENTED_EDGE('',*,*,#112,.T.);
#140=ORIENTED_EDGE('',*,*,#111,.T.);
#141=ORIENTED_EDGE('',*,*,#113,.F.);
#142=ORIENTED_EDGE('',*,*,#114,.F.);
#143=ORIENTED_EDGE('',*,*,#115,.T.);
#144=ORIENTED_EDGE('',*,*,#114,.T.);
#145=ORIENTED_EDGE('',*,*,#116,.F.);
#146=ORIENTED_EDGE('',*,*,#117,.F.);
#147=ORIENTED_EDGE('',*,*,#118,.T.);
#148=ORIENTED_EDGE('',*,*,#117,.T.);
#149=ORIENTED_EDGE('',*,*,#119,.F.);
#150=ORIENTED_EDGE('',*,*,#120,.F.);
#151=ORIENTED_EDGE('',*,*,#121,.T.);
#152=ORIENTED_EDGE('',*,*,#120,.T.);
#153=ORIENTED_EDGE('',*,*,#122,.F.);
#154=ORIENTED_EDGE('',*,*,#100,.F.);
#155=ORIENTED_EDGE('',*,*,#122,.T.);
#156=ORIENTED_EDGE('',*,*,#119,.T.);
#157=ORIENTED_EDGE('',*,*,#116,.T.);
#158=ORIENTED_EDGE('',*,*,#113,.T.);
#159=ORIENTED_EDGE('',*,*,#110,.T.);
#160=ORIENTED_EDGE('',*,*,#107,.T.);
#161=ORIENTED_EDGE('',*,*,#104,.T.);
#162=ORIENTED_EDGE('',*,*,#101,.T.);
#163=ORIENTED_EDGE('',*,*,#121,.F.);
#164=ORIENTED_EDGE('',*,*,#99,.T.);
#165=ORIENTED_EDGE('',*,*,#103,.T.);
#166=ORIENTED_EDGE('',*,*,#106,.T.);
#167=ORIENTED_EDGE('',*,*,#109,.F.);
#168=ORIENTED_EDGE('',*,*,#112,.F.);
#169=ORIENTED_EDGE('',*,*,#115,.F.);
#170=ORIENTED_EDGE('',*,*,#118,.F.);
#171=PLANE('',#205);
#172=PLANE('',#206);
#173=PLANE('',#207);
#174=PLANE('',#208);
#175=PLANE('',#209);
#176=PLANE('',#210);
#177=PLANE('',#211);
#178=PLANE('',#212);
#179=PLANE('',#213);
#180=PLANE('',#214);
#181=ADVANCED_FACE('',(#15),#171,.T.);
#182=ADVANCED_FACE('',(#16),#172,.T.);
#183=ADVANCED_FACE('',(#17),#173,.T.);
#184=ADVANCED_FACE('',(#18),#174,.T.);
#185=ADVANCED_FACE('',(#19),#175,.T.);
#186=ADVANCED_FACE('',(#20),#176,.T.);
#187=ADVANCED_FACE('',(#21),#177,.T.);
#188=ADVANCED_FACE('',(#22),#178,.T.);
#189=ADVANCED_FACE('',(#23),#179,.T.);
#190=ADVANCED_FACE('',(#24),#180,.F.);
#191=CLOSED_SHELL('',(#181,#182,#183,#184,#185,#186,#187,#188,#189,#190));
#192=DERIVED_UNIT_ELEMENT(#194,1.);
#193=DERIVED_UNIT_ELEMENT(#319,-3.);
#194=(
MASS_UNIT()
NAMED_UNIT(*)
SI_UNIT(.KILO.,.GRAM.)
);
#195=DERIVED_UNIT((#192,#193));
#196=MEASURE_REPRESENTATION_ITEM('density measure',
POSITIVE_RATIO_MEASURE(570.2572828),#195);
#197=PROPERTY_DEFINITION_REPRESENTATION(#202,#199);
#198=PROPERTY_DEFINITION_REPRESENTATION(#203,#200);
#199=REPRESENTATION('material name',(#201),#314);
#200=REPRESENTATION('density',(#196),#314);
#201=DESCRIPTIVE_REPRESENTATION_ITEM('Pine','Pine');
#202=PROPERTY_DEFINITION('material property','material name',#327);
#203=PROPERTY_DEFINITION('material property','density of part',#327);
#204=AXIS2_PLACEMENT_3D('placement',#261,#215,#216);
#205=AXIS2_PLACEMENT_3D('',#262,#217,#218);
#206=AXIS2_PLACEMENT_3D('',#271,#223,#224);
#207=AXIS2_PLACEMENT_3D('',#277,#228,#229);
#208=AXIS2_PLACEMENT_3D('',#283,#233,#234);
#209=AXIS2_PLACEMENT_3D('',#289,#238,#239);
#210=AXIS2_PLACEMENT_3D('',#295,#243,#244);
#211=AXIS2_PLACEMENT_3D('',#301,#248,#249);
#212=AXIS2_PLACEMENT_3D('',#307,#253,#254);
#213=AXIS2_PLACEMENT_3D('',#310,#257,#258);
#214=AXIS2_PLACEMENT_3D('',#311,#259,#260);
#215=DIRECTION('axis',(0.,0.,1.));
#216=DIRECTION('refdir',(1.,0.,0.));
#217=DIRECTION('center_axis',(8.34986453964104E-17,0.,1.));
#218=DIRECTION('ref_axis',(1.,0.,-8.34986453964104E-17));
#219=DIRECTION('',(-1.,0.,8.34986453964104E-17));
#220=DIRECTION('',(0.,1.,0.));
#221=DIRECTION('',(1.,0.,-8.34986453964104E-17));
#222=DIRECTION('',(0.,1.,0.));
#223=DIRECTION('center_axis',(-1.,0.,0.));
#224=DIRECTION('ref_axis',(0.,0.,1.));
#225=DIRECTION('',(0.,0.,-1.));
#226=DIRECTION('',(0.,0.,1.));
#227=DIRECTION('',(0.,1.,0.));
#228=DIRECTION('center_axis',(0.,0.,-1.));
#229=DIRECTION('ref_axis',(-1.,0.,0.));
#230=DIRECTION('',(1.,0.,0.));
#231=DIRECTION('',(-1.,0.,0.));
#232=DIRECTION('',(0.,1.,0.));
#233=DIRECTION('center_axis',(1.,0.,0.));
#234=DIRECTION('ref_axis',(0.,0.,-1.));
#235=DIRECTION('',(0.,0.,-1.));
#236=DIRECTION('',(0.,0.,-1.));
#237=DIRECTION('',(0.,1.,0.));
#238=DIRECTION('center_axis',(0.,0.,1.));
#239=DIRECTION('ref_axis',(1.,0.,0.));
#240=DIRECTION('',(1.,0.,0.));
#241=DIRECTION('',(1.,0.,0.));
#242=DIRECTION('',(0.,1.,0.));
#243=DIRECTION('center_axis',(-1.,0.,0.));
#244=DIRECTION('ref_axis',(0.,0.,1.));
#245=DIRECTION('',(0.,0.,1.));
#246=DIRECTION('',(0.,0.,1.));
#247=DIRECTION('',(0.,1.,0.));
#248=DIRECTION('center_axis',(0.,0.,-1.));
#249=DIRECTION('ref_axis',(-1.,0.,0.));
#250=DIRECTION('',(-1.,0.,0.));
#251=DIRECTION('',(-1.,0.,0.));
#252=DIRECTION('',(0.,1.,0.));
#253=DIRECTION('center_axis',(-1.,0.,0.));
#254=DIRECTION('ref_axis',(0.,0.,1.));
#255=DIRECTION('',(0.,0.,1.));
#256=DIRECTION('',(0.,0.,1.));
#257=DIRECTION('center_axis',(0.,1.,0.));
#258=DIRECTION('ref_axis',(0.,0.,1.));
#259=DIRECTION('center_axis',(0.,1.,0.));
#260=DIRECTION('ref_axis',(1.,0.,0.));
#261=CARTESIAN_POINT('',(0.,0.,0.));
#262=CARTESIAN_POINT('Origin',(-0.75,0.,4.59242549680257E-17));
#263=CARTESIAN_POINT('',(-0.35,0.,1.25247968094616E-17));
#264=CARTESIAN_POINT('',(-0.75,0.,4.59242549680257E-17));
#265=CARTESIAN_POINT('',(-0.35,0.,1.25247968094616E-17));
#266=CARTESIAN_POINT('',(-0.35,0.2,1.25247968094616E-17));
#267=CARTESIAN_POINT('',(-0.35,0.,1.25247968094616E-17));
#268=CARTESIAN_POINT('',(-0.75,0.2,4.59242549680257E-17));
#269=CARTESIAN_POINT('',(-0.35,0.2,1.25247968094616E-17));
#270=CARTESIAN_POINT('',(-0.75,0.,4.59242549680257E-17));
#271=CARTESIAN_POINT('Origin',(-0.75,0.,-0.4));
#272=CARTESIAN_POINT('',(-0.75,0.,-0.4));
#273=CARTESIAN_POINT('',(-0.75,0.,4.59242549680257E-17));
#274=CARTESIAN_POINT('',(-0.75,0.2,-0.4));
#275=CARTESIAN_POINT('',(-0.75,0.2,4.59242549680257E-17));
#276=CARTESIAN_POINT('',(-0.75,0.,-0.4));
#277=CARTESIAN_POINT('Origin',(0.,0.,-0.4));
#278=CARTESIAN_POINT('',(0.,0.,-0.4));
#279=CARTESIAN_POINT('',(-0.75,0.,-0.4));
#280=CARTESIAN_POINT('',(0.,0.2,-0.4));
#281=CARTESIAN_POINT('',(-0.75,0.2,-0.4));
#282=CARTESIAN_POINT('',(0.,0.,-0.4));
#283=CARTESIAN_POINT('Origin',(0.,0.,1.6));
#284=CARTESIAN_POINT('',(0.,0.,1.6));
#285=CARTESIAN_POINT('',(0.,0.,1.6));
#286=CARTESIAN_POINT('',(0.,0.2,1.6));
#287=CARTESIAN_POINT('',(0.,0.2,1.6));
#288=CARTESIAN_POINT('',(0.,0.,1.6));
#289=CARTESIAN_POINT('Origin',(-0.75,0.,1.6));
#290=CARTESIAN_POINT('',(-0.75,0.,1.6));
#291=CARTESIAN_POINT('',(-0.75,0.,1.6));
#292=CARTESIAN_POINT('',(-0.75,0.2,1.6));
#293=CARTESIAN_POINT('',(-0.75,0.2,1.6));
#294=CARTESIAN_POINT('',(-0.75,0.,1.6));
#295=CARTESIAN_POINT('Origin',(-0.75,0.,1.2));
#296=CARTESIAN_POINT('',(-0.75,0.,1.2));
#297=CARTESIAN_POINT('',(-0.75,0.,1.2));
#298=CARTESIAN_POINT('',(-0.75,0.2,1.2));
#299=CARTESIAN_POINT('',(-0.75,0.2,1.2));
#300=CARTESIAN_POINT('',(-0.75,0.,1.2));
#301=CARTESIAN_POINT('Origin',(-0.35,0.,1.2));
#302=CARTESIAN_POINT('',(-0.35,0.,1.2));
#303=CARTESIAN_POINT('',(-0.35,0.,1.2));
#304=CARTESIAN_POINT('',(-0.35,0.2,1.2));
#305=CARTESIAN_POINT('',(-0.35,0.2,1.2));
#306=CARTESIAN_POINT('',(-0.35,0.,1.2));
#307=CARTESIAN_POINT('Origin',(-0.35,0.,1.25247968094616E-17));
#308=CARTESIAN_POINT('',(-0.35,0.,1.25247968094616E-17));
#309=CARTESIAN_POINT('',(-0.35,0.2,1.25247968094616E-17));
#310=CARTESIAN_POINT('Origin',(-0.375,0.2,0.6));
#311=CARTESIAN_POINT('Origin',(-0.375,0.,0.6));
#312=UNCERTAINTY_MEASURE_WITH_UNIT(LENGTH_MEASURE(0.000393700787401575),
#317,'DISTANCE_ACCURACY_VALUE',
'Maximum model space distance between geometric entities at asserted c
onnectivities');
#313=UNCERTAINTY_MEASURE_WITH_UNIT(LENGTH_MEASURE(0.000393700787401575),
#317,'DISTANCE_ACCURACY_VALUE',
'Maximum model space distance between geometric entities at asserted c
onnectivities');
#314=(
GEOMETRIC_REPRESENTATION_CONTEXT(3)
GLOBAL_UNCERTAINTY_ASSIGNED_CONTEXT((#312))
GLOBAL_UNIT_ASSIGNED_CONTEXT((#317,#321,#322))
REPRESENTATION_CONTEXT('','3D')
);
#315=(
GEOMETRIC_REPRESENTATION_CONTEXT(3)
GLOBAL_UNCERTAINTY_ASSIGNED_CONTEXT((#313))
GLOBAL_UNIT_ASSIGNED_CONTEXT((#317,#321,#322))
REPRESENTATION_CONTEXT('','3D')
);
#316=DIMENSIONAL_EXPONENTS(1.,0.,0.,0.,0.,0.,0.);
#317=(
CONVERSION_BASED_UNIT('inch',#320)
LENGTH_UNIT()
NAMED_UNIT(#316)
);
#318=(
LENGTH_UNIT()
NAMED_UNIT(*)
SI_UNIT(.MILLI.,.METRE.)
);
#319=(
LENGTH_UNIT()
NAMED_UNIT(*)
SI_UNIT($,.METRE.)
);
#320=LENGTH_MEASURE_WITH_UNIT(LENGTH_MEASURE(25.4),#318);
#321=(
NAMED_UNIT(*)
PLANE_ANGLE_UNIT()
SI_UNIT($,.RADIAN.)
);
#322=(
NAMED_UNIT(*)
SI_UNIT($,.STERADIAN.)
SOLID_ANGLE_UNIT()
);
#323=SHAPE_DEFINITION_REPRESENTATION(#324,#325);
#324=PRODUCT_DEFINITION_SHAPE('',$,#327);
#325=SHAPE_REPRESENTATION('',(#204),#314);
#326=PRODUCT_DEFINITION_CONTEXT('part definition',#331,'design');
#327=PRODUCT_DEFINITION('Lock Strut','Lock Strut v1',#328,#326);
#328=PRODUCT_DEFINITION_FORMATION('',$,#333);
#329=PRODUCT_RELATED_PRODUCT_CATEGORY('Lock Strut v1','Lock Strut v1',(#333));
#330=APPLICATION_PROTOCOL_DEFINITION('international standard',
'automotive_design',2009,#331);
#331=APPLICATION_CONTEXT(
'Core Data for Automotive Mechanical Design Process');
#332=PRODUCT_CONTEXT('part definition',#331,'mechanical');
#333=PRODUCT('Lock Strut','Lock Strut v1',$,(#332));
#334=PRESENTATION_STYLE_ASSIGNMENT((#335));
#335=SURFACE_STYLE_USAGE(.BOTH.,#336);
#336=SURFACE_SIDE_STYLE('',(#337));
#337=SURFACE_STYLE_FILL_AREA(#338);
#338=FILL_AREA_STYLE('Pine',(#339));
#339=FILL_AREA_STYLE_COLOUR('Pine',#340);
#340=COLOUR_RGB('Pine',0.,0.,0.);
ENDSEC;
END-ISO-10303-21;
