  0
SECTION
  2
HEADER
  9
$ACADVER
  1
AC1015
  9
$ACADMAINTVER
 70
     6
  9
$DWGCODEPAGE
  3
ANSI_1252
  9
$INSBASE
 10
0.0
 20
0.0
 30
0.0
  9
$EXTMIN
 10
0.0
 20
0.0
 30
0.0
  9
$EXTMAX
 10
808.103882
 20
533.655884
 30
2.0
  9
$LIMMIN
 10
0.0
 20
0.0
  9
$LIMMAX
 10
420.0
 20
297.0
  9
$ORTHOMODE
 70
     0
  9
$REGENMODE
 70
     1
  9
$FILLMODE
 70
     1
  9
$QTEXTMODE
 70
     0
  9
$MIRRTEXT
 70
     1
  9
$LTSCALE
 40
1.0
  9
$ATTMODE
 70
     1
  9
$TEXTSIZE
 40
2.5
  9
$TRACEWID
 40
1.0
  9
$TEXTSTYLE
  7
Standard
  9
$CLAYER
  8
0
  9
$CELTYPE
  6
ByLayer
  9
$CECOLOR
 62
   256
  9
$CELTSCALE
 40
1.0
  9
$DISPSILH
 70
     0
  9
$DIMSCALE
 40
1.0
  9
$DIMASZ
 40
2.5
  9
$DIMEXO
 40
0.625
  9
$DIMDLI
 40
3.75
  9
$DIMRND
 40
0.0
  9
$DIMDLE
 40
0.0
  9
$DIMEXE
 40
1.25
  9
$DIMTP
 40
0.0
  9
$DIMTM
 40
0.0
  9
$DIMTXT
 40
2.5
  9
$DIMCEN
 40
2.5
  9
$DIMTSZ
 40
0.0
  9
$DIMTOL
 70
     0
  9
$DIMLIM
 70
     0
  9
$DIMTIH
 70
     0
  9
$DIMTOH
 70
     0
  9
$DIMSE1
 70
     0
  9
$DIMSE2
 70
     0
  9
$DIMTAD
 70
     1
  9
$DIMZIN
 70
     8
  9
$DIMBLK
  1

  9
$DIMASO
 70
     1
  9
$DIMSHO
 70
     1
  9
$DIMPOST
  1

  9
$DIMAPOST
  1

  9
$DIMALT
 70
     0
  9
$DIMALTD
 70
     3
  9
$DIMALTF
 40
0.03937
  9
$DIMLFAC
 40
1.0
  9
$DIMTOFL
 70
     1
  9
$DIMTVP
 40
0.0
  9
$DIMTIX
 70
     0
  9
$DIMSOXD
 70
     0
  9
$DIMSAH
 70
     0
  9
$DIMBLK1
  1

  9
$DIMBLK2
  1

  9
$DIMSTYLE
  2

  9
$DIMCLRD
 70
     0
  9
$DIMCLRE
 70
     0
  9
$DIMCLRT
 70
     0
  9
$DIMTFAC
 40
1.0
  9
$DIMGAP
 40
0.625
  9
$DIMJUST
 70
     0
  9
$DIMSD1
 70
     0
  9
$DIMSD2
 70
     0
  9
$DIMTOLJ
 70
     0
  9
$DIMTZIN
 70
     8
  9
$DIMALTZ
 70
     0
  9
$DIMALTTZ
 70
     0
  9
$DIMUPT
 70
     0
  9
$DIMDEC
 70
     2
  9
$DIMTDEC
 70
     2
  9
$DIMALTU
 70
     2
  9
$DIMALTTD
 70
     3
  9
$DIMTXSTY
  7
Standard
  9
$DIMAUNIT
 70
     0
  9
$DIMADEC
 70
     0
  9
$DIMALTRND
 40
0.0
  9
$DIMAZIN
 70
     0
  9
$DIMDSEP
 70
    44
  9
$DIMATFIT
 70
     0
  9
$DIMFRAC
 70
     0
  9
$DIMLDRBLK
  1

  9
$DIMLUNIT
 70
     2
  9
$DIMLWD
 70
    -2
  9
$DIMLWE
 70
    -2
  9
$DIMTMOVE
 70
     0
  9
$LUNITS
 70
     2
  9
$LUPREC
 70
     4
  9
$SKETCHINC
 40
1.0
  9
$FILLETRAD
 40
2.5
  9
$AUNITS
 70
     0
  9
$AUPREC
 70
     0
  9
$MENU
  1
.
  9
$ELEVATION
 40
0.0
  9
$PELEVATION
 40
0.0
  9
$THICKNESS
 40
0.0
  9
$LIMCHECK
 70
     0
  9
$CHAMFERA
 40
2.5
  9
$CHAMFERB
 40
2.5
  9
$CHAMFERC
 40
0.0
  9
$CHAMFERD
 40
0.0
  9
$SKPOLY
 70
     0
  9
$TDCREATE
 40
0.000000000
  9
$TDUCREATE
 40
0.000000000
  9
$TDUPDATE
 40
0.000000000
  9
$TDUUPDATE
 40
0.000000000
  9
$TDINDWG
 40
0.0000000000
  9
$TDUSRTIMER
 40
0.0000000000
  9
$USRTIMER
 70
     1
  9
$ANGBASE
 50
0.0
  9
$ANGDIR
 70
     0
  9
$PDMODE
 70
     0
  9
$PDSIZE
 40
0.0
  9
$PLINEWID
 40
0.0
  9
$SPLFRAME
 70
     0
  9
$SPLINETYPE
 70
     6
  9
$SPLINESEGS
 70
     8
  9
$HANDSEED
  5
15B
  9
$SURFTAB1
 70
     6
  9
$SURFTAB2
 70
     6
  9
$SURFTYPE
 70
     6
  9
$SURFU
 70
     6
  9
$SURFV
 70
     6
  9
$UCSBASE
  2

  9
$UCSNAME
  2

  9
$UCSORG
 10
0.0
 20
0.0
 30
0.0
  9
$UCSXDIR
 10
1.0
 20
0.0
 30
0.0
  9
$UCSYDIR
 10
0.0
 20
1.0
 30
0.0
  9
$UCSORTHOREF
  2

  9
$UCSORTHOVIEW
 70
     1
  9
$UCSORGTOP
 10
0.0
 20
0.0
 30
0.0
  9
$UCSORGBOTTOM
 10
0.0
 20
0.0
 30
0.0
  9
$UCSORGLEFT
 10
0.0
 20
0.0
 30
0.0
  9
$UCSORGRIGHT
 10
0.0
 20
0.0
 30
0.0
  9
$UCSORGFRONT
 10
0.0
 20
0.0
 30
0.0
  9
$UCSORGBACK
 10
0.0
 20
0.0
 30
0.0
  9
$PUCSBASE
  2

  9
$PUCSNAME
  2

  9
$PUCSORG
 10
0.0
 20
0.0
 30
0.0
  9
$PUCSXDIR
 10
1.0
 20
0.0
 30
0.0
  9
$PUCSYDIR
 10
0.0
 20
1.0
 30
0.0
  9
$PUCSORTHOREF
  2

  9
$PUCSORTHOVIEW
 70
     0
  9
$PUCSORGTOP
 10
0.0
 20
0.0
 30
0.0
  9
$PUCSORGBOTTOM
 10
0.0
 20
0.0
 30
0.0
  9
$PUCSORGLEFT
 10
0.0
 20
0.0
 30
0.0
  9
$PUCSORGRIGHT
 10
0.0
 20
0.0
 30
0.0
  9
$PUCSORGFRONT
 10
0.0
 20
0.0
 30
0.0
  9
$PUCSORGBACK
 10
0.0
 20
0.0
 30
0.0
  9
$USERI1
 70
     0
  9
$USERI2
 70
     0
  9
$USERI3
 70
     0
  9
$USERI4
 70
     0
  9
$USERI5
 70
     0
  9
$USERR1
 40
0.0
  9
$USERR2
 40
0.0
  9
$USERR3
 40
0.0
  9
$USERR4
 40
0.0
  9
$USERR5
 40
0.0
  9
$WORLDVIEW
 70
     1
  9
$SHADEDGE
 70
     3
  9
$SHADEDIF
 70
    70
  9
$TILEMODE
 70
     1
  9
$MAXACTVP
 70
    48
  9
$PINSBASE
 10
0.0
 20
0.0
 30
0.0
  9
$PLIMCHECK
 70
     0
  9
$PEXTMIN
 10
0.0
 20
0.0
 30
0.0
  9
$PEXTMAX
 10
808.103882
 20
533.655884
 30
2.0
  9
$PLIMMIN
 10
0.0
 20
0.0
  9
$PLIMMAX
 10
420.0
 20
297.0
  9
$UNITMODE
 70
     0
  9
$VISRETAIN
 70
     0
  9
$PLINEGEN
 70
     0
  9
$PSLTSCALE
 70
     1
  9
$TREEDEPTH
 70
  3020
  9
$CMLSTYLE
  2
Standard
  9
$CMLJUST
 70
     0
  9
$CMLSCALE
 40
20.0
  9
$PROXYGRAPHICS
 70
     1
  9
$MEASUREMENT
 70
     1
  9
$CELWEIGHT
370
    -1
  9
$ENDCAPS
280
     0
  9
$JOINSTYLE
280
     0
  9
$LWDISPLAY
290
     0
  9
$INSUNITS
 70
     0
  9
$HYPERLINKBASE
  1

  9
$STYLESHEET
  1

  9
$XEDIT
290
     1
  9
$CEPSNTYPE
380
     0
  9
$PSTYLEMODE
290
     0
  9
$FINGERPRINTGUID
  2

  9
$VERSIONGUID
  2

  9
$EXTNAMES
290
     0
  9
$PSVPSCALE
 40
0.0
  0
ENDSEC
  0
SECTION
  2
CLASSES
  0
CLASS
  1
LWPOLYLINE
  2
AcDbPolyline
  3
AutoCAD 2000
 90
        0
280
     0
281
     1
  0
CLASS
  1
IMAGE
  2
AcDbRasterImage
  3
ISM
 90
      127
280
     0
281
     1
  0
CLASS
  1
OLE2FRAME
  2
AcDbOle2Frame
  3
AutoCAD 2000
 90
        0
280
     0
281
     1
  0
CLASS
  1
HATCH
  2
AcDbHatch
  3
AutoCAD 2000
 90
        0
280
     0
281
     1
  0
CLASS
  1
DICTIONARYVAR
  2
AcDbDictionaryVar
  3
AutoCAD 2000
 90
        0
280
     0
281
     0
  0
CLASS
  1
RASTERVARIABLES
  2
AcDbRasterVariables
  3
ISM
 90
        0
280
     0
281
     0
  0
CLASS
  1
IMAGEDEF
  2
AcDbRasterImageDef
  3
ISM
 90
        0
280
     0
281
     0
  0
CLASS
  1
IMAGEDEF_REACTOR
  2
AcDbRasterImageDefReactor
  3
ISM
 90
        1
280
     0
281
     0
  0
CLASS
  1
IDBUFFER
  2
AcDbIdBuffer
  3
AutoCAD 2000
 90
        0
280
     0
281
     0
  0
CLASS
  1
SPATIAL_FILTER
  2
AcDbSpatialFilter
  3
AutoCAD 2000
 90
        0
280
     0
281
     0
  0
CLASS
  1
XRECORD
  2
AcDbXrecord
  3
AutoCAD 2000
 90
        0
280
     0
281
     0
  0
CLASS
  1
SORTENTSTABLE
  2
AcDbSortentsTable
  3
AutoCAD 2000
 90
        0
280
     0
281
     0
  0
CLASS
  1
LAYER_INDEX
  2
AcDbLayerIndex
  3
AutoCAD 2000
 90
        0
280
     0
281
     0
  0
CLASS
  1
SPATIAL_INDEX
  2
AcDbSpatialIndex
  3
AutoCAD 2000
 90
        0
280
     0
281
     0
  0
CLASS
  1
OBJECT_PTR
  2
CAseDLPNTableRecord
  3
"ASE-LPNTableRecord"
 90
        1
280
     0
281
     0
  0
CLASS
  1
LAYOUT
  2
AcDbLayout
  3
AutoCAD 2000
 90
        0
280
     0
281
     0
  0
CLASS
  1
PLOTSETTINGS
  2
AcDbPlotSettings
  3
AutoCAD 2000
 90
        0
280
     0
281
     0
  0
CLASS
  1
ACDBDICTIONARYWDFLT
  2
AcDbDictionaryWithDefault
  3
AutoCAD 2000
 90
        0
280
     0
281
     0
  0
CLASS
  1
ACDBPLACEHOLDER
  2
AcDbPlaceHolder
  3
AutoCAD 2000
 90
        0
280
     0
281
     0
  0
CLASS
  1
VBA_PROJECT
  2
AcDbVbaProject
  3
acadvba
 90
        0
280
     0
281
     0
  0
CLASS
  1
WIPEOUT
  2
AcDbWipeout
  3
WipeOut|AutoCAD Express Tool|expresstools@autodesk.com
 90
      127
280
     0
281
     1
  0
CLASS
  1
WIPEOUTVARIABLES
  2
AcDbWipeoutVariables
  3
WipeOut|AutoCAD Express Tool|expresstools@autodesk.com
 90
        0
280
     0
281
     0
  0
CLASS
  1
RTEXT
  2
RText
  3
RText|AutoCAD Express Tool|expresstools@autodesk.com
 90
        0
280
     0
281
     1
  0
CLASS
  1
ARCALIGNEDTEXT
  2
AcDbArcAlignedText
  3
ATEXT|AutoCAD Express Tool|expresstools@autodesk.com
 90
        0
280
     0
281
     1
  0
ENDSEC
  0
SECTION
  2
TABLES
  0
TABLE
  2
VPORT
  5
7
100
AcDbSymbolTable
 70
     1
  0
VPORT
  5
15
100
AcDbSymbolTableRecord
100
AcDbViewportTableRecord
  2
*ACTIVE
 70
     0
 10
0.0
 20
0.0
 11
1.0
 21
1.0
 12
6.591288
 22
4.579184
 13
0.0
 23
0.0
 14
1.0
 24
1.0
 15
0.0
 25
0.0
 16
0.0
 26
0.0
 36
1.0
 17
0.0
 27
0.0
 37
0.0
 40
9.158369
 41
0.688564
 42
50.0
 43
0.0
 44
0.0
 50
0.0
 51
0.0
 71
     0
 72
   100
 73
     1
 74
     1
 75
     0
 76
     0
 77
     0
 78
     0
281
     0
 65
     0
110
0.0
120
0.0
130
0.0
111
1.0
121
0.0
131
0.0
112
0.0
122
1.0
132
0.0
345
0
346
0
 79
     0
146
0.0
  0
ENDTAB
  0
TABLE
  2
LTYPE
  5
4
100
AcDbSymbolTable
 70
     3
  0
LTYPE
  5
11
100
AcDbSymbolTableRecord
100
AcDbLinetypeTableRecord
  2
ByBlock
 70
    64
  3

 72
    65
 73
     0
 40
0.0
  0
LTYPE
  5
12
100
AcDbSymbolTableRecord
100
AcDbLinetypeTableRecord
  2
ByLayer
 70
    64
  3

 72
    65
 73
     0
 40
0.0
  0
LTYPE
  5
13
100
AcDbSymbolTableRecord
100
AcDbLinetypeTableRecord
  2
Continuous
 70
    64
  3
Solid line
 72
    65
 73
     0
 40
0.0
  0
ENDTAB
  0
TABLE
  2
LAYER
  5
2
100
AcDbSymbolTable
 70
     1
  0
LAYER
  5
14
100
AcDbSymbolTableRecord
100
AcDbLayerTableRecord
  2
0
 70
     0
 62
     7
  6
Continuous
290
     1
370
    -3
390
1D
  0
ENDTAB
  0
TABLE
  2
STYLE
  5
3
100
AcDbSymbolTable
 70
     1
  0
STYLE
  5
17
100
AcDbSymbolTableRecord
100
AcDbTextStyleTableRecord
  2
Standard
 70
     0
 40
0.0
 41
1.0
 50
0.0
 71
     0
 42
0.0
  3
txt
  4

  0
ENDTAB
  0
TABLE
  2
VIEW
  5
5
100
AcDbSymbolTable
 70
     0
  0
ENDTAB
  0
TABLE
  2
UCS
  5
6
100
AcDbSymbolTable
 70
     0
  0
ENDTAB
  0
TABLE
  2
APPID
  5
8
100
AcDbSymbolTable
 70
     1
  0
APPID
  5
16
100
AcDbSymbolTableRecord
100
AcDbRegAppTableRecord
  2
ACAD
 70
     0
  0
ENDTAB
  0
TABLE
  2
DIMSTYLE
  5
9
100
AcDbSymbolTable
 70
     1
100
AcDbDimStyleTable
 71
     0
  0
DIMSTYLE
105
18
100
AcDbSymbolTableRecord
100
AcDbDimStyleTableRecord
  2
Standard
 70
     0
  3

  4

 40
1.0
 41
0.18
 42
0.0625
 43
0.38
 44
0.18
 45
0.0
 46
0.0
 47
0.0
 48
0.0
 71
     0
 72
     0
 73
     1
 74
     1
 75
     0
 76
     0
 77
     0
 78
     0
 79
     0
140
0.18
141
0.09
142
0.0
143
25.4
144
1.0
145
0.0
146
1.0
147
0.09
148
0.0
170
     0
171
     2
172
     0
173
     0
174
     0
175
     0
176
     0
177
     0
178
     0
179
     0
271
     4
272
     4
273
     2
274
     2
275
     0
276
     0
277
     2
278
    46
279
     0
280
     0
281
     0
282
     0
283
     1
284
     0
285
     0
286
     0
288
     0
289
     3
340
17
341
0
342
0
343
0
344
0
371
    -2
372
    -2
  0
ENDTAB
  0
TABLE
  2
BLOCK_RECORD
  5
1
100
AcDbSymbolTable
 70
     0
  0
BLOCK_RECORD
  5
A
100
AcDbSymbolTableRecord
100
AcDbBlockTableRecord
  2
*MODEL_SPACE
340
20
  0
BLOCK_RECORD
  5
B
100
AcDbSymbolTableRecord
100
AcDbBlockTableRecord
  2
*PAPER_SPACE
340
21
  0
ENDTAB
  0
ENDSEC
  0
SECTION
  2
BLOCKS
  0
BLOCK
  5
D
100
AcDbEntity
  8
0
390
0
100
AcDbBlockBegin
  2
*MODEL_SPACE
 70
     0
 10
0.0
 20
0.0
 30
0.0
  3
*MODEL_SPACE
  1

  0
ENDBLK
  5
E
100
AcDbEntity
  8
0
390
0
100
AcDbBlockEnd
  0
BLOCK
  5
F
100
AcDbEntity
 67
     1
  8
0
390
0
100
AcDbBlockBegin
  2
*PAPER_SPACE
 70
     0
 10
0.0
 20
0.0
 30
0.0
  3
*PAPER_SPACE
  1

  0
ENDBLK
  5
10
100
AcDbEntity
 67
     1
  8
0
390
0
100
AcDbBlockEnd
  0
ENDSEC
  0
SECTION
  2
ENTITIES
  0
VIEWPORT
  5
15A
100
AcDbEntity
 67
     1
  8
0
370
     0
390
0
 62
     0
 48
0.0
100
AcDbViewport
 10
0.0
 20
0.0
 30
0.0
 40
1000.0
 41
1000.0
 68
     1
 69
     1
 12
0.0
 22
0.0
 13
0.0
 23
0.0
 14
1.0
 24
1.0
 15
1.0
 25
1.0
 16
0.0
 26
0.0
 36
1.0
 17
0.0
 27
0.0
 37
0.0
 42
50.0
 43
0.0
 44
0.0
 45
1000.0
 50
0.0
 51
0.0
 72
   100
 90
        0
340
0
  1

281
     0
 71
     0
 74
     1
110
0.0
120
0.0
130
0.0
111
1.0
121
0.0
131
0.0
112
0.0
122
1.0
132
0.0
345
0
346
0
 79
     0
146
0.0
  0
LINE
  5
24
100
AcDbEntity
  8
0
370
    35
390
0
 62
   150
100
AcDbLine
 10
118.002136
 20
347.175903
 30
0.0
 11
98.002136
 21
347.175903
 31
0.0
210
0.0
220
0.0
230
1.0
  0
LINE
  5
25
100
AcDbEntity
  8
0
370
    35
390
0
 62
   150
 48
0.154
100
AcDbLine
 10
118.002136
 20
341.0159
 30
0.0
 11
118.002136
 21
347.175903
 31
0.0
210
0.0
220
0.0
230
1.0
  0
LINE
  5
26
100
AcDbEntity
  8
0
370
    35
390
0
 62
   150
100
AcDbLine
 10
138.322144
 20
341.0159
 30
0.0
 11
118.002136
 21
341.0159
 31
0.0
210
0.0
220
0.0
230
1.0
  0
LINE
  5
27
100
AcDbEntity
  8
0
370
    35
390
0
 62
   150
 48
0.154
100
AcDbLine
 10
138.322144
 20
347.175903
 30
0.0
 11
138.322144
 21
341.0159
 31
0.0
210
0.0
220
0.0
230
1.0
  0
LINE
  5
28
100
AcDbEntity
  8
0
370
    35
390
0
 62
   150
 48
0.492
100
AcDbLine
 10
158.002136
 20
347.175903
 30
0.0
 11
138.322144
 21
347.175903
 31
0.0
210
0.0
220
0.0
230
1.0
  0
LINE
  5
29
100
AcDbEntity
  8
0
370
    35
390
0
 62
   150
 48
0.154
100
AcDbLine
 10
158.002136
 20
341.0159
 30
0.0
 11
158.002136
 21
347.175903
 31
0.0
210
0.0
220
0.0
230
1.0
  0
LINE
  5
2A
100
AcDbEntity
  8
0
370
    35
390
0
 62
   150
100
AcDbLine
 10
178.322144
 20
341.0159
 30
0.0
 11
158.002136
 21
341.0159
 31
0.0
210
0.0
220
0.0
230
1.0
  0
LINE
  5
2B
100
AcDbEntity
  8
0
370
    35
390
0
 62
   150
 48
0.154
100
AcDbLine
 10
178.322144
 20
347.175903
 30
0.0
 11
178.322144
 21
341.0159
 31
0.0
210
0.0
220
0.0
230
1.0
  0
LINE
  5
2C
100
AcDbEntity
  8
0
370
    35
390
0
 62
   150
 48
0.492
100
AcDbLine
 10
198.002136
 20
347.175903
 30
0.0
 11
178.322144
 21
347.175903
 31
0.0
210
0.0
220
0.0
230
1.0
  0
LINE
  5
2D
100
AcDbEntity
  8
0
370
    35
390
0
 62
   150
 48
0.154
100
AcDbLine
 10
198.002136
 20
341.0159
 30
0.0
 11
198.002136
 21
347.175903
 31
0.0
210
0.0
220
0.0
230
1.0
  0
LINE
  5
2E
100
AcDbEntity
  8
0
370
    35
390
0
 62
   150
100
AcDbLine
 10
218.322144
 20
341.0159
 30
0.0
 11
198.002136
 21
341.0159
 31
0.0
210
0.0
220
0.0
230
1.0
  0
LINE
  5
2F
100
AcDbEntity
  8
0
370
    35
390
0
 62
   150
 48
0.154
100
AcDbLine
 10
218.322144
 20
347.175903
 30
0.0
 11
218.322144
 21
341.0159
 31
0.0
210
0.0
220
0.0
230
1.0
  0
LINE
  5
30
100
AcDbEntity
  8
0
370
    35
390
0
 62
   150
 48
0.492
100
AcDbLine
 10
238.002136
 20
347.175903
 30
0.0
 11
218.322144
 21
347.175903
 31
0.0
210
0.0
220
0.0
230
1.0
  0
LINE
  5
31
100
AcDbEntity
  8
0
370
    35
390
0
 62
   150
 48
0.154
100
AcDbLine
 10
238.002136
 20
341.0159
 30
0.0
 11
238.002136
 21
347.175903
 31
0.0
210
0.0
220
0.0
230
1.0
  0
LINE
  5
32
100
AcDbEntity
  8
0
370
    35
390
0
 62
   150
100
AcDbLine
 10
258.322144
 20
341.0159
 30
0.0
 11
238.002136
 21
341.0159
 31
0.0
210
0.0
220
0.0
230
1.0
  0
LINE
  5
33
100
AcDbEntity
  8
0
370
    35
390
0
 62
   150
 48
0.154
100
AcDbLine
 10
258.322144
 20
347.175903
 30
0.0
 11
258.322144
 21
341.0159
 31
0.0
210
0.0
220
0.0
230
1.0
  0
LINE
  5
34
100
AcDbEntity
  8
0
370
    35
390
0
 62
   150
100
AcDbLine
 10
278.322144
 20
347.175903
 30
0.0
 11
258.322144
 21
347.175903
 31
0.0
210
0.0
220
0.0
230
1.0
  0
LINE
  5
35
100
AcDbEntity
  8
0
370
    35
390
0
 62
   150
100
AcDbLine
 10
278.322144
 20
347.175903
 30
0.0
 11
278.322144
 21
367.175903
 31
0.0
210
0.0
220
0.0
230
1.0
  0
LINE
  5
36
100
AcDbEntity
  8
0
370
    35
390
0
 62
   150
 48
0.154
100
AcDbLine
 10
278.322144
 20
367.175903
 30
0.0
 11
284.482147
 21
367.175903
 31
0.0
210
0.0
220
0.0
230
1.0
  0
LINE
  5
37
100
AcDbEntity
  8
0
370
    35
390
0
 62
   150
100
AcDbLine
 10
284.482147
 20
367.175903
 30
0.0
 11
284.482147
 21
387.495911
 31
0.0
210
0.0
220
0.0
230
1.0
  0
LINE
  5
38
100
AcDbEntity
  8
0
370
    35
390
0
 62
   150
 48
0.154
100
AcDbLine
 10
284.482147
 20
387.495911
 30
0.0
 11
278.322144
 21
387.495911
 31
0.0
210
0.0
220
0.0
230
1.0
  0
LINE
  5
39
100
AcDbEntity
  8
0
370
    35
390
0
 62
   150
 48
0.492
100
AcDbLine
 10
278.322144
 20
387.495911
 30
0.0
 11
278.322144
 21
407.175903
 31
0.0
210
0.0
220
0.0
230
1.0
  0
LINE
  5
3A
100
AcDbEntity
  8
0
370
    35
390
0
 62
   150
 48
0.154
100
AcDbLine
 10
278.322144
 20
407.175903
 30
0.0
 11
284.482147
 21
407.175903
 31
0.0
210
0.0
220
0.0
230
1.0
  0
LINE
  5
3B
100
AcDbEntity
  8
0
370
    35
390
0
 62
   150
100
AcDbLine
 10
284.482147
 20
407.175903
 30
0.0
 11
284.482147
 21
427.495911
 31
0.0
210
0.0
220
0.0
230
1.0
  0
LINE
  5
3C
100
AcDbEntity
  8
0
370
    35
390
0
 62
   150
 48
0.154
100
AcDbLine
 10
284.482147
 20
427.495911
 30
0.0
 11
278.322144
 21
427.495911
 31
0.0
210
0.0
220
0.0
230
1.0
  0
LINE
  5
3D
100
AcDbEntity
  8
0
370
    35
390
0
 62
   150
 48
0.492
100
AcDbLine
 10
278.322144
 20
427.495911
 30
0.0
 11
278.322144
 21
447.175903
 31
0.0
210
0.0
220
0.0
230
1.0
  0
LINE
  5
3E
100
AcDbEntity
  8
0
370
    35
390
0
 62
   150
 48
0.154
100
AcDbLine
 10
278.322144
 20
447.175903
 30
0.0
 11
284.482147
 21
447.175903
 31
0.0
210
0.0
220
0.0
230
1.0
  0
LINE
  5
3F
100
AcDbEntity
  8
0
370
    35
390
0
 62
   150
100
AcDbLine
 10
284.482147
 20
447.175903
 30
0.0
 11
284.482147
 21
467.495911
 31
0.0
210
0.0
220
0.0
230
1.0
  0
LINE
  5
40
100
AcDbEntity
  8
0
370
    35
390
0
 62
   150
 48
0.154
100
AcDbLine
 10
284.482147
 20
467.495911
 30
0.0
 11
278.322144
 21
467.495911
 31
0.0
210
0.0
220
0.0
230
1.0
  0
LINE
  5
41
100
AcDbEntity
  8
0
370
    35
390
0
 62
   150
 48
0.492
100
AcDbLine
 10
278.322144
 20
467.495911
 30
0.0
 11
278.322144
 21
487.175903
 31
0.0
210
0.0
220
0.0
230
1.0
  0
LINE
  5
42
100
AcDbEntity
  8
0
370
    35
390
0
 62
   150
 48
0.154
100
AcDbLine
 10
278.322144
 20
487.175903
 30
0.0
 11
284.482147
 21
487.175903
 31
0.0
210
0.0
220
0.0
230
1.0
  0
LINE
  5
43
100
AcDbEntity
  8
0
370
    35
390
0
 62
   150
100
AcDbLine
 10
284.482147
 20
487.175903
 30
0.0
 11
284.482147
 21
507.495911
 31
0.0
210
0.0
220
0.0
230
1.0
  0
LINE
  5
44
100
AcDbEntity
  8
0
370
    35
390
0
 62
   150
 48
0.154
100
AcDbLine
 10
284.482147
 20
507.495911
 30
0.0
 11
278.322144
 21
507.495911
 31
0.0
210
0.0
220
0.0
230
1.0
  0
LINE
  5
45
100
AcDbEntity
  8
0
370
    35
390
0
 62
   150
 48
0.460167
100
AcDbLine
 10
278.322144
 20
507.495911
 30
0.0
 11
278.322144
 21
525.902588
 31
0.0
210
0.0
220
0.0
230
1.0
  0
LINE
  5
46
100
AcDbEntity
  8
0
370
    35
390
0
 62
   150
 48
0.039833
100
AcDbLine
 10
278.322144
 20
527.495911
 30
0.0
 11
278.322144
 21
525.902588
 31
0.0
210
0.0
220
0.0
230
1.0
  0
LINE
  5
47
100
AcDbEntity
  8
0
370
    35
390
0
 62
   150
100
AcDbLine
 10
278.322144
 20
527.495911
 30
0.0
 11
258.322144
 21
527.495911
 31
0.0
210
0.0
220
0.0
230
1.0
  0
LINE
  5
48
100
AcDbEntity
  8
0
370
    35
390
0
 62
   150
 48
0.153999
100
AcDbLine
 10
258.322144
 20
527.495911
 30
0.0
 11
258.322144
 21
533.655884
 31
0.0
210
0.0
220
0.0
230
1.0
  0
LINE
  5
49
100
AcDbEntity
  8
0
370
    35
390
0
 62
   150
100
AcDbLine
 10
258.322144
 20
533.655884
 30
0.0
 11
238.002136
 21
533.655884
 31
0.0
210
0.0
220
0.0
230
1.0
  0
LINE
  5
4A
100
AcDbEntity
  8
0
370
    35
390
0
 62
   150
 48
0.153999
100
AcDbLine
 10
238.002136
 20
533.655884
 30
0.0
 11
238.002136
 21
527.495911
 31
0.0
210
0.0
220
0.0
230
1.0
  0
LINE
  5
4B
100
AcDbEntity
  8
0
370
    35
390
0
 62
   150
 48
0.492
100
AcDbLine
 10
238.002136
 20
527.495911
 30
0.0
 11
218.322144
 21
527.495911
 31
0.0
210
0.0
220
0.0
230
1.0
  0
LINE
  5
4C
100
AcDbEntity
  8
0
370
    35
390
0
 62
   150
 48
0.153999
100
AcDbLine
 10
218.322144
 20
527.495911
 30
0.0
 11
218.322144
 21
533.655884
 31
0.0
210
0.0
220
0.0
230
1.0
  0
LINE
  5
4D
100
AcDbEntity
  8
0
370
    35
390
0
 62
   150
100
AcDbLine
 10
218.322144
 20
533.655884
 30
0.0
 11
198.002136
 21
533.655884
 31
0.0
210
0.0
220
0.0
230
1.0
  0
LINE
  5
4E
100
AcDbEntity
  8
0
370
    35
390
0
 62
   150
 48
0.153999
100
AcDbLine
 10
198.002136
 20
533.655884
 30
0.0
 11
198.002136
 21
527.495911
 31
0.0
210
0.0
220
0.0
230
1.0
  0
LINE
  5
4F
100
AcDbEntity
  8
0
370
    35
390
0
 62
   150
 48
0.492
100
AcDbLine
 10
198.002136
 20
527.495911
 30
0.0
 11
178.322144
 21
527.495911
 31
0.0
210
0.0
220
0.0
230
1.0
  0
LINE
  5
50
100
AcDbEntity
  8
0
370
    35
390
0
 62
   150
 48
0.153999
100
AcDbLine
 10
178.322144
 20
527.495911
 30
0.0
 11
178.322144
 21
533.655884
 31
0.0
210
0.0
220
0.0
230
1.0
  0
LINE
  5
51
100
AcDbEntity
  8
0
370
    35
390
0
 62
   150
100
AcDbLine
 10
178.322144
 20
533.655884
 30
0.0
 11
158.002136
 21
533.655884
 31
0.0
210
0.0
220
0.0
230
1.0
  0
LINE
  5
52
100
AcDbEntity
  8
0
370
    35
390
0
 62
   150
 48
0.153999
100
AcDbLine
 10
158.002136
 20
533.655884
 30
0.0
 11
158.002136
 21
527.495911
 31
0.0
210
0.0
220
0.0
230
1.0
  0
LINE
  5
53
100
AcDbEntity
  8
0
370
    35
390
0
 62
   150
 48
0.492
100
AcDbLine
 10
158.002136
 20
527.495911
 30
0.0
 11
138.322144
 21
527.495911
 31
0.0
210
0.0
220
0.0
230
1.0
  0
LINE
  5
54
100
AcDbEntity
  8
0
370
    35
390
0
 62
   150
 48
0.153999
100
AcDbLine
 10
138.322144
 20
527.495911
 30
0.0
 11
138.322144
 21
533.655884
 31
0.0
210
0.0
220
0.0
230
1.0
  0
LINE
  5
55
100
AcDbEntity
  8
0
370
    35
390
0
 62
   150
100
AcDbLine
 10
138.322144
 20
533.655884
 30
0.0
 11
118.002136
 21
533.655884
 31
0.0
210
0.0
220
0.0
230
1.0
  0
LINE
  5
56
100
AcDbEntity
  8
0
370
    35
390
0
 62
   150
 48
0.153999
100
AcDbLine
 10
118.002136
 20
533.655884
 30
0.0
 11
118.002136
 21
527.495911
 31
0.0
210
0.0
220
0.0
230
1.0
  0
LINE
  5
57
100
AcDbEntity
  8
0
370
    35
390
0
 62
   150
 48
0.460166
100
AcDbLine
 10
118.002136
 20
527.495911
 30
0.0
 11
99.595482
 21
527.495911
 31
0.0
210
0.0
220
0.0
230
1.0
  0
LINE
  5
58
100
AcDbEntity
  8
0
370
    35
390
0
 62
   150
 48
0.039834
100
AcDbLine
 10
98.002136
 20
527.495911
 30
0.0
 11
99.595482
 21
527.495911
 31
0.0
210
0.0
220
0.0
230
1.0
  0
LINE
  5
59
100
AcDbEntity
  8
0
370
    35
390
0
 62
   150
100
AcDbLine
 10
98.002136
 20
507.495911
 30
0.0
 11
98.002136
 21
527.495911
 31
0.0
210
0.0
220
0.0
230
1.0
  0
LINE
  5
5A
100
AcDbEntity
  8
0
370
    35
390
0
 62
   150
 48
0.154
100
AcDbLine
 10
91.84214
 20
507.495911
 30
0.0
 11
98.002136
 21
507.495911
 31
0.0
210
0.0
220
0.0
230
1.0
  0
LINE
  5
5B
100
AcDbEntity
  8
0
370
    35
390
0
 62
   150
100
AcDbLine
 10
91.84214
 20
487.175903
 30
0.0
 11
91.84214
 21
507.495911
 31
0.0
210
0.0
220
0.0
230
1.0
  0
LINE
  5
5C
100
AcDbEntity
  8
0
370
    35
390
0
 62
   150
 48
0.154
100
AcDbLine
 10
98.002136
 20
487.175903
 30
0.0
 11
91.84214
 21
487.175903
 31
0.0
210
0.0
220
0.0
230
1.0
  0
LINE
  5
5D
100
AcDbEntity
  8
0
370
    35
390
0
 62
   150
 48
0.492
100
AcDbLine
 10
98.002136
 20
467.495911
 30
0.0
 11
98.002136
 21
487.175903
 31
0.0
210
0.0
220
0.0
230
1.0
  0
LINE
  5
5E
100
AcDbEntity
  8
0
370
    35
390
0
 62
   150
 48
0.154
100
AcDbLine
 10
91.84214
 20
467.495911
 30
0.0
 11
98.002136
 21
467.495911
 31
0.0
210
0.0
220
0.0
230
1.0
  0
LINE
  5
5F
100
AcDbEntity
  8
0
370
    35
390
0
 62
   150
100
AcDbLine
 10
91.84214
 20
447.175903
 30
0.0
 11
91.84214
 21
467.495911
 31
0.0
210
0.0
220
0.0
230
1.0
  0
LINE
  5
60
100
AcDbEntity
  8
0
370
    35
390
0
 62
   150
 48
0.154
100
AcDbLine
 10
98.002136
 20
447.175903
 30
0.0
 11
91.84214
 21
447.175903
 31
0.0
210
0.0
220
0.0
230
1.0
  0
LINE
  5
61
100
AcDbEntity
  8
0
370
    35
390
0
 62
   150
 48
0.492
100
AcDbLine
 10
98.002136
 20
427.495911
 30
0.0
 11
98.002136
 21
447.175903
 31
0.0
210
0.0
220
0.0
230
1.0
  0
LINE
  5
62
100
AcDbEntity
  8
0
370
    35
390
0
 62
   150
 48
0.154
100
AcDbLine
 10
91.84214
 20
427.495911
 30
0.0
 11
98.002136
 21
427.495911
 31
0.0
210
0.0
220
0.0
230
1.0
  0
LINE
  5
63
100
AcDbEntity
  8
0
370
    35
390
0
 62
   150
100
AcDbLine
 10
91.84214
 20
407.175903
 30
0.0
 11
91.84214
 21
427.495911
 31
0.0
210
0.0
220
0.0
230
1.0
  0
LINE
  5
64
100
AcDbEntity
  8
0
370
    35
390
0
 62
   150
 48
0.154
100
AcDbLine
 10
98.002136
 20
407.175903
 30
0.0
 11
91.84214
 21
407.175903
 31
0.0
210
0.0
220
0.0
230
1.0
  0
LINE
  5
65
100
AcDbEntity
  8
0
370
    35
390
0
 62
   150
 48
0.492
100
AcDbLine
 10
98.002136
 20
387.495911
 30
0.0
 11
98.002136
 21
407.175903
 31
0.0
210
0.0
220
0.0
230
1.0
  0
LINE
  5
66
100
AcDbEntity
  8
0
370
    35
390
0
 62
   150
 48
0.154
100
AcDbLine
 10
91.84214
 20
387.495911
 30
0.0
 11
98.002136
 21
387.495911
 31
0.0
210
0.0
220
0.0
230
1.0
  0
LINE
  5
67
100
AcDbEntity
  8
0
370
    35
390
0
 62
   150
100
AcDbLine
 10
91.84214
 20
367.175903
 30
0.0
 11
91.84214
 21
387.495911
 31
0.0
210
0.0
220
0.0
230
1.0
  0
LINE
  5
68
100
AcDbEntity
  8
0
370
    35
390
0
 62
   150
 48
0.154
100
AcDbLine
 10
98.002136
 20
367.175903
 30
0.0
 11
91.84214
 21
367.175903
 31
0.0
210
0.0
220
0.0
230
1.0
  0
LINE
  5
69
100
AcDbEntity
  8
0
370
    35
390
0
 62
   150
100
AcDbLine
 10
98.002136
 20
347.175903
 30
0.0
 11
98.002136
 21
367.175903
 31
0.0
210
0.0
220
0.0
230
1.0
  0
LINE
  5
6A
100
AcDbEntity
  8
0
370
    35
390
0
 62
   150
100
AcDbLine
 10
524.179871
 20
265.588989
 30
0.0
 11
524.179871
 21
130.588959
 31
0.0
210
0.0
220
0.0
230
1.0
  0
LINE
  5
6B
100
AcDbEntity
  8
0
370
    35
390
0
 62
   150
 48
0.375
100
AcDbLine
 10
539.179871
 20
130.588959
 30
0.0
 11
524.179871
 21
130.588959
 31
0.0
210
0.0
220
0.0
230
1.0
  0
LINE
  5
6C
100
AcDbEntity
  8
0
370
    35
390
0
 62
   150
100
AcDbLine
 10
539.179871
 20
130.588959
 30
0.0
 11
539.179871
 21
265.588989
 31
0.0
210
0.0
220
0.0
230
1.0
  0
LINE
  5
6D
100
AcDbEntity
  8
0
370
    35
390
0
 62
   150
 48
0.375
100
AcDbLine
 10
524.179871
 20
265.588989
 30
0.0
 11
539.179871
 21
265.588989
 31
0.0
210
0.0
220
0.0
230
1.0
  0
LINE
  5
6E
100
AcDbEntity
  8
0
370
    35
390
0
 62
   150
100
AcDbLine
 10
569.622314
 20
271.123474
 30
0.0
 11
569.622314
 21
136.123505
 31
0.0
210
0.0
220
0.0
230
1.0
  0
LINE
  5
6F
100
AcDbEntity
  8
0
370
    35
390
0
 62
   150
 48
0.375
100
AcDbLine
 10
584.622314
 20
136.123474
 30
0.0
 11
569.622314
 21
136.123474
 31
0.0
210
0.0
220
0.0
230
1.0
  0
LINE
  5
70
100
AcDbEntity
  8
0
370
    35
390
0
 62
   150
100
AcDbLine
 10
584.622314
 20
136.123505
 30
0.0
 11
584.622314
 21
271.123474
 31
0.0
210
0.0
220
0.0
230
1.0
  0
LINE
  5
71
100
AcDbEntity
  8
0
370
    35
390
0
 62
   150
 48
0.375
100
AcDbLine
 10
569.622314
 20
271.123474
 30
0.0
 11
584.622314
 21
271.123474
 31
0.0
210
0.0
220
0.0
230
1.0
  0
LINE
  5
72
100
AcDbEntity
  8
0
370
    35
390
0
 62
   150
100
AcDbLine
 10
633.280029
 20
311.123474
 30
0.0
 11
633.280029
 21
271.123474
 31
0.0
210
0.0
220
0.0
230
1.0
  0
LINE
  5
73
100
AcDbEntity
  8
0
370
    35
390
0
 62
   150
100
AcDbLine
 10
801.400024
 20
271.123474
 30
0.0
 11
633.280029
 21
271.123474
 31
0.0
210
0.0
220
0.0
230
1.0
  0
LINE
  5
74
100
AcDbEntity
  8
0
370
    35
390
0
 62
   150
100
AcDbLine
 10
801.400024
 20
271.123474
 30
0.0
 11
801.400024
 21
311.123474
 31
0.0
210
0.0
220
0.0
230
1.0
  0
LINE
  5
75
100
AcDbEntity
  8
0
370
    35
390
0
 62
   150
100
AcDbLine
 10
633.280029
 20
311.123474
 30
0.0
 11
801.400024
 21
311.123474
 31
0.0
210
0.0
220
0.0
230
1.0
  0
LINE
  5
76
100
AcDbEntity
  8
0
370
    35
390
0
 62
   150
 48
0.154
100
AcDbLine
 10
627.783875
 20
246.50412
 30
0.0
 11
627.783875
 21
252.664124
 31
0.0
210
0.0
220
0.0
230
1.0
  0
LINE
  5
77
100
AcDbEntity
  8
0
370
    35
390
0
 62
   150
 48
0.153999
100
AcDbLine
 10
633.943848
 20
246.50412
 30
0.0
 11
627.783875
 21
246.50412
 31
0.0
210
0.0
220
0.0
230
1.0
  0
LINE
  5
78
100
AcDbEntity
  8
0
370
    35
390
0
 62
   150
100
AcDbLine
 10
633.943848
 20
60.344116
 30
0.0
 11
633.943848
 21
246.50412
 31
0.0
210
0.0
220
0.0
230
1.0
  0
LINE
  5
79
100
AcDbEntity
  8
0
370
    35
390
0
 62
   150
100
AcDbLine
 10
801.943848
 20
60.344116
 30
0.0
 11
633.943848
 21
60.344116
 31
0.0
210
0.0
220
0.0
230
1.0
  0
LINE
  5
7A
100
AcDbEntity
  8
0
370
    35
390
0
 62
   150
100
AcDbLine
 10
801.943848
 20
246.50412
 30
0.0
 11
801.943848
 21
60.344116
 31
0.0
210
0.0
220
0.0
230
1.0
  0
LINE
  5
7B
100
AcDbEntity
  8
0
370
    35
390
0
 62
   150
 48
0.154001
100
AcDbLine
 10
808.103882
 20
246.50412
 30
0.0
 11
801.943848
 21
246.50412
 31
0.0
210
0.0
220
0.0
230
1.0
  0
LINE
  5
7C
100
AcDbEntity
  8
0
370
    35
390
0
 62
   150
 48
0.154
100
AcDbLine
 10
808.103882
 20
252.664124
 30
0.0
 11
808.103882
 21
246.50412
 31
0.0
210
0.0
220
0.0
230
1.0
  0
LINE
  5
7D
100
AcDbEntity
  8
0
370
    35
390
0
 62
   150
100
AcDbLine
 10
627.783875
 20
252.664124
 30
0.0
 11
808.103882
 21
252.664124
 31
0.0
210
0.0
220
0.0
230
1.0
  0
CIRCLE
  5
7E
100
AcDbEntity
  8
0
370
    35
390
0
 62
   150
100
AcDbCircle
 10
140.354797
 20
300.200562
 30
0.0
 40
12.16
210
0.0
220
0.0
230
1.0
  0
LINE
  5
7F
100
AcDbEntity
  8
0
370
    35
390
0
 62
     5
 48
0.153999
100
AcDbLine
 10
140.354797
 20
306.360535
 30
0.0
 11
140.354797
 21
300.200562
 31
0.0
210
0.0
220
0.0
230
1.0
  0
LINE
  5
80
100
AcDbEntity
  8
0
370
    35
390
0
 62
     5
 48
0.154
100
AcDbLine
 10
146.514786
 20
306.360535
 30
0.0
 11
140.354797
 21
306.360535
 31
0.0
210
0.0
220
0.0
230
1.0
  0
LINE
  5
81
100
AcDbEntity
  8
0
370
    35
390
0
 62
     5
 48
0.153999
100
AcDbLine
 10
146.514786
 20
300.200562
 30
0.0
 11
146.514786
 21
306.360535
 31
0.0
210
0.0
220
0.0
230
1.0
  0
LINE
  5
82
100
AcDbEntity
  8
0
370
    35
390
0
 62
     5
 48
0.154
100
AcDbLine
 10
140.354797
 20
300.200562
 30
0.0
 11
146.514786
 21
300.200562
 31
0.0
210
0.0
220
0.0
230
1.0
  0
LINE
  5
83
100
AcDbEntity
  8
0
370
    35
390
0
 62
   150
100
AcDbLine
 10
53.216125
 20
91.28714
 30
0.0
 11
79.376129
 21
91.28714
 31
0.0
210
0.0
220
0.0
230
1.0
  0
LINE
  5
84
100
AcDbEntity
  8
0
370
    35
390
0
 62
   150
 48
0.154
100
AcDbLine
 10
79.376129
 20
91.28714
 30
0.0
 11
79.376129
 21
97.447144
 31
0.0
210
0.0
220
0.0
230
1.0
  0
LINE
  5
85
100
AcDbEntity
  8
0
370
    35
390
0
 62
   150
 48
0.492
100
AcDbLine
 10
79.376129
 20
97.447144
 30
0.0
 11
99.056129
 21
97.447144
 31
0.0
210
0.0
220
0.0
230
1.0
  0
LINE
  5
86
100
AcDbEntity
  8
0
370
    35
390
0
 62
   150
 48
0.154
100
AcDbLine
 10
99.056129
 20
97.447144
 30
0.0
 11
99.056129
 21
91.28714
 31
0.0
210
0.0
220
0.0
230
1.0
  0
LINE
  5
87
100
AcDbEntity
  8
0
370
    35
390
0
 62
   150
100
AcDbLine
 10
99.056129
 20
91.28714
 30
0.0
 11
119.376129
 21
91.28714
 31
0.0
210
0.0
220
0.0
230
1.0
  0
LINE
  5
88
100
AcDbEntity
  8
0
370
    35
390
0
 62
   150
 48
0.154
100
AcDbLine
 10
119.376129
 20
91.28714
 30
0.0
 11
119.376129
 21
97.447144
 31
0.0
210
0.0
220
0.0
230
1.0
  0
LINE
  5
89
100
AcDbEntity
  8
0
370
    35
390
0
 62
   150
 48
0.492
100
AcDbLine
 10
119.376129
 20
97.447144
 30
0.0
 11
139.056122
 21
97.447144
 31
0.0
210
0.0
220
0.0
230
1.0
  0
LINE
  5
8A
100
AcDbEntity
  8
0
370
    35
390
0
 62
   150
 48
0.154
100
AcDbLine
 10
139.056122
 20
97.447144
 30
0.0
 11
139.056122
 21
91.28714
 31
0.0
210
0.0
220
0.0
230
1.0
  0
LINE
  5
8B
100
AcDbEntity
  8
0
370
    35
390
0
 62
   150
100
AcDbLine
 10
139.056122
 20
91.28714
 30
0.0
 11
159.376129
 21
91.28714
 31
0.0
210
0.0
220
0.0
230
1.0
  0
LINE
  5
8C
100
AcDbEntity
  8
0
370
    35
390
0
 62
   150
 48
0.154
100
AcDbLine
 10
159.376129
 20
91.28714
 30
0.0
 11
159.376129
 21
97.447144
 31
0.0
210
0.0
220
0.0
230
1.0
  0
LINE
  5
8D
100
AcDbEntity
  8
0
370
    35
390
0
 62
   150
 48
0.492
100
AcDbLine
 10
159.376129
 20
97.447144
 30
0.0
 11
179.056122
 21
97.447144
 31
0.0
210
0.0
220
0.0
230
1.0
  0
LINE
  5
8E
100
AcDbEntity
  8
0
370
    35
390
0
 62
   150
 48
0.154
100
AcDbLine
 10
179.056122
 20
97.447144
 30
0.0
 11
179.056122
 21
91.28714
 31
0.0
210
0.0
220
0.0
230
1.0
  0
LINE
  5
8F
100
AcDbEntity
  8
0
370
    35
390
0
 62
   150
100
AcDbLine
 10
179.056122
 20
91.28714
 30
0.0
 11
199.376129
 21
91.28714
 31
0.0
210
0.0
220
0.0
230
1.0
  0
LINE
  5
90
100
AcDbEntity
  8
0
370
    35
390
0
 62
   150
 48
0.154
100
AcDbLine
 10
199.376129
 20
91.28714
 30
0.0
 11
199.376129
 21
97.447144
 31
0.0
210
0.0
220
0.0
230
1.0
  0
LINE
  5
91
100
AcDbEntity
  8
0
370
    35
390
0
 62
   150
 48
0.492
100
AcDbLine
 10
199.376129
 20
97.447144
 30
0.0
 11
219.056122
 21
97.447144
 31
0.0
210
0.0
220
0.0
230
1.0
  0
LINE
  5
92
100
AcDbEntity
  8
0
370
    35
390
0
 62
   150
 48
0.154
100
AcDbLine
 10
219.056122
 20
97.447144
 30
0.0
 11
219.056122
 21
91.28714
 31
0.0
210
0.0
220
0.0
230
1.0
  0
LINE
  5
93
100
AcDbEntity
  8
0
370
    35
390
0
 62
   150
100
AcDbLine
 10
219.056122
 20
91.28714
 30
0.0
 11
245.216125
 21
91.28714
 31
0.0
210
0.0
220
0.0
230
1.0
  0
LINE
  5
94
100
AcDbEntity
  8
0
370
    35
390
0
 62
   150
100
AcDbLine
 10
245.216125
 20
91.28714
 30
0.0
 11
245.216125
 21
111.447144
 31
0.0
210
0.0
220
0.0
230
1.0
  0
LINE
  5
95
100
AcDbEntity
  8
0
370
    35
390
0
 62
   150
 48
0.154
100
AcDbLine
 10
245.216125
 20
111.447144
 30
0.0
 11
239.056122
 21
111.447144
 31
0.0
210
0.0
220
0.0
230
1.0
  0
LINE
  5
96
100
AcDbEntity
  8
0
370
    35
390
0
 62
   150
 48
0.492
100
AcDbLine
 10
239.056122
 20
111.447144
 30
0.0
 11
239.056122
 21
131.127136
 31
0.0
210
0.0
220
0.0
230
1.0
  0
LINE
  5
97
100
AcDbEntity
  8
0
370
    35
390
0
 62
   150
 48
0.154
100
AcDbLine
 10
239.056122
 20
131.127136
 30
0.0
 11
245.216125
 21
131.127136
 31
0.0
210
0.0
220
0.0
230
1.0
  0
LINE
  5
98
100
AcDbEntity
  8
0
370
    35
390
0
 62
   150
100
AcDbLine
 10
245.216125
 20
131.127136
 30
0.0
 11
245.216125
 21
151.447144
 31
0.0
210
0.0
220
0.0
230
1.0
  0
LINE
  5
99
100
AcDbEntity
  8
0
370
    35
390
0
 62
   150
 48
0.154
100
AcDbLine
 10
245.216125
 20
151.447144
 30
0.0
 11
239.056122
 21
151.447144
 31
0.0
210
0.0
220
0.0
230
1.0
  0
LINE
  5
9A
100
AcDbEntity
  8
0
370
    35
390
0
 62
   150
 48
0.492
100
AcDbLine
 10
239.056122
 20
151.447144
 30
0.0
 11
239.056122
 21
171.127136
 31
0.0
210
0.0
220
0.0
230
1.0
  0
LINE
  5
9B
100
AcDbEntity
  8
0
370
    35
390
0
 62
   150
 48
0.154
100
AcDbLine
 10
239.056122
 20
171.127136
 30
0.0
 11
245.216125
 21
171.127136
 31
0.0
210
0.0
220
0.0
230
1.0
  0
LINE
  5
9C
100
AcDbEntity
  8
0
370
    35
390
0
 62
   150
100
AcDbLine
 10
245.216125
 20
171.127136
 30
0.0
 11
245.216125
 21
191.447144
 31
0.0
210
0.0
220
0.0
230
1.0
  0
LINE
  5
9D
100
AcDbEntity
  8
0
370
    35
390
0
 62
   150
 48
0.154
100
AcDbLine
 10
245.216125
 20
191.447144
 30
0.0
 11
239.056122
 21
191.447144
 31
0.0
210
0.0
220
0.0
230
1.0
  0
LINE
  5
9E
100
AcDbEntity
  8
0
370
    35
390
0
 62
   150
 48
0.492
100
AcDbLine
 10
239.056122
 20
191.447144
 30
0.0
 11
239.056122
 21
211.127151
 31
0.0
210
0.0
220
0.0
230
1.0
  0
LINE
  5
9F
100
AcDbEntity
  8
0
370
    35
390
0
 62
   150
 48
0.154
100
AcDbLine
 10
239.056122
 20
211.127151
 30
0.0
 11
245.216125
 21
211.127151
 31
0.0
210
0.0
220
0.0
230
1.0
  0
LINE
  5
A0
100
AcDbEntity
  8
0
370
    35
390
0
 62
   150
100
AcDbLine
 10
245.216125
 20
211.127151
 30
0.0
 11
245.216125
 21
231.447144
 31
0.0
210
0.0
220
0.0
230
1.0
  0
LINE
  5
A1
100
AcDbEntity
  8
0
370
    35
390
0
 62
   150
 48
0.154
100
AcDbLine
 10
245.216125
 20
231.447144
 30
0.0
 11
239.056122
 21
231.447144
 31
0.0
210
0.0
220
0.0
230
1.0
  0
LINE
  5
A2
100
AcDbEntity
  8
0
370
    35
390
0
 62
   150
 48
0.492
100
AcDbLine
 10
239.056122
 20
231.447144
 30
0.0
 11
239.056122
 21
251.127151
 31
0.0
210
0.0
220
0.0
230
1.0
  0
LINE
  5
A3
100
AcDbEntity
  8
0
370
    35
390
0
 62
   150
 48
0.154
100
AcDbLine
 10
239.056122
 20
251.127151
 30
0.0
 11
245.216125
 21
251.127151
 31
0.0
210
0.0
220
0.0
230
1.0
  0
LINE
  5
A4
100
AcDbEntity
  8
0
370
    35
390
0
 62
   150
100
AcDbLine
 10
245.216125
 20
251.127151
 30
0.0
 11
245.216125
 21
271.447144
 31
0.0
210
0.0
220
0.0
230
1.0
  0
LINE
  5
A5
100
AcDbEntity
  8
0
370
    35
390
0
 62
   150
100
AcDbLine
 10
73.536133
 20
271.447144
 30
0.0
 11
245.216125
 21
271.447144
 31
0.0
210
0.0
220
0.0
230
1.0
  0
ARC
  5
A6
100
AcDbEntity
  8
0
370
    35
390
0
 62
   150
100
AcDbCircle
 10
53.216125
 20
271.447144
 30
0.0
 40
20.32
210
0.0
220
0.0
230
1.0
100
AcDbArc
 50
0.0
 51
269.999997
  0
LINE
  5
A7
100
AcDbEntity
  8
0
370
    35
390
0
 62
   150
 48
0.154
100
AcDbLine
 10
59.376129
 20
251.127151
 30
0.0
 11
53.216125
 21
251.127151
 31
0.0
210
0.0
220
0.0
230
1.0
  0
LINE
  5
A8
100
AcDbEntity
  8
0
370
    35
390
0
 62
   150
 48
0.492
100
AcDbLine
 10
59.376129
 20
231.447144
 30
0.0
 11
59.376129
 21
251.127151
 31
0.0
210
0.0
220
0.0
230
1.0
  0
LINE
  5
A9
100
AcDbEntity
  8
0
370
    35
390
0
 62
   150
 48
0.154
100
AcDbLine
 10
53.216125
 20
231.447144
 30
0.0
 11
59.376129
 21
231.447144
 31
0.0
210
0.0
220
0.0
230
1.0
  0
LINE
  5
AA
100
AcDbEntity
  8
0
370
    35
390
0
 62
   150
100
AcDbLine
 10
53.216125
 20
211.127151
 30
0.0
 11
53.216125
 21
231.447144
 31
0.0
210
0.0
220
0.0
230
1.0
  0
LINE
  5
AB
100
AcDbEntity
  8
0
370
    35
390
0
 62
   150
 48
0.154
100
AcDbLine
 10
59.376129
 20
211.127151
 30
0.0
 11
53.216125
 21
211.127151
 31
0.0
210
0.0
220
0.0
230
1.0
  0
LINE
  5
AC
100
AcDbEntity
  8
0
370
    35
390
0
 62
   150
 48
0.492
100
AcDbLine
 10
59.376129
 20
191.447144
 30
0.0
 11
59.376129
 21
211.127151
 31
0.0
210
0.0
220
0.0
230
1.0
  0
LINE
  5
AD
100
AcDbEntity
  8
0
370
    35
390
0
 62
   150
 48
0.154
100
AcDbLine
 10
53.216125
 20
191.447144
 30
0.0
 11
59.376129
 21
191.447144
 31
0.0
210
0.0
220
0.0
230
1.0
  0
LINE
  5
AE
100
AcDbEntity
  8
0
370
    35
390
0
 62
   150
100
AcDbLine
 10
53.216125
 20
171.127136
 30
0.0
 11
53.216125
 21
191.447144
 31
0.0
210
0.0
220
0.0
230
1.0
  0
LINE
  5
AF
100
AcDbEntity
  8
0
370
    35
390
0
 62
   150
 48
0.154
100
AcDbLine
 10
59.376129
 20
171.127136
 30
0.0
 11
53.216125
 21
171.127136
 31
0.0
210
0.0
220
0.0
230
1.0
  0
LINE
  5
B0
100
AcDbEntity
  8
0
370
    35
390
0
 62
   150
 48
0.492
100
AcDbLine
 10
59.376129
 20
151.447144
 30
0.0
 11
59.376129
 21
171.127136
 31
0.0
210
0.0
220
0.0
230
1.0
  0
LINE
  5
B1
100
AcDbEntity
  8
0
370
    35
390
0
 62
   150
 48
0.154
100
AcDbLine
 10
53.216125
 20
151.447144
 30
0.0
 11
59.376129
 21
151.447144
 31
0.0
210
0.0
220
0.0
230
1.0
  0
LINE
  5
B2
100
AcDbEntity
  8
0
370
    35
390
0
 62
   150
100
AcDbLine
 10
53.216125
 20
131.127136
 30
0.0
 11
53.216125
 21
151.447144
 31
0.0
210
0.0
220
0.0
230
1.0
  0
LINE
  5
B3
100
AcDbEntity
  8
0
370
    35
390
0
 62
   150
 48
0.154
100
AcDbLine
 10
59.376129
 20
131.127136
 30
0.0
 11
53.216125
 21
131.127136
 31
0.0
210
0.0
220
0.0
230
1.0
  0
LINE
  5
B4
100
AcDbEntity
  8
0
370
    35
390
0
 62
   150
 48
0.492
100
AcDbLine
 10
59.376129
 20
111.447144
 30
0.0
 11
59.376129
 21
131.127136
 31
0.0
210
0.0
220
0.0
230
1.0
  0
LINE
  5
B5
100
AcDbEntity
  8
0
370
    35
390
0
 62
   150
 48
0.154
100
AcDbLine
 10
53.216125
 20
111.447144
 30
0.0
 11
59.376129
 21
111.447144
 31
0.0
210
0.0
220
0.0
230
1.0
  0
LINE
  5
B6
100
AcDbEntity
  8
0
370
    35
390
0
 62
   150
100
AcDbLine
 10
53.216125
 20
91.28714
 30
0.0
 11
53.216125
 21
111.447144
 31
0.0
210
0.0
220
0.0
230
1.0
  0
CIRCLE
  5
B7
100
AcDbEntity
  8
0
370
    35
390
0
 62
     5
100
AcDbCircle
 10
53.216125
 20
271.447144
 30
0.0
 40
12.0
210
0.0
220
0.0
230
1.0
  0
LINE
  5
B8
100
AcDbEntity
  8
0
370
    35
390
0
 62
   150
100
AcDbLine
 10
303.216125
 20
91.28714
 30
0.0
 11
329.376129
 21
91.28714
 31
0.0
210
0.0
220
0.0
230
1.0
  0
LINE
  5
B9
100
AcDbEntity
  8
0
370
    35
390
0
 62
   150
 48
0.154
100
AcDbLine
 10
329.376129
 20
91.28714
 30
0.0
 11
329.376129
 21
97.447144
 31
0.0
210
0.0
220
0.0
230
1.0
  0
LINE
  5
BA
100
AcDbEntity
  8
0
370
    35
390
0
 62
   150
 48
0.492
100
AcDbLine
 10
329.376129
 20
97.447144
 30
0.0
 11
349.056122
 21
97.447144
 31
0.0
210
0.0
220
0.0
230
1.0
  0
LINE
  5
BB
100
AcDbEntity
  8
0
370
    35
390
0
 62
   150
 48
0.154
100
AcDbLine
 10
349.056122
 20
97.447144
 30
0.0
 11
349.056122
 21
91.28714
 31
0.0
210
0.0
220
0.0
230
1.0
  0
LINE
  5
BC
100
AcDbEntity
  8
0
370
    35
390
0
 62
   150
100
AcDbLine
 10
349.056122
 20
91.28714
 30
0.0
 11
369.376129
 21
91.28714
 31
0.0
210
0.0
220
0.0
230
1.0
  0
LINE
  5
BD
100
AcDbEntity
  8
0
370
    35
390
0
 62
   150
 48
0.154
100
AcDbLine
 10
369.376129
 20
91.28714
 30
0.0
 11
369.376129
 21
97.447144
 31
0.0
210
0.0
220
0.0
230
1.0
  0
LINE
  5
BE
100
AcDbEntity
  8
0
370
    35
390
0
 62
   150
 48
0.492
100
AcDbLine
 10
369.376129
 20
97.447144
 30
0.0
 11
389.056122
 21
97.447144
 31
0.0
210
0.0
220
0.0
230
1.0
  0
LINE
  5
BF
100
AcDbEntity
  8
0
370
    35
390
0
 62
   150
 48
0.154
100
AcDbLine
 10
389.056122
 20
97.447144
 30
0.0
 11
389.056122
 21
91.28714
 31
0.0
210
0.0
220
0.0
230
1.0
  0
LINE
  5
C0
100
AcDbEntity
  8
0
370
    35
390
0
 62
   150
100
AcDbLine
 10
389.056122
 20
91.28714
 30
0.0
 11
409.376129
 21
91.28714
 31
0.0
210
0.0
220
0.0
230
1.0
  0
LINE
  5
C1
100
AcDbEntity
  8
0
370
    35
390
0
 62
   150
 48
0.154
100
AcDbLine
 10
409.376129
 20
91.28714
 30
0.0
 11
409.376129
 21
97.447144
 31
0.0
210
0.0
220
0.0
230
1.0
  0
LINE
  5
C2
100
AcDbEntity
  8
0
370
    35
390
0
 62
   150
 48
0.492
100
AcDbLine
 10
409.376129
 20
97.447144
 30
0.0
 11
429.056122
 21
97.447144
 31
0.0
210
0.0
220
0.0
230
1.0
  0
LINE
  5
C3
100
AcDbEntity
  8
0
370
    35
390
0
 62
   150
 48
0.154
100
AcDbLine
 10
429.056122
 20
97.447144
 30
0.0
 11
429.056122
 21
91.28714
 31
0.0
210
0.0
220
0.0
230
1.0
  0
LINE
  5
C4
100
AcDbEntity
  8
0
370
    35
390
0
 62
   150
100
AcDbLine
 10
429.056122
 20
91.28714
 30
0.0
 11
449.376129
 21
91.28714
 31
0.0
210
0.0
220
0.0
230
1.0
  0
LINE
  5
C5
100
AcDbEntity
  8
0
370
    35
390
0
 62
   150
 48
0.154
100
AcDbLine
 10
449.376129
 20
91.28714
 30
0.0
 11
449.376129
 21
97.447144
 31
0.0
210
0.0
220
0.0
230
1.0
  0
LINE
  5
C6
100
AcDbEntity
  8
0
370
    35
390
0
 62
   150
 48
0.492
100
AcDbLine
 10
449.376129
 20
97.447144
 30
0.0
 11
469.056122
 21
97.447144
 31
0.0
210
0.0
220
0.0
230
1.0
  0
LINE
  5
C7
100
AcDbEntity
  8
0
370
    35
390
0
 62
   150
 48
0.154
100
AcDbLine
 10
469.056122
 20
97.447144
 30
0.0
 11
469.056122
 21
91.28714
 31
0.0
210
0.0
220
0.0
230
1.0
  0
LINE
  5
C8
100
AcDbEntity
  8
0
370
    35
390
0
 62
   150
100
AcDbLine
 10
469.056122
 20
91.28714
 30
0.0
 11
495.216125
 21
91.28714
 31
0.0
210
0.0
220
0.0
230
1.0
  0
LINE
  5
C9
100
AcDbEntity
  8
0
370
    35
390
0
 62
   150
100
AcDbLine
 10
495.216125
 20
91.28714
 30
0.0
 11
495.216125
 21
111.447144
 31
0.0
210
0.0
220
0.0
230
1.0
  0
LINE
  5
CA
100
AcDbEntity
  8
0
370
    35
390
0
 62
   150
 48
0.154
100
AcDbLine
 10
495.216125
 20
111.447144
 30
0.0
 11
489.056122
 21
111.447144
 31
0.0
210
0.0
220
0.0
230
1.0
  0
LINE
  5
CB
100
AcDbEntity
  8
0
370
    35
390
0
 62
   150
 48
0.492
100
AcDbLine
 10
489.056122
 20
111.447144
 30
0.0
 11
489.056122
 21
131.127136
 31
0.0
210
0.0
220
0.0
230
1.0
  0
LINE
  5
CC
100
AcDbEntity
  8
0
370
    35
390
0
 62
   150
 48
0.154
100
AcDbLine
 10
489.056122
 20
131.127136
 30
0.0
 11
495.216125
 21
131.127136
 31
0.0
210
0.0
220
0.0
230
1.0
  0
LINE
  5
CD
100
AcDbEntity
  8
0
370
    35
390
0
 62
   150
100
AcDbLine
 10
495.216125
 20
131.127136
 30
0.0
 11
495.216125
 21
151.447144
 31
0.0
210
0.0
220
0.0
230
1.0
  0
LINE
  5
CE
100
AcDbEntity
  8
0
370
    35
390
0
 62
   150
 48
0.154
100
AcDbLine
 10
495.216125
 20
151.447144
 30
0.0
 11
489.056122
 21
151.447144
 31
0.0
210
0.0
220
0.0
230
1.0
  0
LINE
  5
CF
100
AcDbEntity
  8
0
370
    35
390
0
 62
   150
 48
0.492
100
AcDbLine
 10
489.056122
 20
151.447144
 30
0.0
 11
489.056122
 21
171.127136
 31
0.0
210
0.0
220
0.0
230
1.0
  0
LINE
  5
D0
100
AcDbEntity
  8
0
370
    35
390
0
 62
   150
 48
0.154
100
AcDbLine
 10
489.056122
 20
171.127136
 30
0.0
 11
495.216125
 21
171.127136
 31
0.0
210
0.0
220
0.0
230
1.0
  0
LINE
  5
D1
100
AcDbEntity
  8
0
370
    35
390
0
 62
   150
100
AcDbLine
 10
495.216125
 20
171.127136
 30
0.0
 11
495.216125
 21
191.447144
 31
0.0
210
0.0
220
0.0
230
1.0
  0
LINE
  5
D2
100
AcDbEntity
  8
0
370
    35
390
0
 62
   150
 48
0.154
100
AcDbLine
 10
495.216125
 20
191.447144
 30
0.0
 11
489.056122
 21
191.447144
 31
0.0
210
0.0
220
0.0
230
1.0
  0
LINE
  5
D3
100
AcDbEntity
  8
0
370
    35
390
0
 62
   150
 48
0.492
100
AcDbLine
 10
489.056122
 20
191.447144
 30
0.0
 11
489.056122
 21
211.127151
 31
0.0
210
0.0
220
0.0
230
1.0
  0
LINE
  5
D4
100
AcDbEntity
  8
0
370
    35
390
0
 62
   150
 48
0.154
100
AcDbLine
 10
489.056122
 20
211.127151
 30
0.0
 11
495.216125
 21
211.127151
 31
0.0
210
0.0
220
0.0
230
1.0
  0
LINE
  5
D5
100
AcDbEntity
  8
0
370
    35
390
0
 62
   150
100
AcDbLine
 10
495.216125
 20
211.127151
 30
0.0
 11
495.216125
 21
231.447144
 31
0.0
210
0.0
220
0.0
230
1.0
  0
LINE
  5
D6
100
AcDbEntity
  8
0
370
    35
390
0
 62
   150
 48
0.154
100
AcDbLine
 10
495.216125
 20
231.447144
 30
0.0
 11
489.056122
 21
231.447144
 31
0.0
210
0.0
220
0.0
230
1.0
  0
LINE
  5
D7
100
AcDbEntity
  8
0
370
    35
390
0
 62
   150
 48
0.492
100
AcDbLine
 10
489.056122
 20
231.447144
 30
0.0
 11
489.056122
 21
251.127151
 31
0.0
210
0.0
220
0.0
230
1.0
  0
LINE
  5
D8
100
AcDbEntity
  8
0
370
    35
390
0
 62
   150
 48
0.154
100
AcDbLine
 10
489.056122
 20
251.127151
 30
0.0
 11
495.216125
 21
251.127151
 31
0.0
210
0.0
220
0.0
230
1.0
  0
LINE
  5
D9
100
AcDbEntity
  8
0
370
    35
390
0
 62
   150
100
AcDbLine
 10
495.216125
 20
251.127151
 30
0.0
 11
495.216125
 21
271.447144
 31
0.0
210
0.0
220
0.0
230
1.0
  0
LINE
  5
DA
100
AcDbEntity
  8
0
370
    35
390
0
 62
   150
100
AcDbLine
 10
323.536133
 20
271.447144
 30
0.0
 11
495.216125
 21
271.447144
 31
0.0
210
0.0
220
0.0
230
1.0
  0
ARC
  5
DB
100
AcDbEntity
  8
0
370
    35
390
0
 62
   150
100
AcDbCircle
 10
303.216125
 20
271.447144
 30
0.0
 40
20.32
210
0.0
220
0.0
230
1.0
100
AcDbArc
 50
0.0
 51
269.999997
  0
LINE
  5
DC
100
AcDbEntity
  8
0
370
    35
390
0
 62
   150
 48
0.154
100
AcDbLine
 10
309.376129
 20
251.127151
 30
0.0
 11
303.216125
 21
251.127151
 31
0.0
210
0.0
220
0.0
230
1.0
  0
LINE
  5
DD
100
AcDbEntity
  8
0
370
    35
390
0
 62
   150
 48
0.492
100
AcDbLine
 10
309.376129
 20
231.447144
 30
0.0
 11
309.376129
 21
251.127151
 31
0.0
210
0.0
220
0.0
230
1.0
  0
LINE
  5
DE
100
AcDbEntity
  8
0
370
    35
390
0
 62
   150
 48
0.154
100
AcDbLine
 10
303.216125
 20
231.447144
 30
0.0
 11
309.376129
 21
231.447144
 31
0.0
210
0.0
220
0.0
230
1.0
  0
LINE
  5
DF
100
AcDbEntity
  8
0
370
    35
390
0
 62
   150
100
AcDbLine
 10
303.216125
 20
211.127151
 30
0.0
 11
303.216125
 21
231.447144
 31
0.0
210
0.0
220
0.0
230
1.0
  0
LINE
  5
E0
100
AcDbEntity
  8
0
370
    35
390
0
 62
   150
 48
0.154
100
AcDbLine
 10
309.376129
 20
211.127151
 30
0.0
 11
303.216125
 21
211.127151
 31
0.0
210
0.0
220
0.0
230
1.0
  0
LINE
  5
E1
100
AcDbEntity
  8
0
370
    35
390
0
 62
   150
 48
0.492
100
AcDbLine
 10
309.376129
 20
191.447144
 30
0.0
 11
309.376129
 21
211.127151
 31
0.0
210
0.0
220
0.0
230
1.0
  0
LINE
  5
E2
100
AcDbEntity
  8
0
370
    35
390
0
 62
   150
 48
0.154
100
AcDbLine
 10
303.216125
 20
191.447144
 30
0.0
 11
309.376129
 21
191.447144
 31
0.0
210
0.0
220
0.0
230
1.0
  0
LINE
  5
E3
100
AcDbEntity
  8
0
370
    35
390
0
 62
   150
100
AcDbLine
 10
303.216125
 20
171.127136
 30
0.0
 11
303.216125
 21
191.447144
 31
0.0
210
0.0
220
0.0
230
1.0
  0
LINE
  5
E4
100
AcDbEntity
  8
0
370
    35
390
0
 62
   150
 48
0.154
100
AcDbLine
 10
309.376129
 20
171.127136
 30
0.0
 11
303.216125
 21
171.127136
 31
0.0
210
0.0
220
0.0
230
1.0
  0
LINE
  5
E5
100
AcDbEntity
  8
0
370
    35
390
0
 62
   150
 48
0.492
100
AcDbLine
 10
309.376129
 20
151.447144
 30
0.0
 11
309.376129
 21
171.127136
 31
0.0
210
0.0
220
0.0
230
1.0
  0
LINE
  5
E6
100
AcDbEntity
  8
0
370
    35
390
0
 62
   150
 48
0.154
100
AcDbLine
 10
303.216125
 20
151.447144
 30
0.0
 11
309.376129
 21
151.447144
 31
0.0
210
0.0
220
0.0
230
1.0
  0
LINE
  5
E7
100
AcDbEntity
  8
0
370
    35
390
0
 62
   150
100
AcDbLine
 10
303.216125
 20
131.127136
 30
0.0
 11
303.216125
 21
151.447144
 31
0.0
210
0.0
220
0.0
230
1.0
  0
LINE
  5
E8
100
AcDbEntity
  8
0
370
    35
390
0
 62
   150
 48
0.154
100
AcDbLine
 10
309.376129
 20
131.127136
 30
0.0
 11
303.216125
 21
131.127136
 31
0.0
210
0.0
220
0.0
230
1.0
  0
LINE
  5
E9
100
AcDbEntity
  8
0
370
    35
390
0
 62
   150
 48
0.492
100
AcDbLine
 10
309.376129
 20
111.447144
 30
0.0
 11
309.376129
 21
131.127136
 31
0.0
210
0.0
220
0.0
230
1.0
  0
LINE
  5
EA
100
AcDbEntity
  8
0
370
    35
390
0
 62
   150
 48
0.154
100
AcDbLine
 10
303.216125
 20
111.447144
 30
0.0
 11
309.376129
 21
111.447144
 31
0.0
210
0.0
220
0.0
230
1.0
  0
LINE
  5
EB
100
AcDbEntity
  8
0
370
    35
390
0
 62
   150
100
AcDbLine
 10
303.216125
 20
91.28714
 30
0.0
 11
303.216125
 21
111.447144
 31
0.0
210
0.0
220
0.0
230
1.0
  0
CIRCLE
  5
EC
100
AcDbEntity
  8
0
370
    35
390
0
 62
     5
100
AcDbCircle
 10
303.216125
 20
271.447144
 30
0.0
 40
12.0
210
0.0
220
0.0
230
1.0
  0
CIRCLE
  5
ED
100
AcDbEntity
  8
0
370
    35
390
0
 62
   150
100
AcDbCircle
 10
170.354797
 20
300.200562
 30
0.0
 40
12.16
210
0.0
220
0.0
230
1.0
  0
LINE
  5
EE
100
AcDbEntity
  8
0
370
    35
390
0
 62
     5
 48
0.153999
100
AcDbLine
 10
170.354797
 20
306.360535
 30
0.0
 11
170.354797
 21
300.200562
 31
0.0
210
0.0
220
0.0
230
1.0
  0
LINE
  5
EF
100
AcDbEntity
  8
0
370
    35
390
0
 62
     5
 48
0.154
100
AcDbLine
 10
176.514786
 20
306.360535
 30
0.0
 11
170.354797
 21
306.360535
 31
0.0
210
0.0
220
0.0
230
1.0
  0
LINE
  5
F0
100
AcDbEntity
  8
0
370
    35
390
0
 62
     5
 48
0.153999
100
AcDbLine
 10
176.514786
 20
300.200562
 30
0.0
 11
176.514786
 21
306.360535
 31
0.0
210
0.0
220
0.0
230
1.0
  0
LINE
  5
F1
100
AcDbEntity
  8
0
370
    35
390
0
 62
     5
 48
0.154
100
AcDbLine
 10
170.354797
 20
300.200562
 30
0.0
 11
176.514786
 21
300.200562
 31
0.0
210
0.0
220
0.0
230
1.0
  0
LINE
  5
F2
100
AcDbEntity
  8
0
370
    35
390
0
 62
   150
100
AcDbLine
 10
340.092834
 20
339.106812
 30
0.0
 11
360.252869
 21
339.106812
 31
0.0
210
0.0
220
0.0
230
1.0
  0
LINE
  5
F3
100
AcDbEntity
  8
0
370
    35
390
0
 62
   150
 48
0.154
100
AcDbLine
 10
360.252869
 20
339.106812
 30
0.0
 11
360.252869
 21
345.266815
 31
0.0
210
0.0
220
0.0
230
1.0
  0
LINE
  5
F4
100
AcDbEntity
  8
0
370
    35
390
0
 62
   150
 48
0.492
100
AcDbLine
 10
360.252869
 20
345.266815
 30
0.0
 11
379.932861
 21
345.266815
 31
0.0
210
0.0
220
0.0
230
1.0
  0
LINE
  5
F5
100
AcDbEntity
  8
0
370
    35
390
0
 62
   150
 48
0.154
100
AcDbLine
 10
379.932861
 20
345.266815
 30
0.0
 11
379.932861
 21
339.106812
 31
0.0
210
0.0
220
0.0
230
1.0
  0
LINE
  5
F6
100
AcDbEntity
  8
0
370
    35
390
0
 62
   150
100
AcDbLine
 10
379.932861
 20
339.106812
 30
0.0
 11
400.252869
 21
339.106812
 31
0.0
210
0.0
220
0.0
230
1.0
  0
LINE
  5
F7
100
AcDbEntity
  8
0
370
    35
390
0
 62
   150
 48
0.154
100
AcDbLine
 10
400.252869
 20
339.106812
 30
0.0
 11
400.252869
 21
345.266815
 31
0.0
210
0.0
220
0.0
230
1.0
  0
LINE
  5
F8
100
AcDbEntity
  8
0
370
    35
390
0
 62
   150
 48
0.492
100
AcDbLine
 10
400.252869
 20
345.266815
 30
0.0
 11
419.932861
 21
345.266815
 31
0.0
210
0.0
220
0.0
230
1.0
  0
LINE
  5
F9
100
AcDbEntity
  8
0
370
    35
390
0
 62
   150
 48
0.154
100
AcDbLine
 10
419.932861
 20
345.266815
 30
0.0
 11
419.932861
 21
339.106812
 31
0.0
210
0.0
220
0.0
230
1.0
  0
LINE
  5
FA
100
AcDbEntity
  8
0
370
    35
390
0
 62
   150
100
AcDbLine
 10
419.932861
 20
339.106812
 30
0.0
 11
440.252869
 21
339.106812
 31
0.0
210
0.0
220
0.0
230
1.0
  0
LINE
  5
FB
100
AcDbEntity
  8
0
370
    35
390
0
 62
   150
 48
0.154
100
AcDbLine
 10
440.252869
 20
339.106812
 30
0.0
 11
440.252869
 21
345.266815
 31
0.0
210
0.0
220
0.0
230
1.0
  0
LINE
  5
FC
100
AcDbEntity
  8
0
370
    35
390
0
 62
   150
 48
0.492
100
AcDbLine
 10
440.252869
 20
345.266815
 30
0.0
 11
459.932861
 21
345.266815
 31
0.0
210
0.0
220
0.0
230
1.0
  0
LINE
  5
FD
100
AcDbEntity
  8
0
370
    35
390
0
 62
   150
 48
0.154
100
AcDbLine
 10
459.932861
 20
345.266815
 30
0.0
 11
459.932861
 21
339.106812
 31
0.0
210
0.0
220
0.0
230
1.0
  0
LINE
  5
FE
100
AcDbEntity
  8
0
370
    35
390
0
 62
   150
100
AcDbLine
 10
459.932861
 20
339.106812
 30
0.0
 11
480.252838
 21
339.106812
 31
0.0
210
0.0
220
0.0
230
1.0
  0
LINE
  5
FF
100
AcDbEntity
  8
0
370
    35
390
0
 62
   150
 48
0.154
100
AcDbLine
 10
480.252838
 20
339.106812
 30
0.0
 11
480.252838
 21
345.266815
 31
0.0
210
0.0
220
0.0
230
1.0
  0
LINE
  5
100
100
AcDbEntity
  8
0
370
    35
390
0
 62
   150
 48
0.492001
100
AcDbLine
 10
480.252838
 20
345.266815
 30
0.0
 11
499.932861
 21
345.266815
 31
0.0
210
0.0
220
0.0
230
1.0
  0
LINE
  5
101
100
AcDbEntity
  8
0
370
    35
390
0
 62
   150
 48
0.154
100
AcDbLine
 10
499.932861
 20
345.266815
 30
0.0
 11
499.932861
 21
339.106812
 31
0.0
210
0.0
220
0.0
230
1.0
  0
LINE
  5
102
100
AcDbEntity
  8
0
370
    35
390
0
 62
   150
100
AcDbLine
 10
499.932861
 20
339.106812
 30
0.0
 11
520.252808
 21
339.106812
 31
0.0
210
0.0
220
0.0
230
1.0
  0
LINE
  5
103
100
AcDbEntity
  8
0
370
    35
390
0
 62
   150
100
AcDbLine
 10
520.252808
 20
339.106812
 30
0.0
 11
520.252808
 21
359.266815
 31
0.0
210
0.0
220
0.0
230
1.0
  0
LINE
  5
104
100
AcDbEntity
  8
0
370
    35
390
0
 62
   150
 48
0.154001
100
AcDbLine
 10
520.252808
 20
359.266815
 30
0.0
 11
526.412842
 21
359.266815
 31
0.0
210
0.0
220
0.0
230
1.0
  0
LINE
  5
105
100
AcDbEntity
  8
0
370
    35
390
0
 62
   150
100
AcDbLine
 10
526.412842
 20
359.266815
 30
0.0
 11
526.412842
 21
379.586823
 31
0.0
210
0.0
220
0.0
230
1.0
  0
LINE
  5
106
100
AcDbEntity
  8
0
370
    35
390
0
 62
   150
 48
0.154001
100
AcDbLine
 10
526.412842
 20
379.586823
 30
0.0
 11
520.252808
 21
379.586823
 31
0.0
210
0.0
220
0.0
230
1.0
  0
LINE
  5
107
100
AcDbEntity
  8
0
370
    35
390
0
 62
   150
 48
0.492
100
AcDbLine
 10
520.252808
 20
379.586823
 30
0.0
 11
520.252808
 21
399.266815
 31
0.0
210
0.0
220
0.0
230
1.0
  0
LINE
  5
108
100
AcDbEntity
  8
0
370
    35
390
0
 62
   150
 48
0.154001
100
AcDbLine
 10
520.252808
 20
399.266815
 30
0.0
 11
526.412842
 21
399.266815
 31
0.0
210
0.0
220
0.0
230
1.0
  0
LINE
  5
109
100
AcDbEntity
  8
0
370
    35
390
0
 62
   150
100
AcDbLine
 10
526.412842
 20
399.266815
 30
0.0
 11
526.412842
 21
419.586823
 31
0.0
210
0.0
220
0.0
230
1.0
  0
LINE
  5
10A
100
AcDbEntity
  8
0
370
    35
390
0
 62
   150
 48
0.154001
100
AcDbLine
 10
526.412842
 20
419.586823
 30
0.0
 11
520.252808
 21
419.586823
 31
0.0
210
0.0
220
0.0
230
1.0
  0
LINE
  5
10B
100
AcDbEntity
  8
0
370
    35
390
0
 62
   150
 48
0.492
100
AcDbLine
 10
520.252808
 20
419.586823
 30
0.0
 11
520.252808
 21
439.266815
 31
0.0
210
0.0
220
0.0
230
1.0
  0
LINE
  5
10C
100
AcDbEntity
  8
0
370
    35
390
0
 62
   150
 48
0.154001
100
AcDbLine
 10
520.252808
 20
439.266815
 30
0.0
 11
526.412842
 21
439.266815
 31
0.0
210
0.0
220
0.0
230
1.0
  0
LINE
  5
10D
100
AcDbEntity
  8
0
370
    35
390
0
 62
   150
100
AcDbLine
 10
526.412842
 20
439.266815
 30
0.0
 11
526.412842
 21
459.586823
 31
0.0
210
0.0
220
0.0
230
1.0
  0
LINE
  5
10E
100
AcDbEntity
  8
0
370
    35
390
0
 62
   150
 48
0.154001
100
AcDbLine
 10
526.412842
 20
459.586823
 30
0.0
 11
520.252808
 21
459.586823
 31
0.0
210
0.0
220
0.0
230
1.0
  0
LINE
  5
10F
100
AcDbEntity
  8
0
370
    35
390
0
 62
   150
 48
0.492
100
AcDbLine
 10
520.252808
 20
459.586823
 30
0.0
 11
520.252808
 21
479.266815
 31
0.0
210
0.0
220
0.0
230
1.0
  0
LINE
  5
110
100
AcDbEntity
  8
0
370
    35
390
0
 62
   150
 48
0.154001
100
AcDbLine
 10
520.252808
 20
479.266815
 30
0.0
 11
526.412842
 21
479.266815
 31
0.0
210
0.0
220
0.0
230
1.0
  0
LINE
  5
111
100
AcDbEntity
  8
0
370
    35
390
0
 62
   150
100
AcDbLine
 10
526.412842
 20
479.266815
 30
0.0
 11
526.412842
 21
499.586823
 31
0.0
210
0.0
220
0.0
230
1.0
  0
LINE
  5
112
100
AcDbEntity
  8
0
370
    35
390
0
 62
   150
 48
0.154001
100
AcDbLine
 10
526.412842
 20
499.586823
 30
0.0
 11
520.252808
 21
499.586823
 31
0.0
210
0.0
220
0.0
230
1.0
  0
LINE
  5
113
100
AcDbEntity
  8
0
370
    35
390
0
 62
   150
100
AcDbLine
 10
520.252808
 20
499.586823
 30
0.0
 11
520.252808
 21
519.746826
 31
0.0
210
0.0
220
0.0
230
1.0
  0
LINE
  5
114
100
AcDbEntity
  8
0
370
    35
390
0
 62
   150
100
AcDbLine
 10
520.252808
 20
519.746826
 30
0.0
 11
340.092834
 21
519.746826
 31
0.0
210
0.0
220
0.0
230
1.0
  0
LINE
  5
115
100
AcDbEntity
  8
0
370
    35
390
0
 62
   150
100
AcDbLine
 10
340.092834
 20
499.586823
 30
0.0
 11
340.092834
 21
519.746826
 31
0.0
210
0.0
220
0.0
230
1.0
  0
LINE
  5
116
100
AcDbEntity
  8
0
370
    35
390
0
 62
   150
 48
0.153999
100
AcDbLine
 10
333.932861
 20
499.586823
 30
0.0
 11
340.092834
 21
499.586823
 31
0.0
210
0.0
220
0.0
230
1.0
  0
LINE
  5
117
100
AcDbEntity
  8
0
370
    35
390
0
 62
   150
100
AcDbLine
 10
333.932861
 20
479.266815
 30
0.0
 11
333.932861
 21
499.586823
 31
0.0
210
0.0
220
0.0
230
1.0
  0
LINE
  5
118
100
AcDbEntity
  8
0
370
    35
390
0
 62
   150
 48
0.153999
100
AcDbLine
 10
340.092834
 20
479.266815
 30
0.0
 11
333.932861
 21
479.266815
 31
0.0
210
0.0
220
0.0
230
1.0
  0
LINE
  5
119
100
AcDbEntity
  8
0
370
    35
390
0
 62
   150
 48
0.492
100
AcDbLine
 10
340.092834
 20
459.586823
 30
0.0
 11
340.092834
 21
479.266815
 31
0.0
210
0.0
220
0.0
230
1.0
  0
LINE
  5
11A
100
AcDbEntity
  8
0
370
    35
390
0
 62
   150
 48
0.153999
100
AcDbLine
 10
333.932861
 20
459.586823
 30
0.0
 11
340.092834
 21
459.586823
 31
0.0
210
0.0
220
0.0
230
1.0
  0
LINE
  5
11B
100
AcDbEntity
  8
0
370
    35
390
0
 62
   150
100
AcDbLine
 10
333.932861
 20
439.266815
 30
0.0
 11
333.932861
 21
459.586823
 31
0.0
210
0.0
220
0.0
230
1.0
  0
LINE
  5
11C
100
AcDbEntity
  8
0
370
    35
390
0
 62
   150
 48
0.153999
100
AcDbLine
 10
340.092834
 20
439.266815
 30
0.0
 11
333.932861
 21
439.266815
 31
0.0
210
0.0
220
0.0
230
1.0
  0
LINE
  5
11D
100
AcDbEntity
  8
0
370
    35
390
0
 62
   150
 48
0.492
100
AcDbLine
 10
340.092834
 20
419.586823
 30
0.0
 11
340.092834
 21
439.266815
 31
0.0
210
0.0
220
0.0
230
1.0
  0
LINE
  5
11E
100
AcDbEntity
  8
0
370
    35
390
0
 62
   150
 48
0.153999
100
AcDbLine
 10
333.932861
 20
419.586823
 30
0.0
 11
340.092834
 21
419.586823
 31
0.0
210
0.0
220
0.0
230
1.0
  0
LINE
  5
11F
100
AcDbEntity
  8
0
370
    35
390
0
 62
   150
100
AcDbLine
 10
333.932861
 20
399.266815
 30
0.0
 11
333.932861
 21
419.586823
 31
0.0
210
0.0
220
0.0
230
1.0
  0
LINE
  5
120
100
AcDbEntity
  8
0
370
    35
390
0
 62
   150
 48
0.153999
100
AcDbLine
 10
340.092834
 20
399.266815
 30
0.0
 11
333.932861
 21
399.266815
 31
0.0
210
0.0
220
0.0
230
1.0
  0
LINE
  5
121
100
AcDbEntity
  8
0
370
    35
390
0
 62
   150
 48
0.492
100
AcDbLine
 10
340.092834
 20
379.586823
 30
0.0
 11
340.092834
 21
399.266815
 31
0.0
210
0.0
220
0.0
230
1.0
  0
LINE
  5
122
100
AcDbEntity
  8
0
370
    35
390
0
 62
   150
 48
0.153999
100
AcDbLine
 10
333.932861
 20
379.586823
 30
0.0
 11
340.092834
 21
379.586823
 31
0.0
210
0.0
220
0.0
230
1.0
  0
LINE
  5
123
100
AcDbEntity
  8
0
370
    35
390
0
 62
   150
100
AcDbLine
 10
333.932861
 20
359.266815
 30
0.0
 11
333.932861
 21
379.586823
 31
0.0
210
0.0
220
0.0
230
1.0
  0
LINE
  5
124
100
AcDbEntity
  8
0
370
    35
390
0
 62
   150
 48
0.153999
100
AcDbLine
 10
340.092834
 20
359.266815
 30
0.0
 11
333.932861
 21
359.266815
 31
0.0
210
0.0
220
0.0
230
1.0
  0
LINE
  5
125
100
AcDbEntity
  8
0
370
    35
390
0
 62
   150
100
AcDbLine
 10
340.092834
 20
339.106812
 30
0.0
 11
340.092834
 21
359.266815
 31
0.0
210
0.0
220
0.0
230
1.0
  0
LINE
  5
126
100
AcDbEntity
  8
0
370
    35
390
0
 62
   150
100
AcDbLine
 10
590.092834
 20
339.106812
 30
0.0
 11
610.252808
 21
339.106812
 31
0.0
210
0.0
220
0.0
230
1.0
  0
LINE
  5
127
100
AcDbEntity
  8
0
370
    35
390
0
 62
   150
 48
0.154
100
AcDbLine
 10
610.252808
 20
339.106812
 30
0.0
 11
610.252808
 21
345.266815
 31
0.0
210
0.0
220
0.0
230
1.0
  0
LINE
  5
128
100
AcDbEntity
  8
0
370
    35
390
0
 62
   150
 48
0.492001
100
AcDbLine
 10
610.252808
 20
345.266815
 30
0.0
 11
629.932861
 21
345.266815
 31
0.0
210
0.0
220
0.0
230
1.0
  0
LINE
  5
129
100
AcDbEntity
  8
0
370
    35
390
0
 62
   150
 48
0.154
100
AcDbLine
 10
629.932861
 20
345.266815
 30
0.0
 11
629.932861
 21
339.106812
 31
0.0
210
0.0
220
0.0
230
1.0
  0
LINE
  5
12A
100
AcDbEntity
  8
0
370
    35
390
0
 62
   150
100
AcDbLine
 10
629.932861
 20
339.106812
 30
0.0
 11
650.252808
 21
339.106812
 31
0.0
210
0.0
220
0.0
230
1.0
  0
LINE
  5
12B
100
AcDbEntity
  8
0
370
    35
390
0
 62
   150
 48
0.154
100
AcDbLine
 10
650.252808
 20
339.106812
 30
0.0
 11
650.252808
 21
345.266815
 31
0.0
210
0.0
220
0.0
230
1.0
  0
LINE
  5
12C
100
AcDbEntity
  8
0
370
    35
390
0
 62
   150
 48
0.492001
100
AcDbLine
 10
650.252808
 20
345.266815
 30
0.0
 11
669.932861
 21
345.266815
 31
0.0
210
0.0
220
0.0
230
1.0
  0
LINE
  5
12D
100
AcDbEntity
  8
0
370
    35
390
0
 62
   150
 48
0.154
100
AcDbLine
 10
669.932861
 20
345.266815
 30
0.0
 11
669.932861
 21
339.106812
 31
0.0
210
0.0
220
0.0
230
1.0
  0
LINE
  5
12E
100
AcDbEntity
  8
0
370
    35
390
0
 62
   150
100
AcDbLine
 10
669.932861
 20
339.106812
 30
0.0
 11
690.252808
 21
339.106812
 31
0.0
210
0.0
220
0.0
230
1.0
  0
LINE
  5
12F
100
AcDbEntity
  8
0
370
    35
390
0
 62
   150
 48
0.154
100
AcDbLine
 10
690.252808
 20
339.106812
 30
0.0
 11
690.252808
 21
345.266815
 31
0.0
210
0.0
220
0.0
230
1.0
  0
LINE
  5
130
100
AcDbEntity
  8
0
370
    35
390
0
 62
   150
 48
0.492001
100
AcDbLine
 10
690.252808
 20
345.266815
 30
0.0
 11
709.932861
 21
345.266815
 31
0.0
210
0.0
220
0.0
230
1.0
  0
LINE
  5
131
100
AcDbEntity
  8
0
370
    35
390
0
 62
   150
 48
0.154
100
AcDbLine
 10
709.932861
 20
345.266815
 30
0.0
 11
709.932861
 21
339.106812
 31
0.0
210
0.0
220
0.0
230
1.0
  0
LINE
  5
132
100
AcDbEntity
  8
0
370
    35
390
0
 62
   150
100
AcDbLine
 10
709.932861
 20
339.106812
 30
0.0
 11
730.252808
 21
339.106812
 31
0.0
210
0.0
220
0.0
230
1.0
  0
LINE
  5
133
100
AcDbEntity
  8
0
370
    35
390
0
 62
   150
 48
0.154
100
AcDbLine
 10
730.252808
 20
339.106812
 30
0.0
 11
730.252808
 21
345.266815
 31
0.0
210
0.0
220
0.0
230
1.0
  0
LINE
  5
134
100
AcDbEntity
  8
0
370
    35
390
0
 62
   150
 48
0.492001
100
AcDbLine
 10
730.252808
 20
345.266815
 30
0.0
 11
749.932861
 21
345.266815
 31
0.0
210
0.0
220
0.0
230
1.0
  0
LINE
  5
135
100
AcDbEntity
  8
0
370
    35
390
0
 62
   150
 48
0.154
100
AcDbLine
 10
749.932861
 20
345.266815
 30
0.0
 11
749.932861
 21
339.106812
 31
0.0
210
0.0
220
0.0
230
1.0
  0
LINE
  5
136
100
AcDbEntity
  8
0
370
    35
390
0
 62
   150
100
AcDbLine
 10
749.932861
 20
339.106812
 30
0.0
 11
770.252808
 21
339.106812
 31
0.0
210
0.0
220
0.0
230
1.0
  0
LINE
  5
137
100
AcDbEntity
  8
0
370
    35
390
0
 62
   150
100
AcDbLine
 10
770.252808
 20
339.106812
 30
0.0
 11
770.252808
 21
359.266815
 31
0.0
210
0.0
220
0.0
230
1.0
  0
LINE
  5
138
100
AcDbEntity
  8
0
370
    35
390
0
 62
   150
 48
0.154001
100
AcDbLine
 10
770.252808
 20
359.266815
 30
0.0
 11
776.412842
 21
359.266815
 31
0.0
210
0.0
220
0.0
230
1.0
  0
LINE
  5
139
100
AcDbEntity
  8
0
370
    35
390
0
 62
   150
100
AcDbLine
 10
776.412842
 20
359.266815
 30
0.0
 11
776.412842
 21
379.586823
 31
0.0
210
0.0
220
0.0
230
1.0
  0
LINE
  5
13A
100
AcDbEntity
  8
0
370
    35
390
0
 62
   150
 48
0.154001
100
AcDbLine
 10
776.412842
 20
379.586823
 30
0.0
 11
770.252808
 21
379.586823
 31
0.0
210
0.0
220
0.0
230
1.0
  0
LINE
  5
13B
100
AcDbEntity
  8
0
370
    35
390
0
 62
   150
 48
0.492
100
AcDbLine
 10
770.252808
 20
379.586823
 30
0.0
 11
770.252808
 21
399.266815
 31
0.0
210
0.0
220
0.0
230
1.0
  0
LINE
  5
13C
100
AcDbEntity
  8
0
370
    35
390
0
 62
   150
 48
0.154001
100
AcDbLine
 10
770.252808
 20
399.266815
 30
0.0
 11
776.412842
 21
399.266815
 31
0.0
210
0.0
220
0.0
230
1.0
  0
LINE
  5
13D
100
AcDbEntity
  8
0
370
    35
390
0
 62
   150
100
AcDbLine
 10
776.412842
 20
399.266815
 30
0.0
 11
776.412842
 21
419.586823
 31
0.0
210
0.0
220
0.0
230
1.0
  0
LINE
  5
13E
100
AcDbEntity
  8
0
370
    35
390
0
 62
   150
 48
0.154001
100
AcDbLine
 10
776.412842
 20
419.586823
 30
0.0
 11
770.252808
 21
419.586823
 31
0.0
210
0.0
220
0.0
230
1.0
  0
LINE
  5
13F
100
AcDbEntity
  8
0
370
    35
390
0
 62
   150
 48
0.492
100
AcDbLine
 10
770.252808
 20
419.586823
 30
0.0
 11
770.252808
 21
439.266815
 31
0.0
210
0.0
220
0.0
230
1.0
  0
LINE
  5
140
100
AcDbEntity
  8
0
370
    35
390
0
 62
   150
 48
0.154001
100
AcDbLine
 10
770.252808
 20
439.266815
 30
0.0
 11
776.412842
 21
439.266815
 31
0.0
210
0.0
220
0.0
230
1.0
  0
LINE
  5
141
100
AcDbEntity
  8
0
370
    35
390
0
 62
   150
100
AcDbLine
 10
776.412842
 20
439.266815
 30
0.0
 11
776.412842
 21
459.586823
 31
0.0
210
0.0
220
0.0
230
1.0
  0
LINE
  5
142
100
AcDbEntity
  8
0
370
    35
390
0
 62
   150
 48
0.154001
100
AcDbLine
 10
776.412842
 20
459.586823
 30
0.0
 11
770.252808
 21
459.586823
 31
0.0
210
0.0
220
0.0
230
1.0
  0
LINE
  5
143
100
AcDbEntity
  8
0
370
    35
390
0
 62
   150
 48
0.492
100
AcDbLine
 10
770.252808
 20
459.586823
 30
0.0
 11
770.252808
 21
479.266815
 31
0.0
210
0.0
220
0.0
230
1.0
  0
LINE
  5
144
100
AcDbEntity
  8
0
370
    35
390
0
 62
   150
 48
0.154001
100
AcDbLine
 10
770.252808
 20
479.266815
 30
0.0
 11
776.412842
 21
479.266815
 31
0.0
210
0.0
220
0.0
230
1.0
  0
LINE
  5
145
100
AcDbEntity
  8
0
370
    35
390
0
 62
   150
100
AcDbLine
 10
776.412842
 20
479.266815
 30
0.0
 11
776.412842
 21
499.586823
 31
0.0
210
0.0
220
0.0
230
1.0
  0
LINE
  5
146
100
AcDbEntity
  8
0
370
    35
390
0
 62
   150
 48
0.154001
100
AcDbLine
 10
776.412842
 20
499.586823
 30
0.0
 11
770.252808
 21
499.586823
 31
0.0
210
0.0
220
0.0
230
1.0
  0
LINE
  5
147
100
AcDbEntity
  8
0
370
    35
390
0
 62
   150
100
AcDbLine
 10
770.252808
 20
499.586823
 30
0.0
 11
770.252808
 21
519.746826
 31
0.0
210
0.0
220
0.0
230
1.0
  0
LINE
  5
148
100
AcDbEntity
  8
0
370
    35
390
0
 62
   150
100
AcDbLine
 10
770.252808
 20
519.746826
 30
0.0
 11
590.092834
 21
519.746826
 31
0.0
210
0.0
220
0.0
230
1.0
  0
LINE
  5
149
100
AcDbEntity
  8
0
370
    35
390
0
 62
   150
100
AcDbLine
 10
590.092834
 20
499.586823
 30
0.0
 11
590.092834
 21
519.746826
 31
0.0
210
0.0
220
0.0
230
1.0
  0
LINE
  5
14A
100
AcDbEntity
  8
0
370
    35
390
0
 62
   150
 48
0.153999
100
AcDbLine
 10
583.932861
 20
499.586823
 30
0.0
 11
590.092834
 21
499.586823
 31
0.0
210
0.0
220
0.0
230
1.0
  0
LINE
  5
14B
100
AcDbEntity
  8
0
370
    35
390
0
 62
   150
100
AcDbLine
 10
583.932861
 20
479.266815
 30
0.0
 11
583.932861
 21
499.586823
 31
0.0
210
0.0
220
0.0
230
1.0
  0
LINE
  5
14C
100
AcDbEntity
  8
0
370
    35
390
0
 62
   150
 48
0.153999
100
AcDbLine
 10
590.092834
 20
479.266815
 30
0.0
 11
583.932861
 21
479.266815
 31
0.0
210
0.0
220
0.0
230
1.0
  0
LINE
  5
14D
100
AcDbEntity
  8
0
370
    35
390
0
 62
   150
 48
0.492
100
AcDbLine
 10
590.092834
 20
459.586823
 30
0.0
 11
590.092834
 21
479.266815
 31
0.0
210
0.0
220
0.0
230
1.0
  0
LINE
  5
14E
100
AcDbEntity
  8
0
370
    35
390
0
 62
   150
 48
0.153999
100
AcDbLine
 10
583.932861
 20
459.586823
 30
0.0
 11
590.092834
 21
459.586823
 31
0.0
210
0.0
220
0.0
230
1.0
  0
LINE
  5
14F
100
AcDbEntity
  8
0
370
    35
390
0
 62
   150
100
AcDbLine
 10
583.932861
 20
439.266815
 30
0.0
 11
583.932861
 21
459.586823
 31
0.0
210
0.0
220
0.0
230
1.0
  0
LINE
  5
150
100
AcDbEntity
  8
0
370
    35
390
0
 62
   150
 48
0.153999
100
AcDbLine
 10
590.092834
 20
439.266815
 30
0.0
 11
583.932861
 21
439.266815
 31
0.0
210
0.0
220
0.0
230
1.0
  0
LINE
  5
151
100
AcDbEntity
  8
0
370
    35
390
0
 62
   150
 48
0.492
100
AcDbLine
 10
590.092834
 20
419.586823
 30
0.0
 11
590.092834
 21
439.266815
 31
0.0
210
0.0
220
0.0
230
1.0
  0
LINE
  5
152
100
AcDbEntity
  8
0
370
    35
390
0
 62
   150
 48
0.153999
100
AcDbLine
 10
583.932861
 20
419.586823
 30
0.0
 11
590.092834
 21
419.586823
 31
0.0
210
0.0
220
0.0
230
1.0
  0
LINE
  5
153
100
AcDbEntity
  8
0
370
    35
390
0
 62
   150
100
AcDbLine
 10
583.932861
 20
399.266815
 30
0.0
 11
583.932861
 21
419.586823
 31
0.0
210
0.0
220
0.0
230
1.0
  0
LINE
  5
154
100
AcDbEntity
  8
0
370
    35
390
0
 62
   150
 48
0.153999
100
AcDbLine
 10
590.092834
 20
399.266815
 30
0.0
 11
583.932861
 21
399.266815
 31
0.0
210
0.0
220
0.0
230
1.0
  0
LINE
  5
155
100
AcDbEntity
  8
0
370
    35
390
0
 62
   150
 48
0.492
100
AcDbLine
 10
590.092834
 20
379.586823
 30
0.0
 11
590.092834
 21
399.266815
 31
0.0
210
0.0
220
0.0
230
1.0
  0
LINE
  5
156
100
AcDbEntity
  8
0
370
    35
390
0
 62
   150
 48
0.153999
100
AcDbLine
 10
583.932861
 20
379.586823
 30
0.0
 11
590.092834
 21
379.586823
 31
0.0
210
0.0
220
0.0
230
1.0
  0
LINE
  5
157
100
AcDbEntity
  8
0
370
    35
390
0
 62
   150
100
AcDbLine
 10
583.932861
 20
359.266815
 30
0.0
 11
583.932861
 21
379.586823
 31
0.0
210
0.0
220
0.0
230
1.0
  0
LINE
  5
158
100
AcDbEntity
  8
0
370
    35
390
0
 62
   150
 48
0.153999
100
AcDbLine
 10
590.092834
 20
359.266815
 30
0.0
 11
583.932861
 21
359.266815
 31
0.0
210
0.0
220
0.0
230
1.0
  0
LINE
  5
159
100
AcDbEntity
  8
0
370
    35
390
0
 62
   150
100
AcDbLine
 10
590.092834
 20
339.106812
 30
0.0
 11
590.092834
 21
359.266815
 31
0.0
210
0.0
220
0.0
230
1.0
  0
ENDSEC
  0
SECTION
  2
OBJECTS
  0
DICTIONARY
  5
19
100
AcDbDictionary
280
     0
281
     1
  3
ACAD_GROUP
350
1A
  3
ACAD_MLINESTYLE
350
1B
  3
ACAD_LAYOUT
350
1E
  3
ACAD_PLOTSETTINGS
350
22
  3
ACAD_PLOTSTYLENAME
350
1F
  3
ACAD_WIPEOUT_VARS
350
23
  0
DICTIONARY
  5
1A
102
{ACAD_REACTORS
330
19
102
}
100
AcDbDictionary
280
     0
281
     1
  0
DICTIONARY
  5
1B
102
{ACAD_REACTORS
330
19
102
}
100
AcDbDictionary
280
     0
281
     1
  3
Standard
350
1C
  0
MLINESTYLE
  5
1C
102
{ACAD_REACTORS
330
1B
102
}
100
AcDbMlineStyle
  2
Standard
 70
     0
  3

 62
     0
 51
90.0
 52
90.0
 71
     2
 49
0.5
 62
   256
  6
ByLayer
 49
-0.5
 62
   256
  6
ByLayer
  0
ACDBDICTIONARYWDFLT
  5
1F
102
{ACAD_REACTORS
330
19
102
}
100
AcDbDictionary
281
     1
  3
Normal
350
1D
100
AcDbDictionaryWithDefault
340
1D
  0
ACDBPLACEHOLDER
  5
1D
102
{ACAD_REACTORS
330
1F
102
}
  0
LAYOUT
  5
20
102
{ACAD_REACTORS
330
1E
102
}
100
AcDbPlotSettings
  1

  2

  4

  6

 40
0.0
 41
0.0
 42
0.0
 43
0.0
 44
0.0
 45
0.0
 46
0.0
 47
0.0
 48
0.0
 49
0.0
140
0.0
141
0.0
142
1.0
143
1.0
 70
  1024
 72
     0
 73
     0
 74
     0
  7

 75
     0
147
1.0
148
0.0
149
0.0
100
AcDbLayout
  1
Model
 70
     0
 71
     0
 10
0.0
 20
0.0
 11
0.0
 21
0.0
 12
0.0
 22
0.0
 32
0.0
 14
0.0
 24
0.0
 34
0.0
 15
0.0
 25
0.0
 35
0.0
146
0.0
 13
0.0
 23
0.0
 33
0.0
 16
0.0
 26
0.0
 36
0.0
 17
0.0
 27
0.0
 37
0.0
 76
     0
330
A
331
0
345
0
346
0
  0
LAYOUT
  5
21
102
{ACAD_REACTORS
330
1E
102
}
100
AcDbPlotSettings
  1

  2

  4

  6

 40
0.0
 41
0.0
 42
0.0
 43
0.0
 44
0.0
 45
0.0
 46
0.0
 47
0.0
 48
0.0
 49
0.0
140
0.0
141
0.0
142
1.0
143
1.0
 70
     0
 72
     0
 73
     0
 74
     0
  7

 75
     0
147
1.0
148
0.0
149
0.0
100
AcDbLayout
  1
Layout1
 70
     0
 71
     0
 10
0.0
 20
0.0
 11
0.0
 21
0.0
 12
0.0
 22
0.0
 32
0.0
 14
0.0
 24
0.0
 34
0.0
 15
0.0
 25
0.0
 35
0.0
146
0.0
 13
0.0
 23
0.0
 33
0.0
 16
0.0
 26
0.0
 36
0.0
 17
0.0
 27
0.0
 37
0.0
 76
     0
330
B
331
0
345
0
346
0
  0
DICTIONARY
  5
1E
102
{ACAD_REACTORS
330
19
102
}
100
AcDbDictionary
280
     0
281
     1
  3
Layout1
350
21
  3
Model
350
20
  0
DICTIONARY
  5
22
102
{ACAD_REACTORS
330
19
102
}
100
AcDbDictionary
280
     0
281
     1
  0
WIPEOUTVARIABLES
  5
23
100
AcDbWipeoutVariables
 70
     1
  0
ENDSEC
  0
EOF
