  0
SECTION
  2
HEADER
  9
$ACADVER
  1
AC1006
  9
$EXTMIN
 10
0.000000
 20
0.000000
 30
0.000000
  9
$EXTMAX
 10
745.000000
 20
743.000000
 30
0.000000
  0
ENDSEC
  0
SECTION
  2
ENTITIES
  0
POLYLINE
  8
0
 66
1
 70
1
  0
VERTEX
  8
0
 10
247.748321
 20
738.414988
 42
0.200630
  0
VERTEX
  8
0
 10
247.582512
 20
738.010918
 42
0.030340
  0
VERTEX
  8
0
 10
247.642527
 20
737.120100
 42
0.030027
  0
VERTEX
  8
0
 10
247.851657
 20
736.020643
 42
0.021860
  0
VERTEX
  8
0
 10
248.209677
 20
734.828366
 42
-0.039143
  0
VERTEX
  8
0
 10
248.681037
 20
733.036163
 42
-0.132411
  0
VERTEX
  8
0
 10
248.579965
 20
731.840837
 42
-0.102554
  0
VERTEX
  8
0
 10
247.869681
 20
730.687621
 42
-0.018556
  0
VERTEX
  8
0
 10
246.066304
 20
728.913378
 42
-0.016082
  0
VERTEX
  8
0
 10
244.763141
 20
727.797828
 42
-0.020277
  0
VERTEX
  8
0
 10
243.485348
 20
726.855805
 42
-0.018810
  0
VERTEX
  8
0
 10
242.373590
 20
726.163254
 42
-0.130609
  0
VERTEX
  8
0
 10
241.759280
 20
726.000000
 42
0.077716
  0
VERTEX
  8
0
 10
239.586680
 20
725.660255
 42
0.025450
  0
VERTEX
  8
0
 10
236.546436
 20
724.511969
 42
0.024243
  0
VERTEX
  8
0
 10
233.682000
 20
723.091014
 42
0.105147
  0
VERTEX
  8
0
 10
232.262002
 20
721.849349
 42
-0.119262
  0
VERTEX
  8
0
 10
230.082546
 20
720.048297
 42
-0.040035
  0
VERTEX
  8
0
 10
226.211828
 20
718.532775
 42
-0.039029
  0
VERTEX
  8
0
 10
222.232809
 20
717.663264
 42
-0.158436
  0
VERTEX
  8
0
 10
219.823217
 20
718.094612
 42
0.170219
  0
VERTEX
  8
0
 10
217.398342
 20
718.471495
 42
0.043602
  0
VERTEX
  8
0
 10
213.514892
 20
717.396028
 42
0.042522
  0
VERTEX
  8
0
 10
209.957945
 20
715.711452
 42
0.240120
  0
VERTEX
  8
0
 10
208.855689
 20
714.000000
 42
0.003357
  0
VERTEX
  8
0
 10
208.790179
 20
713.306245
 42
0.001825
  0
VERTEX
  8
0
 10
208.718529
 20
712.453105
 42
0.001818
  0
VERTEX
  8
0
 10
208.651971
 20
711.584785
 42
0.002880
  0
VERTEX
  8
0
 10
208.601940
 20
710.840358
 42
-0.081467
  0
VERTEX
  8
0
 10
208.197058
 20
709.062534
 42
-0.304111
  0
VERTEX
  8
0
 10
207.293858
 20
708.452739
 42
-0.166147
  0
VERTEX
  8
0
 10
205.869278
 20
708.934147
 42
-0.028661
  0
VERTEX
  8
0
 10
203.681990
 20
710.823608
 42
0.024846
  0
VERTEX
  8
0
 10
201.529162
 20
712.712153
 42
0.102850
  0
VERTEX
  8
0
 10
199.991142
 20
713.484605
 42
0.079828
  0
VERTEX
  8
0
 10
198.083444
 20
713.678211
 42
0.011492
  0
VERTEX
  8
0
 10
194.166455
 20
713.359609
 42
-0.011591
  0
VERTEX
  8
0
 10
190.674616
 20
713.076288
 42
-0.053419
  0
VERTEX
  8
0
 10
188.650880
 20
713.175445
 42
-0.084315
  0
VERTEX
  8
0
 10
187.168019
 20
713.673321
 42
-0.058935
  0
VERTEX
  8
0
 10
185.719484
 20
714.685497
 42
0.092867
  0
VERTEX
  8
0
 10
183.189672
 20
716.210286
 42
0.022874
  0
VERTEX
  8
0
 10
178.551261
 20
717.703672
 42
0.018541
  0
VERTEX
  8
0
 10
173.846503
 20
718.798632
 42
0.188476
  0
VERTEX
  8
0
 10
171.909730
 20
718.444210
 42
0.228339
  0
VERTEX
  8
0
 10
170.922004
 20
716.897239
 42
0.132765
  0
VERTEX
  8
0
 10
171.246468
 20
714.670973
 42
0.079028
  0
VERTEX
  8
0
 10
172.989892
 20
711.929550
 42
0.037414
  0
VERTEX
  8
0
 10
176.000000
 20
709.000000
 42
-0.013343
  0
VERTEX
  8
0
 10
178.928314
 20
706.412290
 42
-0.073989
  0
VERTEX
  8
0
 10
180.233539
 20
704.773833
 42
-0.098560
  0
VERTEX
  8
0
 10
180.823061
 20
703.044156
 42
-0.033011
  0
VERTEX
  8
0
 10
181.000000
 20
700.367044
 42
0.035905
  0
VERTEX
  8
0
 10
181.143722
 20
698.368227
 42
0.022771
  0
VERTEX
  8
0
 10
181.582848
 20
696.073728
 42
0.022791
  0
VERTEX
  8
0
 10
182.227631
 20
693.833152
 42
0.036508
  0
VERTEX
  8
0
 10
183.000000
 20
692.000000
 42
-0.022020
  0
VERTEX
  8
0
 10
183.765584
 20
690.320546
 42
-0.019676
  0
VERTEX
  8
0
 10
184.412500
 20
688.516622
 42
-0.020131
  0
VERTEX
  8
0
 10
184.864461
 20
686.849405
 42
-0.056176
  0
VERTEX
  8
0
 10
185.000000
 20
685.646827
 42
0.106587
  0
VERTEX
  8
0
 10
185.388366
 20
683.845697
 42
0.183796
  0
VERTEX
  8
0
 10
186.461671
 20
682.778558
 42
0.105901
  0
VERTEX
  8
0
 10
188.479510
 20
682.352758
 42
0.024032
  0
VERTEX
  8
0
 10
191.993020
 20
682.532467
 42
-0.061559
  0
VERTEX
  8
0
 10
195.231819
 20
682.455353
 42
-0.485337
  0
VERTEX
  8
0
 10
195.876360
 20
681.330504
 42
-0.176629
  0
VERTEX
  8
0
 10
194.309858
 20
679.590647
 42
-0.026859
  0
VERTEX
  8
0
 10
190.000000
 20
677.590924
 42
0.018456
  0
VERTEX
  8
0
 10
187.213942
 20
676.354665
 42
0.053835
  0
VERTEX
  8
0
 10
185.436192
 20
675.234894
 42
0.074687
  0
VERTEX
  8
0
 10
184.279912
 20
673.998757
 42
0.069002
  0
VERTEX
  8
0
 10
183.500000
 20
672.444777
 42
-0.016971
  0
VERTEX
  8
0
 10
182.515816
 20
669.840382
 42
-0.055348
  0
VERTEX
  8
0
 10
181.623939
 20
668.230185
 42
-0.111929
  0
VERTEX
  8
0
 10
180.792083
 20
667.483557
 42
-0.271946
  0
VERTEX
  8
0
 10
179.997647
 20
667.501455
 42
0.265663
  0
VERTEX
  8
0
 10
178.235835
 20
667.561809
 42
0.009275
  0
VERTEX
  8
0
 10
172.016747
 20
664.134876
 42
0.016303
  0
VERTEX
  8
0
 10
166.100787
 20
660.468667
 42
0.068228
  0
VERTEX
  8
0
 10
162.970091
 20
657.702620
 42
-0.012733
  0
VERTEX
  8
0
 10
161.445188
 20
656.020378
 42
-0.120673
  0
VERTEX
  8
0
 10
160.631978
 20
655.500548
 42
-0.241302
  0
VERTEX
  8
0
 10
159.938356
 20
655.601812
 42
-0.064979
  0
VERTEX
  8
0
 10
159.097646
 20
656.382343
 42
0.124077
  0
VERTEX
  8
0
 10
157.429867
 20
657.601362
 42
0.122565
  0
VERTEX
  8
0
 10
155.375573
 20
657.891642
 42
0.097215
  0
VERTEX
  8
0
 10
153.043804
 20
657.177082
 42
0.054828
  0
VERTEX
  8
0
 10
150.594461
 20
655.498779
 42
-0.067027
  0
VERTEX
  8
0
 10
147.746040
 20
653.647126
 42
-0.132366
  0
VERTEX
  8
0
 10
145.111001
 20
653.169365
 42
-0.117083
  0
VERTEX
  8
0
 10
142.373131
 20
654.067394
 42
-0.046198
  0
VERTEX
  8
0
 10
139.177966
 20
656.458184
 42
0.017231
  0
VERTEX
  8
0
 10
137.520265
 20
657.855166
 42
0.015312
  0
VERTEX
  8
0
 10
135.705062
 20
659.193098
 42
0.015558
  0
VERTEX
  8
0
 10
133.997363
 20
660.295984
 42
0.044781
  0
VERTEX
  8
0
 10
132.730519
 20
660.912357
 42
-0.041892
  0
VERTEX
  8
0
 10
131.329740
 20
661.583933
 42
-0.147845
  0
VERTEX
  8
0
 10
130.659360
 20
662.308693
 42
-0.126583
  0
VERTEX
  8
0
 10
130.446481
 20
663.353227
 42
-0.027264
  0
VERTEX
  8
0
 10
130.642094
 20
665.204173
 42
0.054399
  0
VERTEX
  8
0
 10
130.739159
 20
667.101440
 42
0.076412
  0
VERTEX
  8
0
 10
130.386115
 20
668.756982
 42
0.055831
  0
VERTEX
  8
0
 10
129.450221
 20
670.580517
 42
0.016792
  0
VERTEX
  8
0
 10
127.637418
 20
673.123534
 42
0.022454
  0
VERTEX
  8
0
 10
124.311314
 20
677.090239
 42
0.159969
  0
VERTEX
  8
0
 10
122.153411
 20
678.299724
 42
0.211367
  0
VERTEX
  8
0
 10
120.032276
 20
677.818730
 42
0.042718
  0
VERTEX
  8
0
 10
117.070969
 20
675.195264
 42
0.000000
  0
VERTEX
  8
0
 10
113.412541
 20
671.349457
 42
0.000000
  0
VERTEX
  8
0
 10
110.906772
 20
673.220283
 42
0.074298
  0
VERTEX
  8
0
 10
108.894713
 20
674.301266
 42
0.133383
  0
VERTEX
  8
0
 10
107.038815
 20
674.449084
 42
0.161236
  0
VERTEX
  8
0
 10
105.596975
 20
673.651187
 42
0.123080
  0
VERTEX
  8
0
 10
104.725664
 20
672.058941
 42
-0.194498
  0
VERTEX
  8
0
 10
104.001709
 20
671.086548
 42
-0.080020
  0
VERTEX
  8
0
 10
102.452175
 20
670.455175
 42
-0.034512
  0
VERTEX
  8
0
 10
99.599191
 20
669.999958
 42
-0.005293
  0
VERTEX
  8
0
 10
93.866803
 20
669.548222
 42
-0.003013
  0
VERTEX
  8
0
 10
89.814937
 20
669.296568
 42
-0.004389
  0
VERTEX
  8
0
 10
86.239954
 20
669.127618
 42
-0.002237
  0
VERTEX
  8
0
 10
83.210813
 20
669.024674
 42
-0.074186
  0
VERTEX
  8
0
 10
82.489681
 20
669.110605
 42
0.112484
  0
VERTEX
  8
0
 10
80.573546
 20
669.192430
 42
0.041987
  0
VERTEX
  8
0
 10
77.959090
 20
668.482148
 42
0.039666
  0
VERTEX
  8
0
 10
75.608485
 20
667.408412
 42
0.219857
  0
VERTEX
  8
0
 10
74.810585
 20
666.314508
 42
0.043847
  0
VERTEX
  8
0
 10
74.708083
 20
665.384083
 42
0.006471
  0
VERTEX
  8
0
 10
74.690763
 20
663.490122
 42
0.007257
  0
VERTEX
  8
0
 10
74.731860
 20
661.246027
 42
0.006182
  0
VERTEX
  8
0
 10
74.838821
 20
658.880657
 42
0.000000
  0
VERTEX
  8
0
 10
75.177642
 20
653.000000
 42
0.000000
  0
VERTEX
  8
0
 10
80.972190
 20
653.000000
 42
-0.010615
  0
VERTEX
  8
0
 10
84.240137
 20
652.930611
 42
-0.069119
  0
VERTEX
  8
0
 10
85.853659
 20
652.636201
 42
-0.144700
  0
VERTEX
  8
0
 10
86.759755
 20
652.008424
 42
-0.105820
  0
VERTEX
  8
0
 10
87.313513
 20
650.909124
 42
-0.034057
  0
VERTEX
  8
0
 10
87.530546
 20
649.766403
 42
-0.270681
  0
VERTEX
  8
0
 10
87.325032
 20
649.292379
 42
-0.202563
  0
VERTEX
  8
0
 10
86.751387
 20
649.156068
 42
-0.019873
  0
VERTEX
  8
0
 10
85.329565
 20
649.453420
 42
0.107372
  0
VERTEX
  8
0
 10
82.920646
 20
649.530484
 42
0.024289
  0
VERTEX
  8
0
 10
78.912176
 20
648.589761
 42
0.025942
  0
VERTEX
  8
0
 10
74.905212
 20
647.213007
 42
0.066892
  0
VERTEX
  8
0
 10
72.250000
 20
645.705360
 42
0.164934
  0
VERTEX
  8
0
 10
71.706587
 20
644.900523
 42
0.029287
  0
VERTEX
  8
0
 10
71.325048
 20
643.096259
 42
0.025261
  0
VERTEX
  8
0
 10
71.077894
 20
640.616203
 42
0.012205
  0
VERTEX
  8
0
 10
71.000000
 20
637.425596
 42
0.000000
  0
VERTEX
  8
0
 10
71.000000
 20
630.096081
 42
0.000000
  0
VERTEX
  8
0
 10
75.361489
 20
627.095298
 42
-0.023175
  0
VERTEX
  8
0
 10
77.573475
 20
625.417294
 42
-0.059188
  0
VERTEX
  8
0
 10
78.953306
 20
623.957472
 42
-0.071502
  0
VERTEX
  8
0
 10
79.801022
 20
622.391760
 42
-0.048187
  0
VERTEX
  8
0
 10
80.318745
 20
620.423229
 42
0.032130
  0
VERTEX
  8
0
 10
80.672353
 20
618.879055
 42
0.025938
  0
VERTEX
  8
0
 10
81.241857
 20
617.275292
 42
0.026653
  0
VERTEX
  8
0
 10
81.925926
 20
615.845945
 42
0.059043
  0
VERTEX
  8
0
 10
82.624644
 20
614.862270
 42
-0.082246
  0
VERTEX
  8
0
 10
83.520174
 20
613.469542
 42
-0.100315
  0
VERTEX
  8
0
 10
83.838596
 20
611.955993
 42
-0.043284
  0
VERTEX
  8
0
 10
83.651397
 20
609.594875
 42
-0.004749
  0
VERTEX
  8
0
 10
82.703236
 20
604.236298
 42
0.003712
  0
VERTEX
  8
0
 10
81.874069
 20
599.606180
 42
0.001033
  0
VERTEX
  8
0
 10
80.643571
 20
592.338163
 42
0.001042
  0
VERTEX
  8
0
 10
79.285022
 20
584.106404
 42
0.001094
  0
VERTEX
  8
0
 10
77.982708
 20
576.000000
 42
-0.001128
  0
VERTEX
  8
0
 10
76.765847
 20
568.428863
 42
-0.001695
  0
VERTEX
  8
0
 10
75.666852
 20
561.829114
 42
-0.000674
  0
VERTEX
  8
0
 10
74.697006
 20
556.170506
 42
-0.038390
  0
VERTEX
  8
0
 10
74.436672
 20
555.141665
 42
-0.107818
  0
VERTEX
  8
0
 10
74.080507
 20
554.546659
 42
-0.229469
  0
VERTEX
  8
0
 10
73.591615
 20
554.359576
 42
-0.107040
  0
VERTEX
  8
0
 10
72.844188
 20
554.589898
 42
-0.016964
  0
VERTEX
  8
0
 10
71.524996
 20
555.391665
 42
0.088037
  0
VERTEX
  8
0
 10
68.455436
 20
556.705468
 42
0.073229
  0
VERTEX
  8
0
 10
64.912179
 20
556.998807
 42
0.076178
  0
VERTEX
  8
0
 10
61.572233
 20
556.267140
 42
0.112695
  0
VERTEX
  8
0
 10
59.093970
 20
554.600026
 42
-0.049261
  0
VERTEX
  8
0
 10
57.999567
 20
553.643707
 42
-0.031929
  0
VERTEX
  8
0
 10
56.570531
 20
552.755939
 42
-0.032011
  0
VERTEX
  8
0
 10
55.047797
 20
552.061171
 42
-0.051359
  0
VERTEX
  8
0
 10
53.669656
 20
551.692457
 42
0.027547
  0
VERTEX
  8
0
 10
45.310593
 20
549.876897
 42
0.051355
  0
VERTEX
  8
0
 10
38.860046
 20
547.363270
 42
0.042614
  0
VERTEX
  8
0
 10
32.314524
 20
543.265292
 42
0.013678
  0
VERTEX
  8
0
 10
23.333815
 20
536.122448
 42
0.072372
  0
VERTEX
  8
0
 10
22.360746
 20
535.028638
 42
0.044429
  0
VERTEX
  8
0
 10
21.541727
 20
533.506923
 42
0.038362
  0
VERTEX
  8
0
 10
20.897281
 20
531.614778
 42
0.026669
  0
VERTEX
  8
0
 10
20.452408
 20
529.400324
 42
-0.022911
  0
VERTEX
  8
0
 10
20.034828
 20
527.237727
 42
-0.014944
  0
VERTEX
  8
0
 10
19.365368
 20
524.784894
 42
-0.015037
  0
VERTEX
  8
0
 10
18.567248
 20
522.427145
 42
-0.027601
  0
VERTEX
  8
0
 10
17.756200
 20
520.569529
 42
0.022268
  0
VERTEX
  8
0
 10
16.752534
 20
518.335972
 42
0.065481
  0
VERTEX
  8
0
 10
16.341328
 20
516.705267
 42
0.072443
  0
VERTEX
  8
0
 10
16.386405
 20
515.118106
 42
0.031822
  0
VERTEX
  8
0
 10
16.880454
 20
513.069529
 42
-0.018015
  0
VERTEX
  8
0
 10
17.420417
 20
511.073889
 42
-0.090470
  0
VERTEX
  8
0
 10
17.475432
 20
509.923105
 42
-0.140794
  0
VERTEX
  8
0
 10
17.109801
 20
509.087415
 42
-0.068245
  0
VERTEX
  8
0
 10
16.242847
 20
508.292080
 42
0.014044
  0
VERTEX
  8
0
 10
10.349357
 20
503.957505
 42
0.065825
  0
VERTEX
  8
0
 10
7.404537
 20
500.963429
 42
0.126288
  0
VERTEX
  8
0
 10
6.312345
 20
498.339265
 42
0.128083
  0
VERTEX
  8
0
 10
6.627406
 20
495.528582
 42
-0.120954
  0
VERTEX
  8
0
 10
6.731261
 20
494.706522
 42
-0.064977
  0
VERTEX
  8
0
 10
6.482017
 20
493.708958
 42
-0.054805
  0
VERTEX
  8
0
 10
5.916578
 20
492.633671
 42
-0.040165
  0
VERTEX
  8
0
 10
5.074727
 20
491.579543
 42
0.101575
  0
VERTEX
  8
0
 10
3.805231
 20
489.516977
 42
0.102768
  0
VERTEX
  8
0
 10
3.457975
 20
487.129913
 42
0.102930
  0
VERTEX
  8
0
 10
4.090140
 20
484.805041
 42
0.102214
  0
VERTEX
  8
0
 10
5.598113
 20
482.918573
 42
-0.050950
  0
VERTEX
  8
0
 10
6.134532
 20
482.372261
 42
-0.042246
  0
VERTEX
  8
0
 10
6.588196
 20
481.694710
 42
-0.044006
  0
VERTEX
  8
0
 10
6.898733
 20
480.994840
 42
-0.082600
  0
VERTEX
  8
0
 10
7.000000
 20
480.386029
 42
0.114395
  0
VERTEX
  8
0
 10
7.142402
 20
479.771758
 42
0.049226
  0
VERTEX
  8
0
 10
7.587500
 20
479.052216
 42
0.045227
  0
VERTEX
  8
0
 10
8.234859
 20
478.347127
 42
0.044885
  0
VERTEX
  8
0
 10
9.000000
 20
477.767927
 42
-0.040139
  0
VERTEX
  8
0
 10
9.765235
 20
477.199980
 42
-0.042750
  0
VERTEX
  8
0
 10
10.412500
 20
476.527955
 42
-0.046836
  0
VERTEX
  8
0
 10
10.859938
 20
475.856186
 42
-0.124127
  0
VERTEX
  8
0
 10
11.000000
 20
475.300690
 42
0.149229
  0
VERTEX
  8
0
 10
11.232208
 20
474.539990
 42
0.007181
  0
VERTEX
  8
0
 10
12.762500
 20
472.335979
 42
0.011200
  0
VERTEX
  8
0
 10
14.701247
 20
469.751870
 42
0.007790
  0
VERTEX
  8
0
 10
17.000000
 20
466.918742
 42
-0.008503
  0
VERTEX
  8
0
 10
21.045143
 20
461.918696
 42
-0.068177
  0
VERTEX
  8
0
 10
22.531398
 20
459.364929
 42
-0.179967
  0
VERTEX
  8
0
 10
22.592898
 20
457.598530
 42
-0.140094
  0
VERTEX
  8
0
 10
21.500000
 20
456.000000
 42
0.157087
  0
VERTEX
  8
0
 10
20.227815
 20
453.999599
 42
0.342656
  0
VERTEX
  8
0
 10
20.902255
 20
452.428185
 42
0.096535
  0
VERTEX
  8
0
 10
24.230764
 20
451.352162
 42
0.015928
  0
VERTEX
  8
0
 10
30.986879
 20
450.753741
 42
-0.025631
  0
VERTEX
  8
0
 10
33.664626
 20
450.464111
 42
-0.108349
  0
VERTEX
  8
0
 10
35.157686
 20
449.876662
 42
-0.099666
  0
VERTEX
  8
0
 10
36.331850
 20
448.693110
 42
-0.019945
  0
VERTEX
  8
0
 10
37.875619
 20
446.134314
 42
0.000000
  0
VERTEX
  8
0
 10
40.277481
 20
441.768628
 42
0.000000
  0
VERTEX
  8
0
 10
49.045998
 20
442.187856
 42
0.008785
  0
VERTEX
  8
0
 10
54.471603
 20
442.542895
 42
0.054460
  0
VERTEX
  8
0
 10
57.207890
 20
443.074038
 42
0.073443
  0
VERTEX
  8
0
 10
59.402005
 20
444.126246
 42
0.023176
  0
VERTEX
  8
0
 10
62.325554
 20
446.303542
 42
-0.004355
  0
VERTEX
  8
0
 10
65.817618
 20
449.114542
 42
-0.085498
  0
VERTEX
  8
0
 10
67.025497
 20
449.772014
 42
-0.516167
  0
VERTEX
  8
0
 10
67.479722
 20
449.444226
 42
-0.062199
  0
VERTEX
  8
0
 10
67.287512
 20
447.991447
 42
0.061723
  0
VERTEX
  8
0
 10
67.115388
 20
446.699894
 42
0.005956
  0
VERTEX
  8
0
 10
67.123988
 20
443.529599
 42
0.007500
  0
VERTEX
  8
0
 10
67.236374
 20
439.736998
 42
0.005858
  0
VERTEX
  8
0
 10
67.468416
 20
435.622700
 42
0.000000
  0
VERTEX
  8
0
 10
68.174568
 20
425.262506
 42
0.000000
  0
VERTEX
  8
0
 10
71.928659
 20
424.023545
 42
0.023873
  0
VERTEX
  8
0
 10
74.050986
 20
423.433804
 42
0.069355
  0
VERTEX
  8
0
 10
75.564785
 20
423.305110
 42
0.074864
  0
VERTEX
  8
0
 10
76.989979
 20
423.598654
 42
0.031178
  0
VERTEX
  8
0
 10
78.791715
 20
424.392292
 42
-0.087322
  0
VERTEX
  8
0
 10
82.388538
 20
425.516939
 42
-0.025640
  0
VERTEX
  8
0
 10
88.178532
 20
425.967000
 42
-0.025271
  0
VERTEX
  8
0
 10
94.761380
 20
425.807491
 42
-0.027016
  0
VERTEX
  8
0
 10
101.147583
 20
424.980515
 42
0.050567
  0
VERTEX
  8
0
 10
105.727627
 20
424.605266
 42
0.069430
  0
VERTEX
  8
0
 10
109.803965
 20
425.254476
 42
0.081749
  0
VERTEX
  8
0
 10
113.024825
 20
426.849082
 42
0.116329
  0
VERTEX
  8
0
 10
115.113637
 20
429.248350
 42
-0.040408
  0
VERTEX
  8
0
 10
116.295595
 20
431.110805
 42
-0.094261
  0
VERTEX
  8
0
 10
117.514082
 20
432.215747
 42
-0.094823
  0
VERTEX
  8
0
 10
119.048377
 20
432.792418
 42
-0.041229
  0
VERTEX
  8
0
 10
121.226947
 20
432.984687
 42
0.061468
  0
VERTEX
  8
0
 10
122.497344
 20
433.148705
 42
0.065643
  0
VERTEX
  8
0
 10
123.659723
 20
433.616046
 42
0.064277
  0
VERTEX
  8
0
 10
124.680931
 20
434.379164
 42
0.055213
  0
VERTEX
  8
0
 10
125.535508
 20
435.413847
 42
-0.055571
  0
VERTEX
  8
0
 10
126.402834
 20
436.462441
 42
-0.025760
  0
VERTEX
  8
0
 10
127.736882
 20
437.625878
 42
-0.025138
  0
VERTEX
  8
0
 10
129.279291
 20
438.716380
 42
-0.031912
  0
VERTEX
  8
0
 10
130.808561
 20
439.554507
 42
0.029957
  0
VERTEX
  8
0
 10
132.515338
 20
440.481265
 42
0.013762
  0
VERTEX
  8
0
 10
134.626445
 20
441.879110
 42
0.013574
  0
VERTEX
  8
0
 10
136.773827
 20
443.476367
 42
0.018273
  0
VERTEX
  8
0
 10
138.621889
 20
445.043166
 42
-0.053645
  0
VERTEX
  8
0
 10
142.050529
 20
447.556579
 42
-0.056304
  0
VERTEX
  8
0
 10
145.881551
 20
449.234870
 42
-0.038541
  0
VERTEX
  8
0
 10
151.091842
 20
450.418402
 42
-0.011272
  0
VERTEX
  8
0
 10
159.250000
 20
451.433378
 42
0.000000
  0
VERTEX
  8
0
 10
165.000000
 20
452.017471
 42
0.000000
  0
VERTEX
  8
0
 10
165.000000
 20
448.573835
 42
-0.022907
  0
VERTEX
  8
0
 10
164.931252
 20
447.074016
 42
-0.016561
  0
VERTEX
  8
0
 10
164.723026
 20
445.413269
 42
-0.016787
  0
VERTEX
  8
0
 10
164.419171
 20
443.845348
 42
-0.034596
  0
VERTEX
  8
0
 10
164.057108
 20
442.650206
 42
0.054293
  0
VERTEX
  8
0
 10
163.723337
 20
441.368958
 42
0.038385
  0
VERTEX
  8
0
 10
163.619799
 20
439.884351
 42
0.035399
  0
VERTEX
  8
0
 10
163.745758
 20
438.270115
 42
0.030199
  0
VERTEX
  8
0
 10
164.100089
 20
436.599676
 42
-0.027124
  0
VERTEX
  8
0
 10
164.483050
 20
434.847392
 42
-0.047391
  0
VERTEX
  8
0
 10
164.581307
 20
433.365786
 42
-0.055630
  0
VERTEX
  8
0
 10
164.399174
 20
432.069919
 42
-0.060227
  0
VERTEX
  8
0
 10
163.937171
 20
430.882603
 42
0.109209
  0
VERTEX
  8
0
 10
163.524729
 20
429.414309
 42
0.082698
  0
VERTEX
  8
0
 10
163.706882
 20
427.745686
 42
0.042143
  0
VERTEX
  8
0
 10
164.596973
 20
425.366459
 42
0.007816
  0
VERTEX
  8
0
 10
166.663931
 20
421.172006
 42
0.015355
  0
VERTEX
  8
0
 10
168.897801
 20
417.123422
 42
0.038098
  0
VERTEX
  8
0
 10
170.839269
 20
414.351905
 42
0.043425
  0
VERTEX
  8
0
 10
173.017174
 20
412.123874
 42
0.025934
  0
VERTEX
  8
0
 10
175.951044
 20
409.855695
 42
-0.010571
  0
VERTEX
  8
0
 10
178.085037
 20
408.308222
 42
-0.012714
  0
VERTEX
  8
0
 10
180.021577
 20
406.761413
 42
-0.011428
  0
VERTEX
  8
0
 10
181.580039
 20
405.388293
 42
-0.079033
  0
VERTEX
  8
0
 10
182.208962
 20
404.591089
 42
0.160949
  0
VERTEX
  8
0
 10
183.792811
 20
403.140733
 42
0.047183
  0
VERTEX
  8
0
 10
186.957285
 20
402.063981
 42
0.044498
  0
VERTEX
  8
0
 10
190.772907
 20
401.507817
 42
0.048042
  0
VERTEX
  8
0
 10
194.527856
 20
401.658872
 42
-0.027039
  0
VERTEX
  8
0
 10
196.814254
 20
401.847127
 42
-0.063243
  0
VERTEX
  8
0
 10
198.518888
 20
401.679140
 42
-0.067875
  0
VERTEX
  8
0
 10
200.053518
 20
401.101345
 42
-0.035267
  0
VERTEX
  8
0
 10
201.783998
 20
400.001576
 42
0.029441
  0
VERTEX
  8
0
 10
203.022159
 20
399.194306
 42
0.038815
  0
VERTEX
  8
0
 10
204.240235
 20
398.618898
 42
0.043162
  0
VERTEX
  8
0
 10
205.279259
 20
398.322982
 42
0.188372
  0
VERTEX
  8
0
 10
205.896566
 20
398.436074
 42
-0.219235
  0
VERTEX
  8
0
 10
206.545120
 20
398.515549
 42
-0.034685
  0
VERTEX
  8
0
 10
207.768069
 20
398.028436
 42
-0.033027
  0
VERTEX
  8
0
 10
209.222869
 20
397.206217
 42
-0.023405
  0
VERTEX
  8
0
 10
210.741634
 20
396.105246
 42
0.033639
  0
VERTEX
  8
0
 10
212.534409
 20
394.860763
 42
0.019580
  0
VERTEX
  8
0
 10
214.833090
 20
393.603815
 42
0.019517
  0
VERTEX
  8
0
 10
217.245435
 20
392.520128
 42
0.031024
  0
VERTEX
  8
0
 10
219.392289
 20
391.805938
 42
-0.034805
  0
VERTEX
  8
0
 10
221.559719
 20
391.066674
 42
-0.024007
  0
VERTEX
  8
0
 10
223.900000
 20
389.946874
 42
-0.024132
  0
VERTEX
  8
0
 10
226.099976
 20
388.620505
 42
-0.037708
  0
VERTEX
  8
0
 10
227.837706
 20
387.254539
 42
0.028111
  0
VERTEX
  8
0
 10
230.116567
 20
385.391426
 42
0.083186
  0
VERTEX
  8
0
 10
231.918632
 20
384.491487
 42
0.063103
  0
VERTEX
  8
0
 10
234.181786
 20
384.100359
 42
0.011488
  0
VERTEX
  8
0
 10
238.445417
 20
384.006031
 42
-0.017703
  0
VERTEX
  8
0
 10
242.028611
 20
383.882194
 42
-0.027797
  0
VERTEX
  8
0
 10
245.084837
 20
383.496527
 42
-0.030066
  0
VERTEX
  8
0
 10
247.897075
 20
382.804686
 42
-0.026433
  0
VERTEX
  8
0
 10
250.732934
 20
381.756031
 42
-0.012682
  0
VERTEX
  8
0
 10
254.057133
 20
380.221788
 42
-0.112763
  0
VERTEX
  8
0
 10
255.300261
 20
379.211684
 42
-0.140567
  0
VERTEX
  8
0
 10
255.851583
 20
377.849454
 42
-0.023404
  0
VERTEX
  8
0
 10
256.018369
 20
375.000000
 42
0.026914
  0
VERTEX
  8
0
 10
256.143369
 20
373.093774
 42
0.022326
  0
VERTEX
  8
0
 10
256.475255
 20
371.087500
 42
0.022900
  0
VERTEX
  8
0
 10
256.946934
 20
369.273401
 42
0.054842
  0
VERTEX
  8
0
 10
257.500000
 20
368.000000
 42
-0.069023
  0
VERTEX
  8
0
 10
258.601707
 20
365.253548
 42
-0.061866
  0
VERTEX
  8
0
 10
258.969586
 20
362.204839
 42
-0.078089
  0
VERTEX
  8
0
 10
258.584705
 20
359.809989
 42
-0.324629
  0
VERTEX
  8
0
 10
257.468615
 20
359.000000
 42
0.186339
  0
VERTEX
  8
0
 10
256.007752
 20
358.435984
 42
0.212441
  0
VERTEX
  8
0
 10
255.406980
 20
357.073275
 42
0.115657
  0
VERTEX
  8
0
 10
255.911273
 20
354.954991
 42
0.046933
  0
VERTEX
  8
0
 10
257.491146
 20
352.422720
 42
-0.040757
  0
VERTEX
  8
0
 10
258.823746
 20
350.344291
 42
-0.040748
  0
VERTEX
  8
0
 10
259.801658
 20
348.077056
 42
-0.033756
  0
VERTEX
  8
0
 10
260.527856
 20
345.328155
 42
-0.016471
  0
VERTEX
  8
0
 10
261.098323
 20
341.744247
 42
0.014844
  0
VERTEX
  8
0
 10
261.532262
 20
338.959724
 42
0.020295
  0
VERTEX
  8
0
 10
262.098149
 20
336.485722
 42
0.017554
  0
VERTEX
  8
0
 10
262.709230
 20
334.514129
 42
0.171413
  0
VERTEX
  8
0
 10
263.246272
 20
333.843437
 42
0.127225
  0
VERTEX
  8
0
 10
264.219640
 20
333.539141
 42
0.003843
  0
VERTEX
  8
0
 10
268.491619
 20
333.358683
 42
0.007383
  0
VERTEX
  8
0
 10
273.564076
 20
333.258415
 42
0.005009
  0
VERTEX
  8
0
 10
279.342217
 20
333.287413
 42
-0.004853
  0
VERTEX
  8
0
 10
285.065750
 20
333.317918
 42
-0.007715
  0
VERTEX
  8
0
 10
289.963048
 20
333.220914
 42
-0.002742
  0
VERTEX
  8
0
 10
294.140714
 20
333.050714
 42
-0.247639
  0
VERTEX
  8
0
 10
294.655975
 20
332.747627
 42
-0.184054
  0
VERTEX
  8
0
 10
294.732239
 20
332.350091
 42
-0.061818
  0
VERTEX
  8
0
 10
294.555796
 20
331.775576
 42
-0.051619
  0
VERTEX
  8
0
 10
294.182517
 20
331.130527
 42
-0.039434
  0
VERTEX
  8
0
 10
293.652777
 20
330.509920
 42
0.063602
  0
VERTEX
  8
0
 10
293.115157
 20
329.814862
 42
0.050010
  0
VERTEX
  8
0
 10
292.716662
 20
328.949156
 42
0.051354
  0
VERTEX
  8
0
 10
292.507821
 20
328.052543
 42
0.081814
  0
VERTEX
  8
0
 10
292.536910
 20
327.267591
 42
-0.010655
  0
VERTEX
  8
0
 10
292.713863
 20
326.289587
 42
-0.002401
  0
VERTEX
  8
0
 10
292.971332
 20
324.618662
 42
-0.002487
  0
VERTEX
  8
0
 10
293.249654
 20
322.687126
 42
-0.002409
  0
VERTEX
  8
0
 10
293.511846
 20
320.732110
 42
0.026320
  0
VERTEX
  8
0
 10
294.052790
 20
317.778281
 42
0.116501
  0
VERTEX
  8
0
 10
294.840906
 20
316.210144
 42
0.089568
  0
VERTEX
  8
0
 10
296.346664
 20
314.956034
 42
0.012083
  0
VERTEX
  8
0
 10
299.989152
 20
313.005476
 42
-0.018661
  0
VERTEX
  8
0
 10
302.545334
 20
311.593063
 42
-0.033628
  0
VERTEX
  8
0
 10
304.507642
 20
310.223475
 42
-0.041730
  0
VERTEX
  8
0
 10
305.865454
 20
308.932966
 42
-0.112256
  0
VERTEX
  8
0
 10
306.504709
 20
307.773366
 42
0.015477
  0
VERTEX
  8
0
 10
306.859066
 20
306.671665
 42
0.006336
  0
VERTEX
  8
0
 10
307.405095
 20
305.197890
 42
0.006261
  0
VERTEX
  8
0
 10
308.031834
 20
303.628785
 42
0.007969
  0
VERTEX
  8
0
 10
308.651023
 20
302.198174
 42
-0.076159
  0
VERTEX
  8
0
 10
309.391014
 20
299.548967
 42
-0.081244
  0
VERTEX
  8
0
 10
309.278642
 20
296.860550
 42
-0.028563
  0
VERTEX
  8
0
 10
308.141092
 20
292.601841
 42
-0.002049
  0
VERTEX
  8
0
 10
304.267663
 20
281.000000
 42
0.004701
  0
VERTEX
  8
0
 10
301.975775
 20
274.012083
 42
0.041717
  0
VERTEX
  8
0
 10
301.255915
 20
270.854341
 42
0.104276
  0
VERTEX
  8
0
 10
301.388616
 20
268.878142
 42
0.115690
  0
VERTEX
  8
0
 10
302.313257
 20
267.206348
 42
-0.025136
  0
VERTEX
  8
0
 10
303.278446
 20
266.025643
 42
-0.182189
  0
VERTEX
  8
0
 10
303.473827
 20
265.332144
 42
-0.168194
  0
VERTEX
  8
0
 10
303.170704
 20
264.651689
 42
-0.020724
  0
VERTEX
  8
0
 10
301.993959
 20
263.494533
 42
0.094780
  0
VERTEX
  8
0
 10
300.826844
 20
261.947220
 42
0.137105
  0
VERTEX
  8
0
 10
300.514027
 20
260.273180
 42
0.075248
  0
VERTEX
  8
0
 10
301.073609
 20
257.966464
 42
0.014277
  0
VERTEX
  8
0
 10
302.829513
 20
254.000000
 42
-0.056705
  0
VERTEX
  8
0
 10
303.649706
 20
251.621137
 42
-0.029439
  0
VERTEX
  8
0
 10
304.150428
 20
248.515813
 42
-0.019392
  0
VERTEX
  8
0
 10
304.422191
 20
244.154300
 42
-0.005862
  0
VERTEX
  8
0
 10
304.500000
 20
237.518239
 42
0.000000
  0
VERTEX
  8
0
 10
304.500000
 20
224.536477
 42
0.000000
  0
VERTEX
  8
0
 10
308.500000
 20
223.763489
 42
0.007845
  0
VERTEX
  8
0
 10
316.872101
 20
222.281462
 42
0.024896
  0
VERTEX
  8
0
 10
322.523710
 20
221.658792
 42
0.037478
  0
VERTEX
  8
0
 10
326.524849
 20
221.718695
 42
0.093483
  0
VERTEX
  8
0
 10
329.327271
 20
222.513378
 42
-0.021846
  0
VERTEX
  8
0
 10
331.092081
 20
223.299493
 42
-0.094460
  0
VERTEX
  8
0
 10
332.214529
 20
223.511882
 42
-0.110097
  0
VERTEX
  8
0
 10
333.247061
 20
223.280267
 42
-0.035030
  0
VERTEX
  8
0
 10
334.630882
 20
222.506200
 42
0.040997
  0
VERTEX
  8
0
 10
335.691795
 20
221.929245
 42
0.027653
  0
VERTEX
  8
0
 10
336.981749
 20
221.442446
 42
0.027901
  0
VERTEX
  8
0
 10
338.290918
 20
221.108476
 42
0.048535
  0
VERTEX
  8
0
 10
339.405800
 20
221.000000
 42
-0.035587
  0
VERTEX
  8
0
 10
340.397030
 20
220.929360
 42
-0.040081
  0
VERTEX
  8
0
 10
341.328430
 20
220.718724
 42
-0.043951
  0
VERTEX
  8
0
 10
342.076418
 20
220.410934
 42
-0.135573
  0
VERTEX
  8
0
 10
342.473755
 20
220.042465
 42
-0.085811
  0
VERTEX
  8
0
 10
343.384254
 20
217.778478
 42
-0.004444
  0
VERTEX
  8
0
 10
344.970145
 20
210.045699
 42
-0.003156
  0
VERTEX
  8
0
 10
346.478200
 20
202.079043
 42
-0.137654
  0
VERTEX
  8
0
 10
346.321473
 20
200.395362
 42
0.140270
  0
VERTEX
  8
0
 10
346.257984
 20
199.673169
 42
0.020344
  0
VERTEX
  8
0
 10
346.600524
 20
198.221453
 42
0.021715
  0
VERTEX
  8
0
 10
347.164086
 20
196.496754
 42
0.017056
  0
VERTEX
  8
0
 10
347.918053
 20
194.679886
 42
0.066083
  0
VERTEX
  8
0
 10
350.008452
 20
191.341459
 42
0.138797
  0
VERTEX
  8
0
 10
352.507434
 20
189.618733
 42
0.126909
  0
VERTEX
  8
0
 10
355.698856
 20
189.378100
 42
0.050894
  0
VERTEX
  8
0
 10
359.939898
 20
190.592629
 42
-0.010599
  0
VERTEX
  8
0
 10
362.588132
 20
191.587660
 42
-0.093192
  0
VERTEX
  8
0
 10
363.820025
 20
191.776831
 42
-0.152603
  0
VERTEX
  8
0
 10
364.770060
 20
191.444671
 42
-0.042963
  0
VERTEX
  8
0
 10
365.959096
 20
190.391056
 42
-0.153370
  0
VERTEX
  8
0
 10
367.025209
 20
188.214498
 42
-0.057568
  0
VERTEX
  8
0
 10
367.149154
 20
184.781814
 42
-0.030191
  0
VERTEX
  8
0
 10
366.386420
 20
179.341023
 42
-0.006055
  0
VERTEX
  8
0
 10
364.328081
 20
169.766363
 42
0.016120
  0
VERTEX
  8
0
 10
363.207682
 20
163.991347
 42
0.140631
  0
VERTEX
  8
0
 10
363.517294
 20
161.424527
 42
0.228034
  0
VERTEX
  8
0
 10
365.074860
 20
160.050357
 42
0.049631
  0
VERTEX
  8
0
 10
368.701092
 20
159.407932
 42
0.000022
  0
VERTEX
  8
0
 10
370.213286
 20
159.292608
 42
0.000028
  0
VERTEX
  8
0
 10
371.614822
 20
159.185863
 42
0.000022
  0
VERTEX
  8
0
 10
372.790983
 20
159.096401
 42
0.000219
  0
VERTEX
  8
0
 10
373.285537
 20
159.059024
 42
-0.226692
  0
VERTEX
  8
0
 10
373.682427
 20
158.831334
 42
-0.016020
  0
VERTEX
  8
0
 10
374.393305
 20
157.727283
 42
-0.020113
  0
VERTEX
  8
0
 10
375.175258
 20
156.295263
 42
-0.013658
  0
VERTEX
  8
0
 10
375.953568
 20
154.608322
 42
-0.070807
  0
VERTEX
  8
0
 10
377.177199
 20
150.073982
 42
-0.024150
  0
VERTEX
  8
0
 10
377.681811
 20
143.259255
 42
-0.018910
  0
VERTEX
  8
0
 10
377.600584
 20
136.597789
 42
-0.187350
  0
VERTEX
  8
0
 10
376.479420
 20
134.089985
 42
-0.065045
  0
VERTEX
  8
0
 10
375.751309
 20
133.536394
 42
-0.003989
  0
VERTEX
  8
0
 10
373.370246
 20
132.197696
 42
-0.005880
  0
VERTEX
  8
0
 10
370.494039
 20
130.654519
 42
-0.004317
  0
VERTEX
  8
0
 10
367.270354
 20
129.008669
 42
0.010313
  0
VERTEX
  8
0
 10
364.026143
 20
127.302990
 42
0.012808
  0
VERTEX
  8
0
 10
361.085001
 20
125.578606
 42
0.011142
  0
VERTEX
  8
0
 10
358.704079
 20
124.024884
 42
0.088473
  0
VERTEX
  8
0
 10
357.770354
 20
123.106803
 42
-0.044080
  0
VERTEX
  8
0
 10
357.105649
 20
122.326330
 42
-0.021856
  0
VERTEX
  8
0
 10
356.138792
 20
121.454916
 42
-0.021505
  0
VERTEX
  8
0
 10
355.050217
 20
120.632831
 42
-0.029414
  0
VERTEX
  8
0
 10
354.000000
 20
119.996137
 42
0.071587
  0
VERTEX
  8
0
 10
349.705948
 20
116.871063
 42
0.010117
  0
VERTEX
  8
0
 10
342.007554
 20
109.065935
 42
0.012276
  0
VERTEX
  8
0
 10
334.453104
 20
100.687552
 42
0.031678
  0
VERTEX
  8
0
 10
329.553366
 20
94.186377
 42
-0.010866
  0
VERTEX
  8
0
 10
327.547198
 20
91.280488
 42
-0.012463
  0
VERTEX
  8
0
 10
325.503412
 20
88.597011
 42
-0.011628
  0
VERTEX
  8
0
 10
323.668133
 20
86.414002
 42
-0.067207
  0
VERTEX
  8
0
 10
322.531897
 20
85.428943
 42
0.071467
  0
VERTEX
  8
0
 10
319.973629
 20
83.172773
 42
0.025864
  0
VERTEX
  8
0
 10
317.020865
 20
79.317932
 42
0.021134
  0
VERTEX
  8
0
 10
314.523773
 20
75.332151
 42
0.178786
  0
VERTEX
  8
0
 10
314.184841
 20
73.278714
 42
0.270784
  0
VERTEX
  8
0
 10
315.300789
 20
72.004136
 42
0.063538
  0
VERTEX
  8
0
 10
318.195550
 20
71.429775
 42
0.061200
  0
VERTEX
  8
0
 10
321.301945
 20
71.595444
 42
0.177465
  0
VERTEX
  8
0
 10
323.133287
 20
72.660601
 42
-0.166173
  0
VERTEX
  8
0
 10
324.913594
 20
73.749021
 42
-0.141748
  0
VERTEX
  8
0
 10
327.119499
 20
73.611591
 42
-0.075235
  0
VERTEX
  8
0
 10
330.026746
 20
72.045827
 42
-0.020769
  0
VERTEX
  8
0
 10
334.054824
 20
68.750000
 42
-0.011381
  0
VERTEX
  8
0
 10
337.178884
 20
65.839391
 42
-0.047408
  0
VERTEX
  8
0
 10
338.841392
 20
63.878558
 42
-0.077028
  0
VERTEX
  8
0
 10
339.679376
 20
62.164645
 42
-0.073593
  0
VERTEX
  8
0
 10
339.976740
 20
60.250000
 42
0.025586
  0
VERTEX
  8
0
 10
340.085432
 20
58.388293
 42
0.158907
  0
VERTEX
  8
0
 10
340.474418
 20
57.528027
 42
0.176413
  0
VERTEX
  8
0
 10
341.272352
 20
57.110859
 42
0.033136
  0
VERTEX
  8
0
 10
342.943296
 20
57.000000
 42
0.051920
  0
VERTEX
  8
0
 10
344.257578
 20
57.136844
 42
0.056592
  0
VERTEX
  8
0
 10
345.475789
 20
57.541299
 42
0.059743
  0
VERTEX
  8
0
 10
346.514320
 20
58.182272
 42
0.071993
  0
VERTEX
  8
0
 10
347.299254
 20
59.016857
 42
-0.042018
  0
VERTEX
  8
0
 10
348.222308
 20
60.123933
 42
-0.312802
  0
VERTEX
  8
0
 10
348.860091
 20
60.243611
 42
-0.134455
  0
VERTEX
  8
0
 10
349.571555
 20
59.658635
 42
-0.007477
  0
VERTEX
  8
0
 10
351.209248
 20
57.266857
 42
0.035716
  0
VERTEX
  8
0
 10
352.667558
 20
55.375549
 42
0.056224
  0
VERTEX
  8
0
 10
354.193770
 20
54.009104
 42
0.053751
  0
VERTEX
  8
0
 10
356.036905
 20
52.976933
 42
0.029568
  0
VERTEX
  8
0
 10
358.472992
 20
52.104280
 42
-0.027536
  0
VERTEX
  8
0
 10
360.844815
 20
51.265497
 42
-0.053124
  0
VERTEX
  8
0
 10
362.609209
 20
50.299028
 42
-0.060235
  0
VERTEX
  8
0
 10
363.983930
 20
49.074702
 42
-0.047493
  0
VERTEX
  8
0
 10
365.155694
 20
47.460692
 42
0.043662
  0
VERTEX
  8
0
 10
366.109217
 20
46.125939
 42
0.030840
  0
VERTEX
  8
0
 10
367.391772
 20
44.801260
 42
0.031281
  0
VERTEX
  8
0
 10
368.786870
 20
43.679197
 42
0.055585
  0
VERTEX
  8
0
 10
370.076918
 20
42.968140
 42
-0.036117
  0
VERTEX
  8
0
 10
373.269223
 20
41.366982
 42
-0.052902
  0
VERTEX
  8
0
 10
375.782481
 20
39.484758
 42
-0.061984
  0
VERTEX
  8
0
 10
377.535194
 20
37.397407
 42
-0.089856
  0
VERTEX
  8
0
 10
378.460107
 20
35.181633
 42
0.067226
  0
VERTEX
  8
0
 10
378.905629
 20
33.962837
 42
0.043819
  0
VERTEX
  8
0
 10
379.718104
 20
32.701615
 42
0.042650
  0
VERTEX
  8
0
 10
380.772136
 20
31.559049
 42
0.051763
  0
VERTEX
  8
0
 10
381.942986
 20
30.692750
 42
-0.096678
  0
VERTEX
  8
0
 10
383.722449
 20
29.112031
 42
-0.166967
  0
VERTEX
  8
0
 10
384.340179
 20
27.253185
 42
-0.169365
  0
VERTEX
  8
0
 10
383.682490
 20
25.426470
 42
-0.099896
  0
VERTEX
  8
0
 10
381.875087
 20
23.933149
 42
0.118909
  0
VERTEX
  8
0
 10
380.919523
 20
23.081258
 42
0.093745
  0
VERTEX
  8
0
 10
380.353851
 20
21.811304
 42
0.048440
  0
VERTEX
  8
0
 10
380.072011
 20
19.740919
 42
0.009624
  0
VERTEX
  8
0
 10
380.000000
 20
16.000000
 42
0.009344
  0
VERTEX
  8
0
 10
380.071592
 20
12.169417
 42
0.051717
  0
VERTEX
  8
0
 10
380.360269
 20
10.131486
 42
0.101974
  0
VERTEX
  8
0
 10
380.958242
 20
8.885016
 42
0.107625
  0
VERTEX
  8
0
 10
381.990969
 20
8.004833
 42
0.238695
  0
VERTEX
  8
0
 10
385.882997
 20
7.916175
 42
0.077798
  0
VERTEX
  8
0
 10
390.764211
 20
11.263695
 42
0.062318
  0
VERTEX
  8
0
 10
395.497037
 20
16.999194
 42
0.053359
  0
VERTEX
  8
0
 10
398.967425
 20
24.024636
 42
-0.033255
  0
VERTEX
  8
0
 10
401.566134
 20
29.864483
 42
-0.048695
  0
VERTEX
  8
0
 10
404.658343
 20
34.558713
 42
-0.047839
  0
VERTEX
  8
0
 10
408.644088
 20
38.624943
 42
-0.030693
  0
VERTEX
  8
0
 10
413.955078
 20
42.566189
 42
0.038811
  0
VERTEX
  8
0
 10
421.433383
 20
48.306132
 42
0.037701
  0
VERTEX
  8
0
 10
428.013493
 20
55.184916
 42
0.037385
  0
VERTEX
  8
0
 10
433.535514
 20
63.033649
 42
0.036743
  0
VERTEX
  8
0
 10
437.863210
 20
71.661555
 42
-0.027893
  0
VERTEX
  8
0
 10
442.245632
 20
80.798141
 42
-0.037348
  0
VERTEX
  8
0
 10
447.262885
 20
88.495092
 42
-0.037764
  0
VERTEX
  8
0
 10
453.321830
 20
95.295169
 42
-0.029506
  0
VERTEX
  8
0
 10
460.834426
 20
101.732677
 42
0.041819
  0
VERTEX
  8
0
 10
462.009236
 20
102.790565
 42
0.032160
  0
VERTEX
  8
0
 10
463.108077
 20
104.122407
 42
0.032995
  0
VERTEX
  8
0
 10
463.978137
 20
105.511505
 42
0.063981
  0
VERTEX
  8
0
 10
464.445916
 20
106.732677
 42
-0.023518
  0
VERTEX
  8
0
 10
464.843278
 20
108.088706
 42
-0.008929
  0
VERTEX
  8
0
 10
465.519479
 20
109.941524
 42
-0.008820
  0
VERTEX
  8
0
 10
466.327315
 20
111.932601
 42
-0.010665
  0
VERTEX
  8
0
 10
467.157744
 20
113.770381
 42
0.025802
  0
VERTEX
  8
0
 10
468.142639
 20
116.138467
 42
0.049457
  0
VERTEX
  8
0
 10
468.638737
 20
118.133584
 42
0.049181
  0
VERTEX
  8
0
 10
468.734845
 20
120.194652
 42
0.025228
  0
VERTEX
  8
0
 10
468.470862
 20
122.770381
 42
-0.020030
  0
VERTEX
  8
0
 10
468.181724
 20
125.329151
 42
-0.005085
  0
VERTEX
  8
0
 10
467.921443
 20
129.501912
 42
-0.005177
  0
VERTEX
  8
0
 10
467.721827
 20
134.277875
 42
-0.005217
  0
VERTEX
  8
0
 10
467.621789
 20
139.044639
 42
-0.005753
  0
VERTEX
  8
0
 10
467.627771
 20
145.301233
 42
-0.026214
  0
VERTEX
  8
0
 10
467.863681
 20
148.932398
 42
-0.045745
  0
VERTEX
  8
0
 10
468.383070
 20
151.384629
 42
-0.070116
  0
VERTEX
  8
0
 10
469.307026
 20
153.346489
 42
0.047330
  0
VERTEX
  8
0
 10
469.999168
 20
154.658113
 42
0.035407
  0
VERTEX
  8
0
 10
470.513800
 20
156.210098
 42
0.035663
  0
VERTEX
  8
0
 10
470.800512
 20
157.802809
 42
0.051177
  0
VERTEX
  8
0
 10
470.807026
 20
159.235640
 42
-0.025567
  0
VERTEX
  8
0
 10
470.719439
 20
161.114023
 42
-0.194534
  0
VERTEX
  8
0
 10
471.048492
 20
161.917283
 42
-0.176118
  0
VERTEX
  8
0
 10
471.863628
 20
162.310106
 42
-0.020277
  0
VERTEX
  8
0
 10
473.927246
 20
162.433790
 42
0.042965
  0
VERTEX
  8
0
 10
475.845220
 20
162.636295
 42
0.110744
  0
VERTEX
  8
0
 10
477.114486
 20
163.190462
 42
0.091151
  0
VERTEX
  8
0
 10
478.168312
 20
164.306472
 42
0.023263
  0
VERTEX
  8
0
 10
479.427246
 20
166.462888
 42
-0.044973
  0
VERTEX
  8
0
 10
480.733742
 20
168.493169
 42
-0.043229
  0
VERTEX
  8
0
 10
482.397999
 20
170.286499
 42
-0.036744
  0
VERTEX
  8
0
 10
484.586801
 20
171.995269
 42
-0.019928
  0
VERTEX
  8
0
 10
487.500000
 20
173.779560
 42
0.013024
  0
VERTEX
  8
0
 10
490.017087
 20
175.273859
 42
0.010789
  0
VERTEX
  8
0
 10
492.618750
 20
176.990945
 42
0.010937
  0
VERTEX
  8
0
 10
494.936142
 20
178.669325
 42
0.028606
  0
VERTEX
  8
0
 10
496.500000
 20
180.002365
 42
-0.056649
  0
VERTEX
  8
0
 10
500.957227
 20
183.390118
 42
-0.036144
  0
VERTEX
  8
0
 10
506.784037
 20
186.309539
 42
-0.036327
  0
VERTEX
  8
0
 10
512.906066
 20
188.335561
 42
-0.061787
  0
VERTEX
  8
0
 10
518.250000
 20
188.999211
 42
0.011875
  0
VERTEX
  8
0
 10
521.054163
 20
189.066205
 42
0.048626
  0
VERTEX
  8
0
 10
522.736424
 20
189.311532
 42
0.100310
  0
VERTEX
  8
0
 10
523.665721
 20
189.751229
 42
0.236494
  0
VERTEX
  8
0
 10
524.000000
 20
190.418441
 42
-0.221986
  0
VERTEX
  8
0
 10
524.732029
 20
191.986009
 42
-0.038976
  0
VERTEX
  8
0
 10
527.452753
 20
193.924700
 42
-0.041606
  0
VERTEX
  8
0
 10
530.646931
 20
195.499428
 42
-0.093992
  0
VERTEX
  8
0
 10
533.286247
 20
196.000000
 42
0.037368
  0
VERTEX
  8
0
 10
536.037312
 20
196.205891
 42
0.117646
  0
VERTEX
  8
0
 10
537.742054
 20
196.893947
 42
0.156152
  0
VERTEX
  8
0
 10
538.677185
 20
198.141667
 42
0.083534
  0
VERTEX
  8
0
 10
539.000000
 20
200.060424
 42
-0.182212
  0
VERTEX
  8
0
 10
539.692378
 20
201.897270
 42
-0.194194
  0
VERTEX
  8
0
 10
541.404261
 20
202.758777
 42
-0.026932
  0
VERTEX
  8
0
 10
545.682947
 20
202.881953
 42
-0.000589
  0
VERTEX
  8
0
 10
566.476017
 20
202.336013
 42
0.002715
  0
VERTEX
  8
0
 10
575.840788
 20
202.129978
 42
0.023008
  0
VERTEX
  8
0
 10
580.050201
 20
202.253944
 42
0.055441
  0
VERTEX
  8
0
 10
582.399478
 20
202.696546
 42
0.162005
  0
VERTEX
  8
0
 10
583.726017
 20
203.639984
 42
0.047963
  0
VERTEX
  8
0
 10
584.214115
 20
204.462590
 42
0.030552
  0
VERTEX
  8
0
 10
584.625767
 20
205.497492
 42
0.030584
  0
VERTEX
  8
0
 10
584.907541
 20
206.572491
 42
0.048838
  0
VERTEX
  8
0
 10
585.000000
 20
207.516816
 42
-0.139827
  0
VERTEX
  8
0
 10
585.620866
 20
209.693529
 42
-0.073198
  0
VERTEX
  8
0
 10
587.454738
 20
211.862663
 42
-0.066032
  0
VERTEX
  8
0
 10
590.083547
 20
213.626409
 42
-0.068586
  0
VERTEX
  8
0
 10
593.048075
 20
214.615794
 42
0.029469
  0
VERTEX
  8
0
 10
594.604856
 20
215.003505
 42
0.016670
  0
VERTEX
  8
0
 10
596.440684
 20
215.645354
 42
0.016599
  0
VERTEX
  8
0
 10
598.254731
 20
216.418469
 42
0.026116
  0
VERTEX
  8
0
 10
599.750000
 20
217.212738
 42
0.034263
  0
VERTEX
  8
0
 10
601.595517
 20
218.499873
 42
0.115683
  0
VERTEX
  8
0
 10
602.494457
 20
219.651116
 42
0.091537
  0
VERTEX
  8
0
 10
602.898104
 20
221.231647
 42
0.016871
  0
VERTEX
  8
0
 10
603.000000
 20
224.250703
 42
-0.067836
  0
VERTEX
  8
0
 10
603.599381
 20
228.648236
 42
-0.041507
  0
VERTEX
  8
0
 10
605.416614
 20
233.567010
 42
-0.040058
  0
VERTEX
  8
0
 10
608.137594
 20
238.353270
 42
-0.047132
  0
VERTEX
  8
0
 10
611.460739
 20
242.369830
 42
0.028004
  0
VERTEX
  8
0
 10
612.432573
 20
243.457078
 42
0.029902
  0
VERTEX
  8
0
 10
613.254092
 20
244.623458
 42
0.031315
  0
VERTEX
  8
0
 10
613.831852
 20
245.703437
 42
0.107568
  0
VERTEX
  8
0
 10
614.000000
 20
246.475984
 42
-0.126238
  0
VERTEX
  8
0
 10
614.174456
 20
247.155958
 42
-0.058285
  0
VERTEX
  8
0
 10
614.707860
 20
247.905125
 42
-0.052391
  0
VERTEX
  8
0
 10
615.487993
 20
248.604604
 42
-0.049723
  0
VERTEX
  8
0
 10
616.409737
 20
249.140827
 42
0.084009
  0
VERTEX
  8
0
 10
617.507592
 20
249.884120
 42
0.042149
  0
VERTEX
  8
0
 10
618.620080
 20
251.142921
 42
0.037676
  0
VERTEX
  8
0
 10
619.649801
 20
252.770088
 42
0.031031
  0
VERTEX
  8
0
 10
620.500577
 20
254.640684
 42
-0.031954
  0
VERTEX
  8
0
 10
621.383184
 20
256.571805
 42
-0.038885
  0
VERTEX
  8
0
 10
622.456515
 20
258.245194
 42
-0.043075
  0
VERTEX
  8
0
 10
623.650813
 20
259.568653
 42
-0.068433
  0
VERTEX
  8
0
 10
624.896155
 20
260.446300
 42
0.091184
  0
VERTEX
  8
0
 10
627.252258
 20
262.271542
 42
0.088626
  0
VERTEX
  8
0
 10
628.833089
 20
264.832510
 42
0.066260
  0
VERTEX
  8
0
 10
629.723183
 20
268.409110
 42
0.027903
  0
VERTEX
  8
0
 10
630.000000
 20
273.365552
 42
-0.033914
  0
VERTEX
  8
0
 10
630.432335
 20
279.732179
 42
-0.047822
  0
VERTEX
  8
0
 10
631.734713
 20
285.265152
 42
-0.053545
  0
VERTEX
  8
0
 10
633.900256
 20
289.940820
 42
-0.063921
  0
VERTEX
  8
0
 10
636.908252
 20
293.750139
 42
0.028570
  0
VERTEX
  8
0
 10
639.144964
 20
296.204994
 42
0.076737
  0
VERTEX
  8
0
 10
640.333441
 20
298.239753
 42
0.053869
  0
VERTEX
  8
0
 10
641.070746
 20
300.926514
 42
0.008940
  0
VERTEX
  8
0
 10
641.832526
 20
306.243170
 42
-0.016480
  0
VERTEX
  8
0
 10
642.447651
 20
310.119148
 42
-0.010736
  0
VERTEX
  8
0
 10
643.400411
 20
314.549728
 42
-0.010799
  0
VERTEX
  8
0
 10
644.517278
 20
318.836281
 42
-0.020179
  0
VERTEX
  8
0
 10
645.634330
 20
322.243170
 42
0.020192
  0
VERTEX
  8
0
 10
647.131551
 20
326.809933
 42
0.036109
  0
VERTEX
  8
0
 10
647.932343
 20
330.676022
 42
0.024772
  0
VERTEX
  8
0
 10
648.330581
 20
335.490807
 42
0.005114
  0
VERTEX
  8
0
 10
648.524301
 20
344.000000
 42
-0.004912
  0
VERTEX
  8
0
 10
648.962775
 20
363.608161
 42
-0.030633
  0
VERTEX
  8
0
 10
649.899430
 20
373.604337
 42
-0.050363
  0
VERTEX
  8
0
 10
651.869534
 20
381.152298
 42
-0.028324
  0
VERTEX
  8
0
 10
655.671390
 20
389.838056
 42
-0.422794
  0
VERTEX
  8
0
 10
655.847596
 20
389.892868
 42
-0.009658
  0
VERTEX
  8
0
 10
656.690868
 20
389.412568
 42
-0.015672
  0
VERTEX
  8
0
 10
657.716105
 20
388.757737
 42
-0.009225
  0
VERTEX
  8
0
 10
658.901278
 20
387.914868
 42
0.012470
  0
VERTEX
  8
0
 10
660.902594
 20
386.511039
 42
0.131207
  0
VERTEX
  8
0
 10
661.841453
 20
386.193816
 42
0.174700
  0
VERTEX
  8
0
 10
662.693529
 20
386.439753
 42
0.026189
  0
VERTEX
  8
0
 10
664.101730
 20
387.576811
 42
0.041291
  0
VERTEX
  8
0
 10
667.519584
 20
391.197226
 42
0.015223
  0
VERTEX
  8
0
 10
671.737395
 20
396.819250
 42
0.013890
  0
VERTEX
  8
0
 10
676.317905
 20
403.728500
 42
0.010717
  0
VERTEX
  8
0
 10
680.936485
 20
411.500000
 42
-0.009180
  0
VERTEX
  8
0
 10
684.133772
 20
416.917799
 42
-0.022027
  0
VERTEX
  8
0
 10
686.748779
 20
420.776890
 42
-0.029346
  0
VERTEX
  8
0
 10
689.124234
 20
423.607040
 42
-0.043861
  0
VERTEX
  8
0
 10
691.537294
 20
425.750000
 42
-0.016273
  0
VERTEX
  8
0
 10
693.332904
 20
426.994257
 42
-0.019334
  0
VERTEX
  8
0
 10
695.107318
 20
428.045312
 42
-0.018475
  0
VERTEX
  8
0
 10
696.653071
 20
428.809533
 42
-0.105947
  0
VERTEX
  8
0
 10
697.541862
 20
429.000000
 42
0.166144
  0
VERTEX
  8
0
 10
698.473004
 20
429.318190
 42
0.013466
  0
VERTEX
  8
0
 10
700.501477
 20
430.977040
 42
0.016971
  0
VERTEX
  8
0
 10
702.853521
 20
433.152259
 42
0.012206
  0
VERTEX
  8
0
 10
705.333904
 20
435.730348
 42
-0.003041
  0
VERTEX
  8
0
 10
708.109851
 20
438.723562
 42
-0.001952
  0
VERTEX
  8
0
 10
711.365958
 20
442.164943
 42
-0.001961
  0
VERTEX
  8
0
 10
714.580295
 20
445.509358
 42
-0.003676
  0
VERTEX
  8
0
 10
717.209782
 20
448.184225
 42
0.033167
  0
VERTEX
  8
0
 10
721.821257
 20
453.464536
 42
0.041169
  0
VERTEX
  8
0
 10
725.335862
 20
458.956465
 42
0.035359
  0
VERTEX
  8
0
 10
728.270560
 20
465.593864
 42
0.016804
  0
VERTEX
  8
0
 10
731.140736
 20
474.492377
 42
0.016297
  0
VERTEX
  8
0
 10
732.948477
 20
481.697766
 42
0.033582
  0
VERTEX
  8
0
 10
733.794066
 20
487.444929
 42
0.040510
  0
VERTEX
  8
0
 10
733.783808
 20
492.495522
 42
0.040010
  0
VERTEX
  8
0
 10
732.960858
 20
497.500000
 42
-0.005479
  0
VERTEX
  8
0
 10
732.430484
 20
499.744893
 42
-0.001136
  0
VERTEX
  8
0
 10
731.550441
 20
503.703125
 42
-0.001194
  0
VERTEX
  8
0
 10
730.550018
 20
508.303893
 42
-0.001126
  0
VERTEX
  8
0
 10
729.551657
 20
513.000000
 42
0.008678
  0
VERTEX
  8
0
 10
727.529786
 20
521.851109
 42
0.032050
  0
VERTEX
  8
0
 10
725.803322
 20
527.315716
 42
0.052789
  0
VERTEX
  8
0
 10
724.005217
 20
530.807231
 42
0.110450
  0
VERTEX
  8
0
 10
721.822223
 20
532.922902
 42
0.080655
  0
VERTEX
  8
0
 10
720.360923
 20
533.521472
 42
0.012464
  0
VERTEX
  8
0
 10
717.283563
 20
534.154516
 42
0.013612
  0
VERTEX
  8
0
 10
713.579342
 20
534.717123
 42
0.011400
  0
VERTEX
  8
0
 10
709.624173
 20
535.116797
 42
-0.007811
  0
VERTEX
  8
0
 10
704.455998
 20
535.601602
 42
-0.030266
  0
VERTEX
  8
0
 10
701.285465
 20
536.144758
 42
-0.049868
  0
VERTEX
  8
0
 10
699.147162
 20
536.876783
 42
-0.081354
  0
VERTEX
  8
0
 10
697.559721
 20
537.943895
 42
0.042218
  0
VERTEX
  8
0
 10
696.566059
 20
538.730810
 42
0.035015
  0
VERTEX
  8
0
 10
695.391796
 20
539.396019
 42
0.036359
  0
VERTEX
  8
0
 10
694.221552
 20
539.853588
 42
0.075151
  0
VERTEX
  8
0
 10
693.252936
 20
540.000000
 42
-0.079820
  0
VERTEX
  8
0
 10
692.374568
 20
540.141121
 42
-0.074690
  0
VERTEX
  8
0
 10
691.562335
 20
540.551368
 42
-0.075762
  0
VERTEX
  8
0
 10
690.916102
 20
541.175553
 42
-0.086259
  0
VERTEX
  8
0
 10
690.519609
 20
541.938216
 42
0.101984
  0
VERTEX
  8
0
 10
690.056818
 20
542.764422
 42
0.043791
  0
VERTEX
  8
0
 10
689.144496
 20
543.648027
 42
0.040921
  0
VERTEX
  8
0
 10
687.972906
 20
544.449702
 42
0.042666
  0
VERTEX
  8
0
 10
686.702222
 20
545.037098
 42
-0.070535
  0
VERTEX
  8
0
 10
685.112832
 20
545.881931
 42
-0.018226
  0
VERTEX
  8
0
 10
682.825028
 20
547.679041
 42
-0.018175
  0
VERTEX
  8
0
 10
680.340718
 20
549.941253
 42
-0.017610
  0
VERTEX
  8
0
 10
678.000000
 20
552.401076
 42
0.034799
  0
VERTEX
  8
0
 10
669.296051
 20
560.940383
 42
0.017756
  0
VERTEX
  8
0
 10
657.293573
 20
570.464459
 42
0.016054
  0
VERTEX
  8
0
 10
645.313551
 20
578.716053
 42
0.076746
  0
VERTEX
  8
0
 10
637.747441
 20
582.075448
 42
0.039146
  0
VERTEX
  8
0
 10
635.249919
 20
582.546491
 42
0.022231
  0
VERTEX
  8
0
 10
632.178612
 20
582.742424
 42
0.017905
  0
VERTEX
  8
0
 10
628.402989
 20
582.679922
 42
0.009336
  0
VERTEX
  8
0
 10
623.707145
 20
582.345814
 42
-0.007538
  0
VERTEX
  8
0
 10
618.324947
 20
581.943421
 42
-0.028602
  0
VERTEX
  8
0
 10
614.952946
 20
581.935460
 42
-0.042421
  0
VERTEX
  8
0
 10
612.339805
 20
582.302688
 42
-0.037310
  0
VERTEX
  8
0
 10
609.707145
 20
583.114161
 42
0.026748
  0
VERTEX
  8
0
 10
607.788298
 20
583.750250
 42
0.016861
  0
VERTEX
  8
0
 10
605.490994
 20
584.295169
 42
0.016923
  0
VERTEX
  8
0
 10
603.189142
 20
584.679251
 42
0.029608
  0
VERTEX
  8
0
 10
601.262196
 20
584.818802
 42
-0.051042
  0
VERTEX
  8
0
 10
598.896023
 20
585.092338
 42
-0.019745
  0
VERTEX
  8
0
 10
595.698897
 20
585.931123
 42
-0.017383
  0
VERTEX
  8
0
 10
591.936162
 20
587.223413
 42
-0.011930
  0
VERTEX
  8
0
 10
587.760452
 20
588.937152
 42
0.011273
  0
VERTEX
  8
0
 10
581.185086
 20
591.645829
 42
0.050879
  0
VERTEX
  8
0
 10
577.183826
 20
592.738335
 42
0.097434
  0
VERTEX
  8
0
 10
574.454495
 20
592.658120
 42
0.141371
  0
VERTEX
  8
0
 10
572.357143
 20
591.500000
 42
-0.074123
  0
VERTEX
  8
0
 10
571.580416
 20
590.924798
 42
-0.038582
  0
VERTEX
  8
0
 10
570.473468
 20
590.440625
 42
-0.037311
  0
VERTEX
  8
0
 10
569.235473
 20
590.110485
 42
-0.046539
  0
VERTEX
  8
0
 10
568.051016
 20
590.000000
 42
0.051325
  0
VERTEX
  8
0
 10
566.876991
 20
589.879168
 42
0.042339
  0
VERTEX
  8
0
 10
565.670346
 20
589.519423
 42
0.044058
  0
VERTEX
  8
0
 10
564.610362
 20
588.991041
 42
0.082079
  0
VERTEX
  8
0
 10
563.887125
 20
588.363994
 42
-0.061102
  0
VERTEX
  8
0
 10
561.969974
 20
586.556301
 42
-0.018565
  0
VERTEX
  8
0
 10
558.660991
 20
584.307810
 42
-0.010183
  0
VERTEX
  8
0
 10
555.206492
 20
582.240126
 42
-0.338169
  0
VERTEX
  8
0
 10
554.305856
 20
582.360811
 42
-0.272295
  0
VERTEX
  8
0
 10
554.023565
 20
583.449537
 42
-0.019935
  0
VERTEX
  8
0
 10
555.028974
 20
586.505300
 42
-0.025825
  0
VERTEX
  8
0
 10
556.325893
 20
589.494435
 42
-0.104647
  0
VERTEX
  8
0
 10
557.551152
 20
591.042453
 42
0.108657
  0
VERTEX
  8
0
 10
558.606468
 20
592.397707
 42
0.146582
  0
VERTEX
  8
0
 10
558.843587
 20
593.924721
 42
0.073015
  0
VERTEX
  8
0
 10
558.210923
 20
596.101816
 42
0.012502
  0
VERTEX
  8
0
 10
556.317942
 20
599.984978
 42
0.040234
  0
VERTEX
  8
0
 10
553.304113
 20
604.802659
 42
0.064481
  0
VERTEX
  8
0
 10
549.938942
 20
608.285465
 42
0.080773
  0
VERTEX
  8
0
 10
546.444911
 20
610.251807
 42
0.126820
  0
VERTEX
  8
0
 10
543.034716
 20
610.590893
 42
-0.034285
  0
VERTEX
  8
0
 10
541.306621
 20
610.444272
 42
-0.061936
  0
VERTEX
  8
0
 10
539.896448
 20
610.596615
 42
-0.069434
  0
VERTEX
  8
0
 10
538.677847
 20
611.069231
 42
-0.056058
  0
VERTEX
  8
0
 10
537.534716
 20
611.886394
 42
0.050643
  0
VERTEX
  8
0
 10
536.296576
 20
612.791835
 42
0.010012
  0
VERTEX
  8
0
 10
533.894573
 20
614.136037
 42
0.010513
  0
VERTEX
  8
0
 10
531.020539
 20
615.592871
 42
0.009599
  0
VERTEX
  8
0
 10
528.000000
 20
616.974227
 42
-0.000880
  0
VERTEX
  8
0
 10
524.762538
 20
618.387062
 42
-0.000678
  0
VERTEX
  8
0
 10
521.234375
 20
619.939863
 42
-0.000685
  0
VERTEX
  8
0
 10
517.940482
 20
621.400288
 42
-0.001636
  0
VERTEX
  8
0
 10
515.500000
 20
622.495917
 42
0.009427
  0
VERTEX
  8
0
 10
509.228353
 20
625.194895
 42
0.033286
  0
VERTEX
  8
0
 10
505.067924
 20
626.578184
 42
0.041743
  0
VERTEX
  8
0
 10
501.268218
 20
627.234354
 42
0.021895
  0
VERTEX
  8
0
 10
496.472854
 20
627.444444
 42
0.039964
  0
VERTEX
  8
0
 10
490.502577
 20
626.966493
 42
0.095111
  0
VERTEX
  8
0
 10
486.336669
 20
625.448551
 42
0.134445
  0
VERTEX
  8
0
 10
483.891839
 20
622.899014
 42
0.124931
  0
VERTEX
  8
0
 10
483.000000
 20
619.385395
 42
-0.037496
  0
VERTEX
  8
0
 10
482.858641
 20
617.503051
 42
-0.099936
  0
VERTEX
  8
0
 10
482.400078
 20
616.243393
 42
-0.097682
  0
VERTEX
  8
0
 10
481.481505
 20
615.243594
 42
-0.034823
  0
VERTEX
  8
0
 10
479.834798
 20
614.203490
 42
0.023206
  0
VERTEX
  8
0
 10
478.349679
 20
613.312991
 42
0.010183
  0
VERTEX
  8
0
 10
476.465139
 20
612.004518
 42
0.010052
  0
VERTEX
  8
0
 10
474.518251
 20
610.532544
 42
0.013267
  0
VERTEX
  8
0
 10
472.808370
 20
609.109761
 42
-0.019170
  0
VERTEX
  8
0
 10
471.276142
 20
607.865114
 42
-0.030663
  0
VERTEX
  8
0
 10
469.868830
 20
606.937928
 42
-0.031469
  0
VERTEX
  8
0
 10
468.722786
 20
606.372494
 42
-0.310360
  0
VERTEX
  8
0
 10
468.223572
 20
606.477045
 42
-0.228679
  0
VERTEX
  8
0
 10
468.101392
 20
606.854753
 42
-0.109306
  0
VERTEX
  8
0
 10
468.282782
 20
607.344781
 42
-0.073824
  0
VERTEX
  8
0
 10
468.750313
 20
607.878218
 42
-0.043918
  0
VERTEX
  8
0
 10
469.441217
 20
608.367284
 42
0.067739
  0
VERTEX
  8
0
 10
472.951421
 20
611.111173
 42
0.045056
  0
VERTEX
  8
0
 10
476.175974
 20
615.082435
 42
0.037747
  0
VERTEX
  8
0
 10
479.143245
 20
620.307359
 42
0.023052
  0
VERTEX
  8
0
 10
481.873430
 20
626.857196
 42
0.013247
  0
VERTEX
  8
0
 10
482.790402
 20
629.602669
 42
0.027802
  0
VERTEX
  8
0
 10
483.325615
 20
631.787250
 42
0.032132
  0
VERTEX
  8
0
 10
483.522720
 20
633.415987
 42
0.213558
  0
VERTEX
  8
0
 10
483.237985
 20
634.162015
 42
0.134397
  0
VERTEX
  8
0
 10
480.938641
 20
635.473059
 42
0.016223
  0
VERTEX
  8
0
 10
475.194622
 20
636.748916
 42
0.020025
  0
VERTEX
  8
0
 10
469.241190
 20
637.624851
 42
0.059121
  0
VERTEX
  8
0
 10
465.113221
 20
637.575041
 42
-0.032151
  0
VERTEX
  8
0
 10
462.989579
 20
637.434910
 42
-0.014075
  0
VERTEX
  8
0
 10
460.167906
 20
637.509810
 42
-0.013862
  0
VERTEX
  8
0
 10
457.166975
 20
637.757678
 42
-0.018022
  0
VERTEX
  8
0
 10
454.438266
 20
638.159407
 42
-0.012716
  0
VERTEX
  8
0
 10
451.195204
 20
638.842655
 42
-0.052525
  0
VERTEX
  8
0
 10
449.306996
 20
639.506396
 42
-0.093928
  0
VERTEX
  8
0
 10
448.196594
 20
640.316493
 42
-0.123347
  0
VERTEX
  8
0
 10
447.588700
 20
641.409024
 42
-0.051798
  0
VERTEX
  8
0
 10
447.078638
 20
644.594079
 42
-0.065878
  0
VERTEX
  8
0
 10
447.305254
 20
647.559344
 42
-0.057886
  0
VERTEX
  8
0
 10
448.340446
 20
650.647063
 42
-0.029850
  0
VERTEX
  8
0
 10
450.292597
 20
654.230583
 42
0.017567
  0
VERTEX
  8
0
 10
454.019427
 20
660.689184
 42
0.063568
  0
VERTEX
  8
0
 10
455.693660
 20
665.120139
 42
0.103935
  0
VERTEX
  8
0
 10
455.787813
 20
668.583980
 42
0.108184
  0
VERTEX
  8
0
 10
454.471258
 20
671.737573
 42
0.075036
  0
VERTEX
  8
0
 10
453.608403
 20
672.643951
 42
0.040585
  0
VERTEX
  8
0
 10
452.316456
 20
673.488690
 42
0.038416
  0
VERTEX
  8
0
 10
450.792960
 20
674.171155
 42
0.041479
  0
VERTEX
  8
0
 10
449.221258
 20
674.591704
 42
-0.012279
  0
VERTEX
  8
0
 10
447.679156
 20
674.909281
 42
-0.011560
  0
VERTEX
  8
0
 10
446.122895
 20
675.307943
 42
-0.011605
  0
VERTEX
  8
0
 10
444.760596
 20
675.725027
 42
-0.038749
  0
VERTEX
  8
0
 10
443.899235
 20
676.086941
 42
-0.178822
  0
VERTEX
  8
0
 10
441.748868
 20
678.434122
 42
-0.012176
  0
VERTEX
  8
0
 10
438.480581
 20
687.028022
 42
-0.018476
  0
VERTEX
  8
0
 10
435.597047
 20
696.280441
 42
-0.033631
  0
VERTEX
  8
0
 10
434.040964
 20
704.039401
 42
0.007557
  0
VERTEX
  8
0
 10
433.535796
 20
707.479537
 42
0.008128
  0
VERTEX
  8
0
 10
432.937704
 20
710.819914
 42
0.007759
  0
VERTEX
  8
0
 10
432.333737
 20
713.668261
 42
0.037898
  0
VERTEX
  8
0
 10
431.846796
 20
715.241157
 42
0.119481
  0
VERTEX
  8
0
 10
429.569461
 20
718.473172
 42
0.078658
  0
VERTEX
  8
0
 10
425.702782
 20
720.908991
 42
0.125513
  0
VERTEX
  8
0
 10
422.395781
 20
721.427209
 42
0.386861
  0
VERTEX
  8
0
 10
421.000000
 20
719.893215
 42
-0.138294
  0
VERTEX
  8
0
 10
420.810263
 20
719.220343
 42
-0.014194
  0
VERTEX
  8
0
 10
419.898438
 20
717.822740
 42
-0.016842
  0
VERTEX
  8
0
 10
418.686193
 20
716.195055
 42
-0.012683
  0
VERTEX
  8
0
 10
417.250000
 20
714.487142
 42
0.008890
  0
VERTEX
  8
0
 10
412.268355
 20
708.653407
 42
0.023381
  0
VERTEX
  8
0
 10
408.974506
 20
704.250065
 42
0.027984
  0
VERTEX
  8
0
 10
406.456477
 20
700.044910
 42
0.018689
  0
VERTEX
  8
0
 10
404.034067
 20
694.981187
 42
-0.020591
  0
VERTEX
  8
0
 10
401.313351
 20
689.349034
 42
-0.073898
  0
VERTEX
  8
0
 10
398.938813
 20
686.151222
 42
-0.122400
  0
VERTEX
  8
0
 10
396.446193
 20
684.653809
 42
-0.117211
  0
VERTEX
  8
0
 10
393.500000
 20
684.464944
 42
0.028160
  0
VERTEX
  8
0
 10
388.621805
 20
685.018708
 42
0.021405
  0
VERTEX
  8
0
 10
383.240392
 20
685.093659
 42
0.021005
  0
VERTEX
  8
0
 10
378.341175
 20
684.745823
 42
0.071857
  0
VERTEX
  8
0
 10
375.259593
 20
683.938089
 42
-0.050535
  0
VERTEX
  8
0
 10
373.154612
 20
683.289632
 42
-0.108267
  0
VERTEX
  8
0
 10
371.463859
 20
683.319804
 42
-0.058394
  0
VERTEX
  8
0
 10
369.342536
 20
684.094608
 42
-0.007095
  0
VERTEX
  8
0
 10
364.938407
 20
686.393257
 42
0.009820
  0
VERTEX
  8
0
 10
360.390039
 20
688.735745
 42
0.060714
  0
VERTEX
  8
0
 10
357.911016
 20
689.597832
 42
0.069666
  0
VERTEX
  8
0
 10
355.440350
 20
689.781704
 42
0.015180
  0
VERTEX
  8
0
 10
351.178814
 20
689.374855
 42
-0.008763
  0
VERTEX
  8
0
 10
348.386903
 20
689.072109
 42
-0.008179
  0
VERTEX
  8
0
 10
345.521175
 20
688.859277
 42
-0.008182
  0
VERTEX
  8
0
 10
342.969989
 20
688.753572
 42
-0.027402
  0
VERTEX
  8
0
 10
341.297527
 20
688.803334
 42
0.119504
  0
VERTEX
  8
0
 10
338.462852
 20
688.365215
 42
0.137138
  0
VERTEX
  8
0
 10
336.310638
 20
686.681735
 42
0.140157
  0
VERTEX
  8
0
 10
335.372465
 20
684.158105
 42
0.126912
  0
VERTEX
  8
0
 10
335.858149
 20
681.411983
 42
-0.015002
  0
VERTEX
  8
0
 10
336.808960
 20
679.147493
 42
-0.326513
  0
VERTEX
  8
0
 10
336.631714
 20
678.490935
 42
-0.187843
  0
VERTEX
  8
0
 10
335.829922
 20
678.238899
 42
-0.005570
  0
VERTEX
  8
0
 10
332.250000
 20
678.518481
 42
0.003384
  0
VERTEX
  8
0
 10
320.407597
 20
679.495447
 42
0.034722
  0
VERTEX
  8
0
 10
315.495760
 20
679.525534
 42
0.085334
  0
VERTEX
  8
0
 10
312.453858
 20
678.801903
 42
0.077994
  0
VERTEX
  8
0
 10
309.721273
 20
677.090703
 42
-0.024242
  0
VERTEX
  8
0
 10
308.304539
 20
675.975937
 42
-0.020713
  0
VERTEX
  8
0
 10
306.711874
 20
674.939788
 42
-0.021225
  0
VERTEX
  8
0
 10
305.183172
 20
674.118663
 42
-0.054185
  0
VERTEX
  8
0
 10
304.000000
 20
673.697192
 42
0.003435
  0
VERTEX
  8
0
 10
296.118898
 20
671.761774
 42
0.027906
  0
VERTEX
  8
0
 10
292.573747
 20
670.651602
 42
0.067008
  0
VERTEX
  8
0
 10
290.642876
 20
669.614016
 42
0.130735
  0
VERTEX
  8
0
 10
289.546300
 20
668.268720
 42
-0.213768
  0
VERTEX
  8
0
 10
286.995311
 20
666.005457
 42
-0.134761
  0
VERTEX
  8
0
 10
282.949405
 20
665.857314
 42
-0.088200
  0
VERTEX
  8
0
 10
277.918400
 20
668.027536
 42
-0.050593
  0
VERTEX
  8
0
 10
272.783162
 20
672.216838
 42
-0.022201
  0
VERTEX
  8
0
 10
270.947407
 20
674.223280
 42
-0.052217
  0
VERTEX
  8
0
 10
269.815493
 20
675.905553
 42
-0.065248
  0
VERTEX
  8
0
 10
269.206617
 20
677.534920
 42
-0.056889
  0
VERTEX
  8
0
 10
269.000000
 20
679.345012
 42
0.044829
  0
VERTEX
  8
0
 10
268.861346
 20
680.888364
 42
0.050900
  0
VERTEX
  8
0
 10
268.449711
 20
682.314981
 42
0.053487
  0
VERTEX
  8
0
 10
267.782546
 20
683.567306
 42
0.060255
  0
VERTEX
  8
0
 10
266.887101
 20
684.595012
 42
-0.176892
  0
VERTEX
  8
0
 10
265.217270
 20
687.748851
 42
-0.057458
  0
VERTEX
  8
0
 10
265.099485
 20
693.105658
 42
-0.050219
  0
VERTEX
  8
0
 10
266.338820
 20
699.441824
 42
-0.043712
  0
VERTEX
  8
0
 10
268.853402
 20
705.721483
 42
0.008366
  0
VERTEX
  8
0
 10
270.058440
 20
708.206481
 42
0.010827
  0
VERTEX
  8
0
 10
271.075687
 20
710.527067
 42
0.008721
  0
VERTEX
  8
0
 10
271.845924
 20
712.489388
 42
0.089385
  0
VERTEX
  8
0
 10
272.000000
 20
713.344365
 42
0.096127
  0
VERTEX
  8
0
 10
271.442421
 20
716.217789
 42
0.032438
  0
VERTEX
  8
0
 10
269.585844
 20
720.079090
 42
0.030666
  0
VERTEX
  8
0
 10
267.312085
 20
723.592728
 42
0.143934
  0
VERTEX
  8
0
 10
265.415711
 20
725.032047
 42
-0.050989
  0
VERTEX
  8
0
 10
264.078954
 20
725.703038
 42
-0.166073
  0
VERTEX
  8
0
 10
263.468692
 20
726.466158
 42
-0.109964
  0
VERTEX
  8
0
 10
263.319146
 20
727.643299
 42
-0.016472
  0
VERTEX
  8
0
 10
263.619701
 20
730.023206
 42
0.025144
  0
VERTEX
  8
0
 10
263.863619
 20
732.266918
 42
0.076968
  0
VERTEX
  8
0
 10
263.717932
 20
733.785795
 42
0.087499
  0
VERTEX
  8
0
 10
263.134388
 20
735.079252
 42
0.038976
  0
VERTEX
  8
0
 10
261.960259
 20
736.542303
 42
0.050143
  0
VERTEX
  8
0
 10
260.504334
 20
737.810017
 42
0.079420
  0
VERTEX
  8
0
 10
259.023554
 20
738.539425
 42
0.058402
  0
VERTEX
  8
0
 10
257.079009
 20
738.898337
 42
0.016464
  0
VERTEX
  8
0
 10
253.992353
 20
739.000000
 42
0.009620
  0
VERTEX
  8
0
 10
251.781803
 20
738.957466
 42
0.013736
  0
VERTEX
  8
0
 10
249.823823
 20
738.828153
 42
0.009611
  0
VERTEX
  8
0
 10
248.216990
 20
738.646390
 42
0.164854
  0
SEQEND
  0
POLYLINE
  8
0
 66
1
 70
1
  0
VERTEX
  8
0
 10
259.994590
 20
733.506519
 42
-0.086513
  0
VERTEX
  8
0
 10
260.525765
 20
732.579078
 42
-0.109598
  0
VERTEX
  8
0
 10
260.652685
 20
731.602240
 42
-0.070204
  0
VERTEX
  8
0
 10
260.360159
 20
730.348920
 42
-0.018400
  0
VERTEX
  8
0
 10
259.542642
 20
728.448619
 42
0.059613
  0
VERTEX
  8
0
 10
258.645552
 20
725.777228
 42
0.146988
  0
VERTEX
  8
0
 10
258.823426
 20
723.737606
 42
0.190755
  0
VERTEX
  8
0
 10
260.023654
 20
722.464288
 42
0.109929
  0
VERTEX
  8
0
 10
262.109900
 20
722.000000
 42
-0.140724
  0
VERTEX
  8
0
 10
263.023907
 20
721.737557
 42
-0.045008
  0
VERTEX
  8
0
 10
264.161136
 20
720.874502
 42
-0.039007
  0
VERTEX
  8
0
 10
265.363969
 20
719.592854
 42
-0.028161
  0
VERTEX
  8
0
 10
266.502386
 20
717.996220
 42
0.000000
  0
VERTEX
  8
0
 10
269.029861
 20
713.992441
 42
0.000000
  0
VERTEX
  8
0
 10
266.635473
 20
709.246220
 42
0.035246
  0
VERTEX
  8
0
 10
263.049435
 20
700.687347
 42
0.057726
  0
VERTEX
  8
0
 10
261.405093
 20
693.009429
 42
0.073549
  0
VERTEX
  8
0
 10
261.728693
 20
686.692044
 42
0.138886
  0
VERTEX
  8
0
 10
264.039326
 20
682.188163
 42
-0.051881
  0
VERTEX
  8
0
 10
264.790024
 20
681.193160
 42
-0.036634
  0
VERTEX
  8
0
 10
265.424052
 20
679.943282
 42
-0.037107
  0
VERTEX
  8
0
 10
265.857726
 20
678.643485
 42
-0.062043
  0
VERTEX
  8
0
 10
266.000000
 20
677.501321
 42
0.110935
  0
VERTEX
  8
0
 10
266.632426
 20
674.685977
 42
0.058784
  0
VERTEX
  8
0
 10
268.539881
 20
671.639256
 42
0.047665
  0
VERTEX
  8
0
 10
271.599846
 20
668.496538
 42
0.029381
  0
VERTEX
  8
0
 10
275.728111
 20
665.392372
 42
-0.012683
  0
VERTEX
  8
0
 10
278.888456
 20
663.177168
 42
-0.083315
  0
VERTEX
  8
0
 10
280.227090
 20
661.790652
 42
-0.115845
  0
VERTEX
  8
0
 10
280.828721
 20
660.243738
 42
-0.034423
  0
VERTEX
  8
0
 10
281.011006
 20
657.696546
 42
0.011717
  0
VERTEX
  8
0
 10
281.059984
 20
655.817183
 42
0.007433
  0
VERTEX
  8
0
 10
281.200855
 20
653.631173
 42
0.007465
  0
VERTEX
  8
0
 10
281.403239
 20
651.487914
 42
0.013684
  0
VERTEX
  8
0
 10
281.641848
 20
649.750000
 42
0.000000
  0
VERTEX
  8
0
 10
282.261685
 20
646.000000
 42
0.000000
  0
VERTEX
  8
0
 10
272.041135
 20
646.000000
 42
0.005225
  0
VERTEX
  8
0
 10
265.947764
 20
645.936319
 42
0.040475
  0
VERTEX
  8
0
 10
263.116719
 20
645.647103
 42
0.087651
  0
VERTEX
  8
0
 10
261.352564
 20
644.987968
 42
0.080824
  0
VERTEX
  8
0
 10
259.863917
 20
643.750000
 42
0.051226
  0
VERTEX
  8
0
 10
257.778007
 20
640.787140
 42
0.028898
  0
VERTEX
  8
0
 10
255.851381
 20
636.831859
 42
0.027929
  0
VERTEX
  8
0
 10
254.466521
 20
632.912598
 42
0.098094
  0
VERTEX
  8
0
 10
254.231803
 20
630.259738
 42
-0.059132
  0
VERTEX
  8
0
 10
254.220087
 20
629.176214
 42
-0.063383
  0
VERTEX
  8
0
 10
253.952539
 20
628.152098
 42
-0.067609
  0
VERTEX
  8
0
 10
253.459613
 20
627.285461
 42
-0.086480
  0
VERTEX
  8
0
 10
252.786375
 20
626.663156
 42
-0.089819
  0
VERTEX
  8
0
 10
251.788630
 20
626.247868
 42
-0.137985
  0
VERTEX
  8
0
 10
250.860409
 20
626.302678
 42
-0.086693
  0
VERTEX
  8
0
 10
249.799165
 20
626.890971
 42
-0.020988
  0
VERTEX
  8
0
 10
248.286375
 20
628.220718
 42
0.037930
  0
VERTEX
  8
0
 10
245.217070
 20
630.739705
 42
0.097015
  0
VERTEX
  8
0
 10
242.600323
 20
631.901967
 42
0.117853
  0
VERTEX
  8
0
 10
240.060805
 20
631.876422
 42
0.072216
  0
VERTEX
  8
0
 10
237.276421
 20
630.735584
 42
0.045311
  0
VERTEX
  8
0
 10
234.268968
 20
628.572127
 42
0.084318
  0
VERTEX
  8
0
 10
232.366298
 20
626.259237
 42
0.084532
  0
VERTEX
  8
0
 10
231.336838
 20
623.452012
 42
0.045738
  0
VERTEX
  8
0
 10
231.000000
 20
619.777494
 42
-0.018851
  0
VERTEX
  8
0
 10
230.930932
 20
617.946230
 42
-0.030562
  0
VERTEX
  8
0
 10
230.719015
 20
616.403389
 42
-0.031503
  0
VERTEX
  8
0
 10
230.416320
 20
615.268229
 42
-0.322319
  0
VERTEX
  8
0
 10
230.043455
 20
615.000000
 42
-0.152832
  0
VERTEX
  8
0
 10
229.474384
 20
615.178104
 42
-0.010736
  0
VERTEX
  8
0
 10
228.106693
 20
616.171338
 42
-0.014405
  0
VERTEX
  8
0
 10
226.507782
 20
617.460039
 42
-0.010321
  0
VERTEX
  8
0
 10
224.793455
 20
618.987534
 42
0.006478
  0
VERTEX
  8
0
 10
223.103904
 20
620.516409
 42
0.009615
  0
VERTEX
  8
0
 10
221.581517
 20
621.807391
 42
0.005267
  0
VERTEX
  8
0
 10
220.275211
 20
622.849927
 42
0.162061
  0
VERTEX
  8
0
 10
219.888304
 20
622.987534
 42
-0.366851
  0
VERTEX
  8
0
 10
219.648396
 20
623.199479
 42
-0.011592
  0
VERTEX
  8
0
 10
219.479358
 20
624.591893
 42
-0.017453
  0
VERTEX
  8
0
 10
219.369048
 20
626.348259
 42
-0.010569
  0
VERTEX
  8
0
 10
219.355123
 20
628.431678
 42
0.019019
  0
VERTEX
  8
0
 10
219.292957
 20
631.067606
 42
0.041441
  0
VERTEX
  8
0
 10
219.002040
 20
633.067591
 42
0.054056
  0
VERTEX
  8
0
 10
218.462779
 20
634.615216
 42
0.073197
  0
VERTEX
  8
0
 10
217.640705
 20
635.844522
 42
-0.086819
  0
VERTEX
  8
0
 10
216.723217
 20
637.300292
 42
-0.068335
  0
VERTEX
  8
0
 10
216.256420
 20
639.108045
 42
-0.035907
  0
VERTEX
  8
0
 10
216.133368
 20
641.873982
 42
-0.006613
  0
VERTEX
  8
0
 10
216.340507
 20
646.979412
 42
0.020472
  0
VERTEX
  8
0
 10
216.419501
 20
653.131999
 42
0.035261
  0
VERTEX
  8
0
 10
215.915438
 20
658.228000
 42
0.038570
  0
VERTEX
  8
0
 10
214.748043
 20
662.873719
 42
0.031338
  0
VERTEX
  8
0
 10
212.814895
 20
667.631396
 42
-0.064488
  0
VERTEX
  8
0
 10
212.470182
 20
668.672291
 42
-0.031769
  0
VERTEX
  8
0
 10
212.292610
 20
670.057582
 42
-0.030884
  0
VERTEX
  8
0
 10
212.289312
 20
671.541097
 42
-0.039190
  0
VERTEX
  8
0
 10
212.477537
 20
672.897726
 42
0.034128
  0
VERTEX
  8
0
 10
212.757574
 20
674.776373
 42
0.169857
  0
VERTEX
  8
0
 10
212.490729
 20
675.792718
 42
0.132473
  0
VERTEX
  8
0
 10
211.606064
 20
676.559477
 42
0.017818
  0
VERTEX
  8
0
 10
209.333042
 20
677.561154
 42
-0.009692
  0
VERTEX
  8
0
 10
204.930941
 20
679.416253
 42
-0.040393
  0
VERTEX
  8
0
 10
202.405170
 20
680.792660
 42
-0.068713
  0
VERTEX
  8
0
 10
200.871966
 20
682.129014
 42
-0.088570
  0
VERTEX
  8
0
 10
199.913019
 20
683.728777
 42
0.078772
  0
VERTEX
  8
0
 10
199.230898
 20
684.918636
 42
0.131984
  0
VERTEX
  8
0
 10
198.305711
 20
685.594035
 42
0.077451
  0
VERTEX
  8
0
 10
196.812649
 20
685.917804
 42
0.014738
  0
VERTEX
  8
0
 10
194.024751
 20
686.000000
 42
-0.011666
  0
VERTEX
  8
0
 10
191.232968
 20
686.065148
 42
-0.080665
  0
VERTEX
  8
0
 10
189.897192
 20
686.346571
 42
-0.184295
  0
VERTEX
  8
0
 10
189.242195
 20
686.936438
 42
-0.118847
  0
VERTEX
  8
0
 10
189.000000
 20
687.940983
 42
0.047555
  0
VERTEX
  8
0
 10
188.924788
 20
688.729988
 42
0.046616
  0
VERTEX
  8
0
 10
188.701799
 20
689.496100
 42
0.050508
  0
VERTEX
  8
0
 10
188.374165
 20
690.129543
 42
0.110182
  0
VERTEX
  8
0
 10
187.984849
 20
690.509364
 42
-0.143959
  0
VERTEX
  8
0
 10
186.611279
 20
692.040306
 42
-0.032204
  0
VERTEX
  8
0
 10
185.292824
 20
695.332400
 42
-0.034107
  0
VERTEX
  8
0
 10
184.355853
 20
699.027213
 42
-0.059847
  0
VERTEX
  8
0
 10
184.165073
 20
702.170742
 42
0.087550
  0
VERTEX
  8
0
 10
183.823423
 20
705.109941
 42
0.075844
  0
VERTEX
  8
0
 10
182.494842
 20
707.919087
 42
0.076445
  0
VERTEX
  8
0
 10
180.401544
 20
710.185258
 42
0.091531
  0
VERTEX
  8
0
 10
177.841833
 20
711.550200
 42
-0.071710
  0
VERTEX
  8
0
 10
176.343197
 20
712.275060
 42
-0.353457
  0
VERTEX
  8
0
 10
176.087015
 20
713.110283
 42
-0.249804
  0
VERTEX
  8
0
 10
176.904369
 20
713.797779
 42
-0.052481
  0
VERTEX
  8
0
 10
178.825686
 20
714.000000
 42
-0.063832
  0
VERTEX
  8
0
 10
180.131683
 20
713.832588
 42
-0.047218
  0
VERTEX
  8
0
 10
181.501490
 20
713.333579
 42
-0.045457
  0
VERTEX
  8
0
 10
182.809144
 20
712.559357
 42
-0.047834
  0
VERTEX
  8
0
 10
183.931252
 20
711.573179
 42
0.051324
  0
VERTEX
  8
0
 10
185.455018
 20
710.252689
 42
0.097024
  0
VERTEX
  8
0
 10
186.935071
 20
709.595197
 42
0.059366
  0
VERTEX
  8
0
 10
189.006656
 20
709.374753
 42
0.010083
  0
VERTEX
  8
0
 10
192.983771
 20
709.505025
 42
-0.010159
  0
VERTEX
  8
0
 10
197.141489
 20
709.640581
 42
-0.068768
  0
VERTEX
  8
0
 10
199.179114
 20
709.384450
 42
-0.101762
  0
VERTEX
  8
0
 10
200.712634
 20
708.614729
 42
-0.034713
  0
VERTEX
  8
0
 10
202.565296
 20
706.931846
 42
0.089934
  0
VERTEX
  8
0
 10
205.937191
 20
704.486600
 42
0.201019
  0
VERTEX
  8
0
 10
209.040521
 20
704.327275
 42
0.211397
  0
VERTEX
  8
0
 10
211.222093
 20
706.409550
 42
0.098321
  0
VERTEX
  8
0
 10
212.000000
 20
710.327270
 42
-0.134453
  0
VERTEX
  8
0
 10
212.526611
 20
712.250215
 42
-0.160200
  0
VERTEX
  8
0
 10
213.935941
 20
713.482535
 42
-0.078080
  0
VERTEX
  8
0
 10
216.680547
 20
714.168594
 42
-0.015366
  0
VERTEX
  8
0
 10
221.767130
 20
714.465854
 42
0.018720
  0
VERTEX
  8
0
 10
225.276520
 20
714.694566
 42
0.050328
  0
VERTEX
  8
0
 10
227.723631
 20
715.198486
 42
0.053757
  0
VERTEX
  8
0
 10
229.927863
 20
716.159313
 42
0.023881
  0
VERTEX
  8
0
 10
232.607466
 20
717.862641
 42
-0.020475
  0
VERTEX
  8
0
 10
234.590164
 20
719.142008
 42
-0.017768
  0
VERTEX
  8
0
 10
236.765444
 20
720.320684
 42
-0.018134
  0
VERTEX
  8
0
 10
238.812680
 20
721.246662
 42
-0.048900
  0
VERTEX
  8
0
 10
240.340336
 20
721.703840
 42
0.084106
  0
VERTEX
  8
0
 10
244.128517
 20
723.133521
 42
0.050156
  0
VERTEX
  8
0
 10
248.034930
 20
725.975304
 42
0.050909
  0
VERTEX
  8
0
 10
251.067041
 20
729.296586
 42
0.160914
  0
VERTEX
  8
0
 10
252.000000
 20
732.120462
 42
-0.035104
  0
VERTEX
  8
0
 10
252.115108
 20
733.757978
 42
-0.183123
  0
VERTEX
  8
0
 10
252.543238
 20
734.536862
 42
-0.154587
  0
VERTEX
  8
0
 10
253.427091
 20
734.909745
 42
-0.023124
  0
VERTEX
  8
0
 10
255.377555
 20
735.000000
 42
-0.039801
  0
VERTEX
  8
0
 10
256.761494
 20
734.889660
 42
-0.038451
  0
VERTEX
  8
0
 10
258.127051
 20
734.561290
 42
-0.041022
  0
VERTEX
  8
0
 10
259.281453
 20
734.080213
 42
-0.100645
  0
SEQEND
  0
POLYLINE
  8
0
 66
1
 70
1
  0
VERTEX
  8
0
 10
428.783181
 20
713.288217
 42
-0.037313
  0
VERTEX
  8
0
 10
429.231106
 20
711.775700
 42
-0.010172
  0
VERTEX
  8
0
 10
429.709226
 20
709.329002
 42
-0.010229
  0
VERTEX
  8
0
 10
430.139489
 20
706.523567
 42
-0.010480
  0
VERTEX
  8
0
 10
430.450701
 20
703.725406
 42
0.034278
  0
VERTEX
  8
0
 10
431.363545
 20
698.008387
 42
0.019580
  0
VERTEX
  8
0
 10
433.202588
 20
691.259015
 42
0.018893
  0
VERTEX
  8
0
 10
435.697962
 20
684.270409
 42
0.021477
  0
VERTEX
  8
0
 10
438.620881
 20
677.789382
 42
0.022319
  0
VERTEX
  8
0
 10
440.070743
 20
675.205028
 42
0.074120
  0
VERTEX
  8
0
 10
441.328459
 20
673.723459
 42
0.083672
  0
VERTEX
  8
0
 10
442.877252
 20
672.769590
 42
0.033625
  0
VERTEX
  8
0
 10
445.246890
 20
671.990009
 42
-0.006570
  0
VERTEX
  8
0
 10
450.061444
 20
670.689893
 42
-0.121687
  0
VERTEX
  8
0
 10
451.420944
 20
669.913172
 42
-0.217663
  0
VERTEX
  8
0
 10
451.894747
 20
668.730021
 42
-0.027713
  0
VERTEX
  8
0
 10
451.605065
 20
665.931677
 42
-0.058300
  0
VERTEX
  8
0
 10
450.481288
 20
661.949225
 42
-0.045245
  0
VERTEX
  8
0
 10
448.392287
 20
657.955431
 42
-0.046682
  0
VERTEX
  8
0
 10
445.738304
 20
654.575417
 42
-0.083846
  0
VERTEX
  8
0
 10
442.926666
 20
652.462077
 42
0.054337
  0
VERTEX
  8
0
 10
441.639889
 20
651.608285
 42
0.034520
  0
VERTEX
  8
0
 10
440.339279
 20
650.363686
 42
0.034383
  0
VERTEX
  8
0
 10
439.213882
 20
648.942165
 42
0.051328
  0
VERTEX
  8
0
 10
438.456832
 20
647.550928
 42
-0.041894
  0
VERTEX
  8
0
 10
437.673238
 20
646.044013
 42
-0.060694
  0
VERTEX
  8
0
 10
436.725758
 20
644.883067
 42
-0.066349
  0
VERTEX
  8
0
 10
435.599436
 20
644.057433
 42
-0.064511
  0
VERTEX
  8
0
 10
434.285610
 20
643.546022
 42
0.080346
  0
VERTEX
  8
0
 10
431.774017
 20
642.476104
 42
0.038626
  0
VERTEX
  8
0
 10
428.958624
 20
640.378737
 42
0.036308
  0
VERTEX
  8
0
 10
426.634807
 20
638.033112
 42
0.178909
  0
VERTEX
  8
0
 10
426.000000
 20
636.315790
 42
-0.131147
  0
VERTEX
  8
0
 10
425.806408
 20
635.590412
 42
-0.018060
  0
VERTEX
  8
0
 10
424.971875
 20
634.252571
 42
-0.019703
  0
VERTEX
  8
0
 10
423.840207
 20
632.710998
 42
-0.015517
  0
VERTEX
  8
0
 10
422.500000
 20
631.131680
 42
0.027162
  0
VERTEX
  8
0
 10
421.136581
 20
629.447044
 42
0.029805
  0
VERTEX
  8
0
 10
420.009025
 20
627.674263
 42
0.031812
  0
VERTEX
  8
0
 10
419.232548
 20
626.038954
 42
0.095211
  0
VERTEX
  8
0
 10
419.000000
 20
624.828799
 42
-0.043373
  0
VERTEX
  8
0
 10
418.911529
 20
623.810837
 42
-0.036512
  0
VERTEX
  8
0
 10
418.647500
 20
622.760960
 42
-0.038038
  0
VERTEX
  8
0
 10
418.260416
 20
621.833569
 42
-0.078649
  0
VERTEX
  8
0
 10
417.800000
 20
621.200000
 42
-0.158145
  0
VERTEX
  8
0
 10
415.661048
 20
620.108893
 42
-0.077918
  0
VERTEX
  8
0
 10
412.574910
 20
620.101209
 42
-0.087263
  0
VERTEX
  8
0
 10
409.921629
 20
621.001488
 42
-0.273959
  0
VERTEX
  8
0
 10
409.000000
 20
622.557299
 42
0.084307
  0
VERTEX
  8
0
 10
408.902688
 20
623.130322
 42
0.054063
  0
VERTEX
  8
0
 10
408.611896
 20
623.740928
 42
0.052601
  0
VERTEX
  8
0
 10
408.184182
 20
624.294791
 42
0.066051
  0
VERTEX
  8
0
 10
407.678795
 20
624.700310
 42
-0.105356
  0
VERTEX
  8
0
 10
407.060507
 20
625.281203
 42
-0.020231
  0
VERTEX
  8
0
 10
406.230577
 20
626.586966
 42
-0.020738
  0
VERTEX
  8
0
 10
405.372302
 20
628.218583
 42
-0.017802
  0
VERTEX
  8
0
 10
404.604000
 20
630.000000
 42
0.025585
  0
VERTEX
  8
0
 10
403.730331
 20
631.942060
 42
0.017389
  0
VERTEX
  8
0
 10
402.549665
 20
634.059375
 42
0.017554
  0
VERTEX
  8
0
 10
401.263580
 20
636.028552
 42
0.033319
  0
VERTEX
  8
0
 10
400.073007
 20
637.500000
 42
-0.052702
  0
VERTEX
  8
0
 10
397.832563
 20
640.499232
 42
-0.033255
  0
VERTEX
  8
0
 10
395.852490
 20
644.399300
 42
-0.033540
  0
VERTEX
  8
0
 10
394.449496
 20
648.413313
 42
-0.067401
  0
VERTEX
  8
0
 10
394.000000
 20
651.732672
 42
0.067552
  0
VERTEX
  8
0
 10
393.828449
 20
652.996646
 42
0.056580
  0
VERTEX
  8
0
 10
393.322535
 20
654.252924
 42
0.053321
  0
VERTEX
  8
0
 10
392.511710
 20
655.431969
 42
0.047209
  0
VERTEX
  8
0
 10
391.438882
 20
656.467035
 42
-0.052374
  0
VERTEX
  8
0
 10
390.411070
 20
657.479322
 42
-0.040976
  0
VERTEX
  8
0
 10
389.518061
 20
658.766728
 42
-0.041679
  0
VERTEX
  8
0
 10
388.864266
 20
660.151034
 42
-0.062228
  0
VERTEX
  8
0
 10
388.554776
 20
661.451545
 42
0.098835
  0
VERTEX
  8
0
 10
387.788843
 20
663.872910
 42
0.081081
  0
VERTEX
  8
0
 10
386.111203
 20
666.011470
 42
0.081922
  0
VERTEX
  8
0
 10
383.859421
 20
667.487764
 42
0.104587
  0
VERTEX
  8
0
 10
381.437354
 20
668.000000
 42
-0.099310
  0
VERTEX
  8
0
 10
380.275194
 20
668.233129
 42
-0.037918
  0
VERTEX
  8
0
 10
378.797973
 20
668.986750
 42
-0.034316
  0
VERTEX
  8
0
 10
377.213641
 20
670.108634
 42
-0.028823
  0
VERTEX
  8
0
 10
375.697119
 20
671.500000
 42
0.027731
  0
VERTEX
  8
0
 10
374.097774
 20
672.973792
 42
0.039669
  0
VERTEX
  8
0
 10
372.517091
 20
674.078142
 42
0.046337
  0
VERTEX
  8
0
 10
371.033510
 20
674.772813
 42
0.086543
  0
VERTEX
  8
0
 10
369.730769
 20
675.000000
 42
-0.037111
  0
VERTEX
  8
0
 10
366.957842
 20
675.206098
 42
-0.118916
  0
VERTEX
  8
0
 10
365.252252
 20
675.897434
 42
-0.157160
  0
VERTEX
  8
0
 10
364.320198
 20
677.156600
 42
-0.081540
  0
VERTEX
  8
0
 10
364.000000
 20
679.106989
 42
-0.032454
  0
VERTEX
  8
0
 10
364.130838
 20
681.120641
 42
-0.283744
  0
VERTEX
  8
0
 10
364.671320
 20
681.785296
 42
-0.199193
  0
VERTEX
  8
0
 10
365.673606
 20
681.726975
 42
-0.016990
  0
VERTEX
  8
0
 10
368.000000
 20
680.500000
 42
0.056898
  0
VERTEX
  8
0
 10
370.429096
 20
679.456805
 42
0.072959
  0
VERTEX
  8
0
 10
372.833193
 20
679.102536
 42
0.076122
  0
VERTEX
  8
0
 10
375.156775
 20
679.456806
 42
0.069308
  0
VERTEX
  8
0
 10
377.350404
 20
680.493938
 42
-0.108615
  0
VERTEX
  8
0
 10
379.570545
 20
681.338892
 42
-0.038004
  0
VERTEX
  8
0
 10
382.996875
 20
681.583624
 42
-0.030861
  0
VERTEX
  8
0
 10
387.390233
 20
681.291609
 42
-0.016985
  0
VERTEX
  8
0
 10
392.708238
 20
680.422266
 42
0.112183
  0
VERTEX
  8
0
 10
396.251139
 20
680.519466
 42
0.087170
  0
VERTEX
  8
0
 10
399.774417
 20
682.113027
 42
0.078187
  0
VERTEX
  8
0
 10
402.859987
 20
685.014841
 42
0.065940
  0
VERTEX
  8
0
 10
405.122328
 20
688.890832
 42
-0.016621
  0
VERTEX
  8
0
 10
408.358835
 20
695.950033
 42
-0.026168
  0
VERTEX
  8
0
 10
411.644874
 20
701.750286
 42
-0.025417
  0
VERTEX
  8
0
 10
415.590252
 20
707.293160
 42
-0.014587
  0
VERTEX
  8
0
 10
420.867883
 20
713.576925
 42
-0.038309
  0
VERTEX
  8
0
 10
423.632675
 20
716.238895
 42
-0.183605
  0
VERTEX
  8
0
 10
425.668982
 20
716.928897
 42
-0.234588
  0
VERTEX
  8
0
 10
427.330972
 20
716.026765
 42
-0.062618
  0
SEQEND
  0
POLYLINE
  8
0
 66
1
 70
1
  0
VERTEX
  8
0
 10
360.846606
 20
679.981429
 42
0.010983
  0
VERTEX
  8
0
 10
360.874051
 20
678.051352
 42
0.013987
  0
VERTEX
  8
0
 10
360.988194
 20
676.274607
 42
0.011952
  0
VERTEX
  8
0
 10
361.159282
 20
674.806709
 42
0.103781
  0
VERTEX
  8
0
 10
361.381508
 20
674.191724
 42
0.164882
  0
VERTEX
  8
0
 10
361.852858
 20
673.802386
 42
0.021812
  0
VERTEX
  8
0
 10
363.099307
 20
673.389382
 42
0.023379
  0
VERTEX
  8
0
 10
364.671168
 20
673.022014
 42
0.017653
  0
VERTEX
  8
0
 10
366.425294
 20
672.761310
 42
-0.033613
  0
VERTEX
  8
0
 10
368.684063
 20
672.351588
 42
-0.049316
  0
VERTEX
  8
0
 10
370.582468
 20
671.668940
 42
-0.049917
  0
VERTEX
  8
0
 10
372.293719
 20
670.635020
 42
-0.035553
  0
VERTEX
  8
0
 10
373.987163
 20
669.166683
 42
0.038763
  0
VERTEX
  8
0
 10
375.425838
 20
667.935317
 42
0.028237
  0
VERTEX
  8
0
 10
377.194594
 20
666.791681
 42
0.028746
  0
VERTEX
  8
0
 10
379.006946
 20
665.893683
 42
0.054331
  0
VERTEX
  8
0
 10
380.566007
 20
665.421639
 42
-0.066818
  0
VERTEX
  8
0
 10
382.925151
 20
664.642769
 42
-0.101708
  0
VERTEX
  8
0
 10
384.630656
 20
663.332626
 42
-0.104652
  0
VERTEX
  8
0
 10
385.649957
 20
661.486581
 42
-0.074123
  0
VERTEX
  8
0
 10
386.000000
 20
659.138322
 42
0.095141
  0
VERTEX
  8
0
 10
386.172958
 20
658.237598
 42
0.044191
  0
VERTEX
  8
0
 10
386.711902
 20
657.170669
 42
0.041623
  0
VERTEX
  8
0
 10
387.496253
 20
656.115599
 42
0.045484
  0
VERTEX
  8
0
 10
388.423497
 20
655.238837
 42
-0.062118
  0
VERTEX
  8
0
 10
389.451965
 20
654.199627
 42
-0.039847
  0
VERTEX
  8
0
 10
390.378187
 20
652.774982
 42
-0.037949
  0
VERTEX
  8
0
 10
391.115788
 20
651.127553
 42
-0.040014
  0
VERTEX
  8
0
 10
391.580420
 20
649.416257
 42
0.027386
  0
VERTEX
  8
0
 10
392.589749
 20
645.289816
 42
0.033211
  0
VERTEX
  8
0
 10
393.996560
 20
641.564128
 42
0.035546
  0
VERTEX
  8
0
 10
395.780844
 20
638.286396
 42
0.042579
  0
VERTEX
  8
0
 10
397.919707
 20
635.500000
 42
-0.036593
  0
VERTEX
  8
0
 10
399.065650
 20
634.043504
 42
-0.020612
  0
VERTEX
  8
0
 10
400.246175
 20
632.127737
 42
-0.020483
  0
VERTEX
  8
0
 10
401.283795
 20
630.085445
 42
-0.031390
  0
VERTEX
  8
0
 10
401.994650
 20
628.232721
 42
0.061464
  0
VERTEX
  8
0
 10
403.943608
 20
623.942120
 42
0.063375
  0
VERTEX
  8
0
 10
406.860791
 20
620.303014
 42
0.070230
  0
VERTEX
  8
0
 10
410.257155
 20
617.835737
 42
0.122615
  0
VERTEX
  8
0
 10
413.613879
 20
617.000000
 42
0.043156
  0
VERTEX
  8
0
 10
416.935278
 20
617.287214
 42
0.104636
  0
VERTEX
  8
0
 10
419.208914
 20
618.198056
 42
0.139776
  0
VERTEX
  8
0
 10
420.526894
 20
619.751757
 42
0.106840
  0
VERTEX
  8
0
 10
421.000000
 20
621.940570
 42
-0.073635
  0
VERTEX
  8
0
 10
421.214320
 20
623.387972
 42
-0.037278
  0
VERTEX
  8
0
 10
421.879652
 20
625.110861
 42
-0.033384
  0
VERTEX
  8
0
 10
422.912072
 20
626.957468
 42
-0.027098
  0
VERTEX
  8
0
 10
424.250000
 20
628.789693
 42
0.010756
  0
VERTEX
  8
0
 10
425.619935
 20
630.542526
 42
0.008151
  0
VERTEX
  8
0
 10
427.049201
 20
632.521119
 42
0.008251
  0
VERTEX
  8
0
 10
428.330307
 20
634.423047
 42
0.018951
  0
VERTEX
  8
0
 10
429.215365
 20
635.904998
 42
-0.055471
  0
VERTEX
  8
0
 10
430.227307
 20
637.348846
 42
-0.040340
  0
VERTEX
  8
0
 10
431.639268
 20
638.712584
 42
-0.037541
  0
VERTEX
  8
0
 10
433.369976
 20
639.928255
 42
-0.033097
  0
VERTEX
  8
0
 10
435.335789
 20
640.929611
 42
0.027795
  0
VERTEX
  8
0
 10
437.466264
 20
641.986571
 42
0.055360
  0
VERTEX
  8
0
 10
438.989404
 20
643.089478
 42
0.065699
  0
VERTEX
  8
0
 10
440.063342
 20
644.358668
 42
0.058974
  0
VERTEX
  8
0
 10
440.818405
 20
645.908920
 42
-0.040970
  0
VERTEX
  8
0
 10
441.984424
 20
648.538843
 42
-0.476763
  0
VERTEX
  8
0
 10
442.948321
 20
648.716041
 42
-0.183324
  0
VERTEX
  8
0
 10
443.746197
 20
647.256262
 42
-0.016346
  0
VERTEX
  8
0
 10
444.192097
 20
643.021046
 42
0.006496
  0
VERTEX
  8
0
 10
444.390562
 20
640.697281
 42
0.009606
  0
VERTEX
  8
0
 10
444.630169
 20
638.665775
 42
0.005334
  0
VERTEX
  8
0
 10
444.881418
 20
636.972237
 42
0.158161
  0
VERTEX
  8
0
 10
445.076098
 20
636.590569
 42
0.159284
  0
VERTEX
  8
0
 10
446.826367
 20
635.702626
 42
0.005548
  0
VERTEX
  8
0
 10
454.473004
 20
634.605733
 42
0.005752
  0
VERTEX
  8
0
 10
462.120623
 20
633.684554
 42
0.150711
  0
VERTEX
  8
0
 10
464.130289
 20
634.072719
 42
-0.144835
  0
VERTEX
  8
0
 10
466.229609
 20
634.503304
 42
-0.012086
  0
VERTEX
  8
0
 10
471.808989
 20
633.889697
 42
-0.012253
  0
VERTEX
  8
0
 10
477.347226
 20
633.006097
 42
-0.140762
  0
VERTEX
  8
0
 10
479.301372
 20
632.032059
 42
-0.285826
  0
VERTEX
  8
0
 10
479.658278
 20
630.751924
 42
-0.018735
  0
VERTEX
  8
0
 10
478.386504
 20
626.944513
 42
-0.026461
  0
VERTEX
  8
0
 10
476.703061
 20
623.100204
 42
-0.062157
  0
VERTEX
  8
0
 10
474.962777
 20
620.500000
 42
0.028498
  0
VERTEX
  8
0
 10
474.251858
 20
619.578275
 42
0.019534
  0
VERTEX
  8
0
 10
473.548900
 20
618.459394
 42
0.019738
  0
VERTEX
  8
0
 10
472.954681
 20
617.324697
 42
0.037312
  0
VERTEX
  8
0
 10
472.583021
 20
616.361766
 42
-0.091722
  0
VERTEX
  8
0
 10
472.065645
 20
615.359912
 42
-0.028060
  0
VERTEX
  8
0
 10
470.942596
 20
614.068378
 42
-0.027041
  0
VERTEX
  8
0
 10
469.496676
 20
612.735099
 42
-0.026561
  0
VERTEX
  8
0
 10
467.906937
 20
611.557112
 42
0.020059
  0
VERTEX
  8
0
 10
465.824370
 20
610.055471
 42
0.075054
  0
VERTEX
  8
0
 10
464.720530
 20
608.885074
 42
0.109238
  0
VERTEX
  8
0
 10
464.230808
 20
607.689270
 42
0.071626
  0
VERTEX
  8
0
 10
464.188852
 20
606.195345
 42
0.050297
  0
VERTEX
  8
0
 10
464.498677
 20
604.779559
 42
0.140951
  0
VERTEX
  8
0
 10
465.063125
 20
603.947397
 42
0.119211
  0
VERTEX
  8
0
 10
466.048826
 20
603.462184
 42
0.031101
  0
VERTEX
  8
0
 10
467.804195
 20
603.182600
 42
0.053219
  0
VERTEX
  8
0
 10
469.621316
 20
603.201810
 42
0.070172
  0
VERTEX
  8
0
 10
471.221789
 20
603.622472
 42
0.056386
  0
VERTEX
  8
0
 10
472.888831
 20
604.554485
 42
0.022248
  0
VERTEX
  8
0
 10
474.956883
 20
606.182600
 42
-0.010666
  0
VERTEX
  8
0
 10
476.673634
 20
607.599749
 42
-0.007597
  0
VERTEX
  8
0
 10
478.653682
 20
609.116154
 42
-0.007674
  0
VERTEX
  8
0
 10
480.587440
 20
610.505527
 42
-0.016186
  0
VERTEX
  8
0
 10
482.137462
 20
611.510690
 42
0.038190
  0
VERTEX
  8
0
 10
483.798832
 20
612.694960
 42
0.071278
  0
VERTEX
  8
0
 10
484.901984
 20
613.920589
 42
0.070624
  0
VERTEX
  8
0
 10
485.622799
 20
615.414607
 42
0.036860
  0
VERTEX
  8
0
 10
486.104715
 20
617.429004
 42
-0.078551
  0
VERTEX
  8
0
 10
487.291150
 20
621.034344
 42
-0.155836
  0
VERTEX
  8
0
 10
489.393834
 20
623.143425
 42
-0.106687
  0
VERTEX
  8
0
 10
492.939701
 20
624.106330
 42
-0.026386
  0
VERTEX
  8
0
 10
499.000000
 20
624.105310
 42
-0.044586
  0
VERTEX
  8
0
 10
501.943202
 20
623.684416
 42
-0.024058
  0
VERTEX
  8
0
 10
505.466337
 20
622.674137
 42
-0.020683
  0
VERTEX
  8
0
 10
509.495729
 20
621.117171
 42
-0.013605
  0
VERTEX
  8
0
 10
514.000000
 20
619.011496
 42
0.014406
  0
VERTEX
  8
0
 10
515.548373
 20
618.290675
 42
0.010466
  0
VERTEX
  8
0
 10
517.309299
 20
617.575145
 42
0.010588
  0
VERTEX
  8
0
 10
519.010352
 20
616.966038
 42
0.022697
  0
VERTEX
  8
0
 10
520.350806
 20
616.584516
 42
-0.036924
  0
VERTEX
  8
0
 10
522.020250
 20
616.057621
 42
-0.193262
  0
VERTEX
  8
0
 10
522.704048
 20
615.405949
 42
-0.130860
  0
VERTEX
  8
0
 10
522.889451
 20
614.308706
 42
-0.013800
  0
VERTEX
  8
0
 10
522.574391
 20
611.705647
 42
0.010939
  0
VERTEX
  8
0
 10
522.336891
 20
609.833264
 42
0.007280
  0
VERTEX
  8
0
 10
522.142999
 20
607.678323
 42
0.007330
  0
VERTEX
  8
0
 10
522.015909
 20
605.580747
 42
0.014204
  0
VERTEX
  8
0
 10
521.986603
 20
603.901408
 42
-0.043428
  0
VERTEX
  8
0
 10
521.862652
 20
602.270249
 42
-0.036896
  0
VERTEX
  8
0
 10
521.457988
 20
600.590502
 42
-0.037606
  0
VERTEX
  8
0
 10
520.823660
 20
599.026633
 42
-0.051547
  0
VERTEX
  8
0
 10
520.013018
 20
597.743679
 42
0.024589
  0
VERTEX
  8
0
 10
519.242554
 20
596.658387
 42
0.025399
  0
VERTEX
  8
0
 10
518.591324
 20
595.514086
 42
0.026172
  0
VERTEX
  8
0
 10
518.132262
 20
594.470105
 42
0.090733
  0
VERTEX
  8
0
 10
518.000000
 20
593.747258
 42
-0.096800
  0
VERTEX
  8
0
 10
517.868861
 20
593.076240
 42
-0.038425
  0
VERTEX
  8
0
 10
517.447884
 20
592.232519
 42
-0.036208
  0
VERTEX
  8
0
 10
516.839671
 20
591.366006
 42
-0.037728
  0
VERTEX
  8
0
 10
516.120456
 20
590.609012
 42
0.069375
  0
VERTEX
  8
0
 10
515.355491
 20
589.694716
 42
0.031530
  0
VERTEX
  8
0
 10
514.612946
 20
588.319649
 42
0.030464
  0
VERTEX
  8
0
 10
514.000783
 20
586.746911
 42
0.036582
  0
VERTEX
  8
0
 10
513.627867
 20
585.204024
 42
-0.053476
  0
VERTEX
  8
0
 10
513.147498
 20
583.474186
 42
-0.023285
  0
VERTEX
  8
0
 10
512.164601
 20
581.298280
 42
-0.022723
  0
VERTEX
  8
0
 10
510.895179
 20
579.061948
 42
-0.028083
  0
VERTEX
  8
0
 10
509.507410
 20
577.109269
 42
0.023610
  0
VERTEX
  8
0
 10
508.164948
 20
575.255662
 42
0.024984
  0
VERTEX
  8
0
 10
507.030302
 20
573.317547
 42
0.025633
  0
VERTEX
  8
0
 10
506.227772
 20
571.560401
 42
0.094575
  0
VERTEX
  8
0
 10
506.000000
 20
570.366984
 42
-0.092065
  0
VERTEX
  8
0
 10
505.792983
 20
569.252222
 42
-0.042784
  0
VERTEX
  8
0
 10
505.146887
 20
567.924015
 42
-0.039271
  0
VERTEX
  8
0
 10
504.183001
 20
566.564576
 42
-0.036944
  0
VERTEX
  8
0
 10
503.000000
 20
565.342416
 42
0.015081
  0
VERTEX
  8
0
 10
501.851043
 20
564.254794
 42
0.020198
  0
VERTEX
  8
0
 10
500.881250
 20
563.197513
 42
0.017794
  0
VERTEX
  8
0
 10
500.157501
 20
562.276987
 42
0.158996
  0
VERTEX
  8
0
 10
500.000000
 20
561.794210
 42
-0.152068
  0
VERTEX
  8
0
 10
499.491751
 20
560.161725
 42
-0.030279
  0
VERTEX
  8
0
 10
497.585564
 20
557.726744
 42
-0.029065
  0
VERTEX
  8
0
 10
495.417646
 20
555.547709
 42
-0.184512
  0
VERTEX
  8
0
 10
493.983968
 20
555.000000
 42
0.163656
  0
VERTEX
  8
0
 10
491.237715
 20
554.076384
 42
0.007460
  0
VERTEX
  8
0
 10
483.322025
 20
547.884756
 42
0.006267
  0
VERTEX
  8
0
 10
475.474945
 20
541.391840
 42
0.220214
  0
VERTEX
  8
0
 10
474.500000
 20
539.285558
 42
0.133440
  0
VERTEX
  8
0
 10
474.708370
 20
538.518700
 42
0.098475
  0
VERTEX
  8
0
 10
475.295724
 20
537.858328
 42
0.073381
  0
VERTEX
  8
0
 10
476.262580
 20
537.328831
 42
0.038218
  0
VERTEX
  8
0
 10
477.587290
 20
536.950572
 42
-0.025311
  0
VERTEX
  8
0
 10
480.712682
 20
536.144696
 42
-0.144411
  0
VERTEX
  8
0
 10
482.122412
 20
535.201207
 42
-0.177462
  0
VERTEX
  8
0
 10
482.639506
 20
533.752718
 42
-0.042676
  0
VERTEX
  8
0
 10
482.397035
 20
531.172019
 42
-0.018045
  0
VERTEX
  8
0
 10
482.049578
 20
529.581428
 42
-0.013066
  0
VERTEX
  8
0
 10
481.553009
 20
527.836723
 42
-0.013228
  0
VERTEX
  8
0
 10
480.993453
 20
526.202394
 42
-0.027881
  0
VERTEX
  8
0
 10
480.456647
 20
524.974272
 42
-0.052860
  0
VERTEX
  8
0
 10
478.440810
 20
521.852969
 42
-0.030053
  0
VERTEX
  8
0
 10
475.409570
 20
518.527527
 42
-0.030082
  0
VERTEX
  8
0
 10
472.090968
 20
515.666929
 42
-0.068096
  0
VERTEX
  8
0
 10
469.211783
 20
514.036397
 42
0.055044
  0
VERTEX
  8
0
 10
466.831826
 20
512.769160
 42
0.091405
  0
VERTEX
  8
0
 10
465.222987
 20
511.172628
 42
0.093103
  0
VERTEX
  8
0
 10
464.307601
 20
509.129760
 42
0.058967
  0
VERTEX
  8
0
 10
464.000000
 20
506.530558
 42
-0.051243
  0
VERTEX
  8
0
 10
463.878432
 20
505.347475
 42
-0.027795
  0
VERTEX
  8
0
 10
463.501591
 20
503.932987
 42
-0.027392
  0
VERTEX
  8
0
 10
462.953087
 20
502.521803
 42
-0.038658
  0
VERTEX
  8
0
 10
462.303289
 20
501.340125
 42
0.025176
  0
VERTEX
  8
0
 10
461.358110
 20
499.725846
 42
0.120416
  0
VERTEX
  8
0
 10
461.106578
 20
498.696566
 42
0.110885
  0
VERTEX
  8
0
 10
461.347330
 20
497.624323
 42
0.019824
  0
VERTEX
  8
0
 10
462.303289
 20
495.794269
 42
-0.024919
  0
VERTEX
  8
0
 10
462.952762
 20
494.519470
 42
-0.022069
  0
VERTEX
  8
0
 10
463.501591
 20
493.134277
 42
-0.022673
  0
VERTEX
  8
0
 10
463.884096
 20
491.841949
 42
-0.060681
  0
VERTEX
  8
0
 10
464.000000
 20
490.890444
 42
-0.109755
  0
VERTEX
  8
0
 10
463.227049
 20
487.411617
 42
-0.024437
  0
VERTEX
  8
0
 10
460.363968
 20
481.993566
 42
-0.025992
  0
VERTEX
  8
0
 10
456.633009
 20
476.384592
 42
-0.036630
  0
VERTEX
  8
0
 10
452.709966
 20
471.840401
 42
0.018686
  0
VERTEX
  8
0
 10
450.556378
 20
469.519531
 42
0.021734
  0
VERTEX
  8
0
 10
448.693645
 20
467.154774
 42
0.022757
  0
VERTEX
  8
0
 10
447.296451
 20
465.013954
 42
0.080164
  0
VERTEX
  8
0
 10
446.699687
 20
463.487772
 42
-0.079712
  0
VERTEX
  8
0
 10
445.311818
 20
459.928958
 42
-0.213252
  0
VERTEX
  8
0
 10
443.145501
 20
458.383515
 42
-0.062059
  0
VERTEX
  8
0
 10
438.806826
 20
458.055350
 42
-0.002796
  0
VERTEX
  8
0
 10
423.833220
 20
458.865567
 42
-0.000681
  0
VERTEX
  8
0
 10
414.565490
 20
459.431700
 42
-0.000397
  0
VERTEX
  8
0
 10
403.451008
 20
460.134695
 42
-0.000397
  0
VERTEX
  8
0
 10
392.320750
 20
460.856426
 42
-0.000672
  0
VERTEX
  8
0
 10
383.000000
 20
461.480823
 42
0.000061
  0
VERTEX
  8
0
 10
373.914823
 20
462.100593
 42
0.000041
  0
VERTEX
  8
0
 10
363.538728
 20
462.806313
 42
0.000041
  0
VERTEX
  8
0
 10
353.497394
 20
463.487614
 42
0.000081
  0
VERTEX
  8
0
 10
345.536096
 20
464.025825
 42
-0.005704
  0
VERTEX
  8
0
 10
333.886251
 20
464.945096
 42
-0.045740
  0
VERTEX
  8
0
 10
328.598980
 20
465.915790
 42
-0.067163
  0
VERTEX
  8
0
 10
324.398729
 20
467.726934
 42
-0.019602
  0
VERTEX
  8
0
 10
318.500000
 20
471.595245
 42
-0.011072
  0
VERTEX
  8
0
 10
313.468911
 20
475.355018
 42
-0.051943
  0
VERTEX
  8
0
 10
310.873545
 20
477.860162
 42
-0.082247
  0
VERTEX
  8
0
 10
309.454016
 20
480.254448
 42
-0.057041
  0
VERTEX
  8
0
 10
308.652401
 20
483.303510
 42
0.039139
  0
VERTEX
  8
0
 10
307.786560
 20
487.150740
 42
0.015426
  0
VERTEX
  8
0
 10
306.023846
 20
492.289362
 42
0.015553
  0
VERTEX
  8
0
 10
303.919638
 20
497.373561
 42
0.033797
  0
VERTEX
  8
0
 10
301.928266
 20
501.097307
 42
-0.012302
  0
VERTEX
  8
0
 10
301.266955
 20
502.215584
 42
-0.006939
  0
VERTEX
  8
0
 10
300.517502
 20
503.602021
 42
-0.006922
  0
VERTEX
  8
0
 10
299.799726
 20
505.022636
 42
-0.011266
  0
VERTEX
  8
0
 10
299.234646
 20
506.250000
 42
0.028170
  0
VERTEX
  8
0
 10
298.706069
 20
507.302899
 42
0.037082
  0
VERTEX
  8
0
 10
298.103247
 20
508.192187
 42
0.040623
  0
VERTEX
  8
0
 10
297.514566
 20
508.822764
 42
0.186763
  0
VERTEX
  8
0
 10
297.056623
 20
509.000000
 42
-0.146998
  0
VERTEX
  8
0
 10
296.604397
 20
509.135889
 42
-0.046410
  0
VERTEX
  8
0
 10
296.048426
 20
509.582330
 42
-0.041778
  0
VERTEX
  8
0
 10
295.488157
 20
510.223750
 42
-0.035782
  0
VERTEX
  8
0
 10
295.009419
 20
510.982400
 42
-0.091799
  0
VERTEX
  8
0
 10
294.618553
 20
512.209740
 42
-0.081663
  0
VERTEX
  8
0
 10
294.669137
 20
513.549453
 42
-0.052085
  0
VERTEX
  8
0
 10
295.210006
 20
515.268781
 42
-0.015043
  0
VERTEX
  8
0
 10
296.394921
 20
517.792637
 42
0.007812
  0
VERTEX
  8
0
 10
297.861229
 20
520.801953
 42
0.000892
  0
VERTEX
  8
0
 10
301.050352
 20
527.647103
 42
0.001077
  0
VERTEX
  8
0
 10
304.812430
 20
535.805835
 42
0.000877
  0
VERTEX
  8
0
 10
308.807756
 20
544.560237
 42
-0.000117
  0
VERTEX
  8
0
 10
312.859102
 20
553.473215
 42
-0.000129
  0
VERTEX
  8
0
 10
316.790701
 20
562.111445
 42
-0.000120
  0
VERTEX
  8
0
 10
320.155896
 20
569.495454
 42
-0.000651
  0
VERTEX
  8
0
 10
321.988393
 20
573.500000
 42
0.000261
  0
VERTEX
  8
0
 10
323.401401
 20
576.581490
 42
0.000182
  0
VERTEX
  8
0
 10
324.992448
 20
580.059375
 42
0.000184
  0
VERTEX
  8
0
 10
326.515748
 20
583.395621
 42
0.000381
  0
VERTEX
  8
0
 10
327.701330
 20
586.000000
 42
-0.001059
  0
VERTEX
  8
0
 10
328.760627
 20
588.318632
 42
-0.000928
  0
VERTEX
  8
0
 10
329.877273
 20
590.737319
 42
-0.000932
  0
VERTEX
  8
0
 10
330.893883
 20
592.917973
 42
-0.002791
  0
VERTEX
  8
0
 10
331.600007
 20
594.403638
 42
0.015026
  0
VERTEX
  8
0
 10
332.135911
 20
595.606207
 42
0.015825
  0
VERTEX
  8
0
 10
332.588752
 20
596.818398
 42
0.015643
  0
VERTEX
  8
0
 10
332.912394
 20
597.885061
 42
0.065921
  0
VERTEX
  8
0
 10
333.000000
 20
598.546649
 42
0.186988
  0
VERTEX
  8
0
 10
332.647911
 20
599.455207
 42
0.084125
  0
VERTEX
  8
0
 10
331.623754
 20
600.255867
 42
0.068268
  0
VERTEX
  8
0
 10
330.144109
 20
600.811711
 42
0.055814
  0
VERTEX
  8
0
 10
328.462622
 20
601.000000
 42
-0.130457
  0
VERTEX
  8
0
 10
326.833447
 20
601.432433
 42
-0.014025
  0
VERTEX
  8
0
 10
323.469862
 20
603.480555
 42
-0.015833
  0
VERTEX
  8
0
 10
320.240972
 20
605.721265
 42
-0.095009
  0
VERTEX
  8
0
 10
318.863774
 20
607.220418
 42
0.111740
  0
VERTEX
  8
0
 10
318.350539
 20
607.743254
 42
0.017747
  0
VERTEX
  8
0
 10
317.108125
 20
608.482293
 42
0.018914
  0
VERTEX
  8
0
 10
315.554145
 20
609.258618
 42
0.015549
  0
VERTEX
  8
0
 10
313.841914
 20
609.971235
 42
-0.040545
  0
VERTEX
  8
0
 10
308.924835
 20
612.312202
 42
-0.014083
  0
VERTEX
  8
0
 10
302.240681
 20
616.442982
 42
-0.008857
  0
VERTEX
  8
0
 10
295.789295
 20
620.851163
 42
-0.147877
  0
VERTEX
  8
0
 10
294.216989
 20
622.876919
 42
0.067057
  0
VERTEX
  8
0
 10
293.798975
 20
623.641505
 42
0.019846
  0
VERTEX
  8
0
 10
292.964786
 20
624.685996
 42
0.019531
  0
VERTEX
  8
0
 10
291.923804
 20
625.797454
 42
0.019894
  0
VERTEX
  8
0
 10
290.805403
 20
626.817196
 42
-0.032489
  0
VERTEX
  8
0
 10
289.731809
 20
627.846752
 42
-0.034532
  0
VERTEX
  8
0
 10
288.824087
 20
628.987001
 42
-0.036838
  0
VERTEX
  8
0
 10
288.190014
 20
630.070027
 42
-0.114501
  0
VERTEX
  8
0
 10
288.000000
 20
630.888894
 42
0.046461
  0
VERTEX
  8
0
 10
287.932501
 20
631.613733
 42
0.036566
  0
VERTEX
  8
0
 10
287.730579
 20
632.376425
 42
0.037690
  0
VERTEX
  8
0
 10
287.434515
 20
633.062761
 42
0.071427
  0
VERTEX
  8
0
 10
287.082824
 20
633.550000
 42
-0.160948
  0
VERTEX
  8
0
 10
286.394428
 20
634.979968
 42
-0.002389
  0
VERTEX
  8
0
 10
285.220634
 20
644.342188
 42
-0.006912
  0
VERTEX
  8
0
 10
284.271278
 20
653.254373
 42
-0.023079
  0
VERTEX
  8
0
 10
284.000000
 20
659.128365
 42
-0.047820
  0
VERTEX
  8
0
 10
284.144795
 20
660.638862
 42
-0.150538
  0
VERTEX
  8
0
 10
284.618536
 20
661.527107
 42
-0.122684
  0
VERTEX
  8
0
 10
285.577381
 20
662.099068
 42
-0.027071
  0
VERTEX
  8
0
 10
287.452012
 20
662.556975
 42
0.046375
  0
VERTEX
  8
0
 10
288.917653
 20
662.975460
 42
0.040984
  0
VERTEX
  8
0
 10
290.346363
 20
663.670430
 42
0.042803
  0
VERTEX
  8
0
 10
291.566234
 20
664.541692
 42
0.071369
  0
VERTEX
  8
0
 10
292.399351
 20
665.486734
 42
-0.069564
  0
VERTEX
  8
0
 10
293.227153
 20
666.432576
 42
-0.046024
  0
VERTEX
  8
0
 10
294.403145
 20
667.273841
 42
-0.044184
  0
VERTEX
  8
0
 10
295.776800
 20
667.921657
 42
-0.048902
  0
VERTEX
  8
0
 10
297.197339
 20
668.291401
 42
0.017028
  0
VERTEX
  8
0
 10
301.921975
 20
669.204748
 42
0.031526
  0
VERTEX
  8
0
 10
305.667509
 20
670.314487
 42
0.038956
  0
VERTEX
  8
0
 10
308.609844
 20
671.660154
 42
0.060782
  0
VERTEX
  8
0
 10
310.861642
 20
673.295892
 42
-0.051119
  0
VERTEX
  8
0
 10
312.659614
 20
674.655640
 42
-0.088143
  0
VERTEX
  8
0
 10
314.404158
 20
675.331321
 42
-0.049245
  0
VERTEX
  8
0
 10
316.901701
 20
675.570003
 42
-0.007197
  0
VERTEX
  8
0
 10
322.000000
 20
675.480642
 42
-0.005548
  0
VERTEX
  8
0
 10
325.588462
 20
675.326190
 42
-0.004833
  0
VERTEX
  8
0
 10
329.341833
 20
675.086491
 42
-0.004865
  0
VERTEX
  8
0
 10
332.732765
 20
674.803811
 42
-0.014302
  0
VERTEX
  8
0
 10
335.057304
 20
674.519972
 42
0.045305
  0
VERTEX
  8
0
 10
338.853486
 20
674.293609
 42
0.187367
  0
VERTEX
  8
0
 10
340.930999
 20
675.175470
 42
0.247909
  0
VERTEX
  8
0
 10
341.527183
 20
677.018173
 42
0.076182
  0
VERTEX
  8
0
 10
340.562827
 20
679.878505
 42
-0.026084
  0
VERTEX
  8
0
 10
339.220190
 20
682.844379
 42
-0.251652
  0
VERTEX
  8
0
 10
339.380440
 20
684.171934
 42
-0.217342
  0
VERTEX
  8
0
 10
340.611048
 20
684.892265
 42
-0.019756
  0
VERTEX
  8
0
 10
344.250000
 20
685.118315
 42
0.010213
  0
VERTEX
  8
0
 10
346.479935
 20
685.214164
 42
0.008567
  0
VERTEX
  8
0
 10
348.839063
 20
685.404522
 42
0.008667
  0
VERTEX
  8
0
 10
350.988865
 20
685.652806
 42
0.023432
  0
VERTEX
  8
0
 10
352.500000
 20
685.926492
 42
-0.039262
  0
VERTEX
  8
0
 10
353.845041
 20
686.126392
 42
-0.025873
  0
VERTEX
  8
0
 10
355.409566
 20
686.153494
 42
-0.026045
  0
VERTEX
  8
0
 10
356.943942
 20
686.020448
 42
-0.044858
  0
VERTEX
  8
0
 10
358.192138
 20
685.730523
 42
-0.054314
  0
VERTEX
  8
0
 10
359.685631
 20
685.052061
 42
-0.151982
  0
VERTEX
  8
0
 10
360.447354
 20
684.208078
 42
-0.095888
  0
VERTEX
  8
0
 10
360.786129
 20
682.831862
 42
-0.014481
  0
SEQEND
  0
POLYLINE
  8
0
 66
1
 70
1
  0
VERTEX
  8
0
 10
205.295204
 20
676.087786
 42
-0.015096
  0
VERTEX
  8
0
 10
207.828807
 20
674.909997
 42
-0.098470
  0
VERTEX
  8
0
 10
208.931279
 20
674.051450
 42
-0.163760
  0
VERTEX
  8
0
 10
209.343587
 20
673.043251
 42
-0.063195
  0
VERTEX
  8
0
 10
209.247741
 20
671.515640
 42
0.046779
  0
VERTEX
  8
0
 10
209.135049
 20
670.337896
 42
0.032094
  0
VERTEX
  8
0
 10
209.218622
 20
668.997319
 42
0.032420
  0
VERTEX
  8
0
 10
209.468850
 20
667.704884
 42
0.055097
  0
VERTEX
  8
0
 10
209.862646
 20
666.677855
 42
-0.031861
  0
VERTEX
  8
0
 10
211.826091
 20
662.191359
 42
-0.042605
  0
VERTEX
  8
0
 10
212.983740
 20
657.902962
 42
-0.038149
  0
VERTEX
  8
0
 10
213.473750
 20
653.127220
 42
-0.019502
  0
VERTEX
  8
0
 10
213.395287
 20
647.098489
 42
0.008589
  0
VERTEX
  8
0
 10
213.221343
 20
642.107394
 42
0.033325
  0
VERTEX
  8
0
 10
213.372729
 20
639.018227
 42
0.049205
  0
VERTEX
  8
0
 10
213.890880
 20
636.633149
 42
0.039894
  0
VERTEX
  8
0
 10
214.891437
 20
634.212802
 42
-0.030776
  0
VERTEX
  8
0
 10
215.753884
 20
632.229632
 42
-0.041392
  0
VERTEX
  8
0
 10
216.268410
 20
630.340747
 42
-0.042730
  0
VERTEX
  8
0
 10
216.454735
 20
628.441672
 42
-0.036268
  0
VERTEX
  8
0
 10
216.333620
 20
626.429237
 42
0.045708
  0
VERTEX
  8
0
 10
216.230618
 20
623.934323
 42
0.134380
  0
VERTEX
  8
0
 10
216.762030
 20
622.315852
 42
0.071096
  0
VERTEX
  8
0
 10
218.246575
 20
620.644804
 42
0.006862
  0
VERTEX
  8
0
 10
222.447872
 20
617.186102
 42
0.018729
  0
VERTEX
  8
0
 10
228.388114
 20
612.785637
 42
0.187772
  0
VERTEX
  8
0
 10
231.341142
 20
612.097611
 42
0.302604
  0
VERTEX
  8
0
 10
233.143463
 20
613.710548
 42
0.043460
  0
VERTEX
  8
0
 10
234.004464
 20
618.841968
 42
-0.014452
  0
VERTEX
  8
0
 10
234.367211
 20
622.178983
 42
-0.049191
  0
VERTEX
  8
0
 10
234.876844
 20
624.303028
 42
-0.072430
  0
VERTEX
  8
0
 10
235.662187
 20
625.817462
 42
-0.066884
  0
VERTEX
  8
0
 10
236.865248
 20
627.091968
 42
-0.067011
  0
VERTEX
  8
0
 10
239.222809
 20
628.527157
 42
-0.134442
  0
VERTEX
  8
0
 10
241.362831
 20
628.841251
 42
-0.111840
  0
VERTEX
  8
0
 10
243.629267
 20
628.028533
 42
-0.038387
  0
VERTEX
  8
0
 10
246.434917
 20
625.923000
 42
0.021620
  0
VERTEX
  8
0
 10
248.254726
 20
624.459503
 42
0.060949
  0
VERTEX
  8
0
 10
249.675025
 20
623.660720
 42
0.086178
  0
VERTEX
  8
0
 10
250.936229
 20
623.380494
 42
0.085875
  0
VERTEX
  8
0
 10
252.219713
 20
623.541280
 42
0.053916
  0
VERTEX
  8
0
 10
254.833805
 20
624.657863
 42
0.096390
  0
VERTEX
  8
0
 10
256.609148
 20
626.164160
 42
0.116720
  0
VERTEX
  8
0
 10
257.482497
 20
628.006706
 42
0.107015
  0
VERTEX
  8
0
 10
257.476225
 20
630.108248
 42
-0.112515
  0
VERTEX
  8
0
 10
257.496482
 20
632.677994
 42
-0.039913
  0
VERTEX
  8
0
 10
258.631021
 20
636.198552
 42
-0.040153
  0
VERTEX
  8
0
 10
260.365394
 20
639.597747
 42
-0.081684
  0
VERTEX
  8
0
 10
262.326197
 20
641.855756
 42
-0.127700
  0
VERTEX
  8
0
 10
263.469544
 20
642.392206
 42
-0.024673
  0
VERTEX
  8
0
 10
265.752313
 20
642.703050
 42
-0.020481
  0
VERTEX
  8
0
 10
268.914556
 20
642.845591
 42
-0.008743
  0
VERTEX
  8
0
 10
273.149285
 20
642.788859
 42
0.000000
  0
VERTEX
  8
0
 10
282.500000
 20
642.500000
 42
0.000000
  0
VERTEX
  8
0
 10
282.813132
 20
638.000000
 42
0.017677
  0
VERTEX
  8
0
 10
283.001720
 20
636.207488
 42
0.021324
  0
VERTEX
  8
0
 10
283.309486
 20
634.542813
 42
0.020548
  0
VERTEX
  8
0
 10
283.680531
 20
633.183899
 42
0.118247
  0
VERTEX
  8
0
 10
284.063132
 20
632.550000
 42
-0.061268
  0
VERTEX
  8
0
 10
284.421982
 20
632.083842
 42
-0.038711
  0
VERTEX
  8
0
 10
284.724795
 20
631.466911
 42
-0.038465
  0
VERTEX
  8
0
 10
284.931409
 20
630.803722
 42
-0.056340
  0
VERTEX
  8
0
 10
285.000000
 20
630.196929
 42
0.176983
  0
VERTEX
  8
0
 10
285.803712
 20
627.997463
 42
0.013900
  0
VERTEX
  8
0
 10
290.022847
 20
623.268411
 42
0.019914
  0
VERTEX
  8
0
 10
294.874055
 20
618.519894
 42
0.032906
  0
VERTEX
  8
0
 10
299.369434
 20
614.965067
 42
0.007680
  0
VERTEX
  8
0
 10
304.336859
 20
611.653889
 42
0.014150
  0
VERTEX
  8
0
 10
308.491236
 20
609.139382
 42
0.013434
  0
VERTEX
  8
0
 10
311.797025
 20
607.379852
 42
0.116080
  0
VERTEX
  8
0
 10
313.411137
 20
607.000000
 42
-0.105578
  0
VERTEX
  8
0
 10
314.078853
 20
606.857419
 42
-0.025184
  0
VERTEX
  8
0
 10
315.096510
 20
606.339062
 42
-0.024783
  0
VERTEX
  8
0
 10
316.229456
 20
605.611244
 42
-0.022272
  0
VERTEX
  8
0
 10
317.327512
 20
604.750000
 42
0.009156
  0
VERTEX
  8
0
 10
321.240060
 20
601.512005
 42
0.027437
  0
VERTEX
  8
0
 10
324.067554
 20
599.501233
 42
0.040641
  0
VERTEX
  8
0
 10
326.252166
 20
598.358140
 42
0.100545
  0
VERTEX
  8
0
 10
328.015150
 20
598.000000
 42
-0.044459
  0
VERTEX
  8
0
 10
328.904599
 20
597.920756
 42
-0.116178
  0
VERTEX
  8
0
 10
329.489662
 20
597.667138
 42
-0.185674
  0
VERTEX
  8
0
 10
329.744096
 20
597.264244
 42
-0.148872
  0
VERTEX
  8
0
 10
329.692776
 20
596.750000
 42
-0.008662
  0
VERTEX
  8
0
 10
329.279866
 20
595.806089
 42
-0.000094
  0
VERTEX
  8
0
 10
326.344998
 20
589.404688
 42
-0.000296
  0
VERTEX
  8
0
 10
322.953347
 20
582.022199
 42
-0.000193
  0
VERTEX
  8
0
 10
319.027985
 20
573.500000
 42
0.000074
  0
VERTEX
  8
0
 10
315.043176
 20
564.854172
 42
0.000101
  0
VERTEX
  8
0
 10
311.463978
 20
557.081250
 42
0.000064
  0
VERTEX
  8
0
 10
308.456314
 20
550.543835
 42
0.001221
  0
VERTEX
  8
0
 10
307.522366
 20
548.500000
 42
-0.000021
  0
VERTEX
  8
0
 10
306.750961
 20
546.801095
 42
-0.000004
  0
VERTEX
  8
0
 10
305.359717
 20
543.737500
 42
-0.000004
  0
VERTEX
  8
0
 10
303.737590
 20
540.165649
 42
-0.000004
  0
VERTEX
  8
0
 10
302.072791
 20
536.500000
 42
-0.003271
  0
VERTEX
  8
0
 10
300.252875
 20
532.561535
 42
-0.002314
  0
VERTEX
  8
0
 10
298.160004
 20
528.162108
 42
-0.002335
  0
VERTEX
  8
0
 10
296.120952
 20
523.976589
 42
-0.004933
  0
VERTEX
  8
0
 10
294.492622
 20
520.753986
 42
0.008818
  0
VERTEX
  8
0
 10
293.155105
 20
518.055025
 42
0.011328
  0
VERTEX
  8
0
 10
292.025958
 20
515.525222
 42
0.009284
  0
VERTEX
  8
0
 10
291.174055
 20
513.383527
 42
0.090248
  0
VERTEX
  8
0
 10
291.000000
 20
512.427063
 42
0.118210
  0
VERTEX
  8
0
 10
291.192883
 20
511.622615
 42
0.027807
  0
VERTEX
  8
0
 10
291.892771
 20
510.417775
 42
0.027121
  0
VERTEX
  8
0
 10
292.875873
 20
509.086512
 42
0.023776
  0
VERTEX
  8
0
 10
294.039221
 20
507.806933
 42
-0.018959
  0
VERTEX
  8
0
 10
295.815347
 20
505.890751
 42
-0.109568
  0
VERTEX
  8
0
 10
296.462778
 20
504.680748
 42
-0.121302
  0
VERTEX
  8
0
 10
296.504258
 20
503.369137
 42
-0.025459
  0
VERTEX
  8
0
 10
295.907907
 20
501.133856
 42
-0.006701
  0
VERTEX
  8
0
 10
295.414386
 20
499.669302
 42
-0.007514
  0
VERTEX
  8
0
 10
294.899477
 20
498.273695
 42
-0.006976
  0
VERTEX
  8
0
 10
294.427229
 20
497.099643
 42
-0.039436
  0
VERTEX
  8
0
 10
294.118686
 20
496.500000
 42
0.095561
  0
VERTEX
  8
0
 10
293.869311
 20
495.844455
 42
0.011804
  0
VERTEX
  8
0
 10
293.640673
 20
494.325000
 42
0.013594
  0
VERTEX
  8
0
 10
293.459004
 20
492.487770
 42
0.010856
  0
VERTEX
  8
0
 10
293.360202
 20
490.500000
 42
-0.018077
  0
VERTEX
  8
0
 10
293.101769
 20
486.473923
 42
-0.021318
  0
VERTEX
  8
0
 10
292.558093
 20
482.694779
 42
-0.017185
  0
VERTEX
  8
0
 10
291.861289
 20
479.576976
 42
-0.193092
  0
VERTEX
  8
0
 10
291.122353
 20
478.575618
 42
-0.130263
  0
VERTEX
  8
0
 10
290.562703
 20
478.405861
 42
-0.000300
  0
VERTEX
  8
0
 10
281.865189
 20
478.102737
 42
-0.001945
  0
VERTEX
  8
0
 10
272.048937
 20
477.804745
 42
-0.001205
  0
VERTEX
  8
0
 10
260.517234
 20
477.527375
 42
0.002377
  0
VERTEX
  8
0
 10
247.139759
 20
477.174222
 42
0.006470
  0
VERTEX
  8
0
 10
237.672950
 20
476.756595
 42
0.003704
  0
VERTEX
  8
0
 10
230.578270
 20
476.298829
 42
0.156480
  0
VERTEX
  8
0
 10
229.185175
 20
475.738718
 42
-0.184810
  0
VERTEX
  8
0
 10
228.273527
 20
475.429277
 42
-0.121324
  0
VERTEX
  8
0
 10
227.195581
 20
475.738937
 42
-0.056130
  0
VERTEX
  8
0
 10
225.726148
 20
476.817873
 42
-0.011646
  0
VERTEX
  8
0
 10
223.419404
 20
479.049202
 42
0.008811
  0
VERTEX
  8
0
 10
216.818843
 20
485.506825
 42
0.057379
  0
VERTEX
  8
0
 10
213.105907
 20
488.283987
 42
0.090997
  0
VERTEX
  8
0
 10
209.614594
 20
489.542909
 42
0.039643
  0
VERTEX
  8
0
 10
204.685591
 20
489.964565
 42
0.019966
  0
VERTEX
  8
0
 10
201.156125
 20
489.845109
 42
0.075033
  0
VERTEX
  8
0
 10
199.001926
 20
489.355362
 42
0.069017
  0
VERTEX
  8
0
 10
196.997875
 20
488.231357
 42
0.015243
  0
VERTEX
  8
0
 10
193.925936
 20
485.750000
 42
0.013781
  0
VERTEX
  8
0
 10
191.277643
 20
483.344016
 42
0.059277
  0
VERTEX
  8
0
 10
189.928798
 20
481.700789
 42
0.092463
  0
VERTEX
  8
0
 10
189.312095
 20
480.176750
 42
0.066555
  0
VERTEX
  8
0
 10
189.188582
 20
478.341324
 42
-0.079323
  0
VERTEX
  8
0
 10
188.914447
 20
475.389157
 42
-0.157992
  0
VERTEX
  8
0
 10
187.672362
 20
473.426806
 42
-0.114089
  0
VERTEX
  8
0
 10
185.178975
 20
472.173062
 42
-0.031524
  0
VERTEX
  8
0
 10
180.833169
 20
471.401615
 42
0.012397
  0
VERTEX
  8
0
 10
177.456846
 20
470.934590
 42
0.068849
  0
VERTEX
  8
0
 10
175.711618
 20
470.395252
 42
0.119397
  0
VERTEX
  8
0
 10
174.650010
 20
469.545730
 42
0.073867
  0
VERTEX
  8
0
 10
173.864981
 20
468.144873
 42
-0.026586
  0
VERTEX
  8
0
 10
172.722388
 20
465.561913
 42
-0.093784
  0
VERTEX
  8
0
 10
171.619042
 20
464.130423
 42
-0.167907
  0
VERTEX
  8
0
 10
170.448027
 20
463.643031
 42
-0.143957
  0
VERTEX
  8
0
 10
169.140443
 20
463.941280
 42
0.109808
  0
VERTEX
  8
0
 10
168.192247
 20
464.225749
 42
0.076871
  0
VERTEX
  8
0
 10
167.076476
 20
464.135495
 42
0.055614
  0
VERTEX
  8
0
 10
165.728725
 20
463.650744
 42
0.024303
  0
VERTEX
  8
0
 10
164.063631
 20
462.730309
 42
-0.042285
  0
VERTEX
  8
0
 10
161.928511
 20
461.648277
 42
-0.054846
  0
VERTEX
  8
0
 10
159.818001
 20
461.052903
 42
-0.038895
  0
VERTEX
  8
0
 10
157.120773
 20
460.815966
 42
-0.010987
  0
VERTEX
  8
0
 10
152.899489
 20
460.867062
 42
0.006244
  0
VERTEX
  8
0
 10
148.321644
 20
460.965909
 42
0.054595
  0
VERTEX
  8
0
 10
146.303638
 20
460.763474
 42
0.139812
  0
VERTEX
  8
0
 10
145.209120
 20
460.184044
 42
0.125340
  0
VERTEX
  8
0
 10
144.528931
 20
459.091154
 42
-0.071247
  0
VERTEX
  8
0
 10
144.082937
 20
458.166897
 42
-0.029352
  0
VERTEX
  8
0
 10
143.238964
 20
457.057918
 42
-0.028307
  0
VERTEX
  8
0
 10
142.179250
 20
455.955860
 42
-0.032414
  0
VERTEX
  8
0
 10
141.046407
 20
455.033045
 42
0.000000
  0
VERTEX
  8
0
 10
138.211097
 20
453.014126
 42
0.000000
  0
VERTEX
  8
0
 10
130.855548
 20
455.942323
 42
0.000957
  0
VERTEX
  8
0
 10
127.375765
 20
457.319890
 42
0.000466
  0
VERTEX
  8
0
 10
122.926493
 20
459.066623
 42
0.000462
  0
VERTEX
  8
0
 10
118.292495
 20
460.875964
 42
0.000667
  0
VERTEX
  8
0
 10
114.192089
 20
462.466302
 42
-0.009284
  0
VERTEX
  8
0
 10
109.575053
 20
464.349177
 42
-0.003435
  0
VERTEX
  8
0
 10
103.140302
 20
467.166284
 42
-0.003403
  0
VERTEX
  8
0
 10
96.158364
 20
470.337413
 42
-0.004093
  0
VERTEX
  8
0
 10
89.639669
 20
473.416845
 42
0.006888
  0
VERTEX
  8
0
 10
79.656435
 20
478.064860
 42
0.029851
  0
VERTEX
  8
0
 10
73.548036
 20
480.379971
 42
0.024268
  0
VERTEX
  8
0
 10
66.669397
 20
482.166211
 42
0.003502
  0
VERTEX
  8
0
 10
52.447581
 20
485.027470
 42
-0.009061
  0
VERTEX
  8
0
 10
38.835735
 20
487.923808
 42
-0.008890
  0
VERTEX
  8
0
 10
25.250900
 20
491.328328
 42
-0.004619
  0
VERTEX
  8
0
 10
13.102728
 20
494.724110
 42
-0.126566
  0
VERTEX
  8
0
 10
10.267719
 20
496.398948
 42
-0.289605
  0
VERTEX
  8
0
 10
9.987147
 20
497.644207
 42
-0.080254
  0
VERTEX
  8
0
 10
10.996797
 20
499.482122
 42
-0.053552
  0
VERTEX
  8
0
 10
13.095240
 20
501.648339
 42
-0.028669
  0
VERTEX
  8
0
 10
16.093295
 20
503.866411
 42
0.000000
  0
VERTEX
  8
0
 10
21.203943
 20
507.212132
 42
0.000000
  0
VERTEX
  8
0
 10
20.547032
 20
512.469868
 42
-0.020759
  0
VERTEX
  8
0
 10
20.312702
 20
515.293931
 42
-0.046005
  0
VERTEX
  8
0
 10
20.422036
 20
517.449873
 42
-0.050759
  0
VERTEX
  8
0
 10
20.911395
 20
519.415104
 42
-0.030927
  0
VERTEX
  8
0
 10
21.859996
 20
521.613803
 42
0.022631
  0
VERTEX
  8
0
 10
22.662557
 20
523.392340
 42
0.014255
  0
VERTEX
  8
0
 10
23.444432
 20
525.533429
 42
0.014308
  0
VERTEX
  8
0
 10
24.094319
 20
527.687564
 42
0.025360
  0
VERTEX
  8
0
 10
24.487615
 20
529.500000
 42
-0.040864
  0
VERTEX
  8
0
 10
25.020473
 20
531.634328
 42
-0.067487
  0
VERTEX
  8
0
 10
25.845955
 20
533.295818
 42
-0.059871
  0
VERTEX
  8
0
 10
27.159468
 20
534.807166
 42
-0.025692
  0
VERTEX
  8
0
 10
29.234341
 20
536.500000
 42
-0.000016
  0
VERTEX
  8
0
 10
31.060933
 20
537.840044
 42
-0.000010
  0
VERTEX
  8
0
 10
33.176258
 20
539.391743
 42
-0.000010
  0
VERTEX
  8
0
 10
35.244109
 20
540.908488
 42
-0.000019
  0
VERTEX
  8
0
 10
36.911661
 20
542.131467
 42
-0.053310
  0
VERTEX
  8
0
 10
40.127567
 20
543.999482
 42
-0.021036
  0
VERTEX
  8
0
 10
44.890844
 20
545.889009
 42
-0.020348
  0
VERTEX
  8
0
 10
50.307931
 20
547.534424
 42
-0.022416
  0
VERTEX
  8
0
 10
55.669656
 20
548.673727
 42
0.050898
  0
VERTEX
  8
0
 10
57.047784
 20
549.049588
 42
0.031702
  0
VERTEX
  8
0
 10
58.570531
 20
549.750437
 42
0.031624
  0
VERTEX
  8
0
 10
59.999611
 20
550.642335
 42
0.048895
  0
VERTEX
  8
0
 10
61.093970
 20
551.600026
 42
-0.075228
  0
VERTEX
  8
0
 10
63.110439
 20
553.185913
 42
-0.101071
  0
VERTEX
  8
0
 10
65.314685
 20
553.903687
 42
-0.117701
  0
VERTEX
  8
0
 10
67.372920
 20
553.653466
 42
-0.131442
  0
VERTEX
  8
0
 10
69.000000
 20
552.500000
 42
0.159398
  0
VERTEX
  8
0
 10
70.683673
 20
551.439875
 42
0.054171
  0
VERTEX
  8
0
 10
73.584296
 20
551.038314
 42
0.054813
  0
VERTEX
  8
0
 10
76.357941
 20
551.261202
 42
0.263195
  0
VERTEX
  8
0
 10
77.521410
 20
552.250000
 42
0.046155
  0
VERTEX
  8
0
 10
77.781785
 20
553.231071
 42
0.000430
  0
VERTEX
  8
0
 10
79.022703
 20
560.623438
 42
0.001450
  0
VERTEX
  8
0
 10
80.418775
 20
569.136028
 42
0.000937
  0
VERTEX
  8
0
 10
81.988146
 20
579.000000
 42
-0.001984
  0
VERTEX
  8
0
 10
83.606373
 20
589.035590
 42
-0.002686
  0
VERTEX
  8
0
 10
85.153300
 20
598.090082
 42
-0.001806
  0
VERTEX
  8
0
 10
86.519291
 20
605.674442
 42
-0.029585
  0
VERTEX
  8
0
 10
87.134749
 20
608.179003
 42
0.032305
  0
VERTEX
  8
0
 10
87.665347
 20
610.390007
 42
0.088258
  0
VERTEX
  8
0
 10
87.657146
 20
611.991843
 42
0.071277
  0
VERTEX
  8
0
 10
87.089822
 20
613.683993
 42
0.016073
  0
VERTEX
  8
0
 10
85.636629
 20
616.357073
 42
-0.022216
  0
VERTEX
  8
0
 10
84.627427
 20
618.269042
 42
-0.021196
  0
VERTEX
  8
0
 10
83.774510
 20
620.292835
 42
-0.021693
  0
VERTEX
  8
0
 10
83.175723
 20
622.142433
 42
-0.067530
  0
VERTEX
  8
0
 10
83.000000
 20
623.437573
 42
0.084240
  0
VERTEX
  8
0
 10
82.769564
 20
624.795594
 42
0.076093
  0
VERTEX
  8
0
 10
82.100889
 20
626.055103
 42
0.057167
  0
VERTEX
  8
0
 10
80.902012
 20
627.331308
 42
0.024329
  0
VERTEX
  8
0
 10
79.037951
 20
628.759504
 42
-0.022862
  0
VERTEX
  8
0
 10
76.626714
 20
630.595736
 42
-0.112721
  0
VERTEX
  8
0
 10
75.599741
 20
631.947363
 42
-0.092337
  0
VERTEX
  8
0
 10
75.159770
 20
633.736708
 42
-0.012681
  0
VERTEX
  8
0
 10
75.037951
 20
637.591712
 42
0.000000
  0
VERTEX
  8
0
 10
75.000000
 20
643.683425
 42
0.000000
  0
VERTEX
  8
0
 10
78.750000
 20
644.793063
 42
-0.035494
  0
VERTEX
  8
0
 10
80.492876
 20
645.176834
 42
-0.020014
  0
VERTEX
  8
0
 10
82.646875
 20
645.405482
 42
-0.019896
  0
VERTEX
  8
0
 10
84.849568
 20
645.462645
 42
-0.030632
  0
VERTEX
  8
0
 10
86.750000
 20
645.319681
 42
0.010602
  0
VERTEX
  8
0
 10
89.511165
 20
645.000386
 42
0.156962
  0
VERTEX
  8
0
 10
90.451052
 20
645.208058
 42
0.237809
  0
VERTEX
  8
0
 10
90.896846
 20
645.895951
 42
0.027023
  0
VERTEX
  8
0
 10
91.000000
 20
647.803231
 42
0.025499
  0
VERTEX
  8
0
 10
90.930740
 20
649.160433
 42
0.016891
  0
VERTEX
  8
0
 10
90.719532
 20
650.706682
 42
0.017017
  0
VERTEX
  8
0
 10
90.411525
 20
652.198809
 42
0.031442
  0
VERTEX
  8
0
 10
90.045216
 20
653.381073
 42
0.069577
  0
VERTEX
  8
0
 10
89.305340
 20
654.728191
 42
0.127285
  0
VERTEX
  8
0
 10
88.334214
 20
655.507749
 42
0.077202
  0
VERTEX
  8
0
 10
86.769527
 20
655.939275
 42
0.014423
  0
VERTEX
  8
0
 10
83.795216
 20
656.196172
 42
0.000000
  0
VERTEX
  8
0
 10
78.500000
 20
656.500000
 42
0.000000
  0
VERTEX
  8
0
 10
78.180799
 20
660.398214
 42
-0.026592
  0
VERTEX
  8
0
 10
78.132556
 20
662.088655
 42
-0.045909
  0
VERTEX
  8
0
 10
78.295818
 20
663.484985
 42
-0.058419
  0
VERTEX
  8
0
 10
78.647537
 20
664.529327
 42
-0.141977
  0
VERTEX
  8
0
 10
79.180799
 20
665.132901
 42
-0.120558
  0
VERTEX
  8
0
 10
80.168131
 20
665.465736
 42
-0.005623
  0
VERTEX
  8
0
 10
83.710922
 20
665.728159
 42
-0.009025
  0
VERTEX
  8
0
 10
87.960967
 20
665.918014
 42
-0.006336
  0
VERTEX
  8
0
 10
92.750000
 20
665.984687
 42
0.004230
  0
VERTEX
  8
0
 10
99.959329
 20
666.054695
 42
0.031785
  0
VERTEX
  8
0
 10
103.359982
 20
666.333216
 42
0.070419
  0
VERTEX
  8
0
 10
105.441282
 20
666.944963
 42
0.089971
  0
VERTEX
  8
0
 10
107.081359
 20
668.081359
 42
-0.020189
  0
VERTEX
  8
0
 10
108.354143
 20
669.255307
 42
-0.144696
  0
VERTEX
  8
0
 10
109.110551
 20
669.590610
 42
-0.182290
  0
VERTEX
  8
0
 10
109.837465
 20
669.419822
 42
-0.036061
  0
VERTEX
  8
0
 10
110.910100
 20
668.581359
 42
0.067841
  0
VERTEX
  8
0
 10
112.692640
 20
667.361622
 42
0.204372
  0
VERTEX
  8
0
 10
114.132262
 20
667.273084
 42
0.121850
  0
VERTEX
  8
0
 10
115.684018
 20
668.299248
 42
0.018544
  0
VERTEX
  8
0
 10
118.114059
 20
671.144012
 42
0.000000
  0
VERTEX
  8
0
 10
121.396178
 20
675.288024
 42
0.000000
  0
VERTEX
  8
0
 10
124.233706
 20
671.894012
 42
-0.029702
  0
VERTEX
  8
0
 10
125.700133
 20
669.911843
 42
-0.067384
  0
VERTEX
  8
0
 10
126.497711
 20
668.230771
 42
-0.063924
  0
VERTEX
  8
0
 10
126.842667
 20
666.343205
 42
-0.024551
  0
VERTEX
  8
0
 10
126.853332
 20
663.671676
 42
0.035962
  0
VERTEX
  8
0
 10
126.940450
 20
660.420989
 42
0.125249
  0
VERTEX
  8
0
 10
127.650822
 20
658.462079
 42
0.165883
  0
VERTEX
  8
0
 10
129.072538
 20
657.392601
 42
0.077156
  0
VERTEX
  8
0
 10
131.378799
 20
657.015313
 42
-0.110512
  0
VERTEX
  8
0
 10
132.349142
 20
656.789873
 42
-0.025029
  0
VERTEX
  8
0
 10
133.843713
 20
655.976373
 42
-0.024746
  0
VERTEX
  8
0
 10
135.510639
 20
654.840881
 42
-0.021814
  0
VERTEX
  8
0
 10
137.131680
 20
653.500000
 42
0.022945
  0
VERTEX
  8
0
 10
139.388755
 20
651.641589
 42
0.064510
  0
VERTEX
  8
0
 10
141.166520
 20
650.637573
 42
0.068317
  0
VERTEX
  8
0
 10
143.082049
 20
650.150818
 42
0.028113
  0
VERTEX
  8
0
 10
145.762334
 20
650.000000
 42
0.019763
  0
VERTEX
  8
0
 10
148.178761
 20
650.095550
 42
0.060681
  0
VERTEX
  8
0
 10
149.780979
 20
650.420765
 42
0.088304
  0
VERTEX
  8
0
 10
150.905358
 20
651.031548
 42
0.084897
  0
VERTEX
  8
0
 10
151.767927
 20
652.000000
 42
-0.105908
  0
VERTEX
  8
0
 10
153.253144
 20
653.533896
 42
-0.159461
  0
VERTEX
  8
0
 10
155.030150
 20
654.033803
 42
-0.229427
  0
VERTEX
  8
0
 10
156.327668
 20
653.336586
 42
-0.185611
  0
VERTEX
  8
0
 10
156.738210
 20
651.790988
 42
0.159386
  0
VERTEX
  8
0
 10
157.129717
 20
649.942298
 42
0.301080
  0
VERTEX
  8
0
 10
158.438469
 20
649.292087
 42
0.135887
  0
VERTEX
  8
0
 10
160.607704
 20
650.193704
 42
0.043896
  0
VERTEX
  8
0
 10
163.172591
 20
652.591632
 42
-0.006600
  0
VERTEX
  8
0
 10
166.642963
 20
656.358208
 42
-0.027340
  0
VERTEX
  8
0
 10
168.887941
 20
658.485287
 42
-0.046680
  0
VERTEX
  8
0
 10
170.552881
 20
659.650131
 42
-0.124848
  0
VERTEX
  8
0
 10
171.938561
 20
660.031803
 42
0.067332
  0
VERTEX
  8
0
 10
172.674187
 20
660.146617
 42
0.028842
  0
VERTEX
  8
0
 10
173.611534
 20
660.485547
 42
0.027893
  0
VERTEX
  8
0
 10
174.583289
 20
660.967484
 42
0.032859
  0
VERTEX
  8
0
 10
175.441130
 20
661.531803
 42
-0.044219
  0
VERTEX
  8
0
 10
176.339570
 20
662.094054
 42
-0.031019
  0
VERTEX
  8
0
 10
177.435325
 20
662.568717
 42
-0.031433
  0
VERTEX
  8
0
 10
178.550730
 20
662.894194
 42
-0.055324
  0
VERTEX
  8
0
 10
179.504038
 20
663.000000
 42
0.149204
  0
VERTEX
  8
0
 10
181.664224
 20
663.659296
 42
0.052772
  0
VERTEX
  8
0
 10
184.169619
 20
665.760556
 42
0.052392
  0
VERTEX
  8
0
 10
186.258879
 20
668.437205
 42
0.105812
  0
VERTEX
  8
0
 10
187.164977
 20
670.940893
 42
-0.073667
  0
VERTEX
  8
0
 10
187.516630
 20
672.148018
 42
-0.104893
  0
VERTEX
  8
0
 10
188.181190
 20
673.041415
 42
-0.084075
  0
VERTEX
  8
0
 10
189.270984
 20
673.716279
 42
-0.033605
  0
VERTEX
  8
0
 10
190.943283
 20
674.269570
 42
0.020755
  0
VERTEX
  8
0
 10
192.410234
 20
674.713467
 42
0.015986
  0
VERTEX
  8
0
 10
193.971186
 20
675.314081
 42
0.016254
  0
VERTEX
  8
0
 10
195.395844
 20
675.970542
 42
0.036697
  0
VERTEX
  8
0
 10
196.415789
 20
676.578677
 42
-0.051869
  0
VERTEX
  8
0
 10
198.264756
 20
677.606531
 42
-0.115244
  0
VERTEX
  8
0
 10
199.842545
 20
677.884273
 42
-0.074490
  0
VERTEX
  8
0
 10
201.797329
 20
677.480008
 42
-0.013081
  0
SEQEND
  0
POLYLINE
  8
0
 66
1
 70
1
  0
VERTEX
  8
0
 10
536.644930
 20
607.863845
 42
0.028598
  0
VERTEX
  8
0
 10
538.015192
 20
606.716677
 42
0.109531
  0
VERTEX
  8
0
 10
539.024478
 20
606.263975
 42
0.120382
  0
VERTEX
  8
0
 10
540.077567
 20
606.302078
 42
0.037955
  0
VERTEX
  8
0
 10
541.566784
 20
606.848475
 42
-0.042596
  0
VERTEX
  8
0
 10
543.059074
 20
607.380362
 42
-0.105217
  0
VERTEX
  8
0
 10
544.213816
 20
607.435348
 42
-0.089288
  0
VERTEX
  8
0
 10
545.404936
 20
607.013758
 42
-0.025127
  0
VERTEX
  8
0
 10
547.072817
 20
605.948150
 42
-0.043777
  0
VERTEX
  8
0
 10
548.380265
 20
604.832802
 42
-0.019145
  0
VERTEX
  8
0
 10
549.916230
 20
603.146371
 42
-0.018773
  0
VERTEX
  8
0
 10
551.420342
 20
601.219950
 42
-0.023824
  0
VERTEX
  8
0
 10
552.652842
 20
599.329406
 42
0.000000
  0
VERTEX
  8
0
 10
555.313401
 20
594.789507
 42
0.000000
  0
VERTEX
  8
0
 10
552.656700
 20
589.372600
 42
0.037099
  0
VERTEX
  8
0
 10
550.924143
 20
585.057539
 42
0.051131
  0
VERTEX
  8
0
 10
550.072569
 20
580.971579
 42
0.071289
  0
VERTEX
  8
0
 10
550.189124
 20
577.987381
 42
0.362034
  0
VERTEX
  8
0
 10
551.374047
 20
577.000000
 42
0.115374
  0
VERTEX
  8
0
 10
553.310973
 20
577.452972
 42
0.010930
  0
VERTEX
  8
0
 10
557.657649
 20
579.723217
 42
0.015099
  0
VERTEX
  8
0
 10
562.070582
 20
582.328896
 42
0.030924
  0
VERTEX
  8
0
 10
565.326725
 20
584.680140
 42
-0.043926
  0
VERTEX
  8
0
 10
566.654912
 20
585.587696
 42
-0.034572
  0
VERTEX
  8
0
 10
568.230309
 20
586.334220
 42
-0.035382
  0
VERTEX
  8
0
 10
569.835494
 20
586.835460
 42
-0.058048
  0
VERTEX
  8
0
 10
571.247985
 20
587.000000
 42
0.040059
  0
VERTEX
  8
0
 10
572.548618
 20
587.104372
 42
0.033585
  0
VERTEX
  8
0
 10
573.897254
 20
587.416303
 42
0.034888
  0
VERTEX
  8
0
 10
575.095899
 20
587.873221
 42
0.074536
  0
VERTEX
  8
0
 10
575.921259
 20
588.417203
 42
-0.112629
  0
VERTEX
  8
0
 10
577.027184
 20
589.031779
 42
-0.119379
  0
VERTEX
  8
0
 10
578.265699
 20
589.087888
 42
-0.055721
  0
VERTEX
  8
0
 10
580.074936
 20
588.520907
 42
-0.008576
  0
VERTEX
  8
0
 10
583.500000
 20
586.941105
 42
0.016164
  0
VERTEX
  8
0
 10
588.911399
 20
584.543997
 42
0.019193
  0
VERTEX
  8
0
 10
594.168136
 20
582.647218
 42
0.020713
  0
VERTEX
  8
0
 10
598.804185
 20
581.381673
 42
0.056326
  0
VERTEX
  8
0
 10
602.181501
 20
581.000000
 42
-0.027960
  0
VERTEX
  8
0
 10
603.261429
 20
580.939563
 42
-0.043887
  0
VERTEX
  8
0
 10
604.172066
 20
580.755413
 42
-0.054528
  0
VERTEX
  8
0
 10
604.810780
 20
580.488229
 42
-0.272900
  0
VERTEX
  8
0
 10
605.000000
 20
580.167365
 42
-0.218142
  0
VERTEX
  8
0
 10
604.475407
 20
579.022169
 42
-0.009669
  0
VERTEX
  8
0
 10
601.029909
 20
576.164834
 42
-0.011383
  0
VERTEX
  8
0
 10
597.508635
 20
573.486574
 42
-0.158170
  0
VERTEX
  8
0
 10
596.008978
 20
573.000000
 42
0.107363
  0
VERTEX
  8
0
 10
593.998388
 20
572.563240
 42
0.044398
  0
VERTEX
  8
0
 10
591.564959
 20
571.181075
 42
0.044273
  0
VERTEX
  8
0
 10
589.439893
 20
569.413643
 42
0.122233
  0
VERTEX
  8
0
 10
588.437353
 20
567.760967
 42
-0.045715
  0
VERTEX
  8
0
 10
587.974773
 20
566.646338
 42
-0.014835
  0
VERTEX
  8
0
 10
587.095972
 20
565.091390
 42
-0.014651
  0
VERTEX
  8
0
 10
586.011579
 20
563.412101
 42
-0.015971
  0
VERTEX
  8
0
 10
584.860087
 20
561.848019
 42
0.000000
  0
VERTEX
  8
0
 10
581.987206
 20
558.196038
 42
0.000000
  0
VERTEX
  8
0
 10
583.077773
 20
548.171372
 42
-0.004737
  0
VERTEX
  8
0
 10
583.700079
 20
541.898853
 42
-0.042963
  0
VERTEX
  8
0
 10
583.709814
 20
539.149304
 42
-0.087818
  0
VERTEX
  8
0
 10
583.211097
 20
537.255687
 42
-0.051027
  0
VERTEX
  8
0
 10
582.009603
 20
535.226859
 42
0.069927
  0
VERTEX
  8
0
 10
580.131913
 20
531.765227
 42
0.065994
  0
VERTEX
  8
0
 10
579.233601
 20
527.850940
 42
0.070823
  0
VERTEX
  8
0
 10
579.411544
 20
524.116821
 42
0.111392
  0
VERTEX
  8
0
 10
580.688741
 20
521.185441
 42
-0.059689
  0
VERTEX
  8
0
 10
583.133433
 20
516.850893
 42
-0.187972
  0
VERTEX
  8
0
 10
583.207815
 20
513.572433
 42
-0.228085
  0
VERTEX
  8
0
 10
581.105835
 20
511.520404
 42
-0.086054
  0
VERTEX
  8
0
 10
576.938415
 20
510.876952
 42
-0.009580
  0
VERTEX
  8
0
 10
574.946968
 20
510.951969
 42
-0.006019
  0
VERTEX
  8
0
 10
572.622853
 20
511.112235
 42
-0.006041
  0
VERTEX
  8
0
 10
570.338741
 20
511.325203
 42
-0.010995
  0
VERTEX
  8
0
 10
568.479806
 20
511.562641
 42
0.055443
  0
VERTEX
  8
0
 10
565.604997
 20
511.672672
 42
0.100448
  0
VERTEX
  8
0
 10
563.346922
 20
511.041063
 42
0.035300
  0
VERTEX
  8
0
 10
560.271123
 20
509.182523
 42
0.001964
  0
VERTEX
  8
0
 10
551.135311
 20
502.687445
 42
-0.030955
  0
VERTEX
  8
0
 10
549.258136
 20
501.510364
 42
-0.017073
  0
VERTEX
  8
0
 10
546.835028
 20
500.297625
 42
-0.016967
  0
VERTEX
  8
0
 10
544.284903
 20
499.231554
 42
-0.026035
  0
VERTEX
  8
0
 10
542.005428
 20
498.501432
 42
0.032820
  0
VERTEX
  8
0
 10
537.819604
 20
497.097851
 42
0.082508
  0
VERTEX
  8
0
 10
535.091472
 20
495.410943
 42
0.101590
  0
VERTEX
  8
0
 10
533.390143
 20
493.172369
 42
0.068901
  0
VERTEX
  8
0
 10
532.410711
 20
490.112712
 42
-0.044537
  0
VERTEX
  8
0
 10
531.909662
 20
488.238534
 42
-0.012016
  0
VERTEX
  8
0
 10
530.783953
 20
485.372644
 42
-0.012068
  0
VERTEX
  8
0
 10
529.342963
 20
482.166965
 42
-0.012236
  0
VERTEX
  8
0
 10
527.755249
 20
479.049479
 42
0.000000
  0
VERTEX
  8
0
 10
523.728191
 20
471.598958
 42
0.000000
  0
VERTEX
  8
0
 10
524.894510
 20
465.269115
 42
-0.034004
  0
VERTEX
  8
0
 10
525.459090
 20
460.348248
 42
-0.025579
  0
VERTEX
  8
0
 10
525.432417
 20
454.899006
 42
-0.019493
  0
VERTEX
  8
0
 10
524.969080
 20
450.037588
 42
-0.224464
  0
VERTEX
  8
0
 10
523.952108
 20
448.470401
 42
-0.213067
  0
VERTEX
  8
0
 10
522.435404
 20
448.266372
 42
-0.063368
  0
VERTEX
  8
0
 10
520.242704
 20
449.226443
 42
-0.056407
  0
VERTEX
  8
0
 10
517.993468
 20
450.943306
 42
-0.060497
  0
VERTEX
  8
0
 10
516.244394
 20
453.082986
 42
-0.021580
  0
VERTEX
  8
0
 10
515.236570
 20
454.837939
 42
-0.076443
  0
VERTEX
  8
0
 10
514.822433
 20
456.064811
 42
-0.108637
  0
VERTEX
  8
0
 10
514.868159
 20
457.116083
 42
-0.071465
  0
VERTEX
  8
0
 10
515.344419
 20
458.234490
 42
0.064462
  0
VERTEX
  8
0
 10
515.827132
 20
459.325595
 42
0.159049
  0
VERTEX
  8
0
 10
515.803190
 20
460.190339
 42
0.110473
  0
VERTEX
  8
0
 10
515.244562
 20
461.075083
 42
0.023151
  0
VERTEX
  8
0
 10
513.884888
 20
462.319733
 42
-0.042103
  0
VERTEX
  8
0
 10
512.835668
 20
463.355864
 42
-0.030514
  0
VERTEX
  8
0
 10
511.845870
 20
464.667359
 42
-0.031054
  0
VERTEX
  8
0
 10
511.054342
 20
466.038915
 42
-0.057028
  0
VERTEX
  8
0
 10
510.615836
 20
467.250000
 42
0.049384
  0
VERTEX
  8
0
 10
510.251110
 20
468.307398
 42
0.060574
  0
VERTEX
  8
0
 10
509.703743
 20
469.196508
 42
0.071790
  0
VERTEX
  8
0
 10
509.063768
 20
469.798261
 42
0.154024
  0
VERTEX
  8
0
 10
508.424412
 20
470.000000
 42
-0.072669
  0
VERTEX
  8
0
 10
507.649685
 20
470.113195
 42
-0.325583
  0
VERTEX
  8
0
 10
507.387860
 20
470.456816
 42
-0.119432
  0
VERTEX
  8
0
 10
507.536254
 20
471.132638
 42
-0.009827
  0
VERTEX
  8
0
 10
508.365025
 20
472.750000
 42
0.009613
  0
VERTEX
  8
0
 10
508.971464
 20
473.932234
 42
0.008010
  0
VERTEX
  8
0
 10
509.571320
 20
475.210659
 42
0.008102
  0
VERTEX
  8
0
 10
510.082745
 20
476.398721
 42
0.021694
  0
VERTEX
  8
0
 10
510.395935
 20
477.265008
 42
-0.089666
  0
VERTEX
  8
0
 10
510.785707
 20
478.009353
 42
-0.045015
  0
VERTEX
  8
0
 10
511.512496
 20
478.787622
 42
-0.042748
  0
VERTEX
  8
0
 10
512.434038
 20
479.479748
 42
-0.048891
  0
VERTEX
  8
0
 10
513.420704
 20
479.969852
 42
0.077953
  0
VERTEX
  8
0
 10
514.592999
 20
480.639373
 42
0.065339
  0
VERTEX
  8
0
 10
515.586496
 20
481.672599
 42
0.054501
  0
VERTEX
  8
0
 10
516.419075
 20
483.105350
 42
0.031615
  0
VERTEX
  8
0
 10
517.110519
 20
484.974543
 42
0.014495
  0
VERTEX
  8
0
 10
517.750048
 20
487.358345
 42
0.089730
  0
VERTEX
  8
0
 10
517.818374
 20
488.619125
 42
0.141694
  0
VERTEX
  8
0
 10
517.419451
 20
489.546194
 42
0.055932
  0
VERTEX
  8
0
 10
516.414190
 20
490.523265
 42
0.074374
  0
VERTEX
  8
0
 10
515.282875
 20
491.157498
 42
0.053206
  0
VERTEX
  8
0
 10
513.877270
 20
491.525664
 42
0.042892
  0
VERTEX
  8
0
 10
512.140895
 20
491.637170
 42
0.023111
  0
VERTEX
  8
0
 10
510.000000
 20
491.491761
 42
-0.023368
  0
VERTEX
  8
0
 10
507.182665
 20
491.301859
 42
-0.120845
  0
VERTEX
  8
0
 10
505.670156
 20
491.640004
 42
-0.103061
  0
VERTEX
  8
0
 10
504.368191
 20
492.662769
 42
-0.014734
  0
VERTEX
  8
0
 10
502.250000
 20
495.336056
 42
-0.016135
  0
VERTEX
  8
0
 10
501.005730
 20
497.122686
 42
-0.019248
  0
VERTEX
  8
0
 10
499.954687
 20
498.885790
 42
-0.018337
  0
VERTEX
  8
0
 10
499.189706
 20
500.420496
 42
-0.106839
  0
VERTEX
  8
0
 10
499.000000
 20
501.298171
 42
0.092897
  0
VERTEX
  8
0
 10
498.871380
 20
501.984474
 42
0.055784
  0
VERTEX
  8
0
 10
498.485937
 20
502.721281
 42
0.053277
  0
VERTEX
  8
0
 10
497.919329
 20
503.394143
 42
0.062280
  0
VERTEX
  8
0
 10
497.250000
 20
503.892555
 42
-0.022174
  0
VERTEX
  8
0
 10
496.245849
 20
504.522114
 42
-0.235204
  0
VERTEX
  8
0
 10
496.019182
 20
504.932682
 42
-0.219951
  0
VERTEX
  8
0
 10
496.202878
 20
505.378840
 42
-0.019430
  0
VERTEX
  8
0
 10
497.152366
 20
506.192245
 42
0.138679
  0
VERTEX
  8
0
 10
498.439719
 20
507.973948
 42
0.040535
  0
VERTEX
  8
0
 10
499.347092
 20
511.264446
 42
0.025475
  0
VERTEX
  8
0
 10
500.051798
 20
516.372159
 42
0.006823
  0
VERTEX
  8
0
 10
500.646022
 20
524.551828
 42
0.000000
  0
VERTEX
  8
0
 10
501.179553
 20
533.603656
 42
0.000000
  0
VERTEX
  8
0
 10
495.680284
 20
538.301828
 42
0.017259
  0
VERTEX
  8
0
 10
493.224225
 20
540.257607
 42
0.027166
  0
VERTEX
  8
0
 10
490.975084
 20
541.742941
 42
0.031379
  0
VERTEX
  8
0
 10
489.047645
 20
542.713777
 42
0.101309
  0
VERTEX
  8
0
 10
487.649525
 20
543.000000
 42
-0.034150
  0
VERTEX
  8
0
 10
486.637979
 20
543.069169
 42
-0.039105
  0
VERTEX
  8
0
 10
485.691320
 20
543.275615
 42
-0.042800
  0
VERTEX
  8
0
 10
484.933341
 20
543.576987
 42
-0.139198
  0
VERTEX
  8
0
 10
484.538155
 20
543.938264
 42
-0.367729
  0
VERTEX
  8
0
 10
484.735449
 20
545.233276
 42
-0.015265
  0
VERTEX
  8
0
 10
488.645347
 20
548.423098
 42
-0.020027
  0
VERTEX
  8
0
 10
492.759264
 20
551.321386
 42
-0.144416
  0
VERTEX
  8
0
 10
495.059773
 20
552.000000
 42
0.190497
  0
VERTEX
  8
0
 10
496.740725
 20
552.664550
 42
0.021087
  0
VERTEX
  8
0
 10
499.690445
 20
555.672291
 42
0.022177
  0
VERTEX
  8
0
 10
502.370003
 20
558.924583
 42
0.162610
  0
VERTEX
  8
0
 10
503.000000
 20
560.810498
 42
-0.147667
  0
VERTEX
  8
0
 10
503.154229
 20
561.321329
 42
-0.031234
  0
VERTEX
  8
0
 10
503.723062
 20
562.071335
 42
-0.030170
  0
VERTEX
  8
0
 10
504.519172
 20
562.889646
 42
-0.024665
  0
VERTEX
  8
0
 10
505.461487
 20
563.666593
 42
0.059974
  0
VERTEX
  8
0
 10
506.458234
 20
564.613942
 42
0.039160
  0
VERTEX
  8
0
 10
507.371713
 20
565.913395
 42
0.038729
  0
VERTEX
  8
0
 10
508.084367
 20
567.362644
 42
0.052824
  0
VERTEX
  8
0
 10
508.478047
 20
568.763042
 42
-0.056025
  0
VERTEX
  8
0
 10
508.929523
 20
570.330559
 42
-0.021003
  0
VERTEX
  8
0
 10
509.893328
 20
572.408109
 42
-0.020497
  0
VERTEX
  8
0
 10
511.142321
 20
574.602975
 42
-0.023411
  0
VERTEX
  8
0
 10
512.516560
 20
576.589638
 42
0.013853
  0
VERTEX
  8
0
 10
513.850411
 20
578.441259
 42
0.017403
  0
VERTEX
  8
0
 10
514.976740
 20
580.230773
 42
0.015679
  0
VERTEX
  8
0
 10
515.809707
 20
581.771579
 42
0.116585
  0
VERTEX
  8
0
 10
516.000000
 20
582.576596
 42
-0.017848
  0
VERTEX
  8
0
 10
516.060875
 20
584.281449
 42
-0.076388
  0
VERTEX
  8
0
 10
516.286066
 20
585.270521
 42
-0.074476
  0
VERTEX
  8
0
 10
516.800447
 20
586.158540
 42
-0.016464
  0
VERTEX
  8
0
 10
517.945614
 20
587.500000
 42
0.033916
  0
VERTEX
  8
0
 10
518.698846
 20
588.447352
 42
0.021233
  0
VERTEX
  8
0
 10
519.453354
 20
589.646875
 42
0.021286
  0
VERTEX
  8
0
 10
520.098808
 20
590.897499
 42
0.035977
  0
VERTEX
  8
0
 10
520.516261
 20
592.000000
 42
-0.030775
  0
VERTEX
  8
0
 10
520.939716
 20
593.154441
 42
-0.014907
  0
VERTEX
  8
0
 10
521.614042
 20
594.576052
 42
-0.014722
  0
VERTEX
  8
0
 10
522.406916
 20
596.019966
 42
-0.020511
  0
VERTEX
  8
0
 10
523.205629
 20
597.258902
 42
0.045119
  0
VERTEX
  8
0
 10
523.931321
 20
598.516228
 42
0.033625
  0
VERTEX
  8
0
 10
524.504933
 20
600.012574
 42
0.034357
  0
VERTEX
  8
0
 10
524.855668
 20
601.509480
 42
0.063087
  0
VERTEX
  8
0
 10
524.899993
 20
602.758902
 42
-0.046886
  0
VERTEX
  8
0
 10
524.907249
 20
605.056585
 42
-0.016623
  0
VERTEX
  8
0
 10
525.334227
 20
608.319859
 42
-0.015127
  0
VERTEX
  8
0
 10
525.953375
 20
611.477907
 42
-0.076285
  0
VERTEX
  8
0
 10
526.611813
 20
613.145150
 42
-0.383387
  0
VERTEX
  8
0
 10
527.496075
 20
613.428588
 42
-0.015630
  0
VERTEX
  8
0
 10
530.762387
 20
611.837561
 42
-0.024337
  0
VERTEX
  8
0
 10
534.121538
 20
609.854918
 42
-0.043108
  0
SEQEND
  0
POLYLINE
  8
0
 66
1
 70
1
  0
VERTEX
  8
0
 10
612.884602
 20
578.407837
 42
-0.259928
  0
VERTEX
  8
0
 10
612.978926
 20
578.135031
 42
-0.017917
  0
VERTEX
  8
0
 10
612.801428
 20
577.308534
 42
-0.021897
  0
VERTEX
  8
0
 10
612.496338
 20
576.290481
 42
-0.014438
  0
VERTEX
  8
0
 10
612.061379
 20
575.148181
 42
0.098960
  0
VERTEX
  8
0
 10
611.528513
 20
572.456226
 42
0.049173
  0
VERTEX
  8
0
 10
611.877666
 20
568.980639
 42
0.035267
  0
VERTEX
  8
0
 10
613.112328
 20
564.500213
 42
0.014387
  0
VERTEX
  8
0
 10
615.387820
 20
558.601488
 42
-0.023033
  0
VERTEX
  8
0
 10
616.166945
 20
556.472917
 42
-0.058308
  0
VERTEX
  8
0
 10
616.474992
 20
554.856739
 42
-0.066617
  0
VERTEX
  8
0
 10
616.382369
 20
553.344637
 42
-0.038209
  0
VERTEX
  8
0
 10
615.893164
 20
551.581094
 42
0.051327
  0
VERTEX
  8
0
 10
615.420097
 20
549.684247
 42
0.046333
  0
VERTEX
  8
0
 10
615.320494
 20
547.663313
 42
0.033082
  0
VERTEX
  8
0
 10
615.600109
 20
545.119816
 42
0.011308
  0
VERTEX
  8
0
 10
616.331380
 20
541.479606
 42
0.000026
  0
VERTEX
  8
0
 10
617.005523
 20
538.477834
 42
0.000021
  0
VERTEX
  8
0
 10
617.735611
 20
535.228384
 42
0.000021
  0
VERTEX
  8
0
 10
618.413976
 20
532.210321
 42
0.000052
  0
VERTEX
  8
0
 10
618.911126
 20
530.000000
 42
-0.008189
  0
VERTEX
  8
0
 10
619.383541
 20
527.727533
 42
-0.002928
  0
VERTEX
  8
0
 10
619.985171
 20
524.471875
 42
-0.002904
  0
VERTEX
  8
0
 10
620.603490
 20
520.892758
 42
-0.003431
  0
VERTEX
  8
0
 10
621.145442
 20
517.500000
 42
0.011002
  0
VERTEX
  8
0
 10
621.897455
 20
513.210271
 42
0.041263
  0
VERTEX
  8
0
 10
622.647257
 20
510.583221
 42
0.062945
  0
VERTEX
  8
0
 10
623.625491
 20
508.732432
 42
0.059655
  0
VERTEX
  8
0
 10
625.048826
 20
507.145542
 42
0.000000
  0
VERTEX
  8
0
 10
627.730534
 20
504.791083
 42
0.000000
  0
VERTEX
  8
0
 10
625.392047
 20
500.392993
 42
0.026780
  0
VERTEX
  8
0
 10
624.291921
 20
498.026414
 42
0.042439
  0
VERTEX
  8
0
 10
623.638490
 20
495.889613
 42
0.042771
  0
VERTEX
  8
0
 10
623.358261
 20
493.685301
 42
0.027735
  0
VERTEX
  8
0
 10
623.395537
 20
491.114316
 42
0.011853
  0
VERTEX
  8
0
 10
623.579055
 20
489.160625
 42
0.014055
  0
VERTEX
  8
0
 10
623.847775
 20
487.326454
 42
0.012916
  0
VERTEX
  8
0
 10
624.156007
 20
485.801291
 42
0.082268
  0
VERTEX
  8
0
 10
624.454847
 20
485.073059
 42
-0.237757
  0
VERTEX
  8
0
 10
624.573066
 20
483.713385
 42
-0.095310
  0
VERTEX
  8
0
 10
623.536548
 20
482.096848
 42
-0.048444
  0
VERTEX
  8
0
 10
621.179831
 20
480.055656
 42
-0.012846
  0
VERTEX
  8
0
 10
617.043345
 20
477.278417
 42
0.012020
  0
VERTEX
  8
0
 10
614.687349
 20
475.702242
 42
0.009249
  0
VERTEX
  8
0
 10
612.191154
 20
473.873968
 42
0.009369
  0
VERTEX
  8
0
 10
609.920186
 20
472.077025
 42
0.021923
  0
VERTEX
  8
0
 10
608.309519
 20
470.629884
 42
-0.012395
  0
VERTEX
  8
0
 10
604.750617
 20
467.307627
 42
-0.040390
  0
VERTEX
  8
0
 10
602.176798
 20
465.369228
 42
-0.041238
  0
VERTEX
  8
0
 10
599.353024
 20
463.890765
 42
-0.013335
  0
VERTEX
  8
0
 10
594.955380
 20
462.168701
 42
-0.009557
  0
VERTEX
  8
0
 10
588.880056
 20
460.105030
 42
-0.046376
  0
VERTEX
  8
0
 10
585.327822
 20
459.326872
 42
-0.083963
  0
VERTEX
  8
0
 10
582.796715
 20
459.439741
 42
-0.092246
  0
VERTEX
  8
0
 10
580.533300
 20
460.386224
 42
0.107383
  0
VERTEX
  8
0
 10
577.695699
 20
461.474090
 42
0.026701
  0
VERTEX
  8
0
 10
572.717685
 20
461.967308
 42
0.025790
  0
VERTEX
  8
0
 10
567.748799
 20
461.936490
 42
0.127360
  0
VERTEX
  8
0
 10
565.105894
 20
461.086608
 42
0.128872
  0
VERTEX
  8
0
 10
564.496810
 20
460.432776
 42
0.087812
  0
VERTEX
  8
0
 10
564.177005
 20
459.462780
 42
0.056281
  0
VERTEX
  8
0
 10
564.133746
 20
458.061282
 42
0.019246
  0
VERTEX
  8
0
 10
564.377670
 20
456.039647
 42
-0.088142
  0
VERTEX
  8
0
 10
564.273997
 20
450.035894
 42
-0.094235
  0
VERTEX
  8
0
 10
562.091694
 20
444.588119
 42
-0.109389
  0
VERTEX
  8
0
 10
558.396964
 20
440.904009
 42
-0.161918
  0
VERTEX
  8
0
 10
553.995405
 20
439.803527
 42
0.073341
  0
VERTEX
  8
0
 10
552.684972
 20
439.711160
 42
0.032106
  0
VERTEX
  8
0
 10
551.007692
 20
439.227071
 42
0.030467
  0
VERTEX
  8
0
 10
549.233903
 20
438.464370
 42
0.032319
  0
VERTEX
  8
0
 10
547.602095
 20
437.504721
 42
-0.025519
  0
VERTEX
  8
0
 10
546.021504
 20
436.546052
 42
-0.024270
  0
VERTEX
  8
0
 10
544.325263
 20
435.735762
 42
-0.025036
  0
VERTEX
  8
0
 10
542.757374
 20
435.168667
 42
-0.074385
  0
VERTEX
  8
0
 10
541.629905
 20
435.000000
 42
-0.128950
  0
VERTEX
  8
0
 10
539.698363
 20
435.506567
 42
-0.064437
  0
VERTEX
  8
0
 10
537.660192
 20
437.029354
 42
-0.055387
  0
VERTEX
  8
0
 10
535.764382
 20
439.327427
 42
-0.044516
  0
VERTEX
  8
0
 10
534.254894
 20
442.156477
 42
0.060570
  0
VERTEX
  8
0
 10
533.571541
 20
443.344026
 42
0.064143
  0
VERTEX
  8
0
 10
532.634814
 20
444.307620
 42
0.062195
  0
VERTEX
  8
0
 10
531.457536
 20
445.024882
 42
0.051737
  0
VERTEX
  8
0
 10
530.064909
 20
445.485744
 42
-0.029415
  0
VERTEX
  8
0
 10
528.209676
 20
446.009228
 42
-0.200438
  0
VERTEX
  8
0
 10
527.515411
 20
446.629867
 42
-0.143781
  0
VERTEX
  8
0
 10
527.345961
 20
447.679248
 42
-0.013054
  0
VERTEX
  8
0
 10
527.750858
 20
450.329267
 42
0.027030
  0
VERTEX
  8
0
 10
528.198161
 20
453.927546
 42
0.021605
  0
VERTEX
  8
0
 10
528.301422
 20
457.834413
 42
0.019946
  0
VERTEX
  8
0
 10
528.062073
 20
462.053828
 42
0.015717
  0
VERTEX
  8
0
 10
527.477938
 20
466.593060
 42
-0.047075
  0
VERTEX
  8
0
 10
527.312874
 20
469.115916
 42
-0.061298
  0
VERTEX
  8
0
 10
527.661204
 20
471.402280
 42
-0.039280
  0
VERTEX
  8
0
 10
528.694619
 20
474.214538
 42
-0.008802
  0
VERTEX
  8
0
 10
530.909931
 20
478.820862
 42
0.009934
  0
VERTEX
  8
0
 10
532.476051
 20
482.096284
 42
0.012271
  0
VERTEX
  8
0
 10
533.798542
 20
485.210352
 42
0.010690
  0
VERTEX
  8
0
 10
534.782220
 20
487.858332
 42
0.083771
  0
VERTEX
  8
0
 10
535.000000
 20
489.149062
 42
-0.104465
  0
VERTEX
  8
0
 10
535.426198
 20
491.166705
 42
-0.076133
  0
VERTEX
  8
0
 10
536.663600
 20
493.104364
 42
-0.079140
  0
VERTEX
  8
0
 10
538.364023
 20
494.515083
 42
-0.134451
  0
VERTEX
  8
0
 10
540.134751
 20
495.000000
 42
0.081411
  0
VERTEX
  8
0
 10
543.148378
 20
495.493961
 42
0.029482
  0
VERTEX
  8
0
 10
547.181261
 20
497.122901
 42
0.028648
  0
VERTEX
  8
0
 10
551.410666
 20
499.434004
 42
0.032881
  0
VERTEX
  8
0
 10
555.148103
 20
502.119850
 42
-0.009256
  0
VERTEX
  8
0
 10
557.197018
 20
503.744276
 42
-0.006914
  0
VERTEX
  8
0
 10
559.512682
 20
505.461233
 42
-0.006994
  0
VERTEX
  8
0
 10
561.740156
 20
507.018700
 42
-0.015792
  0
VERTEX
  8
0
 10
563.479121
 20
508.120182
 42
-0.017243
  0
VERTEX
  8
0
 10
565.744597
 20
509.353593
 42
-0.092699
  0
VERTEX
  8
0
 10
567.088482
 20
509.738885
 42
-0.107926
  0
VERTEX
  8
0
 10
568.383124
 20
509.581886
 42
-0.027325
  0
VERTEX
  8
0
 10
570.354562
 20
508.770746
 42
0.091812
  0
VERTEX
  8
0
 10
573.854941
 20
507.832597
 42
0.050787
  0
VERTEX
  8
0
 10
578.293930
 20
507.933550
 42
0.051350
  0
VERTEX
  8
0
 10
582.382250
 20
508.877165
 42
0.153688
  0
VERTEX
  8
0
 10
584.665902
 20
510.557772
 42
0.109285
  0
VERTEX
  8
0
 10
585.740370
 20
513.005329
 42
0.062101
  0
VERTEX
  8
0
 10
585.973817
 20
516.245870
 42
0.063135
  0
VERTEX
  8
0
 10
585.412795
 20
519.360184
 42
0.133509
  0
VERTEX
  8
0
 10
584.099695
 20
521.409777
 42
-0.081171
  0
VERTEX
  8
0
 10
582.351033
 20
523.602317
 42
-0.130509
  0
VERTEX
  8
0
 10
581.759125
 20
525.904017
 42
-0.092879
  0
VERTEX
  8
0
 10
582.316247
 20
528.753659
 42
-0.027548
  0
VERTEX
  8
0
 10
584.189050
 20
532.801050
 42
0.013907
  0
VERTEX
  8
0
 10
585.956943
 20
536.363480
 42
0.065125
  0
VERTEX
  8
0
 10
586.637917
 20
538.543449
 42
0.068049
  0
VERTEX
  8
0
 10
586.720326
 20
540.780718
 42
0.016021
  0
VERTEX
  8
0
 10
586.229873
 20
544.500000
 42
-0.012006
  0
VERTEX
  8
0
 10
585.293701
 20
551.184748
 42
-0.055934
  0
VERTEX
  8
0
 10
585.280570
 20
555.071214
 42
-0.086187
  0
VERTEX
  8
0
 10
586.126360
 20
558.008984
 42
-0.054450
  0
VERTEX
  8
0
 10
588.029054
 20
561.036684
 42
0.018621
  0
VERTEX
  8
0
 10
589.166385
 20
562.588024
 42
0.021562
  0
VERTEX
  8
0
 10
590.127285
 20
564.147371
 42
0.021213
  0
VERTEX
  8
0
 10
590.819691
 20
565.521603
 42
0.106475
  0
VERTEX
  8
0
 10
591.000000
 20
566.358721
 42
-0.174068
  0
VERTEX
  8
0
 10
591.463593
 20
567.650011
 42
-0.079824
  0
VERTEX
  8
0
 10
592.824666
 20
568.848876
 42
-0.069585
  0
VERTEX
  8
0
 10
594.725285
 20
569.706461
 42
-0.071350
  0
VERTEX
  8
0
 10
596.771854
 20
570.000000
 42
0.134860
  0
VERTEX
  8
0
 10
597.795781
 20
570.281291
 42
0.021299
  0
VERTEX
  8
0
 10
599.559104
 20
571.433537
 42
0.022325
  0
VERTEX
  8
0
 10
601.567274
 20
573.011587
 42
0.017859
  0
VERTEX
  8
0
 10
603.587595
 20
574.880126
 42
-0.014164
  0
VERTEX
  8
0
 10
605.993023
 20
577.138038
 42
-0.040296
  0
VERTEX
  8
0
 10
607.828400
 20
578.518592
 42
-0.061358
  0
VERTEX
  8
0
 10
609.295293
 20
579.212389
 42
-0.142517
  0
VERTEX
  8
0
 10
610.500000
 20
579.255898
 42
-0.010639
  0
VERTEX
  8
0
 10
611.293958
 20
579.037614
 42
-0.013029
  0
VERTEX
  8
0
 10
612.025477
 20
578.798734
 42
-0.011531
  0
VERTEX
  8
0
 10
612.626075
 20
578.569403
 42
-0.085581
  0
SEQEND
  0
POLYLINE
  8
0
 66
1
 70
1
  0
VERTEX
  8
0
 10
650.000000
 20
571.264995
 42
-0.013347
  0
VERTEX
  8
0
 10
655.485640
 20
567.349335
 42
-0.010434
  0
VERTEX
  8
0
 10
661.232870
 20
562.819517
 42
-0.010324
  0
VERTEX
  8
0
 10
666.863451
 20
557.989629
 42
-0.012052
  0
VERTEX
  8
0
 10
672.000000
 20
553.168320
 42
0.003682
  0
VERTEX
  8
0
 10
676.157046
 20
549.133411
 42
0.005050
  0
VERTEX
  8
0
 10
679.959926
 20
545.569104
 42
0.003324
  0
VERTEX
  8
0
 10
683.196814
 20
542.635547
 42
0.058433
  0
VERTEX
  8
0
 10
684.352940
 20
541.822510
 42
-0.031878
  0
VERTEX
  8
0
 10
685.362606
 20
541.189640
 42
-0.337851
  0
VERTEX
  8
0
 10
685.495387
 20
540.753512
 42
-0.175584
  0
VERTEX
  8
0
 10
685.102280
 20
540.290293
 42
-0.010222
  0
VERTEX
  8
0
 10
683.447626
 20
539.388450
 42
0.040542
  0
VERTEX
  8
0
 10
681.335793
 20
538.065557
 42
0.050781
  0
VERTEX
  8
0
 10
679.633090
 20
536.504157
 42
0.039382
  0
VERTEX
  8
0
 10
677.985419
 20
534.329821
 42
0.014168
  0
VERTEX
  8
0
 10
675.983059
 20
531.000000
 42
-0.004179
  0
VERTEX
  8
0
 10
672.262072
 20
524.522653
 42
-0.028476
  0
VERTEX
  8
0
 10
670.221888
 20
521.453890
 42
-0.062758
  0
VERTEX
  8
0
 10
668.675225
 20
519.855699
 42
-0.133380
  0
VERTEX
  8
0
 10
667.109864
 20
519.173045
 42
0.112293
  0
VERTEX
  8
0
 10
665.635742
 20
518.601814
 42
0.117810
  0
VERTEX
  8
0
 10
664.584067
 20
517.456770
 42
0.045066
  0
VERTEX
  8
0
 10
663.549470
 20
515.129471
 42
0.004548
  0
VERTEX
  8
0
 10
661.644911
 20
509.365786
 42
0.020686
  0
VERTEX
  8
0
 10
660.535327
 20
505.335943
 42
0.043717
  0
VERTEX
  8
0
 10
660.083628
 20
502.129215
 42
0.053223
  0
VERTEX
  8
0
 10
660.234504
 20
499.326772
 42
0.050841
  0
VERTEX
  8
0
 10
660.971948
 20
496.573784
 42
-0.067477
  0
VERTEX
  8
0
 10
661.520828
 20
494.214409
 42
-0.140940
  0
VERTEX
  8
0
 10
661.174651
 20
492.376893
 42
-0.121877
  0
VERTEX
  8
0
 10
659.849788
 20
490.831778
 42
-0.044120
  0
VERTEX
  8
0
 10
657.340143
 20
489.357119
 42
-0.018283
  0
VERTEX
  8
0
 10
655.147605
 20
488.413271
 42
-0.127374
  0
VERTEX
  8
0
 10
653.998199
 20
488.278687
 42
-0.132081
  0
VERTEX
  8
0
 10
652.947608
 20
488.722209
 42
-0.020213
  0
VERTEX
  8
0
 10
651.198939
 20
490.202670
 42
0.029026
  0
VERTEX
  8
0
 10
647.032324
 20
493.606055
 42
0.067552
  0
VERTEX
  8
0
 10
643.486426
 20
495.506427
 42
0.072342
  0
VERTEX
  8
0
 10
639.716617
 20
496.320388
 42
0.037447
  0
VERTEX
  8
0
 10
634.886843
 20
496.288317
 42
-0.019034
  0
VERTEX
  8
0
 10
629.851276
 20
496.069447
 42
-0.180951
  0
VERTEX
  8
0
 10
627.862677
 20
496.801329
 42
-0.313852
  0
VERTEX
  8
0
 10
627.458182
 20
498.373115
 42
-0.049346
  0
VERTEX
  8
0
 10
628.941591
 20
501.405493
 42
0.055703
  0
VERTEX
  8
0
 10
630.005953
 20
503.653002
 42
0.077500
  0
VERTEX
  8
0
 10
630.395843
 20
505.841513
 42
0.120386
  0
VERTEX
  8
0
 10
630.050939
 20
507.398455
 42
0.285707
  0
VERTEX
  8
0
 10
629.084141
 20
508.000000
 42
-0.194521
  0
VERTEX
  8
0
 10
627.284078
 20
508.727840
 42
-0.095575
  0
VERTEX
  8
0
 10
625.841027
 20
510.784903
 42
-0.051492
  0
VERTEX
  8
0
 10
624.623863
 20
514.479158
 42
-0.014177
  0
VERTEX
  8
0
 10
623.484473
 20
520.500000
 42
0.006164
  0
VERTEX
  8
0
 10
622.719300
 20
524.930844
 42
0.004104
  0
VERTEX
  8
0
 10
621.738196
 20
529.990187
 42
0.004132
  0
VERTEX
  8
0
 10
620.705263
 20
534.884072
 42
0.008066
  0
VERTEX
  8
0
 10
619.786836
 20
538.764467
 42
-0.008077
  0
VERTEX
  8
0
 10
618.662333
 20
543.516022
 42
-0.037895
  0
VERTEX
  8
0
 10
618.269443
 20
546.294439
 42
-0.057834
  0
VERTEX
  8
0
 10
618.382009
 20
548.507678
 42
-0.038123
  0
VERTEX
  8
0
 10
618.994818
 20
550.984298
 42
0.030620
  0
VERTEX
  8
0
 10
619.637762
 20
553.425198
 42
0.081104
  0
VERTEX
  8
0
 10
619.699798
 20
555.223680
 42
0.060508
  0
VERTEX
  8
0
 10
619.189213
 20
557.238053
 42
0.011673
  0
VERTEX
  8
0
 10
617.748007
 20
560.719831
 42
-0.014331
  0
VERTEX
  8
0
 10
615.186702
 20
567.001912
 42
-0.070901
  0
VERTEX
  8
0
 10
614.366803
 20
570.722253
 42
-0.123159
  0
VERTEX
  8
0
 10
614.838771
 20
573.476136
 42
-0.087514
  0
VERTEX
  8
0
 10
616.587562
 20
576.091395
 42
-0.044592
  0
VERTEX
  8
0
 10
618.529994
 20
577.787113
 42
-0.099459
  0
VERTEX
  8
0
 10
620.304946
 20
578.601785
 42
-0.052149
  0
VERTEX
  8
0
 10
622.898493
 20
578.935135
 42
-0.005659
  0
VERTEX
  8
0
 10
628.937091
 20
579.009459
 42
0.000000
  0
VERTEX
  8
0
 10
638.500000
 20
579.018919
 42
0.000000
  0
SEQEND
  0
POLYLINE
  8
0
 66
1
 70
1
  0
VERTEX
  8
0
 10
486.383023
 20
540.225548
 42
-0.037313
  0
VERTEX
  8
0
 10
487.616572
 20
539.919124
 42
-0.026824
  0
VERTEX
  8
0
 10
488.939598
 20
539.403373
 42
-0.027260
  0
VERTEX
  8
0
 10
490.152042
 20
538.772395
 42
-0.051398
  0
VERTEX
  8
0
 10
491.037758
 20
538.116977
 42
0.012974
  0
VERTEX
  8
0
 10
491.900278
 20
537.369868
 42
0.006098
  0
VERTEX
  8
0
 10
493.051389
 20
536.447211
 42
0.006038
  0
VERTEX
  8
0
 10
494.281610
 20
535.509257
 42
0.008449
  0
VERTEX
  8
0
 10
495.404735
 20
534.703315
 42
-0.058200
  0
VERTEX
  8
0
 10
496.840900
 20
533.439108
 42
-0.110949
  0
VERTEX
  8
0
 10
497.590340
 20
532.104703
 42
-0.063242
  0
VERTEX
  8
0
 10
497.922387
 20
530.103378
 42
-0.009525
  0
VERTEX
  8
0
 10
498.000000
 20
526.029605
 42
-0.024914
  0
VERTEX
  8
0
 10
497.682861
 20
519.668858
 42
-0.032061
  0
VERTEX
  8
0
 10
496.728855
 20
513.894492
 42
-0.035169
  0
VERTEX
  8
0
 10
495.309334
 20
509.275214
 42
-0.123330
  0
VERTEX
  8
0
 10
493.529817
 20
506.750000
 42
0.000000
  0
VERTEX
  8
0
 10
491.500000
 20
505.000000
 42
0.000000
  0
VERTEX
  8
0
 10
493.750000
 20
503.089707
 42
-0.025797
  0
VERTEX
  8
0
 10
494.611247
 20
502.278469
 42
-0.030007
  0
VERTEX
  8
0
 10
495.339063
 20
501.420856
 42
-0.031244
  0
VERTEX
  8
0
 10
495.855868
 20
500.634187
 42
-0.130427
  0
VERTEX
  8
0
 10
496.000000
 20
500.091051
 42
0.138092
  0
VERTEX
  8
0
 10
496.190275
 20
499.415244
 42
0.007962
  0
VERTEX
  8
0
 10
497.353907
 20
497.578948
 42
0.011632
  0
VERTEX
  8
0
 10
498.843367
 20
495.420423
 42
0.008255
  0
VERTEX
  8
0
 10
500.609046
 20
493.067553
 42
0.008076
  0
VERTEX
  8
0
 10
503.386904
 20
489.607319
 42
0.065643
  0
VERTEX
  8
0
 10
504.874108
 20
488.229873
 42
0.148330
  0
VERTEX
  8
0
 10
506.145012
 20
487.806603
 42
0.097886
  0
VERTEX
  8
0
 10
507.674146
 20
488.066210
 42
-0.041651
  0
VERTEX
  8
0
 10
510.482277
 20
488.873905
 42
-0.077153
  0
VERTEX
  8
0
 10
512.847108
 20
488.975212
 42
-0.125562
  0
VERTEX
  8
0
 10
514.397630
 20
488.389812
 42
-0.247030
  0
VERTEX
  8
0
 10
514.984687
 20
487.250000
 42
-0.066192
  0
VERTEX
  8
0
 10
514.756939
 20
485.644817
 42
-0.090418
  0
VERTEX
  8
0
 10
514.118407
 20
484.334617
 42
-0.077107
  0
VERTEX
  8
0
 10
512.969877
 20
483.191444
 42
-0.036077
  0
VERTEX
  8
0
 10
511.184312
 20
482.079365
 42
0.080299
  0
VERTEX
  8
0
 10
510.166175
 20
481.313123
 42
0.030117
  0
VERTEX
  8
0
 10
509.004964
 20
479.948858
 42
0.028898
  0
VERTEX
  8
0
 10
507.896290
 20
478.282858
 42
0.031119
  0
VERTEX
  8
0
 10
507.017072
 20
476.539826
 42
-0.013080
  0
VERTEX
  8
0
 10
506.235711
 20
474.841116
 42
-0.016343
  0
VERTEX
  8
0
 10
505.418930
 20
473.309654
 42
-0.014631
  0
VERTEX
  8
0
 10
504.663528
 20
472.082807
 42
-0.109449
  0
VERTEX
  8
0
 10
504.176640
 20
471.609169
 42
0.238345
  0
VERTEX
  8
0
 10
503.563556
 20
470.607549
 42
0.097558
  0
VERTEX
  8
0
 10
503.748793
 20
468.978117
 42
0.095687
  0
VERTEX
  8
0
 10
504.543718
 20
467.517775
 42
0.224017
  0
VERTEX
  8
0
 10
505.641382
 20
467.000000
 42
-0.135657
  0
VERTEX
  8
0
 10
506.244182
 20
466.833386
 42
-0.062247
  0
VERTEX
  8
0
 10
506.891744
 20
466.326990
 42
-0.054995
  0
VERTEX
  8
0
 10
507.482909
 20
465.585262
 42
-0.049970
  0
VERTEX
  8
0
 10
507.920575
 20
464.708903
 42
0.034638
  0
VERTEX
  8
0
 10
508.370229
 20
463.735067
 42
0.024146
  0
VERTEX
  8
0
 10
509.003220
 20
462.702867
 42
0.024451
  0
VERTEX
  8
0
 10
509.710265
 20
461.767518
 42
0.045507
  0
VERTEX
  8
0
 10
510.382964
 20
461.097131
 42
-0.058010
  0
VERTEX
  8
0
 10
511.033408
 20
460.415762
 42
-0.101695
  0
VERTEX
  8
0
 10
511.366687
 20
459.714397
 42
-0.110564
  0
VERTEX
  8
0
 10
511.381864
 20
458.980379
 42
-0.077818
  0
VERTEX
  8
0
 10
511.093909
 20
458.203323
 42
0.100952
  0
VERTEX
  8
0
 10
510.822425
 20
457.352828
 42
0.078879
  0
VERTEX
  8
0
 10
510.870669
 20
456.382361
 42
0.063010
  0
VERTEX
  8
0
 10
511.249384
 20
455.287276
 42
0.034980
  0
VERTEX
  8
0
 10
511.963416
 20
454.065094
 42
-0.004360
  0
VERTEX
  8
0
 10
512.753865
 20
452.884411
 42
-0.002492
  0
VERTEX
  8
0
 10
513.688774
 20
451.445684
 42
-0.002488
  0
VERTEX
  8
0
 10
514.614933
 20
449.988865
 42
-0.004129
  0
VERTEX
  8
0
 10
515.379699
 20
448.750000
 42
0.041459
  0
VERTEX
  8
0
 10
516.144989
 20
447.695221
 42
0.043261
  0
VERTEX
  8
0
 10
517.063890
 20
446.797403
 42
0.047261
  0
VERTEX
  8
0
 10
517.992526
 20
446.171758
 42
0.120048
  0
VERTEX
  8
0
 10
518.773053
 20
445.964565
 42
-0.054069
  0
VERTEX
  8
0
 10
519.607541
 20
445.856697
 42
-0.021516
  0
VERTEX
  8
0
 10
520.718532
 20
445.537699
 42
-0.020993
  0
VERTEX
  8
0
 10
521.898187
 20
445.087448
 42
-0.024763
  0
VERTEX
  8
0
 10
522.970887
 20
444.561166
 42
0.000000
  0
VERTEX
  8
0
 10
525.441774
 20
443.193202
 42
0.000000
  0
VERTEX
  8
0
 10
521.686780
 20
440.977702
 42
0.041626
  0
VERTEX
  8
0
 10
520.115598
 20
439.864893
 42
0.027349
  0
VERTEX
  8
0
 10
518.499039
 20
438.346369
 42
0.027513
  0
VERTEX
  8
0
 10
517.077987
 20
436.682876
 42
0.046649
  0
VERTEX
  8
0
 10
516.107868
 20
435.131101
 42
-0.002158
  0
VERTEX
  8
0
 10
515.293927
 20
433.527979
 42
-0.001464
  0
VERTEX
  8
0
 10
514.353739
 20
431.708973
 42
-0.001475
  0
VERTEX
  8
0
 10
513.435427
 20
429.957610
 42
-0.002955
  0
VERTEX
  8
0
 10
512.697613
 20
428.580297
 42
0.076019
  0
VERTEX
  8
0
 10
511.798183
 20
426.085010
 42
0.156901
  0
VERTEX
  8
0
 10
512.037802
 20
424.047292
 42
0.143219
  0
VERTEX
  8
0
 10
513.454436
 20
422.408516
 42
0.059581
  0
VERTEX
  8
0
 10
516.107345
 20
421.112424
 42
-0.017337
  0
VERTEX
  8
0
 10
517.787483
 20
420.460568
 42
-0.133598
  0
VERTEX
  8
0
 10
518.442836
 20
419.940941
 42
-0.262797
  0
VERTEX
  8
0
 10
518.515056
 20
419.346037
 42
-0.075030
  0
VERTEX
  8
0
 10
518.016578
 20
418.519975
 42
0.062267
  0
VERTEX
  8
0
 10
517.583228
 20
417.841429
 42
0.053474
  0
VERTEX
  8
0
 10
517.302873
 20
417.041592
 42
0.056045
  0
VERTEX
  8
0
 10
517.208393
 20
416.246770
 42
0.093458
  0
VERTEX
  8
0
 10
517.328683
 20
415.585848
 42
-0.103359
  0
VERTEX
  8
0
 10
517.432195
 20
414.946142
 42
-0.069990
  0
VERTEX
  8
0
 10
517.295676
 20
414.217920
 42
-0.066252
  0
VERTEX
  8
0
 10
516.949892
 20
413.515381
 42
-0.072220
  0
VERTEX
  8
0
 10
516.440559
 20
412.950668
 42
0.166747
  0
VERTEX
  8
0
 10
515.354928
 20
411.170459
 42
0.058269
  0
VERTEX
  8
0
 10
515.049048
 20
408.144990
 42
0.057591
  0
VERTEX
  8
0
 10
515.459458
 20
405.022840
 42
0.123068
  0
VERTEX
  8
0
 10
516.597961
 20
402.891754
 42
-0.089586
  0
VERTEX
  8
0
 10
517.563330
 20
401.341199
 42
-0.242913
  0
VERTEX
  8
0
 10
517.439821
 20
400.090351
 42
-0.192152
  0
VERTEX
  8
0
 10
516.267503
 20
399.260298
 42
-0.059176
  0
VERTEX
  8
0
 10
514.075842
 20
399.000000
 42
0.053423
  0
VERTEX
  8
0
 10
512.827773
 20
398.866268
 42
0.032097
  0
VERTEX
  8
0
 10
511.393464
 20
398.457456
 42
0.031865
  0
VERTEX
  8
0
 10
510.002963
 20
397.860455
 42
0.047464
  0
VERTEX
  8
0
 10
508.884859
 20
397.153042
 42
-0.083704
  0
VERTEX
  8
0
 10
505.538546
 20
395.359771
 42
-0.040152
  0
VERTEX
  8
0
 10
500.796821
 20
394.175892
 42
-0.040028
  0
VERTEX
  8
0
 10
496.034222
 20
393.772982
 42
-0.104787
  0
VERTEX
  8
0
 10
492.690345
 20
394.466247
 42
0.060102
  0
VERTEX
  8
0
 10
491.786088
 20
394.739225
 42
0.173500
  0
VERTEX
  8
0
 10
491.150611
 20
394.629842
 42
0.155647
  0
VERTEX
  8
0
 10
490.685277
 20
394.128277
 42
0.045869
  0
VERTEX
  8
0
 10
490.323714
 20
393.129881
 42
-0.066793
  0
VERTEX
  8
0
 10
489.692754
 20
391.591257
 42
-0.284054
  0
VERTEX
  8
0
 10
488.855546
 20
391.139617
 42
-0.144268
  0
VERTEX
  8
0
 10
487.612296
 20
391.586927
 42
-0.016896
  0
VERTEX
  8
0
 10
485.268490
 20
393.427534
 42
0.026056
  0
VERTEX
  8
0
 10
483.870946
 20
394.484243
 42
0.064698
  0
VERTEX
  8
0
 10
482.727287
 20
395.059566
 42
0.095145
  0
VERTEX
  8
0
 10
481.768633
 20
395.201662
 42
0.131134
  0
VERTEX
  8
0
 10
480.941765
 20
394.942847
 42
-0.068531
  0
VERTEX
  8
0
 10
480.167784
 20
394.590431
 42
-0.023681
  0
VERTEX
  8
0
 10
478.972773
 20
394.294092
 42
-0.023014
  0
VERTEX
  8
0
 10
477.608321
 20
394.088289
 42
-0.024744
  0
VERTEX
  8
0
 10
476.263420
 20
394.015313
 42
-0.040267
  0
VERTEX
  8
0
 10
474.505796
 20
394.148725
 42
-0.114779
  0
VERTEX
  8
0
 10
473.375637
 20
394.606439
 42
-0.107697
  0
VERTEX
  8
0
 10
472.522116
 20
395.535845
 42
-0.033103
  0
VERTEX
  8
0
 10
471.668324
 20
397.250000
 42
0.065754
  0
VERTEX
  8
0
 10
469.327686
 20
401.270131
 42
0.213747
  0
VERTEX
  8
0
 10
466.671517
 20
402.690556
 42
0.217646
  0
VERTEX
  8
0
 10
463.879473
 20
401.643790
 42
0.067970
  0
VERTEX
  8
0
 10
461.114038
 20
397.989115
 42
-0.015965
  0
VERTEX
  8
0
 10
460.189781
 20
396.460975
 42
-0.022765
  0
VERTEX
  8
0
 10
459.266685
 20
395.171802
 42
-0.019927
  0
VERTEX
  8
0
 10
458.440243
 20
394.204007
 42
-0.209008
  0
VERTEX
  8
0
 10
457.973528
 20
394.000000
 42
-0.073648
  0
VERTEX
  8
0
 10
457.384962
 20
394.087166
 42
-0.004506
  0
VERTEX
  8
0
 10
455.686136
 20
394.618401
 42
-0.006630
  0
VERTEX
  8
0
 10
453.669120
 20
395.298805
 42
-0.004855
  0
VERTEX
  8
0
 10
451.448390
 20
396.105194
 42
-0.010528
  0
VERTEX
  8
0
 10
448.293189
 20
397.362050
 42
-0.075904
  0
VERTEX
  8
0
 10
446.903471
 20
398.217255
 42
-0.173560
  0
VERTEX
  8
0
 10
446.374832
 20
399.132183
 42
-0.115182
  0
VERTEX
  8
0
 10
446.434951
 20
400.355194
 42
0.010973
  0
VERTEX
  8
0
 10
447.430827
 20
404.151862
 42
0.054288
  0
VERTEX
  8
0
 10
447.708355
 20
406.340883
 42
0.104599
  0
VERTEX
  8
0
 10
447.427405
 20
407.795460
 42
0.120283
  0
VERTEX
  8
0
 10
446.586203
 20
408.928458
 42
0.169407
  0
VERTEX
  8
0
 10
445.060289
 20
409.497763
 42
0.160603
  0
VERTEX
  8
0
 10
443.472224
 20
409.011700
 42
0.098938
  0
VERTEX
  8
0
 10
441.907113
 20
407.358573
 42
0.040721
  0
VERTEX
  8
0
 10
440.477533
 20
404.608737
 42
-0.037031
  0
VERTEX
  8
0
 10
439.753921
 20
403.191426
 42
-0.614063
  0
VERTEX
  8
0
 10
439.344724
 20
403.222864
 42
-0.073900
  0
VERTEX
  8
0
 10
439.050834
 20
404.397348
 42
-0.002557
  0
VERTEX
  8
0
 10
438.613590
 20
409.108350
 42
-0.021883
  0
VERTEX
  8
0
 10
438.078301
 20
421.356564
 42
-0.039189
  0
VERTEX
  8
0
 10
438.866856
 20
431.391385
 42
-0.040124
  0
VERTEX
  8
0
 10
441.192087
 20
441.019665
 42
-0.024219
  0
VERTEX
  8
0
 10
445.391049
 20
451.988565
 42
0.004330
  0
VERTEX
  8
0
 10
447.156846
 20
456.103365
 42
0.006192
  0
VERTEX
  8
0
 10
448.646121
 20
459.785732
 42
0.003567
  0
VERTEX
  8
0
 10
449.837774
 20
462.906063
 42
0.089657
  0
VERTEX
  8
0
 10
450.000000
 20
463.803489
 42
-0.156056
  0
VERTEX
  8
0
 10
450.241971
 20
464.559882
 42
-0.014457
  0
VERTEX
  8
0
 10
451.442651
 20
466.145416
 42
-0.017518
  0
VERTEX
  8
0
 10
453.030081
 20
467.984516
 42
-0.012860
  0
VERTEX
  8
0
 10
454.911152
 20
469.913459
 42
0.047067
  0
VERTEX
  8
0
 10
458.922961
 20
474.633293
 42
0.025705
  0
VERTEX
  8
0
 10
462.956346
 20
481.080597
 42
0.023973
  0
VERTEX
  8
0
 10
466.133911
 20
487.499085
 42
0.103304
  0
VERTEX
  8
0
 10
467.000000
 20
491.646295
 42
0.051075
  0
VERTEX
  8
0
 10
466.880774
 20
492.810410
 42
0.035855
  0
VERTEX
  8
0
 10
466.521757
 20
494.078955
 42
0.036295
  0
VERTEX
  8
0
 10
465.995784
 20
495.256631
 42
0.060817
  0
VERTEX
  8
0
 10
465.371939
 20
496.141505
 42
-0.043548
  0
VERTEX
  8
0
 10
464.505057
 20
497.285336
 42
-0.141300
  0
VERTEX
  8
0
 10
464.243879
 20
498.191081
 42
-0.096592
  0
VERTEX
  8
0
 10
464.459027
 20
499.294387
 42
-0.014474
  0
VERTEX
  8
0
 10
465.371939
 20
501.371375
 42
0.017749
  0
VERTEX
  8
0
 10
465.995127
 20
502.814786
 42
0.017179
  0
VERTEX
  8
0
 10
466.521757
 20
504.314412
 42
0.017379
  0
VERTEX
  8
0
 10
466.893334
 20
505.664311
 42
0.058531
  0
VERTEX
  8
0
 10
467.000000
 20
506.572388
 42
-0.118638
  0
VERTEX
  8
0
 10
467.408911
 20
508.271485
 42
-0.060465
  0
VERTEX
  8
0
 10
468.643500
 20
510.102962
 42
-0.061439
  0
VERTEX
  8
0
 10
470.231128
 20
511.535704
 42
-0.154062
  0
VERTEX
  8
0
 10
471.702214
 20
512.000000
 42
0.182853
  0
VERTEX
  8
0
 10
473.577258
 20
512.709436
 42
0.015174
  0
VERTEX
  8
0
 10
477.440848
 20
516.336018
 42
0.020962
  0
VERTEX
  8
0
 10
481.116567
 20
520.323263
 42
0.057764
  0
VERTEX
  8
0
 10
483.231857
 20
523.500000
 42
0.029180
  0
VERTEX
  8
0
 10
483.870201
 20
524.953933
 42
0.014147
  0
VERTEX
  8
0
 10
484.522730
 20
526.877347
 42
0.013979
  0
VERTEX
  8
0
 10
485.091204
 20
528.924844
 42
0.019552
  0
VERTEX
  8
0
 10
485.475493
 20
530.784586
 42
0.046472
  0
VERTEX
  8
0
 10
485.700917
 20
533.919131
 42
0.113173
  0
VERTEX
  8
0
 10
485.138978
 20
536.152710
 42
0.123522
  0
VERTEX
  8
0
 10
483.701704
 20
537.799201
 42
0.061080
  0
VERTEX
  8
0
 10
481.230923
 20
539.102303
 42
-0.047699
  0
VERTEX
  8
0
 10
480.379027
 20
539.522939
 42
-0.076722
  0
VERTEX
  8
0
 10
479.764602
 20
540.047983
 42
-0.109189
  0
VERTEX
  8
0
 10
479.474131
 20
540.588620
 42
-0.210290
  0
VERTEX
  8
0
 10
479.540976
 20
541.066301
 42
-0.132055
  0
VERTEX
  8
0
 10
479.918404
 20
541.421190
 42
-0.084516
  0
VERTEX
  8
0
 10
480.492387
 20
541.613575
 42
-0.074317
  0
VERTEX
  8
0
 10
481.171392
 20
541.617932
 42
-0.066211
  0
VERTEX
  8
0
 10
481.851151
 20
541.426744
 42
0.026537
  0
VERTEX
  8
0
 10
482.682714
 20
541.120047
 42
0.010296
  0
VERTEX
  8
0
 10
483.862539
 20
540.781182
 42
0.010159
  0
VERTEX
  8
0
 10
485.158377
 20
540.465743
 42
0.012394
  0
SEQEND
  0
POLYLINE
  8
0
 66
1
 70
1
  0
VERTEX
  8
0
 10
689.500000
 20
537.000000
 42
0.113108
  0
VERTEX
  8
0
 10
689.878622
 20
536.616374
 42
0.049908
  0
VERTEX
  8
0
 10
690.518545
 20
536.293750
 42
0.045903
  0
VERTEX
  8
0
 10
691.295703
 20
536.074060
 42
0.045971
  0
VERTEX
  8
0
 10
692.099510
 20
536.000000
 42
-0.072640
  0
VERTEX
  8
0
 10
693.049140
 20
535.861307
 42
-0.028489
  0
VERTEX
  8
0
 10
694.296828
 20
535.410086
 42
-0.027467
  0
VERTEX
  8
0
 10
695.611761
 20
534.760412
 42
-0.030715
  0
VERTEX
  8
0
 10
696.797247
 20
533.991781
 42
0.056674
  0
VERTEX
  8
0
 10
698.485619
 20
533.017421
 42
0.049937
  0
VERTEX
  8
0
 10
700.422629
 20
532.396103
 42
0.036601
  0
VERTEX
  8
0
 10
702.939246
 20
532.048041
 42
0.013657
  0
VERTEX
  8
0
 10
706.506754
 20
531.916156
 42
-0.019685
  0
VERTEX
  8
0
 10
713.272800
 20
531.584335
 42
-0.065406
  0
VERTEX
  8
0
 10
717.611205
 20
530.618768
 42
-0.101429
  0
VERTEX
  8
0
 10
720.466475
 20
528.861160
 42
-0.100994
  0
VERTEX
  8
0
 10
722.405284
 20
526.119597
 42
-0.038243
  0
VERTEX
  8
0
 10
723.814120
 20
522.108602
 42
-0.011590
  0
VERTEX
  8
0
 10
725.336578
 20
515.837220
 42
-0.005593
  0
VERTEX
  8
0
 10
726.675684
 20
509.357458
 42
-0.188739
  0
VERTEX
  8
0
 10
726.397820
 20
507.834670
 42
-0.273866
  0
VERTEX
  8
0
 10
726.002683
 20
507.627650
 42
-0.026178
  0
VERTEX
  8
0
 10
724.875902
 20
507.745677
 42
-0.027591
  0
VERTEX
  8
0
 10
723.451941
 20
508.051979
 42
-0.018037
  0
VERTEX
  8
0
 10
721.848329
 20
508.553513
 42
0.023838
  0
VERTEX
  8
0
 10
720.001146
 20
509.107790
 42
0.015740
  0
VERTEX
  8
0
 10
717.833913
 20
509.575094
 42
0.015853
  0
VERTEX
  8
0
 10
715.693193
 20
509.896857
 42
0.029380
  0
VERTEX
  8
0
 10
713.939373
 20
510.000000
 42
-0.023326
  0
VERTEX
  8
0
 10
712.276078
 20
510.077638
 42
-0.016628
  0
VERTEX
  8
0
 10
710.425832
 20
510.313023
 42
-0.016839
  0
VERTEX
  8
0
 10
708.672702
 20
510.656489
 42
-0.034058
  0
VERTEX
  8
0
 10
707.327436
 20
511.065609
 42
0.031720
  0
VERTEX
  8
0
 10
705.742488
 20
511.555721
 42
0.119353
  0
VERTEX
  8
0
 10
704.709726
 20
511.554585
 42
0.126206
  0
VERTEX
  8
0
 10
703.824031
 20
511.082430
 42
0.037339
  0
VERTEX
  8
0
 10
702.762336
 20
509.954825
 42
0.060478
  0
VERTEX
  8
0
 10
702.086596
 20
508.876640
 42
0.033107
  0
VERTEX
  8
0
 10
701.517686
 20
507.422165
 42
0.032473
  0
VERTEX
  8
0
 10
701.129158
 20
505.846359
 42
0.044232
  0
VERTEX
  8
0
 10
701.000000
 20
504.389216
 42
-0.026787
  0
VERTEX
  8
0
 10
700.869821
 20
501.961105
 42
-0.262205
  0
VERTEX
  8
0
 10
700.294968
 20
501.155864
 42
-0.338702
  0
VERTEX
  8
0
 10
699.450525
 20
501.340450
 42
-0.036065
  0
VERTEX
  8
0
 10
698.187100
 20
503.072013
 42
0.066781
  0
VERTEX
  8
0
 10
697.390089
 20
504.034528
 42
0.094163
  0
VERTEX
  8
0
 10
696.447545
 20
504.622894
 42
0.079175
  0
VERTEX
  8
0
 10
695.231118
 20
504.885033
 42
0.035058
  0
VERTEX
  8
0
 10
693.583800
 20
504.858913
 42
-0.045083
  0
VERTEX
  8
0
 10
692.143169
 20
504.864909
 42
-0.032218
  0
VERTEX
  8
0
 10
690.550433
 20
505.119790
 42
-0.032726
  0
VERTEX
  8
0
 10
689.051584
 20
505.564661
 42
-0.058111
  0
VERTEX
  8
0
 10
687.904557
 20
506.147378
 42
0.000000
  0
VERTEX
  8
0
 10
685.534621
 20
507.720957
 42
0.000000
  0
VERTEX
  8
0
 10
688.384639
 20
511.833534
 42
0.024722
  0
VERTEX
  8
0
 10
689.438488
 20
513.527294
 42
0.031355
  0
VERTEX
  8
0
 10
690.230581
 20
515.190523
 42
0.032934
  0
VERTEX
  8
0
 10
690.698303
 20
516.621418
 42
0.155354
  0
VERTEX
  8
0
 10
690.648713
 20
517.473055
 42
0.288026
  0
VERTEX
  8
0
 10
688.687847
 20
518.943754
 42
0.077943
  0
VERTEX
  8
0
 10
684.637044
 20
518.647818
 42
0.068698
  0
VERTEX
  8
0
 10
680.318246
 20
516.994151
 42
0.122583
  0
VERTEX
  8
0
 10
677.542931
 20
514.425177
 42
-0.126866
  0
VERTEX
  8
0
 10
675.895169
 20
512.925531
 42
-0.076511
  0
VERTEX
  8
0
 10
673.384706
 20
512.056465
 42
-0.069094
  0
VERTEX
  8
0
 10
670.454423
 20
511.931644
 42
-0.067856
  0
VERTEX
  8
0
 10
667.581787
 20
512.606989
 42
-0.129189
  0
VERTEX
  8
0
 10
666.419128
 20
513.442937
 42
-0.194370
  0
VERTEX
  8
0
 10
666.047050
 20
514.618524
 42
-0.222716
  0
VERTEX
  8
0
 10
666.606508
 20
515.605447
 42
-0.155437
  0
VERTEX
  8
0
 10
667.845012
 20
516.000000
 42
0.125617
  0
VERTEX
  8
0
 10
669.399147
 20
516.396711
 42
0.070219
  0
VERTEX
  8
0
 10
670.974193
 20
517.569544
 42
0.049940
  0
VERTEX
  8
0
 10
672.623202
 20
519.564552
 42
0.021818
  0
VERTEX
  8
0
 10
674.412070
 20
522.500000
 42
-0.005430
  0
VERTEX
  8
0
 10
677.976245
 20
528.804620
 42
-0.019277
  0
VERTEX
  8
0
 10
680.457962
 20
532.728535
 42
-0.029672
  0
VERTEX
  8
0
 10
682.410018
 20
535.234292
 42
-0.086090
  0
VERTEX
  8
0
 10
684.115070
 20
536.607168
 42
-0.029292
  0
VERTEX
  8
0
 10
686.081011
 20
537.550941
 42
-0.079211
  0
VERTEX
  8
0
 10
687.583262
 20
537.904129
 42
-0.125431
  0
VERTEX
  8
0
 10
688.699240
 20
537.704816
 42
-0.148816
  0
SEQEND
  0
POLYLINE
  8
0
 66
1
 70
1
  0
VERTEX
  8
0
 10
687.000000
 20
515.524170
 42
-0.117594
  0
VERTEX
  8
0
 10
686.925913
 20
515.213515
 42
-0.005239
  0
VERTEX
  8
0
 10
686.413598
 20
514.226327
 42
-0.008579
  0
VERTEX
  8
0
 10
685.768543
 20
513.063148
 42
-0.006006
  0
VERTEX
  8
0
 10
685.003738
 20
511.774170
 42
0.036072
  0
VERTEX
  8
0
 10
683.498752
 20
508.850675
 42
0.114202
  0
VERTEX
  8
0
 10
683.116016
 20
506.697029
 42
0.175457
  0
VERTEX
  8
0
 10
683.773556
 20
505.137094
 42
0.115808
  0
VERTEX
  8
0
 10
685.402861
 20
504.036932
 42
-0.024895
  0
VERTEX
  8
0
 10
686.367839
 20
503.613961
 42
-0.025298
  0
VERTEX
  8
0
 10
687.280673
 20
503.099199
 42
-0.026093
  0
VERTEX
  8
0
 10
688.024956
 20
502.572079
 42
-0.087427
  0
VERTEX
  8
0
 10
688.421184
 20
502.127527
 42
0.184404
  0
VERTEX
  8
0
 10
688.877679
 20
501.778686
 42
0.043366
  0
VERTEX
  8
0
 10
689.836089
 20
501.583286
 42
0.038996
  0
VERTEX
  8
0
 10
691.050922
 20
501.538933
 42
0.029863
  0
VERTEX
  8
0
 10
692.373617
 20
501.673204
 42
-0.023056
  0
VERTEX
  8
0
 10
694.183522
 20
501.881846
 42
-0.113364
  0
VERTEX
  8
0
 10
695.192420
 20
501.722036
 42
-0.167380
  0
VERTEX
  8
0
 10
695.822357
 20
501.175590
 42
-0.067299
  0
VERTEX
  8
0
 10
696.261674
 20
500.107360
 42
0.075224
  0
VERTEX
  8
0
 10
696.664349
 20
499.170506
 42
0.104250
  0
VERTEX
  8
0
 10
697.294875
 20
498.512215
 42
0.095496
  0
VERTEX
  8
0
 10
698.182595
 20
498.127677
 42
0.054644
  0
VERTEX
  8
0
 10
699.347363
 20
498.000000
 42
0.060936
  0
VERTEX
  8
0
 10
701.157819
 20
498.221468
 42
0.150592
  0
VERTEX
  8
0
 10
702.291270
 20
498.904569
 42
0.113249
  0
VERTEX
  8
0
 10
703.034995
 20
500.253299
 42
0.027033
  0
VERTEX
  8
0
 10
703.608479
 20
502.766496
 42
-0.010042
  0
VERTEX
  8
0
 10
704.336387
 20
506.543674
 42
-0.112338
  0
VERTEX
  8
0
 10
704.976330
 20
507.923714
 42
-0.256047
  0
VERTEX
  8
0
 10
705.936384
 20
508.342737
 42
-0.068490
  0
VERTEX
  8
0
 10
707.618221
 20
507.955052
 42
0.034817
  0
VERTEX
  8
0
 10
708.841489
 20
507.585058
 42
0.016063
  0
VERTEX
  8
0
 10
710.474745
 20
507.267583
 42
0.015822
  0
VERTEX
  8
0
 10
712.220423
 20
507.042511
 42
0.021155
  0
VERTEX
  8
0
 10
713.815100
 20
506.955867
 42
-0.039180
  0
VERTEX
  8
0
 10
718.052157
 20
506.572231
 42
-0.029348
  0
VERTEX
  8
0
 10
722.619287
 20
505.515887
 42
-0.026103
  0
VERTEX
  8
0
 10
726.566075
 20
504.127892
 42
-0.169143
  0
VERTEX
  8
0
 10
728.120212
 20
502.749676
 42
-0.066289
  0
VERTEX
  8
0
 10
728.504369
 20
501.781755
 42
-0.011766
  0
VERTEX
  8
0
 10
728.934481
 20
499.875422
 42
-0.012546
  0
VERTEX
  8
0
 10
729.332471
 20
497.601707
 42
-0.011013
  0
VERTEX
  8
0
 10
729.635845
 20
495.209949
 42
0.000000
  0
VERTEX
  8
0
 10
730.256806
 20
489.268909
 42
0.000000
  0
VERTEX
  8
0
 10
725.163402
 20
489.758321
 42
0.012201
  0
VERTEX
  8
0
 10
722.113906
 20
489.976403
 42
0.090679
  0
VERTEX
  8
0
 10
720.678652
 20
489.783106
 42
0.153206
  0
VERTEX
  8
0
 10
719.755978
 20
489.126092
 42
0.055165
  0
VERTEX
  8
0
 10
718.921054
 20
487.726077
 42
-0.117841
  0
VERTEX
  8
0
 10
717.581273
 20
486.007347
 42
-0.087747
  0
VERTEX
  8
0
 10
715.462026
 20
484.852279
 42
-0.059103
  0
VERTEX
  8
0
 10
712.329314
 20
484.197946
 42
-0.021964
  0
VERTEX
  8
0
 10
707.825340
 20
484.000000
 42
0.053620
  0
VERTEX
  8
0
 10
704.450102
 20
483.636993
 42
0.056568
  0
VERTEX
  8
0
 10
701.293021
 20
482.565155
 42
0.057462
  0
VERTEX
  8
0
 10
698.499039
 20
480.832460
 42
0.058661
  0
VERTEX
  8
0
 10
696.194376
 20
478.519980
 42
-0.058368
  0
VERTEX
  8
0
 10
694.317215
 20
476.634251
 42
-0.190049
  0
VERTEX
  8
0
 10
692.661544
 20
476.130331
 42
-0.216613
  0
VERTEX
  8
0
 10
691.255515
 20
476.910914
 42
-0.075626
  0
VERTEX
  8
0
 10
690.147839
 20
479.005752
 42
-0.045462
  0
VERTEX
  8
0
 10
689.723576
 20
480.705774
 42
-0.058586
  0
VERTEX
  8
0
 10
689.664604
 20
482.313263
 42
-0.048313
  0
VERTEX
  8
0
 10
689.986872
 20
484.115755
 42
-0.020367
  0
VERTEX
  8
0
 10
690.748074
 20
486.458158
 42
0.010972
  0
VERTEX
  8
0
 10
691.702676
 20
489.218188
 42
0.085860
  0
VERTEX
  8
0
 10
691.891257
 20
490.558863
 42
0.135155
  0
VERTEX
  8
0
 10
691.564119
 20
491.615519
 42
0.041685
  0
VERTEX
  8
0
 10
690.543072
 20
492.952406
 42
0.091619
  0
VERTEX
  8
0
 10
688.568811
 20
494.461063
 42
0.163442
  0
VERTEX
  8
0
 10
686.567786
 20
494.754809
 42
0.086113
  0
VERTEX
  8
0
 10
683.906030
 20
493.782999
 42
0.014225
  0
VERTEX
  8
0
 10
679.229988
 20
490.914074
 42
-0.010617
  0
VERTEX
  8
0
 10
675.494456
 20
488.584926
 42
-0.056117
  0
VERTEX
  8
0
 10
673.298745
 20
487.593356
 42
-0.081726
  0
VERTEX
  8
0
 10
671.330657
 20
487.297977
 42
-0.037482
  0
VERTEX
  8
0
 10
668.738329
 20
487.529427
 42
-0.009439
  0
VERTEX
  8
0
 10
665.108433
 20
488.200666
 42
-0.116548
  0
VERTEX
  8
0
 10
663.841694
 20
488.787428
 42
-0.288850
  0
VERTEX
  8
0
 10
663.530900
 20
489.658893
 42
-0.067999
  0
VERTEX
  8
0
 10
664.094704
 20
491.176956
 42
0.069856
  0
VERTEX
  8
0
 10
664.541474
 20
492.393664
 42
0.058603
  0
VERTEX
  8
0
 10
664.672434
 20
493.762919
 42
0.044203
  0
VERTEX
  8
0
 10
664.486176
 20
495.448303
 42
0.018647
  0
VERTEX
  8
0
 10
663.953763
 20
497.665141
 42
-0.022833
  0
VERTEX
  8
0
 10
663.409528
 20
500.017733
 42
-0.042442
  0
VERTEX
  8
0
 10
663.220305
 20
501.965497
 42
-0.045354
  0
VERTEX
  8
0
 10
663.367121
 20
503.828718
 42
-0.030463
  0
VERTEX
  8
0
 10
663.854729
 20
505.909464
 42
0.000000
  0
VERTEX
  8
0
 10
664.996747
 20
509.721181
 42
0.000000
  0
VERTEX
  8
0
 10
671.089367
 20
509.610590
 42
0.012711
  0
VERTEX
  8
0
 10
674.611072
 20
509.636201
 42
0.065710
  0
VERTEX
  8
0
 10
676.528695
 20
509.953394
 42
0.098575
  0
VERTEX
  8
0
 10
677.916631
 20
510.696684
 42
0.048353
  0
VERTEX
  8
0
 10
679.340994
 20
512.119393
 42
-0.021171
  0
VERTEX
  8
0
 10
680.277723
 20
513.162578
 42
-0.020679
  0
VERTEX
  8
0
 10
681.306417
 20
514.131389
 42
-0.021093
  0
VERTEX
  8
0
 10
682.278815
 20
514.904783
 42
-0.069436
  0
VERTEX
  8
0
 10
683.000000
 20
515.290445
 42
-0.031135
  0
VERTEX
  8
0
 10
684.414535
 20
515.712822
 42
-0.042414
  0
VERTEX
  8
0
 10
685.731530
 20
515.902638
 42
-0.052133
  0
VERTEX
  8
0
 10
686.713135
 20
515.857641
 42
-0.370937
  0
SEQEND
  0
POLYLINE
  8
0
 66
1
 70
1
  0
VERTEX
  8
0
 10
303.661714
 20
490.153025
 42
-0.010387
  0
VERTEX
  8
0
 10
304.556854
 20
487.515451
 42
-0.011375
  0
VERTEX
  8
0
 10
305.313128
 20
484.921213
 42
-0.010868
  0
VERTEX
  8
0
 10
305.859893
 20
482.678926
 42
-0.054413
  0
VERTEX
  8
0
 10
306.000000
 20
481.395307
 42
0.192855
  0
VERTEX
  8
0
 10
307.445773
 20
477.786388
 42
0.021719
  0
VERTEX
  8
0
 10
313.934814
 20
471.553081
 42
0.026706
  0
VERTEX
  8
0
 10
321.216490
 20
465.802269
 42
0.076249
  0
VERTEX
  8
0
 10
326.976822
 20
462.927739
 42
0.049851
  0
VERTEX
  8
0
 10
328.682692
 20
462.562289
 42
0.003412
  0
VERTEX
  8
0
 10
333.605692
 20
462.045468
 42
0.004848
  0
VERTEX
  8
0
 10
339.496163
 20
461.525303
 42
0.003620
  0
VERTEX
  8
0
 10
346.000000
 20
461.061823
 42
-0.000345
  0
VERTEX
  8
0
 10
360.653036
 20
460.114030
 42
-0.000291
  0
VERTEX
  8
0
 10
376.161567
 20
459.091107
 42
-0.000250
  0
VERTEX
  8
0
 10
393.795490
 20
457.908841
 42
-0.000145
  0
VERTEX
  8
0
 10
415.000000
 20
456.470374
 42
0.000936
  0
VERTEX
  8
0
 10
423.472110
 20
455.909118
 42
0.001263
  0
VERTEX
  8
0
 10
431.139062
 20
455.435063
 42
0.000853
  0
VERTEX
  8
0
 10
437.575069
 20
455.064458
 42
0.013738
  0
VERTEX
  8
0
 10
439.750000
 20
455.002808
 42
-0.029065
  0
VERTEX
  8
0
 10
440.995188
 20
454.929285
 42
-0.045393
  0
VERTEX
  8
0
 10
442.045313
 20
454.707859
 42
-0.057037
  0
VERTEX
  8
0
 10
442.778929
 20
454.386834
 42
-0.267189
  0
VERTEX
  8
0
 10
443.000000
 20
454.002668
 42
-0.092013
  0
VERTEX
  8
0
 10
442.879211
 20
453.351851
 42
-0.005164
  0
VERTEX
  8
0
 10
442.118750
 20
451.433134
 42
-0.007801
  0
VERTEX
  8
0
 10
441.149208
 20
449.160737
 42
-0.005628
  0
VERTEX
  8
0
 10
440.000000
 20
446.655825
 42
0.012814
  0
VERTEX
  8
0
 10
438.848946
 20
444.048671
 42
0.014074
  0
VERTEX
  8
0
 10
437.870786
 20
441.465555
 42
0.013580
  0
VERTEX
  8
0
 10
437.159520
 20
439.219504
 42
0.066272
  0
VERTEX
  8
0
 10
436.964378
 20
437.903157
 42
-0.029950
  0
VERTEX
  8
0
 10
436.868629
 20
436.623816
 42
-0.007862
  0
VERTEX
  8
0
 10
436.560651
 20
434.590302
 42
-0.007956
  0
VERTEX
  8
0
 10
436.135966
 20
432.281954
 42
-0.008078
  0
VERTEX
  8
0
 10
435.640010
 20
430.000000
 42
0.054935
  0
VERTEX
  8
0
 10
434.937187
 20
424.191055
 42
0.013611
  0
VERTEX
  8
0
 10
435.096361
 20
414.589029
 42
0.012312
  0
VERTEX
  8
0
 10
435.748464
 20
405.072695
 42
0.077626
  0
VERTEX
  8
0
 10
436.938358
 20
400.373130
 42
-0.104204
  0
VERTEX
  8
0
 10
437.385611
 20
398.111803
 42
-0.045773
  0
VERTEX
  8
0
 10
437.067577
 20
395.061236
 42
-0.040138
  0
VERTEX
  8
0
 10
436.084694
 20
391.585591
 42
-0.031348
  0
VERTEX
  8
0
 10
434.489895
 20
388.000000
 42
0.019112
  0
VERTEX
  8
0
 10
433.733468
 20
386.405519
 42
0.012199
  0
VERTEX
  8
0
 10
432.971617
 20
384.500000
 42
0.012257
  0
VERTEX
  8
0
 10
432.315227
 20
382.592607
 42
0.022250
  0
VERTEX
  8
0
 10
431.887411
 20
381.000000
 42
-0.003139
  0
VERTEX
  8
0
 10
431.508808
 20
379.339832
 42
-0.001491
  0
VERTEX
  8
0
 10
431.001409
 20
377.206250
 42
-0.001478
  0
VERTEX
  8
0
 10
430.457606
 20
374.978443
 42
-0.002096
  0
VERTEX
  8
0
 10
429.959663
 20
373.000000
 42
0.000447
  0
VERTEX
  8
0
 10
429.454041
 20
371.018667
 42
0.000312
  0
VERTEX
  8
0
 10
428.886800
 20
368.781712
 42
0.000314
  0
VERTEX
  8
0
 10
428.345383
 20
366.635321
 42
0.000652
  0
VERTEX
  8
0
 10
427.925986
 20
364.959018
 42
-0.039304
  0
VERTEX
  8
0
 10
427.322707
 20
363.153239
 42
-0.081803
  0
VERTEX
  8
0
 10
426.531230
 20
361.902612
 42
-0.082952
  0
VERTEX
  8
0
 10
425.388331
 20
360.982556
 42
-0.041347
  0
VERTEX
  8
0
 10
423.694384
 20
360.206451
 42
0.057967
  0
VERTEX
  8
0
 10
420.704176
 20
358.714592
 42
0.061589
  0
VERTEX
  8
0
 10
418.203424
 20
356.601368
 42
0.058663
  0
VERTEX
  8
0
 10
416.199361
 20
353.846828
 42
0.045323
  0
VERTEX
  8
0
 10
414.680040
 20
350.455593
 42
-0.038931
  0
VERTEX
  8
0
 10
413.776269
 20
348.367292
 42
-0.069867
  0
VERTEX
  8
0
 10
412.684201
 20
346.856104
 42
-0.063039
  0
VERTEX
  8
0
 10
411.138037
 20
345.606780
 42
-0.026392
  0
VERTEX
  8
0
 10
408.785136
 20
344.318550
 42
0.056551
  0
VERTEX
  8
0
 10
405.613722
 20
342.325202
 42
0.055237
  0
VERTEX
  8
0
 10
402.941511
 20
339.657881
 42
0.055205
  0
VERTEX
  8
0
 10
400.916804
 20
336.468634
 42
0.056353
  0
VERTEX
  8
0
 10
399.655916
 20
332.935311
 42
-0.084139
  0
VERTEX
  8
0
 10
399.163328
 20
331.763917
 42
-0.036829
  0
VERTEX
  8
0
 10
398.154624
 20
330.407912
 42
-0.034540
  0
VERTEX
  8
0
 10
396.824795
 20
329.069684
 42
-0.035117
  0
VERTEX
  8
0
 10
395.330395
 20
327.935311
 42
0.088158
  0
VERTEX
  8
0
 10
392.125594
 20
324.919999
 42
0.067883
  0
VERTEX
  8
0
 10
389.800640
 20
320.708686
 42
0.062505
  0
VERTEX
  8
0
 10
388.547401
 20
315.675370
 42
0.054704
  0
VERTEX
  8
0
 10
388.493797
 20
310.250000
 42
0.000000
  0
VERTEX
  8
0
 10
389.017471
 20
305.000000
 42
0.000000
  0
VERTEX
  8
0
 10
383.508736
 20
305.000000
 42
-0.010317
  0
VERTEX
  8
0
 10
381.396645
 20
305.043585
 42
-0.017061
  0
VERTEX
  8
0
 10
379.618191
 20
305.177908
 42
-0.011110
  0
VERTEX
  8
0
 10
378.206200
 20
305.364980
 42
-0.369811
  0
VERTEX
  8
0
 10
378.000000
 20
305.605644
 42
-0.144099
  0
VERTEX
  8
0
 10
378.108277
 20
305.973549
 42
-0.009394
  0
VERTEX
  8
0
 10
378.734375
 20
306.906135
 42
-0.013041
  0
VERTEX
  8
0
 10
379.542316
 20
308.000141
 42
-0.009329
  0
VERTEX
  8
0
 10
380.500000
 20
309.182369
 42
0.072466
  0
VERTEX
  8
0
 10
382.151475
 20
311.847047
 42
0.076543
  0
VERTEX
  8
0
 10
382.934705
 20
314.822908
 42
0.097135
  0
VERTEX
  8
0
 10
382.712058
 20
317.315311
 42
0.234574
  0
VERTEX
  8
0
 10
381.492718
 20
318.641168
 42
0.178330
  0
VERTEX
  8
0
 10
380.621662
 20
318.652891
 42
0.042228
  0
VERTEX
  8
0
 10
379.275088
 20
318.045243
 42
0.035562
  0
VERTEX
  8
0
 10
377.661480
 20
316.989447
 42
0.021058
  0
VERTEX
  8
0
 10
375.890366
 20
315.519917
 42
-0.017325
  0
VERTEX
  8
0
 10
373.789741
 20
313.750351
 42
-0.053468
  0
VERTEX
  8
0
 10
372.217494
 20
312.767731
 42
-0.082367
  0
VERTEX
  8
0
 10
370.899381
 20
312.378139
 42
-0.106823
  0
VERTEX
  8
0
 10
369.647648
 20
312.490868
 42
0.017867
  0
VERTEX
  8
0
 10
366.135958
 20
313.451143
 42
0.056798
  0
VERTEX
  8
0
 10
363.722798
 20
313.736541
 42
0.069626
  0
VERTEX
  8
0
 10
361.584411
 20
313.446566
 42
0.037473
  0
VERTEX
  8
0
 10
359.079261
 20
312.535742
 42
0.000000
  0
VERTEX
  8
0
 10
355.268466
 20
310.817313
 42
0.000000
  0
VERTEX
  8
0
 10
347.158048
 20
315.529786
 42
0.008768
  0
VERTEX
  8
0
 10
342.884081
 20
317.913887
 42
0.034030
  0
VERTEX
  8
0
 10
340.121126
 20
319.158557
 42
0.056697
  0
VERTEX
  8
0
 10
338.064960
 20
319.665989
 42
0.092094
  0
VERTEX
  8
0
 10
336.273815
 20
319.567390
 42
-0.005951
  0
VERTEX
  8
0
 10
334.912546
 20
319.253305
 42
-0.002441
  0
VERTEX
  8
0
 10
333.058496
 20
318.858174
 42
-0.002415
  0
VERTEX
  8
0
 10
331.063722
 20
318.453265
 42
-0.003093
  0
VERTEX
  8
0
 10
329.223192
 20
318.100727
 42
0.051868
  0
VERTEX
  8
0
 10
326.298905
 20
317.238558
 42
0.082011
  0
VERTEX
  8
0
 10
324.080996
 20
315.866490
 42
0.085488
  0
VERTEX
  8
0
 10
322.483253
 20
313.901066
 42
0.061253
  0
VERTEX
  8
0
 10
321.405343
 20
311.276210
 42
-0.083660
  0
VERTEX
  8
0
 10
320.928645
 20
310.248305
 42
-0.085378
  0
VERTEX
  8
0
 10
320.144118
 20
309.441678
 42
-0.071544
  0
VERTEX
  8
0
 10
319.011909
 20
308.843435
 42
-0.039472
  0
VERTEX
  8
0
 10
317.498034
 20
308.433653
 42
-0.031781
  0
VERTEX
  8
0
 10
314.366323
 20
308.049979
 42
-0.086949
  0
VERTEX
  8
0
 10
312.159168
 20
308.305143
 42
-0.120862
  0
VERTEX
  8
0
 10
310.603972
 20
309.214511
 42
-0.097906
  0
VERTEX
  8
0
 10
309.500000
 20
310.807811
 42
0.099643
  0
VERTEX
  8
0
 10
308.731305
 20
311.909111
 42
0.033525
  0
VERTEX
  8
0
 10
307.220190
 20
313.171005
 42
0.029795
  0
VERTEX
  8
0
 10
305.213435
 20
314.454912
 42
0.021791
  0
VERTEX
  8
0
 10
302.849780
 20
315.643754
 42
-0.013271
  0
VERTEX
  8
0
 10
299.395442
 20
317.308066
 42
-0.090640
  0
VERTEX
  8
0
 10
297.904076
 20
318.456733
 42
-0.117829
  0
VERTEX
  8
0
 10
297.100074
 20
319.931522
 42
-0.028932
  0
VERTEX
  8
0
 10
296.529145
 20
322.654213
 42
-0.022182
  0
VERTEX
  8
0
 10
296.340512
 20
324.452847
 42
-0.026334
  0
VERTEX
  8
0
 10
296.327737
 20
326.160453
 42
-0.026613
  0
VERTEX
  8
0
 10
296.467454
 20
327.575908
 42
-0.128391
  0
VERTEX
  8
0
 10
296.784933
 20
328.312428
 42
0.072006
  0
VERTEX
  8
0
 10
297.717720
 20
329.946848
 42
0.057322
  0
VERTEX
  8
0
 10
298.240993
 20
331.911322
 42
0.059771
  0
VERTEX
  8
0
 10
298.291919
 20
333.839531
 42
0.104682
  0
VERTEX
  8
0
 10
297.819548
 20
335.357967
 42
0.198158
  0
VERTEX
  8
0
 10
296.696073
 20
336.246846
 42
0.045129
  0
VERTEX
  8
0
 10
294.262546
 20
336.709565
 42
0.021407
  0
VERTEX
  8
0
 10
289.954811
 20
336.946280
 42
0.003022
  0
VERTEX
  8
0
 10
281.066807
 20
337.000000
 42
0.000000
  0
VERTEX
  8
0
 10
265.232994
 20
337.000000
 42
0.000000
  0
VERTEX
  8
0
 10
264.522676
 20
343.750000
 42
0.017787
  0
VERTEX
  8
0
 10
264.131365
 20
346.518464
 42
0.021702
  0
VERTEX
  8
0
 10
263.562036
 20
349.071833
 42
0.022321
  0
VERTEX
  8
0
 10
262.900538
 20
351.155414
 42
0.094397
  0
VERTEX
  8
0
 10
262.229808
 20
352.273629
 42
-0.034048
  0
VERTEX
  8
0
 10
261.506904
 20
353.204201
 42
-0.114385
  0
VERTEX
  8
0
 10
261.233578
 20
353.920330
 42
-0.153151
  0
VERTEX
  8
0
 10
261.341456
 20
354.559847
 42
-0.078748
  0
VERTEX
  8
0
 10
261.823629
 20
355.223629
 42
0.170617
  0
VERTEX
  8
0
 10
262.835274
 20
357.331765
 42
0.042928
  0
VERTEX
  8
0
 10
262.926668
 20
361.197487
 42
0.042846
  0
VERTEX
  8
0
 10
262.292133
 20
365.459256
 42
0.059646
  0
VERTEX
  8
0
 10
260.961406
 20
369.075651
 42
-0.026810
  0
VERTEX
  8
0
 10
260.033989
 20
371.162832
 42
-0.046841
  0
VERTEX
  8
0
 10
259.527982
 20
372.984678
 42
-0.051074
  0
VERTEX
  8
0
 10
259.394504
 20
374.755317
 42
-0.039678
  0
VERTEX
  8
0
 10
259.599280
 20
376.677513
 42
0.026992
  0
VERTEX
  8
0
 10
259.864347
 20
378.681999
 42
0.095546
  0
VERTEX
  8
0
 10
259.718654
 20
379.965691
 42
0.109937
  0
VERTEX
  8
0
 10
259.120684
 20
381.003990
 42
0.042015
  0
VERTEX
  8
0
 10
257.887874
 20
382.141700
 42
0.000000
  0
VERTEX
  8
0
 10
255.500000
 20
384.000000
 42
0.000000
  0
VERTEX
  8
0
 10
257.643501
 20
385.750000
 42
0.044269
  0
VERTEX
  8
0
 10
258.516948
 20
386.602317
 42
0.029120
  0
VERTEX
  8
0
 10
259.368508
 20
387.720312
 42
0.029284
  0
VERTEX
  8
0
 10
260.075369
 20
388.915299
 42
0.048946
  0
VERTEX
  8
0
 10
260.505845
 20
390.000000
 42
-0.044956
  0
VERTEX
  8
0
 10
260.946453
 20
391.136541
 42
-0.021927
  0
VERTEX
  8
0
 10
261.697585
 20
392.500000
 42
-0.021551
  0
VERTEX
  8
0
 10
262.609066
 20
393.859912
 42
-0.029099
  0
VERTEX
  8
0
 10
263.553393
 20
395.000000
 42
0.052854
  0
VERTEX
  8
0
 10
265.650898
 20
397.791855
 42
0.024361
  0
VERTEX
  8
0
 10
267.792710
 20
401.807270
 42
0.023315
  0
VERTEX
  8
0
 10
269.481815
 20
405.862471
 42
0.084601
  0
VERTEX
  8
0
 10
269.978038
 20
408.601061
 42
0.073530
  0
VERTEX
  8
0
 10
269.824662
 20
409.718997
 42
0.017388
  0
VERTEX
  8
0
 10
269.234399
 20
411.512699
 42
0.017528
  0
VERTEX
  8
0
 10
268.403300
 20
413.547640
 42
0.016476
  0
VERTEX
  8
0
 10
267.415661
 20
415.562595
 42
-0.011279
  0
VERTEX
  8
0
 10
265.869349
 20
418.636114
 42
-0.081893
  0
VERTEX
  8
0
 10
265.413855
 20
420.219239
 42
-0.111948
  0
VERTEX
  8
0
 10
265.566531
 20
421.650937
 42
-0.028949
  0
VERTEX
  8
0
 10
266.448131
 20
423.813551
 42
0.020632
  0
VERTEX
  8
0
 10
267.339011
 20
425.899063
 42
0.099229
  0
VERTEX
  8
0
 10
267.549596
 20
427.166518
 42
0.101873
  0
VERTEX
  8
0
 10
267.252490
 20
428.400835
 42
0.022338
  0
VERTEX
  8
0
 10
266.231487
 20
430.343341
 42
0.108671
  0
VERTEX
  8
0
 10
264.119439
 20
432.632917
 42
0.091301
  0
VERTEX
  8
0
 10
261.108707
 20
434.003220
 42
0.049282
  0
VERTEX
  8
0
 10
256.317452
 20
434.710391
 42
0.010350
  0
VERTEX
  8
0
 10
247.838821
 20
434.942370
 42
0.000000
  0
VERTEX
  8
0
 10
239.177642
 20
435.000000
 42
0.000000
  0
VERTEX
  8
0
 10
238.611069
 20
441.250000
 42
-0.009674
  0
VERTEX
  8
0
 10
237.992159
 20
449.945299
 42
-0.007046
  0
VERTEX
  8
0
 10
237.627604
 20
459.631309
 42
-0.004461
  0
VERTEX
  8
0
 10
237.496567
 20
468.601492
 42
-0.066852
  0
VERTEX
  8
0
 10
237.894542
 20
471.698069
 42
-0.245184
  0
VERTEX
  8
0
 10
239.456549
 20
473.401187
 42
-0.064735
  0
VERTEX
  8
0
 10
243.180984
 20
474.227858
 42
-0.019067
  0
VERTEX
  8
0
 10
250.833116
 20
474.618444
 42
-0.001226
  0
VERTEX
  8
0
 10
273.178571
 20
474.851223
 42
0.003047
  0
VERTEX
  8
0
 10
282.926838
 20
474.988278
 42
0.015002
  0
VERTEX
  8
0
 10
288.418566
 20
475.263945
 42
0.022807
  0
VERTEX
  8
0
 10
291.834455
 20
475.695822
 42
0.154724
  0
VERTEX
  8
0
 10
293.326871
 20
476.469728
 42
0.139518
  0
VERTEX
  8
0
 10
294.375759
 20
478.353050
 42
0.013685
  0
VERTEX
  8
0
 10
295.436989
 20
483.494790
 42
0.017749
  0
VERTEX
  8
0
 10
296.181067
 20
488.749213
 42
0.060605
  0
VERTEX
  8
0
 10
296.126327
 20
492.195847
 42
-0.080490
  0
VERTEX
  8
0
 10
296.146899
 20
493.063956
 42
-0.024820
  0
VERTEX
  8
0
 10
296.451256
 20
494.341048
 42
-0.024117
  0
VERTEX
  8
0
 10
296.939422
 20
495.757866
 42
-0.024308
  0
VERTEX
  8
0
 10
297.560637
 20
497.117259
 42
-0.009294
  0
VERTEX
  8
0
 10
298.601862
 20
499.042214
 42
-0.149556
  0
VERTEX
  8
0
 10
299.131511
 20
499.545077
 42
-0.351254
  0
VERTEX
  8
0
 10
299.618908
 20
499.439646
 42
-0.043021
  0
VERTEX
  8
0
 10
300.276035
 20
498.471237
 42
-0.026206
  0
VERTEX
  8
0
 10
300.819390
 20
497.368464
 42
-0.004715
  0
VERTEX
  8
0
 10
301.702628
 20
495.255732
 42
-0.005076
  0
VERTEX
  8
0
 10
302.689677
 20
492.758362
 42
-0.004571
  0
SEQEND
  0
POLYLINE
  8
0
 66
1
 70
1
  0
VERTEX
  8
0
 10
643.785183
 20
492.295751
 42
-0.017379
  0
VERTEX
  8
0
 10
645.087343
 20
491.413787
 42
-0.007004
  0
VERTEX
  8
0
 10
646.804931
 20
490.123999
 42
-0.006921
  0
VERTEX
  8
0
 10
648.617227
 20
488.682448
 42
-0.008712
  0
VERTEX
  8
0
 10
650.252881
 20
487.295751
 42
0.011390
  0
VERTEX
  8
0
 10
653.115531
 20
484.895045
 42
0.113731
  0
VERTEX
  8
0
 10
654.515284
 20
484.221321
 42
0.174437
  0
VERTEX
  8
0
 10
655.809382
 20
484.381694
 42
0.035594
  0
VERTEX
  8
0
 10
657.820452
 20
485.586793
 42
-0.028317
  0
VERTEX
  8
0
 10
659.060816
 20
486.354784
 42
-0.103626
  0
VERTEX
  8
0
 10
659.941696
 20
486.618860
 42
-0.133837
  0
VERTEX
  8
0
 10
660.726830
 20
486.474896
 42
-0.061398
  0
VERTEX
  8
0
 10
661.609995
 20
485.908712
 42
0.110168
  0
VERTEX
  8
0
 10
662.587625
 20
485.408077
 42
0.021428
  0
VERTEX
  8
0
 10
664.537259
 20
484.990546
 42
0.021601
  0
VERTEX
  8
0
 10
666.918860
 20
484.691460
 42
0.017605
  0
VERTEX
  8
0
 10
669.486245
 20
484.571919
 42
0.014373
  0
VERTEX
  8
0
 10
672.787308
 20
484.629437
 42
0.043472
  0
VERTEX
  8
0
 10
675.013959
 20
484.927464
 42
0.061449
  0
VERTEX
  8
0
 10
676.691304
 20
485.525879
 42
0.061818
  0
VERTEX
  8
0
 10
678.169208
 20
486.513087
 42
-0.029937
  0
VERTEX
  8
0
 10
681.191389
 20
488.822668
 42
-0.037271
  0
VERTEX
  8
0
 10
684.261724
 20
490.573171
 42
-0.038899
  0
VERTEX
  8
0
 10
686.879010
 20
491.576003
 42
-0.275021
  0
VERTEX
  8
0
 10
688.145544
 20
491.254456
 42
-0.199336
  0
VERTEX
  8
0
 10
688.689611
 20
489.937927
 42
-0.057997
  0
VERTEX
  8
0
 10
688.427030
 20
487.713384
 42
-0.056552
  0
VERTEX
  8
0
 10
687.608751
 20
485.445982
 42
-0.105071
  0
VERTEX
  8
0
 10
686.401887
 20
483.918573
 42
0.112209
  0
VERTEX
  8
0
 10
685.389528
 20
482.599490
 42
0.112897
  0
VERTEX
  8
0
 10
685.049707
 20
480.975413
 42
0.128594
  0
VERTEX
  8
0
 10
685.458909
 20
479.521569
 42
0.170175
  0
VERTEX
  8
0
 10
686.500000
 20
478.638374
 42
-0.079308
  0
VERTEX
  8
0
 10
687.073416
 20
478.306475
 42
-0.065383
  0
VERTEX
  8
0
 10
687.559375
 20
477.792344
 42
-0.066651
  0
VERTEX
  8
0
 10
687.887948
 20
477.181567
 42
-0.090356
  0
VERTEX
  8
0
 10
688.000000
 20
476.566569
 42
0.189545
  0
VERTEX
  8
0
 10
688.557167
 20
475.149626
 42
0.093516
  0
VERTEX
  8
0
 10
690.139686
 20
473.983589
 42
0.083571
  0
VERTEX
  8
0
 10
692.229137
 20
473.378751
 42
0.105981
  0
VERTEX
  8
0
 10
694.224320
 20
473.571196
 42
0.065350
  0
VERTEX
  8
0
 10
695.264083
 20
474.057964
 42
0.020510
  0
VERTEX
  8
0
 10
696.676466
 20
475.043793
 42
0.020102
  0
VERTEX
  8
0
 10
698.178797
 20
476.285207
 42
0.020972
  0
VERTEX
  8
0
 10
699.554624
 20
477.626595
 42
-0.026831
  0
VERTEX
  8
0
 10
701.474608
 20
479.455150
 42
-0.077792
  0
VERTEX
  8
0
 10
703.031830
 20
480.414378
 42
-0.075164
  0
VERTEX
  8
0
 10
704.838308
 20
480.869443
 42
-0.023900
  0
VERTEX
  8
0
 10
707.618077
 20
481.005577
 42
0.029986
  0
VERTEX
  8
0
 10
712.276803
 20
481.290566
 42
0.042911
  0
VERTEX
  8
0
 10
716.325998
 20
482.140174
 42
0.050822
  0
VERTEX
  8
0
 10
719.409105
 20
483.422474
 42
0.146968
  0
VERTEX
  8
0
 10
721.023417
 20
485.043755
 42
-0.164108
  0
VERTEX
  8
0
 10
722.473088
 20
486.405363
 42
-0.095056
  0
VERTEX
  8
0
 10
724.819746
 20
486.977703
 42
-0.092082
  0
VERTEX
  8
0
 10
727.280437
 20
486.646075
 42
-0.141040
  0
VERTEX
  8
0
 10
729.047519
 20
485.442744
 42
-0.130372
  0
VERTEX
  8
0
 10
729.597872
 20
484.253548
 42
-0.070010
  0
VERTEX
  8
0
 10
729.653810
 20
482.626622
 42
-0.035788
  0
VERTEX
  8
0
 10
729.206049
 20
480.122938
 42
-0.006975
  0
VERTEX
  8
0
 10
728.015812
 20
475.692744
 42
-0.007749
  0
VERTEX
  8
0
 10
725.664274
 20
467.867345
 42
-0.057694
  0
VERTEX
  8
0
 10
724.073680
 20
464.330993
 42
-0.153269
  0
VERTEX
  8
0
 10
722.394765
 20
462.832454
 42
-0.165963
  0
VERTEX
  8
0
 10
720.218550
 20
462.623788
 42
-0.012527
  0
VERTEX
  8
0
 10
719.072749
 20
462.926621
 42
-0.010617
  0
VERTEX
  8
0
 10
717.877981
 20
463.302336
 42
-0.010753
  0
VERTEX
  8
0
 10
716.803742
 20
463.691319
 42
-0.029303
  0
VERTEX
  8
0
 10
716.068194
 20
464.026443
 42
0.175112
  0
VERTEX
  8
0
 10
714.065160
 20
464.307469
 42
0.036546
  0
VERTEX
  8
0
 10
710.601615
 20
463.310094
 42
0.037602
  0
VERTEX
  8
0
 10
706.901119
 20
461.619208
 42
0.048972
  0
VERTEX
  8
0
 10
703.832132
 20
459.512202
 42
-0.101759
  0
VERTEX
  8
0
 10
700.104651
 20
457.491879
 42
-0.075463
  0
VERTEX
  8
0
 10
695.454757
 20
456.821303
 42
-0.075059
  0
VERTEX
  8
0
 10
690.790086
 20
457.560934
 42
-0.098421
  0
VERTEX
  8
0
 10
687.019715
 20
459.636865
 42
0.029426
  0
VERTEX
  8
0
 10
683.733961
 20
462.086678
 42
0.030730
  0
VERTEX
  8
0
 10
680.229180
 20
464.095212
 42
0.028034
  0
VERTEX
  8
0
 10
677.113650
 20
465.423095
 42
0.224674
  0
VERTEX
  8
0
 10
675.602095
 20
465.278813
 42
0.047540
  0
VERTEX
  8
0
 10
675.088924
 20
464.902935
 42
0.017568
  0
VERTEX
  8
0
 10
674.439896
 20
464.283189
 42
0.017227
  0
VERTEX
  8
0
 10
673.774440
 20
463.552765
 42
0.019867
  0
VERTEX
  8
0
 10
673.193296
 20
462.811207
 42
-0.116815
  0
VERTEX
  8
0
 10
671.597286
 20
461.430372
 42
-0.160875
  0
VERTEX
  8
0
 10
669.739225
 20
461.127376
 42
-0.129802
  0
VERTEX
  8
0
 10
667.764919
 20
461.998483
 42
-0.065209
  0
VERTEX
  8
0
 10
665.860527
 20
463.974778
 42
0.037192
  0
VERTEX
  8
0
 10
664.809170
 20
465.195513
 42
0.051776
  0
VERTEX
  8
0
 10
663.690370
 20
466.103949
 42
0.060879
  0
VERTEX
  8
0
 10
662.584334
 20
466.647714
 42
0.104857
  0
VERTEX
  8
0
 10
661.570496
 20
466.776525
 42
-0.104212
  0
VERTEX
  8
0
 10
659.638153
 20
467.019531
 42
-0.028248
  0
VERTEX
  8
0
 10
656.770588
 20
468.195767
 42
-0.026313
  0
VERTEX
  8
0
 10
653.486638
 20
469.982777
 42
-0.020524
  0
VERTEX
  8
0
 10
650.115141
 20
472.250000
 42
0.061274
  0
VERTEX
  8
0
 10
647.758727
 20
473.570108
 42
0.162142
  0
VERTEX
  8
0
 10
645.855070
 20
473.697415
 42
0.094285
  0
VERTEX
  8
0
 10
643.620001
 20
472.637741
 42
0.013198
  0
VERTEX
  8
0
 10
639.553041
 20
469.500000
 42
-0.016333
  0
VERTEX
  8
0
 10
637.290717
 20
467.777085
 42
-0.019903
  0
VERTEX
  8
0
 10
635.061823
 20
466.321875
 42
-0.018824
  0
VERTEX
  8
0
 10
633.121183
 20
465.259288
 42
-0.116349
  0
VERTEX
  8
0
 10
632.021997
 20
465.000000
 42
0.118733
  0
VERTEX
  8
0
 10
631.039067
 20
464.763249
 42
0.075414
  0
VERTEX
  8
0
 10
630.078369
 20
464.072655
 42
0.057546
  0
VERTEX
  8
0
 10
629.148192
 20
462.927142
 42
0.030309
  0
VERTEX
  8
0
 10
628.257870
 20
461.322154
 42
-0.017741
  0
VERTEX
  8
0
 10
627.511580
 20
459.893341
 42
-0.022952
  0
VERTEX
  8
0
 10
626.722624
 20
458.642489
 42
-0.021608
  0
VERTEX
  8
0
 10
625.988762
 20
457.680772
 42
-0.151893
  0
VERTEX
  8
0
 10
625.500000
 20
457.364524
 42
-0.339287
  0
VERTEX
  8
0
 10
624.512424
 20
457.760567
 42
-0.011637
  0
VERTEX
  8
0
 10
622.341069
 20
461.624858
 42
-0.017783
  0
VERTEX
  8
0
 10
620.432354
 20
465.545138
 42
-0.108255
  0
VERTEX
  8
0
 10
619.982858
 20
467.741526
 42
0.124124
  0
VERTEX
  8
0
 10
619.848745
 20
468.306215
 42
0.048094
  0
VERTEX
  8
0
 10
619.407465
 20
468.985254
 42
0.043811
  0
VERTEX
  8
0
 10
618.763943
 20
469.662381
 42
0.041280
  0
VERTEX
  8
0
 10
618.000000
 20
470.232073
 42
-0.077326
  0
VERTEX
  8
0
 10
616.459410
 20
471.563212
 42
-0.279899
  0
VERTEX
  8
0
 10
616.263959
 20
472.789694
 42
-0.141505
  0
VERTEX
  8
0
 10
617.349492
 20
474.162855
 42
-0.019337
  0
VERTEX
  8
0
 10
620.435151
 20
476.193493
 42
0.033554
  0
VERTEX
  8
0
 10
624.417554
 20
478.979566
 42
0.097187
  0
VERTEX
  8
0
 10
626.573301
 20
481.541591
 42
0.115126
  0
VERTEX
  8
0
 10
627.401131
 20
484.459008
 42
0.058049
  0
VERTEX
  8
0
 10
627.137032
 20
488.295898
 42
-0.012249
  0
VERTEX
  8
0
 10
626.843501
 20
490.112531
 42
-0.017741
  0
VERTEX
  8
0
 10
626.680888
 20
491.729638
 42
-0.013502
  0
VERTEX
  8
0
 10
626.631032
 20
493.050020
 42
-0.201705
  0
VERTEX
  8
0
 10
626.801685
 20
493.468351
 42
-0.174026
  0
VERTEX
  8
0
 10
627.250819
 20
493.680233
 42
-0.006119
  0
VERTEX
  8
0
 10
629.194788
 20
493.843828
 42
-0.010712
  0
VERTEX
  8
0
 10
631.531382
 20
493.961447
 42
-0.007218
  0
VERTEX
  8
0
 10
634.201850
 20
494.000000
 42
-0.015295
  0
VERTEX
  8
0
 10
637.456584
 20
493.900413
 42
-0.028713
  0
VERTEX
  8
0
 10
640.069030
 20
493.589155
 42
-0.035715
  0
VERTEX
  8
0
 10
642.156275
 20
493.061985
 42
-0.060521
  0
SEQEND
  0
POLYLINE
  8
0
 66
1
 70
1
  0
VERTEX
  8
0
 10
41.000000
 20
484.411935
 42
0.000857
  0
VERTEX
  8
0
 10
46.517795
 20
483.328503
 42
0.000589
  0
VERTEX
  8
0
 10
52.775596
 20
482.118556
 42
0.000594
  0
VERTEX
  8
0
 10
58.800381
 20
480.968454
 42
0.001212
  0
VERTEX
  8
0
 10
63.533944
 20
480.082549
 42
-0.016576
  0
VERTEX
  8
0
 10
69.372912
 20
478.802945
 42
-0.025657
  0
VERTEX
  8
0
 10
74.303291
 20
477.276774
 42
-0.020637
  0
VERTEX
  8
0
 10
79.756704
 20
475.017500
 42
-0.006910
  0
VERTEX
  8
0
 10
87.533944
 20
471.281259
 42
0.008040
  0
VERTEX
  8
0
 10
94.132824
 20
468.129440
 42
0.004070
  0
VERTEX
  8
0
 10
102.538096
 20
464.362029
 42
0.004041
  0
VERTEX
  8
0
 10
111.281688
 20
460.612080
 42
0.006010
  0
VERTEX
  8
0
 10
119.000000
 20
457.483989
 42
-0.000629
  0
VERTEX
  8
0
 10
125.736632
 20
454.837804
 42
-0.001011
  0
VERTEX
  8
0
 10
131.472603
 20
452.562950
 42
-0.000156
  0
VERTEX
  8
0
 10
136.554865
 20
450.533614
 42
-0.064804
  0
VERTEX
  8
0
 10
136.885458
 20
450.348849
 42
-0.413808
  0
VERTEX
  8
0
 10
137.041689
 20
449.293891
 42
-0.037568
  0
VERTEX
  8
0
 10
135.119371
 20
447.069959
 42
-0.037806
  0
VERTEX
  8
0
 10
132.393433
 20
444.739529
 42
-0.045261
  0
VERTEX
  8
0
 10
129.500000
 20
443.000000
 42
0.025204
  0
VERTEX
  8
0
 10
127.622888
 20
441.971513
 42
0.022689
  0
VERTEX
  8
0
 10
125.789469
 20
440.725250
 42
0.023338
  0
VERTEX
  8
0
 10
124.248501
 20
439.455910
 42
0.063848
  0
VERTEX
  8
0
 10
123.333150
 20
438.385698
 42
-0.056224
  0
VERTEX
  8
0
 10
122.419656
 20
437.284211
 42
-0.077732
  0
VERTEX
  8
0
 10
121.369621
 20
436.548846
 42
-0.072299
  0
VERTEX
  8
0
 10
120.085985
 20
436.135617
 42
-0.041798
  0
VERTEX
  8
0
 10
118.466550
 20
436.000000
 42
0.045586
  0
VERTEX
  8
0
 10
116.691124
 20
435.837794
 42
0.094832
  0
VERTEX
  8
0
 10
115.400726
 20
435.335341
 42
0.084125
  0
VERTEX
  8
0
 10
114.292204
 20
434.346754
 42
0.030284
  0
VERTEX
  8
0
 10
113.070255
 20
432.613675
 42
-0.028742
  0
VERTEX
  8
0
 10
112.138489
 20
431.283478
 42
-0.029797
  0
VERTEX
  8
0
 10
111.070712
 20
430.085719
 42
-0.031213
  0
VERTEX
  8
0
 10
110.026410
 20
429.168453
 42
-0.100977
  0
VERTEX
  8
0
 10
109.202214
 20
428.763131
 42
-0.069061
  0
VERTEX
  8
0
 10
108.002326
 20
428.621035
 42
-0.004498
  0
VERTEX
  8
0
 10
104.492547
 20
428.722927
 42
-0.006475
  0
VERTEX
  8
0
 10
100.297874
 20
428.936902
 42
-0.004782
  0
VERTEX
  8
0
 10
95.662107
 20
429.278147
 42
0.005038
  0
VERTEX
  8
0
 10
88.838806
 20
429.776899
 42
0.028529
  0
VERTEX
  8
0
 10
85.194038
 20
429.798212
 42
0.050223
  0
VERTEX
  8
0
 10
82.574291
 20
429.398107
 42
0.042955
  0
VERTEX
  8
0
 10
79.939057
 20
428.472519
 42
-0.020282
  0
VERTEX
  8
0
 10
77.805279
 20
427.612642
 42
-0.060584
  0
VERTEX
  8
0
 10
76.272393
 20
427.267448
 42
-0.078553
  0
VERTEX
  8
0
 10
74.936304
 20
427.342758
 42
-0.053660
  0
VERTEX
  8
0
 10
73.490469
 20
427.822389
 42
-0.083902
  0
VERTEX
  8
0
 10
72.085568
 20
428.773130
 42
-0.135264
  0
VERTEX
  8
0
 10
71.348056
 20
430.004741
 42
-0.058096
  0
VERTEX
  8
0
 10
71.015412
 20
432.139287
 42
-0.006025
  0
VERTEX
  8
0
 10
70.880594
 20
437.228561
 42
-0.002993
  0
VERTEX
  8
0
 10
70.850284
 20
440.816070
 42
-0.002256
  0
VERTEX
  8
0
 10
70.858368
 20
444.759327
 42
-0.002280
  0
VERTEX
  8
0
 10
70.899596
 20
448.465908
 42
-0.005267
  0
VERTEX
  8
0
 10
70.972605
 20
451.250000
 42
0.014415
  0
VERTEX
  8
0
 10
70.991387
 20
453.620358
 42
0.031168
  0
VERTEX
  8
0
 10
70.839893
 20
455.436556
 42
0.037936
  0
VERTEX
  8
0
 10
70.559554
 20
456.682173
 42
0.329612
  0
VERTEX
  8
0
 10
70.129810
 20
457.000000
 42
0.156787
  0
VERTEX
  8
0
 10
69.475513
 20
456.789659
 42
0.007258
  0
VERTEX
  8
0
 10
67.574610
 20
455.384375
 42
0.011445
  0
VERTEX
  8
0
 10
65.349850
 20
453.607251
 42
0.007910
  0
VERTEX
  8
0
 10
62.911637
 20
451.500000
 42
-0.015705
  0
VERTEX
  8
0
 10
60.395940
 20
449.393379
 42
-0.019777
  0
VERTEX
  8
0
 10
57.934461
 20
447.613072
 42
-0.018260
  0
VERTEX
  8
0
 10
55.796047
 20
446.301687
 42
-0.128068
  0
VERTEX
  8
0
 10
54.623837
 20
445.991308
 42
0.016386
  0
VERTEX
  8
0
 10
53.478064
 20
445.949053
 42
0.004101
  0
VERTEX
  8
0
 10
51.611949
 20
445.803515
 42
0.004185
  0
VERTEX
  8
0
 10
49.479313
 20
445.601585
 42
0.004200
  0
VERTEX
  8
0
 10
47.353013
 20
445.364217
 42
0.000000
  0
VERTEX
  8
0
 10
42.206025
 20
444.745819
 42
0.000000
  0
VERTEX
  8
0
 10
40.225361
 20
449.223440
 42
0.058371
  0
VERTEX
  8
0
 10
38.498783
 20
452.149530
 42
0.114106
  0
VERTEX
  8
0
 10
36.428546
 20
453.871708
 42
0.089947
  0
VERTEX
  8
0
 10
33.469786
 20
454.745745
 42
0.026963
  0
VERTEX
  8
0
 10
28.758369
 20
455.000000
 42
-0.022258
  0
VERTEX
  8
0
 10
27.114424
 20
455.073219
 42
-0.161061
  0
VERTEX
  8
0
 10
26.397609
 20
455.383404
 42
-0.229813
  0
VERTEX
  8
0
 10
26.145777
 20
455.993897
 42
-0.048848
  0
VERTEX
  8
0
 10
26.332028
 20
457.161673
 42
0.109188
  0
VERTEX
  8
0
 10
26.412788
 20
459.271245
 42
0.077645
  0
VERTEX
  8
0
 10
25.633935
 20
461.514129
 42
0.043308
  0
VERTEX
  8
0
 10
23.742290
 20
464.428229
 42
0.009866
  0
VERTEX
  8
0
 10
20.029675
 20
469.000000
 42
-0.010931
  0
VERTEX
  8
0
 10
18.164007
 20
471.307440
 42
-0.010961
  0
VERTEX
  8
0
 10
16.402701
 20
473.692187
 42
-0.010839
  0
VERTEX
  8
0
 10
14.958373
 20
475.837487
 42
-0.042281
  0
VERTEX
  8
0
 10
14.211550
 20
477.250000
 42
0.029356
  0
VERTEX
  8
0
 10
13.689210
 20
478.302844
 42
0.038346
  0
VERTEX
  8
0
 10
13.086127
 20
479.192187
 42
0.042424
  0
VERTEX
  8
0
 10
12.492110
 20
479.820508
 42
0.184206
  0
VERTEX
  8
0
 10
12.021439
 20
480.000000
 42
-0.187113
  0
VERTEX
  8
0
 10
11.631453
 20
480.151238
 42
-0.089486
  0
VERTEX
  8
0
 10
11.300048
 20
480.585011
 42
-0.069312
  0
VERTEX
  8
0
 10
11.075352
 20
481.229413
 42
-0.049316
  0
VERTEX
  8
0
 10
11.000000
 20
481.991526
 42
0.085407
  0
VERTEX
  8
0
 10
10.853032
 20
482.845653
 42
0.053089
  0
VERTEX
  8
0
 10
10.412500
 20
483.764941
 42
0.051408
  0
VERTEX
  8
0
 10
9.765059
 20
484.606640
 42
0.063621
  0
VERTEX
  8
0
 10
9.000000
 20
485.232073
 42
-0.040739
  0
VERTEX
  8
0
 10
7.522440
 20
486.331446
 42
-0.225475
  0
VERTEX
  8
0
 10
7.141523
 20
487.217168
 42
-0.156154
  0
VERTEX
  8
0
 10
7.527623
 20
488.284201
 42
-0.017670
  0
VERTEX
  8
0
 10
9.189071
 20
490.287730
 42
0.000000
  0
VERTEX
  8
0
 10
11.378142
 20
492.745362
 42
0.000000
  0
VERTEX
  8
0
 10
19.939071
 20
489.816978
 42
0.013585
  0
VERTEX
  8
0
 10
24.099035
 20
488.519115
 42
0.006009
  0
VERTEX
  8
0
 10
29.657102
 20
487.021288
 42
0.005942
  0
VERTEX
  8
0
 10
35.587932
 20
485.574105
 42
0.007963
  0
SEQEND
  0
POLYLINE
  8
0
 66
1
 70
1
  0
VERTEX
  8
0
 10
214.000000
 20
484.000000
 42
0.011955
  0
VERTEX
  8
0
 10
215.126123
 20
482.850831
 42
0.016633
  0
VERTEX
  8
0
 10
216.191507
 20
481.881250
 42
0.013090
  0
VERTEX
  8
0
 10
217.109222
 20
481.140776
 42
0.164648
  0
VERTEX
  8
0
 10
217.525138
 20
481.000000
 42
-0.185733
  0
VERTEX
  8
0
 10
217.959515
 20
480.832879
 42
-0.007707
  0
VERTEX
  8
0
 10
219.199119
 20
479.678125
 42
-0.012467
  0
VERTEX
  8
0
 10
220.638713
 20
478.224280
 42
-0.008438
  0
VERTEX
  8
0
 10
222.208915
 20
476.500000
 42
0.032737
  0
VERTEX
  8
0
 10
224.923009
 20
473.795877
 42
0.081630
  0
VERTEX
  8
0
 10
227.295604
 20
472.324175
 42
0.144934
  0
VERTEX
  8
0
 10
229.177958
 20
472.126859
 42
0.211523
  0
VERTEX
  8
0
 10
230.534220
 20
473.055368
 42
-0.108521
  0
VERTEX
  8
0
 10
230.903149
 20
473.436014
 42
-0.066656
  0
VERTEX
  8
0
 10
231.467324
 20
473.709737
 42
-0.062021
  0
VERTEX
  8
0
 10
232.131220
 20
473.840668
 42
-0.065365
  0
VERTEX
  8
0
 10
232.794816
 20
473.800998
 42
-0.208712
  0
VERTEX
  8
0
 10
233.609225
 20
473.241713
 42
-0.087244
  0
VERTEX
  8
0
 10
234.117905
 20
471.980838
 42
-0.039988
  0
VERTEX
  8
0
 10
234.414395
 20
469.703822
 42
-0.007485
  0
VERTEX
  8
0
 10
234.559967
 20
465.495630
 42
0.004471
  0
VERTEX
  8
0
 10
234.671748
 20
461.581708
 42
0.001830
  0
VERTEX
  8
0
 10
234.890515
 20
456.269114
 42
0.001811
  0
VERTEX
  8
0
 10
235.167024
 20
450.565074
 42
0.002317
  0
VERTEX
  8
0
 10
235.465038
 20
445.314121
 42
0.000000
  0
VERTEX
  8
0
 10
236.213301
 20
433.128242
 42
0.000000
  0
VERTEX
  8
0
 10
245.856650
 20
432.658463
 42
-0.007760
  0
VERTEX
  8
0
 10
254.218407
 20
432.120926
 42
-0.031026
  0
VERTEX
  8
0
 10
259.296506
 20
431.396254
 42
-0.053118
  0
VERTEX
  8
0
 10
262.449295
 20
430.386619
 42
-0.167374
  0
VERTEX
  8
0
 10
264.054656
 20
428.897874
 42
-0.071367
  0
VERTEX
  8
0
 10
264.429681
 20
427.866981
 42
-0.090857
  0
VERTEX
  8
0
 10
264.455128
 20
426.857124
 42
-0.073867
  0
VERTEX
  8
0
 10
264.108624
 20
425.750661
 42
-0.032282
  0
VERTEX
  8
0
 10
263.348589
 20
424.409261
 42
0.032630
  0
VERTEX
  8
0
 10
262.481438
 20
422.876333
 42
0.094327
  0
VERTEX
  8
0
 10
262.167484
 20
421.703093
 42
0.088788
  0
VERTEX
  8
0
 10
262.297366
 20
420.455565
 42
0.026820
  0
VERTEX
  8
0
 10
262.925186
 20
418.649071
 42
-0.005379
  0
VERTEX
  8
0
 10
265.633606
 20
411.815481
 42
-0.052365
  0
VERTEX
  8
0
 10
266.438264
 20
408.814311
 42
-0.101088
  0
VERTEX
  8
0
 10
266.335758
 20
406.495269
 42
-0.043414
  0
VERTEX
  8
0
 10
265.319893
 20
403.552887
 42
-0.020391
  0
VERTEX
  8
0
 10
264.496655
 20
401.891244
 42
-0.018625
  0
VERTEX
  8
0
 10
263.517221
 20
400.249911
 42
-0.019004
  0
VERTEX
  8
0
 10
262.532132
 20
398.850206
 42
-0.055878
  0
VERTEX
  8
0
 10
261.719340
 20
398.000000
 42
0.063525
  0
VERTEX
  8
0
 10
260.937812
 20
397.157151
 42
0.023760
  0
VERTEX
  8
0
 10
260.061418
 20
395.799664
 42
0.023085
  0
VERTEX
  8
0
 10
259.236143
 20
394.212918
 42
0.025911
  0
VERTEX
  8
0
 10
258.595245
 20
392.615878
 42
-0.040951
  0
VERTEX
  8
0
 10
257.894689
 20
391.011394
 42
-0.032568
  0
VERTEX
  8
0
 10
256.892613
 20
389.408234
 42
-0.033568
  0
VERTEX
  8
0
 10
255.758458
 20
388.036490
 42
-0.066959
  0
VERTEX
  8
0
 10
254.664543
 20
387.153515
 42
-0.036822
  0
VERTEX
  8
0
 10
253.128392
 20
386.369785
 42
-0.088467
  0
VERTEX
  8
0
 10
251.886529
 20
386.089888
 42
-0.076041
  0
VERTEX
  8
0
 10
250.511600
 20
386.236991
 42
-0.022154
  0
VERTEX
  8
0
 10
248.473412
 20
386.873454
 42
0.038976
  0
VERTEX
  8
0
 10
246.623719
 20
387.383507
 42
0.029604
  0
VERTEX
  8
0
 10
244.537783
 20
387.660376
 42
0.027802
  0
VERTEX
  8
0
 10
242.290913
 20
387.698978
 42
0.024571
  0
VERTEX
  8
0
 10
239.957930
 20
387.494214
 42
-0.020828
  0
VERTEX
  8
0
 10
237.282085
 20
387.239167
 42
-0.054451
  0
VERTEX
  8
0
 10
235.356239
 20
387.346002
 42
-0.062698
  0
VERTEX
  8
0
 10
233.661189
 20
387.850798
 42
-0.035633
  0
VERTEX
  8
0
 10
231.766251
 20
388.851601
 42
-0.024281
  0
VERTEX
  8
0
 10
230.423466
 20
389.781526
 42
-0.020233
  0
VERTEX
  8
0
 10
229.089784
 20
390.892868
 42
-0.020708
  0
VERTEX
  8
0
 10
227.951075
 20
392.011676
 42
-0.050971
  0
VERTEX
  8
0
 10
227.241526
 20
392.943204
 42
0.072922
  0
VERTEX
  8
0
 10
226.513442
 20
393.817005
 42
0.068537
  0
VERTEX
  8
0
 10
225.550640
 20
394.466782
 42
0.063814
  0
VERTEX
  8
0
 10
224.383978
 20
394.865549
 42
0.050517
  0
VERTEX
  8
0
 10
223.056626
 20
395.000000
 42
-0.050003
  0
VERTEX
  8
0
 10
220.017193
 20
395.304723
 42
-0.054186
  0
VERTEX
  8
0
 10
217.183995
 20
396.206375
 42
-0.050485
  0
VERTEX
  8
0
 10
214.449864
 20
397.761903
 42
-0.035079
  0
VERTEX
  8
0
 10
211.703218
 20
400.020847
 42
0.027105
  0
VERTEX
  8
0
 10
210.199335
 20
401.298399
 42
0.048115
  0
VERTEX
  8
0
 10
208.817611
 20
402.152882
 42
0.061241
  0
VERTEX
  8
0
 10
207.585724
 20
402.582235
 42
0.114903
  0
VERTEX
  8
0
 10
206.536876
 20
402.565698
 42
-0.087427
  0
VERTEX
  8
0
 10
205.646378
 20
402.503120
 42
-0.050608
  0
VERTEX
  8
0
 10
204.592695
 20
402.722622
 42
-0.048568
  0
VERTEX
  8
0
 10
203.546865
 20
403.169201
 42
-0.058354
  0
VERTEX
  8
0
 10
202.675112
 20
403.787887
 42
0.083360
  0
VERTEX
  8
0
 10
201.387342
 20
404.608682
 42
0.058543
  0
VERTEX
  8
0
 10
199.734061
 20
405.091552
 42
0.038372
  0
VERTEX
  8
0
 10
197.414097
 20
405.302095
 42
0.011942
  0
VERTEX
  8
0
 10
193.913134
 20
405.266792
 42
-0.010553
  0
VERTEX
  8
0
 10
189.988405
 20
405.216317
 42
-0.054272
  0
VERTEX
  8
0
 10
187.830875
 20
405.469216
 42
-0.087620
  0
VERTEX
  8
0
 10
186.289138
 20
406.120901
 42
-0.055500
  0
VERTEX
  8
0
 10
184.774898
 20
407.359491
 42
0.020127
  0
VERTEX
  8
0
 10
183.655084
 20
408.415825
 42
0.009668
  0
VERTEX
  8
0
 10
182.140126
 20
409.683209
 42
0.009568
  0
VERTEX
  8
0
 10
180.506321
 20
410.946456
 42
0.013498
  0
VERTEX
  8
0
 10
179.000000
 20
412.003853
 42
-0.027937
  0
VERTEX
  8
0
 10
176.003805
 20
414.238913
 42
-0.042912
  0
VERTEX
  8
0
 10
173.710001
 20
416.519670
 42
-0.038183
  0
VERTEX
  8
0
 10
171.662524
 20
419.350666
 42
-0.017171
  0
VERTEX
  8
0
 10
169.399598
 20
423.344675
 42
-0.015632
  0
VERTEX
  8
0
 10
168.102307
 20
426.031070
 42
-0.057051
  0
VERTEX
  8
0
 10
167.535522
 20
427.833629
 42
-0.079500
  0
VERTEX
  8
0
 10
167.485790
 20
429.387207
 42
-0.052238
  0
VERTEX
  8
0
 10
167.896415
 20
431.132700
 42
0.036012
  0
VERTEX
  8
0
 10
168.299009
 20
432.625431
 42
0.053328
  0
VERTEX
  8
0
 10
168.413831
 20
433.974811
 42
0.056037
  0
VERTEX
  8
0
 10
168.240094
 20
435.267252
 42
0.045518
  0
VERTEX
  8
0
 10
167.778212
 20
436.587427
 42
-0.045325
  0
VERTEX
  8
0
 10
167.294526
 20
437.968224
 42
-0.063438
  0
VERTEX
  8
0
 10
167.138657
 20
439.264797
 42
-0.056685
  0
VERTEX
  8
0
 10
167.307939
 20
440.665011
 42
-0.028361
  0
VERTEX
  8
0
 10
167.819110
 20
442.376304
 42
0.093910
  0
VERTEX
  8
0
 10
168.559510
 20
446.972893
 42
0.063797
  0
VERTEX
  8
0
 10
167.739161
 20
452.223365
 42
0.086909
  0
VERTEX
  8
0
 10
165.922339
 20
455.929488
 42
0.392239
  0
VERTEX
  8
0
 10
163.763318
 20
456.353723
 42
-0.086558
  0
VERTEX
  8
0
 10
163.160939
 20
456.112504
 42
-0.004991
  0
VERTEX
  8
0
 10
161.202897
 20
455.719218
 42
-0.007477
  0
VERTEX
  8
0
 10
158.848655
 20
455.307133
 42
-0.005418
  0
VERTEX
  8
0
 10
156.215573
 20
454.915930
 42
0.002671
  0
VERTEX
  8
0
 10
153.435040
 20
454.518426
 42
0.002600
  0
VERTEX
  8
0
 10
150.633787
 20
454.087784
 42
0.002563
  0
VERTEX
  8
0
 10
148.176004
 20
453.683927
 42
0.009684
  0
VERTEX
  8
0
 10
146.644127
 20
453.393515
 42
0.000000
  0
VERTEX
  8
0
 10
143.788253
 20
452.794582
 42
0.000000
  0
VERTEX
  8
0
 10
146.082185
 20
455.897291
 42
-0.079211
  0
VERTEX
  8
0
 10
148.114083
 20
457.891614
 42
-0.106409
  0
VERTEX
  8
0
 10
150.477143
 20
458.907326
 42
-0.097687
  0
VERTEX
  8
0
 10
153.204249
 20
458.905085
 42
-0.058052
  0
VERTEX
  8
0
 10
156.307790
 20
457.905623
 42
0.061448
  0
VERTEX
  8
0
 10
157.721731
 20
457.460814
 42
0.084339
  0
VERTEX
  8
0
 10
159.052362
 20
457.442496
 42
0.060927
  0
VERTEX
  8
0
 10
160.614681
 20
457.885354
 42
0.018458
  0
VERTEX
  8
0
 10
162.853172
 20
458.925094
 42
-0.026191
  0
VERTEX
  8
0
 10
164.732546
 20
459.762959
 42
-0.034634
  0
VERTEX
  8
0
 10
166.523754
 20
460.312658
 42
-0.039426
  0
VERTEX
  8
0
 10
168.114402
 20
460.552593
 42
-0.079367
  0
VERTEX
  8
0
 10
169.375070
 20
460.441999
 42
0.069479
  0
VERTEX
  8
0
 10
170.654293
 20
460.304378
 42
0.114401
  0
VERTEX
  8
0
 10
171.700933
 20
460.582107
 42
0.087738
  0
VERTEX
  8
0
 10
172.701686
 20
461.362356
 42
0.028702
  0
VERTEX
  8
0
 10
173.876741
 20
462.826899
 42
0.014505
  0
VERTEX
  8
0
 10
174.689688
 20
464.041668
 42
0.017655
  0
VERTEX
  8
0
 10
175.376293
 20
465.225824
 42
0.016369
  0
VERTEX
  8
0
 10
175.879834
 20
466.248802
 42
0.106570
  0
VERTEX
  8
0
 10
176.000000
 20
466.806184
 42
-0.311430
  0
VERTEX
  8
0
 10
176.293582
 20
467.231813
 42
-0.021696
  0
VERTEX
  8
0
 10
177.748385
 20
467.713549
 42
-0.024691
  0
VERTEX
  8
0
 10
179.670621
 20
468.157578
 42
-0.015526
  0
VERTEX
  8
0
 10
181.951948
 20
468.494423
 42
0.016556
  0
VERTEX
  8
0
 10
185.286661
 20
468.993829
 42
0.063305
  0
VERTEX
  8
0
 10
187.284869
 20
469.629960
 42
0.081593
  0
VERTEX
  8
0
 10
188.792593
 20
470.655868
 42
0.039744
  0
VERTEX
  8
0
 10
190.351265
 20
472.393885
 42
0.032201
  0
VERTEX
  8
0
 10
191.368915
 20
473.922943
 42
0.045657
  0
VERTEX
  8
0
 10
192.052089
 20
475.406334
 42
0.052604
  0
VERTEX
  8
0
 10
192.385535
 20
476.797623
 42
0.077524
  0
VERTEX
  8
0
 10
192.354664
 20
478.051276
 42
-0.077051
  0
VERTEX
  8
0
 10
192.320620
 20
479.382842
 42
-0.111127
  0
VERTEX
  8
0
 10
192.722704
 20
480.485785
 42
-0.078694
  0
VERTEX
  8
0
 10
193.684320
 20
481.564666
 42
-0.023669
  0
VERTEX
  8
0
 10
195.455347
 20
482.878902
 42
0.015772
  0
VERTEX
  8
0
 10
196.813094
 20
483.853598
 42
0.021977
  0
VERTEX
  8
0
 10
197.958758
 20
484.814887
 42
0.019284
  0
VERTEX
  8
0
 10
198.816923
 20
485.664895
 42
0.190146
  0
VERTEX
  8
0
 10
199.000000
 20
486.128902
 42
-0.353019
  0
VERTEX
  8
0
 10
199.276920
 20
486.472241
 42
-0.017872
  0
VERTEX
  8
0
 10
200.791520
 20
486.744115
 42
-0.022056
  0
VERTEX
  8
0
 10
202.760646
 20
486.937248
 42
-0.013417
  0
VERTEX
  8
0
 10
205.098790
 20
487.000000
 42
-0.014196
  0
VERTEX
  8
0
 10
208.660876
 20
486.898843
 42
-0.067174
  0
VERTEX
  8
0
 10
210.661534
 20
486.512149
 42
-0.088592
  0
VERTEX
  8
0
 10
212.214071
 20
485.660363
 42
-0.035243
  0
SEQEND
  0
POLYLINE
  8
0
 66
1
 70
1
  0
VERTEX
  8
0
 10
658.792116
 20
464.007727
 42
-0.013512
  0
VERTEX
  8
0
 10
662.048988
 20
462.250270
 42
-0.050016
  0
VERTEX
  8
0
 10
663.944727
 20
460.891714
 42
-0.079323
  0
VERTEX
  8
0
 10
665.049772
 20
459.554800
 42
-0.083951
  0
VERTEX
  8
0
 10
665.656893
 20
457.965536
 42
0.043557
  0
VERTEX
  8
0
 10
666.013952
 20
456.744337
 42
0.030507
  0
VERTEX
  8
0
 10
666.615119
 20
455.442159
 42
0.030911
  0
VERTEX
  8
0
 10
667.350768
 20
454.256455
 42
0.054585
  0
VERTEX
  8
0
 10
668.114777
 20
453.396128
 42
-0.052894
  0
VERTEX
  8
0
 10
668.836568
 20
452.588842
 42
-0.040685
  0
VERTEX
  8
0
 10
669.447314
 20
451.575783
 42
-0.041772
  0
VERTEX
  8
0
 10
669.865608
 20
450.521505
 42
-0.073238
  0
VERTEX
  8
0
 10
670.003738
 20
449.595012
 42
0.065030
  0
VERTEX
  8
0
 10
670.139790
 20
448.567634
 42
0.023496
  0
VERTEX
  8
0
 10
670.587842
 20
447.161742
 42
0.022836
  0
VERTEX
  8
0
 10
671.228984
 20
445.650222
 42
0.025180
  0
VERTEX
  8
0
 10
671.986929
 20
444.253470
 42
-0.031461
  0
VERTEX
  8
0
 10
673.032956
 20
442.266749
 42
-0.081374
  0
VERTEX
  8
0
 10
673.447013
 20
440.706107
 42
-0.065656
  0
VERTEX
  8
0
 10
673.385401
 20
438.904035
 42
-0.015390
  0
VERTEX
  8
0
 10
672.795831
 20
435.935835
 42
-0.013137
  0
VERTEX
  8
0
 10
672.106760
 20
433.271983
 42
-0.074356
  0
VERTEX
  8
0
 10
671.499938
 20
431.941251
 42
-0.167816
  0
VERTEX
  8
0
 10
670.773636
 20
431.375250
 42
-0.147360
  0
VERTEX
  8
0
 10
669.808988
 20
431.339700
 42
0.098537
  0
VERTEX
  8
0
 10
668.951495
 20
431.390641
 42
0.046395
  0
VERTEX
  8
0
 10
667.866367
 20
431.136764
 42
0.043515
  0
VERTEX
  8
0
 10
666.740178
 20
430.647920
 42
0.046999
  0
VERTEX
  8
0
 10
665.746348
 20
429.981874
 42
0.000000
  0
VERTEX
  8
0
 10
663.500000
 20
428.149076
 42
0.000000
  0
VERTEX
  8
0
 10
665.702865
 20
423.824538
 42
-0.010209
  0
VERTEX
  8
0
 10
666.610445
 20
421.949113
 42
-0.008108
  0
VERTEX
  8
0
 10
667.515805
 20
419.889083
 42
-0.008210
  0
VERTEX
  8
0
 10
668.293013
 20
417.951326
 42
-0.020274
  0
VERTEX
  8
0
 10
668.781193
 20
416.500000
 42
0.043635
  0
VERTEX
  8
0
 10
669.321367
 20
415.112044
 42
0.081869
  0
VERTEX
  8
0
 10
670.020740
 20
414.135994
 42
0.093412
  0
VERTEX
  8
0
 10
670.926189
 20
413.517337
 42
0.072692
  0
VERTEX
  8
0
 10
672.078328
 20
413.200965
 42
-0.014846
  0
VERTEX
  8
0
 10
675.202697
 20
412.720606
 42
-0.175860
  0
VERTEX
  8
0
 10
676.243684
 20
412.110111
 42
-0.264297
  0
VERTEX
  8
0
 10
676.420429
 20
411.113118
 42
-0.033995
  0
VERTEX
  8
0
 10
675.523561
 20
409.045561
 42
-0.027661
  0
VERTEX
  8
0
 10
672.374577
 20
403.702482
 42
-0.015402
  0
VERTEX
  8
0
 10
667.990755
 20
397.544554
 42
-0.007882
  0
VERTEX
  8
0
 10
663.475506
 20
391.789151
 42
-0.226194
  0
VERTEX
  8
0
 10
661.820341
 20
391.000000
 42
-0.105617
  0
VERTEX
  8
0
 10
661.257565
 20
391.120219
 42
-0.016733
  0
VERTEX
  8
0
 10
660.236955
 20
391.618742
 42
-0.017920
  0
VERTEX
  8
0
 10
659.057350
 20
392.299897
 42
-0.014819
  0
VERTEX
  8
0
 10
657.850635
 20
393.106357
 42
0.014309
  0
VERTEX
  8
0
 10
655.981685
 20
394.358154
 42
0.123449
  0
VERTEX
  8
0
 10
655.035162
 20
394.667507
 42
0.169796
  0
VERTEX
  8
0
 10
654.194430
 20
394.438306
 42
0.033269
  0
VERTEX
  8
0
 10
652.946264
 20
393.451370
 42
0.049595
  0
VERTEX
  8
0
 10
652.201459
 20
392.629295
 42
0.040094
  0
VERTEX
  8
0
 10
651.571715
 20
391.617818
 42
0.041547
  0
VERTEX
  8
0
 10
651.140366
 20
390.579332
 42
0.077815
  0
VERTEX
  8
0
 10
651.000000
 20
389.682870
 42
-0.076762
  0
VERTEX
  8
0
 10
650.837159
 20
388.628429
 42
-0.018974
  0
VERTEX
  8
0
 10
650.244546
 20
386.976232
 42
-0.018965
  0
VERTEX
  8
0
 10
649.412656
 20
385.114685
 42
-0.017979
  0
VERTEX
  8
0
 10
648.428241
 20
383.287340
 42
0.029204
  0
VERTEX
  8
0
 10
647.101808
 20
380.687029
 42
0.049853
  0
VERTEX
  8
0
 10
646.350209
 20
378.370112
 42
0.041266
  0
VERTEX
  8
0
 10
645.991924
 20
375.662830
 42
0.014101
  0
VERTEX
  8
0
 10
645.909118
 20
371.699483
 42
-0.007007
  0
VERTEX
  8
0
 10
645.810372
 20
356.966796
 42
-0.008541
  0
VERTEX
  8
0
 10
645.289255
 20
343.186063
 42
-0.006268
  0
VERTEX
  8
0
 10
644.502659
 20
331.535767
 42
-0.079121
  0
VERTEX
  8
0
 10
643.468474
 20
327.270305
 42
0.028415
  0
VERTEX
  8
0
 10
641.637873
 20
322.078177
 42
0.012999
  0
VERTEX
  8
0
 10
639.816776
 20
315.124968
 42
0.012337
  0
VERTEX
  8
0
 10
638.397348
 20
308.314764
 42
0.045234
  0
VERTEX
  8
0
 10
638.000000
 20
303.931608
 42
-0.036959
  0
VERTEX
  8
0
 10
637.819757
 20
301.496546
 42
-0.079202
  0
VERTEX
  8
0
 10
637.254010
 20
299.704793
 42
-0.063772
  0
VERTEX
  8
0
 10
636.073802
 20
297.947021
 42
-0.017473
  0
VERTEX
  8
0
 10
633.785584
 20
295.508454
 42
0.000000
  0
VERTEX
  8
0
 10
629.571169
 20
291.320467
 42
0.000000
  0
VERTEX
  8
0
 10
626.255231
 20
293.276918
 42
-0.025819
  0
VERTEX
  8
0
 10
624.686447
 20
294.315244
 42
-0.080191
  0
VERTEX
  8
0
 10
623.802021
 20
295.219237
 42
-0.122038
  0
VERTEX
  8
0
 10
623.450039
 20
296.122590
 42
-0.109434
  0
VERTEX
  8
0
 10
623.539884
 20
297.125664
 42
0.130528
  0
VERTEX
  8
0
 10
623.592223
 20
298.221089
 42
0.060972
  0
VERTEX
  8
0
 10
623.123445
 20
299.573611
 42
0.043801
  0
VERTEX
  8
0
 10
622.136792
 20
301.208532
 42
0.019357
  0
VERTEX
  8
0
 10
620.570238
 20
303.188978
 42
-0.020400
  0
VERTEX
  8
0
 10
619.203540
 20
304.924185
 42
-0.023435
  0
VERTEX
  8
0
 10
618.048757
 20
306.688697
 42
-0.023420
  0
VERTEX
  8
0
 10
617.220488
 20
308.257360
 42
-0.110186
  0
VERTEX
  8
0
 10
617.000000
 20
309.245740
 42
-0.072691
  0
VERTEX
  8
0
 10
617.311473
 20
311.376869
 42
-0.079942
  0
VERTEX
  8
0
 10
618.218107
 20
313.254712
 42
-0.092326
  0
VERTEX
  8
0
 10
619.530347
 20
314.545928
 42
-0.149395
  0
VERTEX
  8
0
 10
621.016132
 20
315.000000
 42
0.099588
  0
VERTEX
  8
0
 10
621.905266
 20
315.178868
 42
0.104877
  0
VERTEX
  8
0
 10
622.637497
 20
315.686326
 42
0.085657
  0
VERTEX
  8
0
 10
623.204675
 20
316.542882
 42
0.045850
  0
VERTEX
  8
0
 10
623.607842
 20
317.750000
 42
-0.052259
  0
VERTEX
  8
0
 10
624.049015
 20
319.016769
 42
-0.023586
  0
VERTEX
  8
0
 10
624.872768
 20
320.573438
 42
-0.023045
  0
VERTEX
  8
0
 10
625.905475
 20
322.149816
 42
-0.029125
  0
VERTEX
  8
0
 10
627.006900
 20
323.500000
 42
0.019525
  0
VERTEX
  8
0
 10
630.262160
 20
327.337713
 42
0.136522
  0
VERTEX
  8
0
 10
631.193989
 20
329.585096
 42
0.202261
  0
VERTEX
  8
0
 10
630.639897
 20
331.530677
 42
0.051254
  0
VERTEX
  8
0
 10
628.281149
 20
333.919784
 42
0.056890
  0
VERTEX
  8
0
 10
624.108592
 20
336.628040
 42
0.031519
  0
VERTEX
  8
0
 10
618.507069
 20
338.990007
 42
0.027743
  0
VERTEX
  8
0
 10
613.093106
 20
340.550058
 42
0.176965
  0
VERTEX
  8
0
 10
610.303397
 20
340.198889
 42
-0.074538
  0
VERTEX
  8
0
 10
608.717066
 20
339.661332
 42
-0.122753
  0
VERTEX
  8
0
 10
607.311577
 20
339.754741
 42
-0.161473
  0
VERTEX
  8
0
 10
606.362687
 20
340.447795
 42
-0.156198
  0
VERTEX
  8
0
 10
606.000000
 20
341.580453
 42
0.171194
  0
VERTEX
  8
0
 10
605.186506
 20
343.886761
 42
0.031791
  0
VERTEX
  8
0
 10
602.102383
 20
347.252506
 42
0.033986
  0
VERTEX
  8
0
 10
598.521505
 20
350.253530
 42
0.110074
  0
VERTEX
  8
0
 10
595.694385
 20
351.483349
 42
-0.038867
  0
VERTEX
  8
0
 10
590.914268
 20
352.799836
 42
-0.023416
  0
VERTEX
  8
0
 10
585.480530
 20
355.054161
 42
-0.020640
  0
VERTEX
  8
0
 10
580.649289
 20
357.577721
 42
-0.117568
  0
VERTEX
  8
0
 10
578.557220
 20
359.553016
 42
0.052907
  0
VERTEX
  8
0
 10
576.690360
 20
361.834615
 42
0.118626
  0
VERTEX
  8
0
 10
574.786048
 20
362.984354
 42
0.113959
  0
VERTEX
  8
0
 10
572.515633
 20
363.166576
 42
0.046664
  0
VERTEX
  8
0
 10
569.493585
 20
362.426669
 42
-0.036326
  0
VERTEX
  8
0
 10
566.021013
 20
361.500084
 42
-0.131807
  0
VERTEX
  8
0
 10
563.761975
 20
361.667484
 42
-0.206064
  0
VERTEX
  8
0
 10
562.468948
 20
362.854097
 42
-0.105855
  0
VERTEX
  8
0
 10
562.000000
 20
365.044335
 42
0.217823
  0
VERTEX
  8
0
 10
560.219462
 20
368.937528
 42
0.161049
  0
VERTEX
  8
0
 10
555.787276
 20
370.777812
 42
0.102876
  0
VERTEX
  8
0
 10
549.340460
 20
369.929476
 42
0.062611
  0
VERTEX
  8
0
 10
542.432236
 20
366.498804
 42
-0.007772
  0
VERTEX
  8
0
 10
540.343270
 20
365.158530
 42
-0.010786
  0
VERTEX
  8
0
 10
538.428033
 20
364.027774
 42
-0.007530
  0
VERTEX
  8
0
 10
536.804339
 20
363.147687
 42
-0.120996
  0
VERTEX
  8
0
 10
536.202977
 20
363.000000
 42
0.111682
  0
VERTEX
  8
0
 10
535.749069
 20
362.897332
 42
0.038244
  0
VERTEX
  8
0
 10
535.160641
 20
362.559375
 42
0.035756
  0
VERTEX
  8
0
 10
534.547079
 20
362.074005
 42
0.034344
  0
VERTEX
  8
0
 10
534.000000
 20
361.500000
 42
-0.063676
  0
VERTEX
  8
0
 10
533.384758
 20
360.925817
 42
-0.044302
  0
VERTEX
  8
0
 10
532.566390
 20
360.440625
 42
-0.044521
  0
VERTEX
  8
0
 10
531.681633
 20
360.109986
 42
-0.067264
  0
VERTEX
  8
0
 10
530.867768
 20
360.000000
 42
0.084268
  0
VERTEX
  8
0
 10
530.021004
 20
359.856270
 42
0.042738
  0
VERTEX
  8
0
 10
529.031799
 20
359.412500
 42
0.040855
  0
VERTEX
  8
0
 10
528.062624
 20
358.765285
 42
0.048099
  0
VERTEX
  8
0
 10
527.267972
 20
358.000000
 42
-0.048262
  0
VERTEX
  8
0
 10
526.472801
 20
357.234713
 42
-0.040900
  0
VERTEX
  8
0
 10
525.502074
 20
356.587500
 42
-0.042767
  0
VERTEX
  8
0
 10
524.510617
 20
356.143778
 42
-0.084029
  0
VERTEX
  8
0
 10
523.661128
 20
356.000000
 42
-0.054498
  0
VERTEX
  8
0
 10
522.726909
 20
356.102129
 42
-0.228418
  0
VERTEX
  8
0
 10
522.295042
 20
356.442109
 42
-0.170909
  0
VERTEX
  8
0
 10
522.221422
 20
357.072764
 42
-0.029264
  0
VERTEX
  8
0
 10
522.561020
 20
358.250000
 42
0.062930
  0
VERTEX
  8
0
 10
523.337724
 20
361.829690
 42
0.047358
  0
VERTEX
  8
0
 10
523.310805
 20
365.861700
 42
0.049204
  0
VERTEX
  8
0
 10
522.573604
 20
369.505001
 42
0.122462
  0
VERTEX
  8
0
 10
521.181530
 20
371.818470
 42
-0.070543
  0
VERTEX
  8
0
 10
519.349079
 20
374.256425
 42
-0.088137
  0
VERTEX
  8
0
 10
518.438757
 20
376.932648
 42
-0.076674
  0
VERTEX
  8
0
 10
518.441854
 20
380.046535
 42
-0.040540
  0
VERTEX
  8
0
 10
519.343691
 20
383.811920
 42
0.056850
  0
VERTEX
  8
0
 10
520.349427
 20
388.709541
 42
0.024497
  0
VERTEX
  8
0
 10
520.616203
 20
395.379649
 42
0.019258
  0
VERTEX
  8
0
 10
520.312591
 20
401.763876
 42
0.176645
  0
VERTEX
  8
0
 10
519.159652
 20
404.240348
 42
-0.134703
  0
VERTEX
  8
0
 10
518.281712
 20
405.782255
 42
-0.072221
  0
VERTEX
  8
0
 10
518.049088
 20
407.976517
 42
-0.069982
  0
VERTEX
  8
0
 10
518.455197
 20
410.229909
 42
-0.104761
  0
VERTEX
  8
0
 10
519.457283
 20
411.952798
 42
0.086279
  0
VERTEX
  8
0
 10
520.038547
 20
412.872896
 42
0.027755
  0
VERTEX
  8
0
 10
520.572475
 20
414.402669
 42
0.026749
  0
VERTEX
  8
0
 10
520.987924
 20
416.202743
 42
0.026988
  0
VERTEX
  8
0
 10
521.207283
 20
418.031539
 42
0.015292
  0
VERTEX
  8
0
 10
521.303573
 20
420.794840
 42
0.126498
  0
VERTEX
  8
0
 10
520.998449
 20
422.002845
 42
0.166309
  0
VERTEX
  8
0
 10
520.179622
 20
422.753704
 42
0.031564
  0
VERTEX
  8
0
 10
518.250000
 20
423.456797
 42
-0.075605
  0
VERTEX
  8
0
 10
516.050044
 20
424.485066
 42
-0.203040
  0
VERTEX
  8
0
 10
515.119345
 20
425.899412
 42
-0.165559
  0
VERTEX
  8
0
 10
515.396667
 20
427.775366
 42
-0.047939
  0
VERTEX
  8
0
 10
517.000000
 20
430.272871
 42
0.027202
  0
VERTEX
  8
0
 10
517.765453
 20
431.363122
 42
0.026768
  0
VERTEX
  8
0
 10
518.412500
 20
432.535763
 42
0.027781
  0
VERTEX
  8
0
 10
518.865640
 20
433.622220
 42
0.085104
  0
VERTEX
  8
0
 10
519.000000
 20
434.405893
 42
-0.228249
  0
VERTEX
  8
0
 10
519.791630
 20
436.049687
 42
-0.020145
  0
VERTEX
  8
0
 10
523.613009
 20
438.852888
 42
-0.024279
  0
VERTEX
  8
0
 10
527.688000
 20
441.318114
 42
-0.121761
  0
VERTEX
  8
0
 10
530.250000
 20
441.981000
 42
-0.080020
  0
VERTEX
  8
0
 10
530.918446
 20
441.880766
 42
-0.092182
  0
VERTEX
  8
0
 10
531.485937
 20
441.576332
 42
-0.101969
  0
VERTEX
  8
0
 10
531.865205
 20
441.118045
 42
-0.122633
  0
VERTEX
  8
0
 10
532.000000
 20
440.576725
 42
0.153919
  0
VERTEX
  8
0
 10
532.698126
 20
438.362619
 42
0.050043
  0
VERTEX
  8
0
 10
534.962853
 20
435.732488
 42
0.049760
  0
VERTEX
  8
0
 10
537.850938
 20
433.488860
 42
0.094173
  0
VERTEX
  8
0
 10
540.585706
 20
432.417944
 42
0.043519
  0
VERTEX
  8
0
 10
542.523582
 20
432.226517
 42
0.069276
  0
VERTEX
  8
0
 10
544.173255
 20
432.436910
 42
0.057943
  0
VERTEX
  8
0
 10
545.899584
 20
433.128305
 42
0.021981
  0
VERTEX
  8
0
 10
548.128651
 20
434.466439
 42
-0.023642
  0
VERTEX
  8
0
 10
550.055196
 20
435.614282
 42
-0.041727
  0
VERTEX
  8
0
 10
551.754685
 20
436.346167
 42
-0.051950
  0
VERTEX
  8
0
 10
553.232156
 20
436.675680
 42
-0.090630
  0
VERTEX
  8
0
 10
554.480505
 20
436.594249
 42
0.093027
  0
VERTEX
  8
0
 10
555.746068
 20
436.517736
 42
0.065293
  0
VERTEX
  8
0
 10
557.130584
 20
436.879439
 42
0.048851
  0
VERTEX
  8
0
 10
558.720838
 20
437.714558
 42
0.022210
  0
VERTEX
  8
0
 10
560.627279
 20
439.091771
 42
0.038928
  0
VERTEX
  8
0
 10
563.961879
 20
442.184797
 42
0.075413
  0
VERTEX
  8
0
 10
565.993976
 20
445.189755
 42
0.075008
  0
VERTEX
  8
0
 10
567.049934
 20
448.673213
 42
0.038149
  0
VERTEX
  8
0
 10
567.363167
 20
453.250000
 42
-0.015291
  0
VERTEX
  8
0
 10
567.416545
 20
455.606109
 42
-0.030943
  0
VERTEX
  8
0
 10
567.629551
 20
457.448605
 42
-0.035952
  0
VERTEX
  8
0
 10
567.957701
 20
458.740012
 42
-0.298828
  0
VERTEX
  8
0
 10
568.408788
 20
459.096892
 42
-0.033173
  0
VERTEX
  8
0
 10
571.490103
 20
459.165428
 42
-0.025702
  0
VERTEX
  8
0
 10
574.832045
 20
458.845380
 42
-0.025656
  0
VERTEX
  8
0
 10
577.835456
 20
458.242285
 42
-0.080685
  0
VERTEX
  8
0
 10
579.714817
 20
457.424360
 42
0.085413
  0
VERTEX
  8
0
 10
582.247741
 20
456.350171
 42
0.069688
  0
VERTEX
  8
0
 10
585.184117
 20
456.080635
 42
0.065359
  0
VERTEX
  8
0
 10
588.258691
 20
456.634236
 42
0.059495
  0
VERTEX
  8
0
 10
591.193257
 20
457.971332
 42
-0.034772
  0
VERTEX
  8
0
 10
592.747315
 20
458.774209
 42
-0.018660
  0
VERTEX
  8
0
 10
594.760875
 20
459.555270
 42
-0.018496
  0
VERTEX
  8
0
 10
596.883645
 20
460.201994
 42
-0.027479
  0
VERTEX
  8
0
 10
598.786313
 20
460.595206
 42
0.029976
  0
VERTEX
  8
0
 10
600.650120
 20
460.990095
 42
0.040179
  0
VERTEX
  8
0
 10
602.272726
 20
461.580617
 42
0.046353
  0
VERTEX
  8
0
 10
603.539527
 20
462.309287
 42
0.099810
  0
VERTEX
  8
0
 10
604.309433
 20
463.123874
 42
-0.041626
  0
VERTEX
  8
0
 10
604.845493
 20
463.841682
 42
-0.043571
  0
VERTEX
  8
0
 10
605.485562
 20
464.448888
 42
-0.047665
  0
VERTEX
  8
0
 10
606.129649
 20
464.867851
 42
-0.120947
  0
VERTEX
  8
0
 10
606.667967
 20
465.000000
 42
0.137568
  0
VERTEX
  8
0
 10
607.256736
 20
465.165117
 42
0.032331
  0
VERTEX
  8
0
 10
608.102541
 20
465.758130
 42
0.030920
  0
VERTEX
  8
0
 10
609.020613
 20
466.592948
 42
0.026136
  0
VERTEX
  8
0
 10
609.884950
 20
467.580867
 42
-0.106821
  0
VERTEX
  8
0
 10
612.008762
 20
469.338892
 42
-0.217564
  0
VERTEX
  8
0
 10
614.126355
 20
469.445199
 42
-0.150280
  0
VERTEX
  8
0
 10
616.174879
 20
467.800061
 42
-0.047759
  0
VERTEX
  8
0
 10
618.074568
 20
464.326040
 42
-0.013036
  0
VERTEX
  8
0
 10
618.811626
 20
462.474709
 42
-0.013903
  0
VERTEX
  8
0
 10
619.434404
 20
460.626492
 42
-0.013580
  0
VERTEX
  8
0
 10
619.881317
 20
459.011990
 42
-0.060797
  0
VERTEX
  8
0
 10
620.000000
 20
458.039539
 42
0.201052
  0
VERTEX
  8
0
 10
621.145737
 20
455.305353
 42
0.209401
  0
VERTEX
  8
0
 10
623.872490
 20
454.265481
 42
0.144311
  0
VERTEX
  8
0
 10
627.358386
 20
455.479563
 42
0.104367
  0
VERTEX
  8
0
 10
630.151558
 20
458.532300
 42
-0.028058
  0
VERTEX
  8
0
 10
631.038734
 20
459.859771
 42
-0.034822
  0
VERTEX
  8
0
 10
632.012301
 20
460.981363
 42
-0.037360
  0
VERTEX
  8
0
 10
632.933929
 20
461.776145
 42
-0.160596
  0
VERTEX
  8
0
 10
633.612904
 20
462.000000
 42
0.132157
  0
VERTEX
  8
0
 10
634.442585
 20
462.223195
 42
0.012586
  0
VERTEX
  8
0
 10
636.247194
 20
463.331480
 42
0.015374
  0
VERTEX
  8
0
 10
638.358544
 20
464.796697
 42
0.011529
  0
VERTEX
  8
0
 10
640.593186
 20
466.532699
 42
0.000000
  0
VERTEX
  8
0
 10
646.158117
 20
471.065397
 42
0.000000
  0
VERTEX
  8
0
 10
649.329059
 20
469.126006
 42
0.009981
  0
VERTEX
  8
0
 10
650.969887
 20
468.166922
 42
0.003296
  0
VERTEX
  8
0
 10
653.416845
 20
466.822512
 42
0.003281
  0
VERTEX
  8
0
 10
656.150607
 20
465.367009
 42
0.003717
  0
SEQEND
  0
POLYLINE
  8
0
 66
1
 70
1
  0
VERTEX
  8
0
 10
680.046991
 20
461.000000
 42
-0.140873
  0
VERTEX
  8
0
 10
680.562982
 20
460.851678
 42
-0.012755
  0
VERTEX
  8
0
 10
681.692454
 20
460.103067
 42
-0.015755
  0
VERTEX
  8
0
 10
683.011616
 20
459.116095
 42
-0.011673
  0
VERTEX
  8
0
 10
684.408025
 20
457.946611
 42
0.034590
  0
VERTEX
  8
0
 10
686.529964
 20
456.328876
 42
0.061223
  0
VERTEX
  8
0
 10
688.499374
 20
455.353293
 42
0.048947
  0
VERTEX
  8
0
 10
690.933661
 20
454.758031
 42
0.015076
  0
VERTEX
  8
0
 10
694.692821
 20
454.335768
 42
0.011141
  0
VERTEX
  8
0
 10
698.922248
 20
454.084119
 42
0.068333
  0
VERTEX
  8
0
 10
701.091171
 20
454.300216
 42
0.086541
  0
VERTEX
  8
0
 10
702.892384
 20
455.079681
 42
0.023450
  0
VERTEX
  8
0
 10
705.415938
 20
456.911753
 42
-0.018144
  0
VERTEX
  8
0
 10
707.091421
 20
458.155490
 42
-0.017053
  0
VERTEX
  8
0
 10
708.887001
 20
459.301796
 42
-0.017307
  0
VERTEX
  8
0
 10
710.547637
 20
460.207859
 42
-0.054793
  0
VERTEX
  8
0
 10
711.733349
 20
460.647923
 42
-0.081040
  0
VERTEX
  8
0
 10
714.131273
 20
460.850255
 42
-0.042653
  0
VERTEX
  8
0
 10
717.089487
 20
460.364353
 42
-0.040620
  0
VERTEX
  8
0
 10
719.705962
 20
459.470336
 42
-0.212777
  0
VERTEX
  8
0
 10
720.708402
 20
458.374795
 42
-0.258296
  0
VERTEX
  8
0
 10
720.572070
 20
457.641398
 42
-0.004066
  0
VERTEX
  8
0
 10
717.743530
 20
454.265929
 42
-0.009592
  0
VERTEX
  8
0
 10
714.281557
 20
450.356603
 42
-0.006066
  0
VERTEX
  8
0
 10
710.102533
 20
445.925232
 42
0.000000
  0
VERTEX
  8
0
 10
699.131568
 20
434.570958
 42
0.000000
  0
VERTEX
  8
0
 10
696.832792
 20
436.535479
 42
-0.011739
  0
VERTEX
  8
0
 10
695.651819
 20
437.593700
 42
-0.003415
  0
VERTEX
  8
0
 10
693.882411
 20
439.278607
 42
-0.003430
  0
VERTEX
  8
0
 10
691.914981
 20
441.204113
 42
-0.003662
  0
VERTEX
  8
0
 10
690.017008
 20
443.115097
 42
0.025843
  0
VERTEX
  8
0
 10
687.812631
 20
445.146012
 42
0.024424
  0
VERTEX
  8
0
 10
685.369959
 20
446.979736
 42
0.025318
  0
VERTEX
  8
0
 10
682.870888
 20
448.493041
 42
0.035865
  0
VERTEX
  8
0
 10
680.500000
 20
449.557975
 42
-0.036366
  0
VERTEX
  8
0
 10
675.247819
 20
451.923430
 42
-0.049998
  0
VERTEX
  8
0
 10
670.964496
 20
454.827349
 42
-0.145362
  0
VERTEX
  8
0
 10
669.582115
 20
456.908133
 42
-0.504353
  0
VERTEX
  8
0
 10
670.389216
 20
458.000000
 42
0.093394
  0
VERTEX
  8
0
 10
671.081359
 20
458.130422
 42
0.027829
  0
VERTEX
  8
0
 10
672.063830
 20
458.578795
 42
0.026852
  0
VERTEX
  8
0
 10
673.133370
 20
459.216246
 42
0.026089
  0
VERTEX
  8
0
 10
674.139216
 20
459.970367
 42
-0.036384
  0
VERTEX
  8
0
 10
675.140890
 20
460.689659
 42
-0.041066
  0
VERTEX
  8
0
 10
676.197732
 20
461.223768
 42
-0.045220
  0
VERTEX
  8
0
 10
677.157069
 20
461.515780
 42
-0.137000
  0
VERTEX
  8
0
 10
677.831787
 20
461.470367
 42
0.017904
  0
VERTEX
  8
0
 10
678.406431
 20
461.290273
 42
0.014669
  0
VERTEX
  8
0
 10
679.031866
 20
461.138170
 42
0.014922
  0
VERTEX
  8
0
 10
679.615622
 20
461.032315
 42
0.037403
  0
SEQEND
  0
POLYLINE
  8
0
 66
1
 70
1
  0
VERTEX
  8
0
 10
681.500000
 20
445.725306
 42
-0.057201
  0
VERTEX
  8
0
 10
684.911290
 20
443.482858
 42
-0.011757
  0
VERTEX
  8
0
 10
690.338409
 20
438.729412
 42
-0.004865
  0
VERTEX
  8
0
 10
695.865807
 20
433.553555
 42
-0.441187
  0
VERTEX
  8
0
 10
695.843308
 20
432.553818
 42
-0.047209
  0
VERTEX
  8
0
 10
695.591556
 20
432.372967
 42
-0.002409
  0
VERTEX
  8
0
 10
694.719597
 20
431.869329
 42
-0.003827
  0
VERTEX
  8
0
 10
693.674207
 20
431.282784
 42
-0.002764
  0
VERTEX
  8
0
 10
692.500000
 20
430.644168
 42
0.033342
  0
VERTEX
  8
0
 10
689.171604
 20
428.560876
 42
0.039195
  0
VERTEX
  8
0
 10
686.337050
 20
426.152612
 42
0.038021
  0
VERTEX
  8
0
 10
683.845763
 20
423.266892
 42
0.028438
  0
VERTEX
  8
0
 10
681.545083
 20
419.750000
 42
-0.017486
  0
VERTEX
  8
0
 10
680.003158
 20
417.276413
 42
-0.067010
  0
VERTEX
  8
0
 10
678.800749
 20
415.922510
 42
-0.101878
  0
VERTEX
  8
0
 10
677.567639
 20
415.236452
 42
-0.076312
  0
VERTEX
  8
0
 10
676.027423
 20
415.000000
 42
-0.071515
  0
VERTEX
  8
0
 10
673.902649
 20
415.305469
 42
-0.130271
  0
VERTEX
  8
0
 10
672.413228
 20
416.207728
 42
-0.104039
  0
VERTEX
  8
0
 10
671.357263
 20
417.893053
 42
-0.035480
  0
VERTEX
  8
0
 10
670.551194
 20
420.680902
 42
0.031410
  0
VERTEX
  8
0
 10
670.185294
 20
421.986075
 42
0.028631
  0
VERTEX
  8
0
 10
669.649376
 20
423.277430
 42
0.029791
  0
VERTEX
  8
0
 10
669.034809
 20
424.375654
 42
0.077234
  0
VERTEX
  8
0
 10
668.435721
 20
425.053347
 42
-0.058317
  0
VERTEX
  8
0
 10
667.236354
 20
426.311277
 42
-0.254794
  0
VERTEX
  8
0
 10
667.091828
 20
427.293471
 42
-0.291153
  0
VERTEX
  8
0
 10
667.824143
 20
427.851662
 42
-0.068488
  0
VERTEX
  8
0
 10
669.435354
 20
427.767607
 42
0.083300
  0
VERTEX
  8
0
 10
671.790181
 20
427.714220
 42
0.185752
  0
VERTEX
  8
0
 10
673.328808
 20
428.576615
 42
0.104152
  0
VERTEX
  8
0
 10
674.437488
 20
430.680148
 42
0.017568
  0
VERTEX
  8
0
 10
675.534831
 20
435.118693
 42
0.009883
  0
VERTEX
  8
0
 10
676.265167
 20
438.968643
 42
0.057363
  0
VERTEX
  8
0
 10
676.374721
 20
441.029667
 42
0.083454
  0
VERTEX
  8
0
 10
675.985999
 20
442.704801
 42
0.033909
  0
VERTEX
  8
0
 10
674.938274
 20
444.807160
 42
-0.006252
  0
VERTEX
  8
0
 10
674.195727
 20
446.111234
 42
-0.008822
  0
VERTEX
  8
0
 10
673.569368
 20
447.292721
 42
-0.005641
  0
VERTEX
  8
0
 10
673.075248
 20
448.293696
 42
-0.112284
  0
VERTEX
  8
0
 10
673.000000
 20
448.624548
 42
-0.489246
  0
VERTEX
  8
0
 10
673.418614
 20
448.949960
 42
-0.019872
  0
VERTEX
  8
0
 10
675.534167
 20
448.321016
 42
-0.021934
  0
VERTEX
  8
0
 10
678.287493
 20
447.244941
 42
-0.012706
  0
SEQEND
  0
POLYLINE
  8
0
 66
1
 70
1
  0
VERTEX
  8
0
 10
444.562841
 20
400.424741
 42
0.000000
  0
VERTEX
  8
0
 10
444.500000
 20
395.849482
 42
0.000000
  0
VERTEX
  8
0
 10
450.419874
 20
393.424741
 42
0.018121
  0
VERTEX
  8
0
 10
455.969366
 20
391.383207
 42
0.120178
  0
VERTEX
  8
0
 10
458.890135
 20
391.157666
 42
0.179807
  0
VERTEX
  8
0
 10
460.993411
 20
392.356211
 42
0.052369
  0
VERTEX
  8
0
 10
463.109579
 20
395.500486
 42
-0.019155
  0
VERTEX
  8
0
 10
464.097055
 20
397.201188
 42
-0.029498
  0
VERTEX
  8
0
 10
465.089932
 20
398.582177
 42
-0.029210
  0
VERTEX
  8
0
 10
465.975627
 20
399.550775
 42
-0.279316
  0
VERTEX
  8
0
 10
466.498541
 20
399.671518
 42
-0.168759
  0
VERTEX
  8
0
 10
467.659934
 20
398.784599
 42
-0.042425
  0
VERTEX
  8
0
 10
468.817290
 20
396.663243
 42
-0.042475
  0
VERTEX
  8
0
 10
469.686939
 20
394.122159
 42
-0.059942
  0
VERTEX
  8
0
 10
469.985258
 20
391.750000
 42
0.116994
  0
VERTEX
  8
0
 10
470.401858
 20
390.034927
 42
0.183130
  0
VERTEX
  8
0
 10
471.512824
 20
389.025939
 42
0.179743
  0
VERTEX
  8
0
 10
473.030813
 20
388.996491
 42
0.112751
  0
VERTEX
  8
0
 10
474.551971
 20
389.951971
 42
-0.160721
  0
VERTEX
  8
0
 10
476.471571
 20
390.919060
 42
-0.052119
  0
VERTEX
  8
0
 10
479.688664
 20
391.060123
 42
-0.048769
  0
VERTEX
  8
0
 10
483.315433
 20
390.483081
 42
-0.055246
  0
VERTEX
  8
0
 10
486.604106
 20
389.224054
 42
0.016352
  0
VERTEX
  8
0
 10
488.662929
 20
388.246477
 42
0.057246
  0
VERTEX
  8
0
 10
490.065757
 20
387.818310
 42
0.098816
  0
VERTEX
  8
0
 10
491.079007
 20
387.833636
 42
0.144310
  0
VERTEX
  8
0
 10
491.857880
 20
388.257880
 42
-0.112616
  0
VERTEX
  8
0
 10
493.522097
 20
389.303838
 42
-0.014843
  0
VERTEX
  8
0
 10
497.521728
 20
390.572430
 42
-0.018199
  0
VERTEX
  8
0
 10
501.727009
 20
391.606268
 42
-0.046490
  0
VERTEX
  8
0
 10
504.842271
 20
391.955867
 42
0.063707
  0
VERTEX
  8
0
 10
505.921649
 20
392.114675
 42
0.030759
  0
VERTEX
  8
0
 10
507.243385
 20
392.574536
 42
0.029896
  0
VERTEX
  8
0
 10
508.581773
 20
393.231141
 42
0.037680
  0
VERTEX
  8
0
 10
509.727129
 20
394.000000
 42
-0.045309
  0
VERTEX
  8
0
 10
510.906452
 20
394.765865
 42
-0.031998
  0
VERTEX
  8
0
 10
512.348903
 20
395.412500
 42
-0.032451
  0
VERTEX
  8
0
 10
513.820483
 20
395.855769
 42
-0.056986
  0
VERTEX
  8
0
 10
515.081875
 20
396.000000
 42
-0.040034
  0
VERTEX
  8
0
 10
516.733043
 20
395.867581
 42
-0.214662
  0
VERTEX
  8
0
 10
517.468386
 20
395.382695
 42
-0.135781
  0
VERTEX
  8
0
 10
517.779266
 20
394.359695
 42
-0.013237
  0
VERTEX
  8
0
 10
517.775716
 20
391.750000
 42
-0.015000
  0
VERTEX
  8
0
 10
517.677267
 20
390.049533
 42
-0.017853
  0
VERTEX
  8
0
 10
517.479244
 20
388.454688
 42
-0.016841
  0
VERTEX
  8
0
 10
517.221468
 20
387.135079
 42
-0.100482
  0
VERTEX
  8
0
 10
516.932599
 20
386.500000
 42
0.112449
  0
VERTEX
  8
0
 10
516.122659
 20
384.601382
 42
0.026508
  0
VERTEX
  8
0
 10
515.685520
 20
381.157580
 42
0.028252
  0
VERTEX
  8
0
 10
515.624622
 20
377.525959
 42
0.059966
  0
VERTEX
  8
0
 10
516.070586
 20
374.753882
 42
0.038186
  0
VERTEX
  8
0
 10
516.557808
 20
373.442121
 42
0.025674
  0
VERTEX
  8
0
 10
517.300984
 20
372.026055
 42
0.025901
  0
VERTEX
  8
0
 10
518.167355
 20
370.722058
 42
0.045670
  0
VERTEX
  8
0
 10
519.028483
 20
369.758837
 42
-0.055844
  0
VERTEX
  8
0
 10
519.985456
 20
368.643663
 42
-0.072616
  0
VERTEX
  8
0
 10
520.573426
 20
367.434657
 42
-0.064262
  0
VERTEX
  8
0
 10
520.834535
 20
365.994209
 42
-0.033589
  0
VERTEX
  8
0
 10
520.804989
 20
364.168132
 42
-0.073480
  0
VERTEX
  8
0
 10
520.184756
 20
361.519505
 42
-0.218410
  0
VERTEX
  8
0
 10
518.870649
 20
360.260448
 42
-0.194159
  0
VERTEX
  8
0
 10
516.929429
 20
360.356824
 42
-0.058407
  0
VERTEX
  8
0
 10
514.359392
 20
361.931942
 42
0.079038
  0
VERTEX
  8
0
 10
512.390189
 20
363.030250
 42
0.160754
  0
VERTEX
  8
0
 10
510.638732
 20
363.086736
 42
0.199813
  0
VERTEX
  8
0
 10
509.447238
 20
362.121306
 42
0.124486
  0
VERTEX
  8
0
 10
509.000000
 20
360.352804
 42
-0.146255
  0
VERTEX
  8
0
 10
508.818656
 20
359.746110
 42
-0.059531
  0
VERTEX
  8
0
 10
508.258097
 20
359.080355
 42
-0.052044
  0
VERTEX
  8
0
 10
507.440627
 20
358.461416
 42
-0.045215
  0
VERTEX
  8
0
 10
506.474374
 20
357.990257
 42
0.138604
  0
VERTEX
  8
0
 10
504.202294
 20
356.302916
 42
0.108230
  0
VERTEX
  8
0
 10
502.884654
 20
353.510934
 42
0.079570
  0
VERTEX
  8
0
 10
502.627829
 20
349.655783
 42
0.040863
  0
VERTEX
  8
0
 10
503.468061
 20
344.874705
 42
-0.043513
  0
VERTEX
  8
0
 10
503.720932
 20
343.389775
 42
-0.170907
  0
VERTEX
  8
0
 10
503.488486
 20
342.504745
 42
-0.136567
  0
VERTEX
  8
0
 10
502.712166
 20
341.845589
 42
-0.024274
  0
VERTEX
  8
0
 10
500.927886
 20
341.124705
 42
-0.002142
  0
VERTEX
  8
0
 10
499.674192
 20
340.693682
 42
-0.003243
  0
VERTEX
  8
0
 10
498.579268
 20
340.330382
 42
-0.001253
  0
VERTEX
  8
0
 10
497.636674
 20
340.027008
 42
-0.077372
  0
VERTEX
  8
0
 10
497.463187
 20
340.000000
 42
-0.406254
  0
VERTEX
  8
0
 10
497.368947
 20
340.091706
 42
-0.002015
  0
VERTEX
  8
0
 10
497.335257
 20
341.542188
 42
-0.007096
  0
VERTEX
  8
0
 10
497.326782
 20
343.236899
 42
-0.004253
  0
VERTEX
  8
0
 10
497.362410
 20
345.250000
 42
0.000000
  0
VERTEX
  8
0
 10
497.500000
 20
350.500000
 42
0.000000
  0
VERTEX
  8
0
 10
489.500000
 20
350.755803
 42
0.009300
  0
VERTEX
  8
0
 10
486.350373
 20
350.797902
 42
0.012596
  0
VERTEX
  8
0
 10
483.505827
 20
350.711334
 42
0.009592
  0
VERTEX
  8
0
 10
481.157485
 20
350.535356
 42
0.121920
  0
VERTEX
  8
0
 10
480.328347
 20
350.245207
 42
0.173248
  0
VERTEX
  8
0
 10
479.853001
 20
349.617893
 42
0.021720
  0
VERTEX
  8
0
 10
479.404415
 20
347.944550
 42
0.023474
  0
VERTEX
  8
0
 10
479.039659
 20
345.839184
 42
0.017462
  0
VERTEX
  8
0
 10
478.828347
 20
343.489404
 42
0.000000
  0
VERTEX
  8
0
 10
478.500000
 20
337.500000
 42
0.000000
  0
VERTEX
  8
0
 10
486.500000
 20
337.000000
 42
-0.006974
  0
VERTEX
  8
0
 10
490.686346
 20
336.679676
 42
-0.041429
  0
VERTEX
  8
0
 10
492.845721
 20
336.302049
 42
-0.109771
  0
VERTEX
  8
0
 10
493.887181
 20
335.766976
 42
-0.285169
  0
VERTEX
  8
0
 10
494.142997
 20
335.000000
 42
0.018380
  0
VERTEX
  8
0
 10
493.448762
 20
331.519837
 42
0.033016
  0
VERTEX
  8
0
 10
493.175129
 20
328.621643
 42
0.038840
  0
VERTEX
  8
0
 10
493.278366
 20
326.538217
 42
0.377444
  0
VERTEX
  8
0
 10
493.889770
 20
326.000000
 42
-0.158646
  0
VERTEX
  8
0
 10
494.410645
 20
325.830463
 42
-0.049066
  0
VERTEX
  8
0
 10
495.034408
 20
325.275168
 42
-0.043517
  0
VERTEX
  8
0
 10
495.651913
 20
324.476838
 42
-0.035982
  0
VERTEX
  8
0
 10
496.167152
 20
323.532487
 42
-0.066479
  0
VERTEX
  8
0
 10
496.623936
 20
322.027963
 42
-0.133763
  0
VERTEX
  8
0
 10
496.496206
 20
320.803593
 42
-0.078458
  0
VERTEX
  8
0
 10
495.684269
 20
319.406616
 42
-0.012908
  0
VERTEX
  8
0
 10
493.645713
 20
317.029607
 42
0.012943
  0
VERTEX
  8
0
 10
491.024052
 20
313.972245
 42
0.110665
  0
VERTEX
  8
0
 10
490.224174
 20
312.367923
 42
0.228168
  0
VERTEX
  8
0
 10
490.484441
 20
311.126002
 42
0.076074
  0
VERTEX
  8
0
 10
491.862250
 20
309.806704
 42
-0.082514
  0
VERTEX
  8
0
 10
492.691265
 20
308.992301
 42
-0.073735
  0
VERTEX
  8
0
 10
493.251453
 20
307.922634
 42
-0.059835
  0
VERTEX
  8
0
 10
493.554258
 20
306.540637
 42
-0.031602
  0
VERTEX
  8
0
 10
493.612250
 20
304.783371
 42
-0.043363
  0
VERTEX
  8
0
 10
493.359462
 20
302.630145
 42
-0.106505
  0
VERTEX
  8
0
 10
492.719285
 20
301.180075
 42
-0.078328
  0
VERTEX
  8
0
 10
491.409496
 20
299.867388
 42
-0.016287
  0
VERTEX
  8
0
 10
488.708891
 20
298.029324
 42
-0.014358
  0
VERTEX
  8
0
 10
485.728049
 20
296.257441
 42
-0.076679
  0
VERTEX
  8
0
 10
483.958235
 20
295.602294
 42
-0.089204
  0
VERTEX
  8
0
 10
482.196897
 20
295.560821
 42
-0.023074
  0
VERTEX
  8
0
 10
479.403316
 20
296.128662
 42
0.048896
  0
VERTEX
  8
0
 10
475.146886
 20
296.767438
 42
0.036359
  0
VERTEX
  8
0
 10
470.392809
 20
296.665510
 42
0.035943
  0
VERTEX
  8
0
 10
465.634531
 20
295.868411
 42
0.043968
  0
VERTEX
  8
0
 10
461.362545
 20
294.425591
 42
-0.030950
  0
VERTEX
  8
0
 10
459.524838
 20
293.751210
 42
-0.016170
  0
VERTEX
  8
0
 10
457.165872
 20
293.129999
 42
-0.016021
  0
VERTEX
  8
0
 10
454.696264
 20
292.647049
 42
-0.023570
  0
VERTEX
  8
0
 10
452.500000
 20
292.395695
 42
0.011578
  0
VERTEX
  8
0
 10
446.458691
 20
291.850656
 42
0.054624
  0
VERTEX
  8
0
 10
443.068800
 20
291.084532
 42
0.090437
  0
VERTEX
  8
0
 10
440.801089
 20
289.810733
 42
0.070026
  0
VERTEX
  8
0
 10
438.889778
 20
287.712445
 42
-0.023197
  0
VERTEX
  8
0
 10
437.793858
 20
286.256869
 42
-0.011674
  0
VERTEX
  8
0
 10
436.285792
 20
284.520318
 42
-0.011567
  0
VERTEX
  8
0
 10
434.640201
 20
282.794386
 42
-0.016815
  0
VERTEX
  8
0
 10
433.104576
 20
281.356722
 42
0.000000
  0
VERTEX
  8
0
 10
429.512302
 20
278.213444
 42
0.000000
  0
VERTEX
  8
0
 10
424.789395
 20
280.606722
 42
0.010176
  0
VERTEX
  8
0
 10
422.885867
 20
281.523114
 42
0.012510
  0
VERTEX
  8
0
 10
421.072227
 20
282.296975
 42
0.010979
  0
VERTEX
  8
0
 10
419.528570
 20
282.871542
 42
0.083787
  0
VERTEX
  8
0
 10
418.767374
 20
283.000000
 42
-0.106964
  0
VERTEX
  8
0
 10
417.953072
 20
283.176218
 42
-0.007577
  0
VERTEX
  8
0
 10
415.839150
 20
284.175000
 42
-0.010417
  0
VERTEX
  8
0
 10
413.339812
 20
285.467858
 42
-0.007659
  0
VERTEX
  8
0
 10
410.623239
 20
287.000000
 42
0.015661
  0
VERTEX
  8
0
 10
407.511398
 20
288.690024
 42
0.023408
  0
VERTEX
  8
0
 10
404.685387
 20
289.950009
 42
0.027037
  0
VERTEX
  8
0
 10
402.253176
 20
290.752057
 42
0.066214
  0
VERTEX
  8
0
 10
400.389109
 20
291.000000
 42
-0.023044
  0
VERTEX
  8
0
 10
398.406570
 20
291.091420
 42
-0.160759
  0
VERTEX
  8
0
 10
397.529502
 20
291.473612
 42
-0.181297
  0
VERTEX
  8
0
 10
397.108582
 20
292.277490
 42
-0.030925
  0
VERTEX
  8
0
 10
397.000000
 20
294.031385
 42
0.042163
  0
VERTEX
  8
0
 10
396.894423
 20
295.281160
 42
0.056447
  0
VERTEX
  8
0
 10
396.578824
 20
296.373225
 42
0.067387
  0
VERTEX
  8
0
 10
396.098439
 20
297.195612
 42
0.136118
  0
VERTEX
  8
0
 10
395.500000
 20
297.638374
 42
-0.138070
  0
VERTEX
  8
0
 10
394.896753
 20
298.088280
 42
-0.066305
  0
VERTEX
  8
0
 10
394.410365
 20
298.931575
 42
-0.055130
  0
VERTEX
  8
0
 10
394.085823
 20
300.057671
 42
-0.040104
  0
VERTEX
  8
0
 10
393.968197
 20
301.356989
 42
0.039368
  0
VERTEX
  8
0
 10
393.848367
 20
302.702648
 42
0.029855
  0
VERTEX
  8
0
 10
393.514453
 20
304.146947
 42
0.030552
  0
VERTEX
  8
0
 10
393.033748
 20
305.472145
 42
0.059694
  0
VERTEX
  8
0
 10
392.468197
 20
306.441130
 42
-0.158151
  0
VERTEX
  8
0
 10
390.980422
 20
310.730645
 42
-0.067316
  0
VERTEX
  8
0
 10
391.681755
 20
316.841036
 42
-0.066712
  0
VERTEX
  8
0
 10
394.006378
 20
322.628627
 42
-0.142291
  0
VERTEX
  8
0
 10
397.426483
 20
325.964638
 42
0.075702
  0
VERTEX
  8
0
 10
399.428856
 20
327.459806
 42
0.048637
  0
VERTEX
  8
0
 10
401.257743
 20
329.716355
 42
0.049416
  0
VERTEX
  8
0
 10
402.571194
 20
332.207844
 42
0.096901
  0
VERTEX
  8
0
 10
403.000000
 20
334.399654
 42
-0.178263
  0
VERTEX
  8
0
 10
403.658046
 20
336.186720
 42
-0.028400
  0
VERTEX
  8
0
 10
406.276734
 20
338.928580
 42
-0.029119
  0
VERTEX
  8
0
 10
409.201815
 20
341.359352
 42
-0.159405
  0
VERTEX
  8
0
 10
411.127555
 20
341.995373
 42
0.142969
  0
VERTEX
  8
0
 10
412.676053
 20
342.452169
 42
0.076277
  0
VERTEX
  8
0
 10
414.185409
 20
343.784358
 42
0.045218
  0
VERTEX
  8
0
 10
415.859414
 20
346.205008
 42
0.012996
  0
VERTEX
  8
0
 10
418.000000
 20
350.231088
 42
-0.031926
  0
VERTEX
  8
0
 10
419.736829
 20
353.219250
 42
-0.065314
  0
VERTEX
  8
0
 10
421.522668
 20
355.252190
 42
-0.054795
  0
VERTEX
  8
0
 10
423.973900
 20
356.965736
 42
-0.016954
  0
VERTEX
  8
0
 10
428.000000
 20
358.994196
 42
0.158409
  0
VERTEX
  8
0
 10
428.662843
 20
359.608004
 42
0.025074
  0
VERTEX
  8
0
 10
429.459717
 20
361.218645
 42
0.025696
  0
VERTEX
  8
0
 10
430.231214
 20
363.281270
 42
0.019945
  0
VERTEX
  8
0
 10
430.862866
 20
365.593609
 42
-0.008713
  0
VERTEX
  8
0
 10
431.486307
 20
368.095653
 42
-0.007281
  0
VERTEX
  8
0
 10
432.232861
 20
370.729651
 42
-0.007361
  0
VERTEX
  8
0
 10
432.986312
 20
373.118984
 42
-0.019872
  0
VERTEX
  8
0
 10
433.612866
 20
374.783927
 42
0.025790
  0
VERTEX
  8
0
 10
434.144191
 20
376.248135
 42
0.018369
  0
VERTEX
  8
0
 10
434.592529
 20
377.934870
 42
0.018612
  0
VERTEX
  8
0
 10
434.901776
 20
379.579700
 42
0.037173
  0
VERTEX
  8
0
 10
435.000000
 20
380.899068
 42
-0.056913
  0
VERTEX
  8
0
 10
435.144991
 20
382.168722
 42
-0.032454
  0
VERTEX
  8
0
 10
435.590529
 20
383.649350
 42
-0.032006
  0
VERTEX
  8
0
 10
436.240495
 20
385.100251
 42
-0.045371
  0
VERTEX
  8
0
 10
437.010312
 20
386.285981
 42
0.036460
  0
VERTEX
  8
0
 10
437.809961
 20
387.470955
 42
0.024742
  0
VERTEX
  8
0
 10
438.549360
 20
388.922009
 42
0.024986
  0
VERTEX
  8
0
 10
439.126715
 20
390.402520
 42
0.044864
  0
VERTEX
  8
0
 10
439.426630
 20
391.670840
 42
-0.033259
  0
VERTEX
  8
0
 10
440.257148
 20
395.586064
 42
-0.019546
  0
VERTEX
  8
0
 10
441.738997
 20
400.139792
 42
-0.010808
  0
VERTEX
  8
0
 10
443.407330
 20
404.374318
 42
-0.302194
  0
VERTEX
  8
0
 10
444.348025
 20
405.000000
 42
-0.396407
  0
VERTEX
  8
0
 10
444.458579
 20
404.896010
 42
-0.003564
  0
VERTEX
  8
0
 10
444.525661
 20
403.656018
 42
-0.009475
  0
VERTEX
  8
0
 10
444.566978
 20
402.179082
 42
-0.005688
  0
SEQEND
  0
POLYLINE
  8
0
 66
1
 70
1
  0
VERTEX
  8
0
 10
558.809026
 20
363.772457
 42
0.030759
  0
VERTEX
  8
0
 10
559.122328
 20
361.615040
 42
0.128370
  0
VERTEX
  8
0
 10
559.701583
 20
360.448981
 42
0.117502
  0
VERTEX
  8
0
 10
560.805750
 20
359.659929
 42
0.023864
  0
VERTEX
  8
0
 10
563.091123
 20
358.854553
 42
0.016787
  0
VERTEX
  8
0
 10
565.100679
 20
358.325287
 42
0.054952
  0
VERTEX
  8
0
 10
566.463722
 20
358.168999
 42
0.087206
  0
VERTEX
  8
0
 10
567.452248
 20
358.338283
 42
0.110907
  0
VERTEX
  8
0
 10
568.232096
 20
358.832096
 42
-0.139632
  0
VERTEX
  8
0
 10
570.095703
 20
359.869460
 42
-0.099257
  0
VERTEX
  8
0
 10
572.498783
 20
359.947813
 42
-0.092578
  0
VERTEX
  8
0
 10
574.891798
 20
359.074560
 42
-0.102027
  0
VERTEX
  8
0
 10
576.714574
 20
357.417272
 42
0.101502
  0
VERTEX
  8
0
 10
579.322415
 20
355.041242
 42
0.022019
  0
VERTEX
  8
0
 10
584.718364
 20
352.145226
 42
0.022735
  0
VERTEX
  8
0
 10
590.386553
 20
349.728126
 42
0.086979
  0
VERTEX
  8
0
 10
594.146408
 20
349.028003
 42
-0.144369
  0
VERTEX
  8
0
 10
596.466968
 20
348.316931
 42
-0.043723
  0
VERTEX
  8
0
 10
599.380487
 20
346.001629
 42
-0.044038
  0
VERTEX
  8
0
 10
601.985740
 20
343.054485
 42
-0.082323
  0
VERTEX
  8
0
 10
603.428328
 20
340.225817
 42
0.118498
  0
VERTEX
  8
0
 10
604.561386
 20
338.349353
 42
0.086495
  0
VERTEX
  8
0
 10
606.552261
 20
336.930723
 42
0.095382
  0
VERTEX
  8
0
 10
608.721756
 20
336.362037
 42
0.192034
  0
VERTEX
  8
0
 10
610.377639
 20
336.898449
 42
-0.242967
  0
VERTEX
  8
0
 10
613.466291
 20
337.576259
 42
-0.030650
  0
VERTEX
  8
0
 10
620.157446
 20
335.344385
 42
-0.030153
  0
VERTEX
  8
0
 10
626.501907
 20
332.330210
 42
-0.273259
  0
VERTEX
  8
0
 10
628.000000
 20
329.793736
 42
-0.147905
  0
VERTEX
  8
0
 10
627.810545
 20
329.167285
 42
-0.012336
  0
VERTEX
  8
0
 10
626.825000
 20
327.763271
 42
-0.015602
  0
VERTEX
  8
0
 10
625.532132
 20
326.124341
 42
-0.011402
  0
VERTEX
  8
0
 10
624.000000
 20
324.384174
 42
0.016122
  0
VERTEX
  8
0
 10
622.468371
 20
322.611112
 42
0.020359
  0
VERTEX
  8
0
 10
621.175000
 20
320.872222
 42
0.018883
  0
VERTEX
  8
0
 10
620.224000
 20
319.358858
 42
0.131571
  0
VERTEX
  8
0
 10
620.000000
 20
318.522343
 42
-0.126306
  0
VERTEX
  8
0
 10
619.850251
 20
317.939002
 42
-0.101881
  0
VERTEX
  8
0
 10
619.429278
 20
317.444873
 42
-0.090314
  0
VERTEX
  8
0
 10
618.796828
 20
317.114027
 42
-0.075601
  0
VERTEX
  8
0
 10
618.047004
 20
317.000000
 42
0.116843
  0
VERTEX
  8
0
 10
617.089046
 20
316.773041
 42
0.108346
  0
VERTEX
  8
0
 10
616.303874
 20
316.136657
 42
0.073562
  0
VERTEX
  8
0
 10
615.644201
 20
315.002923
 42
0.027313
  0
VERTEX
  8
0
 10
615.052581
 20
313.250000
 42
0.023461
  0
VERTEX
  8
0
 10
614.215632
 20
309.575890
 42
0.098857
  0
VERTEX
  8
0
 10
614.260653
 20
307.326457
 42
0.099277
  0
VERTEX
  8
0
 10
615.165940
 20
305.271676
 42
0.023767
  0
VERTEX
  8
0
 10
617.465119
 20
302.311785
 42
-0.019511
  0
VERTEX
  8
0
 10
619.611515
 20
299.596584
 42
-0.123137
  0
VERTEX
  8
0
 10
620.268517
 20
297.974639
 42
-0.534687
  0
VERTEX
  8
0
 10
619.719605
 20
297.484785
 42
-0.076356
  0
VERTEX
  8
0
 10
618.043119
 20
298.205145
 42
0.123298
  0
VERTEX
  8
0
 10
616.268501
 20
298.779262
 42
0.063392
  0
VERTEX
  8
0
 10
613.921422
 20
298.640427
 42
0.061332
  0
VERTEX
  8
0
 10
611.577765
 20
297.894313
 42
0.088902
  0
VERTEX
  8
0
 10
609.799292
 20
296.656434
 42
-0.028862
  0
VERTEX
  8
0
 10
609.126090
 20
296.056768
 42
-0.013415
  0
VERTEX
  8
0
 10
608.189477
 20
295.354812
 42
-0.013239
  0
VERTEX
  8
0
 10
607.163867
 20
294.668330
 42
-0.017997
  0
VERTEX
  8
0
 10
606.201563
 20
294.107873
 42
0.063402
  0
VERTEX
  8
0
 10
604.987471
 20
293.244724
 42
0.144571
  0
VERTEX
  8
0
 10
604.415839
 20
292.288878
 42
0.083650
  0
VERTEX
  8
0
 10
604.292211
 20
290.836409
 42
0.012472
  0
VERTEX
  8
0
 10
604.606538
 20
287.908411
 42
-0.014309
  0
VERTEX
  8
0
 10
604.887263
 20
285.199672
 42
-0.063765
  0
VERTEX
  8
0
 10
604.803226
 20
283.606731
 42
-0.106194
  0
VERTEX
  8
0
 10
604.351036
 20
282.511832
 42
-0.084241
  0
VERTEX
  8
0
 10
603.456719
 20
281.592011
 42
0.039701
  0
VERTEX
  8
0
 10
602.444378
 20
280.720585
 42
0.220943
  0
VERTEX
  8
0
 10
602.207617
 20
280.063428
 42
0.133343
  0
VERTEX
  8
0
 10
602.506462
 20
279.255332
 42
0.011795
  0
VERTEX
  8
0
 10
603.822380
 20
277.498678
 42
-0.052652
  0
VERTEX
  8
0
 10
605.434251
 20
274.935167
 42
-0.135359
  0
VERTEX
  8
0
 10
605.837772
 20
272.802733
 42
-0.115145
  0
VERTEX
  8
0
 10
605.111896
 20
270.547137
 42
-0.032730
  0
VERTEX
  8
0
 10
603.000000
 20
267.500000
 42
0.014584
  0
VERTEX
  8
0
 10
601.851287
 20
265.964657
 42
0.018248
  0
VERTEX
  8
0
 10
600.881250
 20
264.473281
 42
0.016651
  0
VERTEX
  8
0
 10
600.165982
 20
263.185157
 42
0.118953
  0
VERTEX
  8
0
 10
600.000000
 20
262.497354
 42
-0.144989
  0
VERTEX
  8
0
 10
599.437920
 20
260.599748
 42
-0.051498
  0
VERTEX
  8
0
 10
597.642719
 20
258.374538
 42
-0.051494
  0
VERTEX
  8
0
 10
595.433481
 20
256.565433
 42
-0.146855
  0
VERTEX
  8
0
 10
593.549865
 20
256.000000
 42
0.091080
  0
VERTEX
  8
0
 10
591.668962
 20
255.654508
 42
0.132387
  0
VERTEX
  8
0
 10
590.309502
 20
254.670445
 42
0.094777
  0
VERTEX
  8
0
 10
589.337978
 20
252.857770
 42
0.031275
  0
VERTEX
  8
0
 10
588.615080
 20
249.909931
 42
-0.048048
  0
VERTEX
  8
0
 10
588.179279
 20
248.359278
 42
-0.031153
  0
VERTEX
  8
0
 10
587.398265
 20
246.666528
 42
-0.031246
  0
VERTEX
  8
0
 10
586.418694
 20
245.093762
 42
-0.050511
  0
VERTEX
  8
0
 10
585.379457
 20
243.909931
 42
0.068566
  0
VERTEX
  8
0
 10
583.311208
 20
241.375533
 42
0.012848
  0
VERTEX
  8
0
 10
580.317602
 20
236.169457
 42
0.010637
  0
VERTEX
  8
0
 10
577.560721
 20
230.807166
 42
0.109778
  0
VERTEX
  8
0
 10
576.985324
 20
228.403157
 42
-0.256839
  0
VERTEX
  8
0
 10
576.727289
 20
227.951504
 42
-0.014739
  0
VERTEX
  8
0
 10
575.290207
 20
227.129731
 42
-0.019494
  0
VERTEX
  8
0
 10
573.434234
 20
226.230921
 42
-0.012818
  0
VERTEX
  8
0
 10
571.235324
 20
225.336352
 42
-0.019712
  0
VERTEX
  8
0
 10
568.202209
 20
224.326753
 42
-0.033922
  0
VERTEX
  8
0
 10
565.601636
 20
223.761338
 42
-0.036076
  0
VERTEX
  8
0
 10
563.063230
 20
223.572770
 42
-0.026173
  0
VERTEX
  8
0
 10
560.231948
 20
223.715316
 42
0.024100
  0
VERTEX
  8
0
 10
557.654683
 20
223.855780
 42
0.028636
  0
VERTEX
  8
0
 10
555.221419
 20
223.731575
 42
0.029968
  0
VERTEX
  8
0
 10
552.918644
 20
223.340615
 42
0.032064
  0
VERTEX
  8
0
 10
550.731948
 20
222.682839
 42
-0.012107
  0
VERTEX
  8
0
 10
548.655439
 20
221.966728
 42
-0.005105
  0
VERTEX
  8
0
 10
545.833760
 20
221.101085
 42
-0.005047
  0
VERTEX
  8
0
 10
542.798409
 20
220.236911
 42
-0.006559
  0
VERTEX
  8
0
 10
540.000000
 20
219.509969
 42
0.006587
  0
VERTEX
  8
0
 10
537.235100
 20
218.791569
 42
0.005411
  0
VERTEX
  8
0
 10
534.301868
 20
217.953808
 42
0.005469
  0
VERTEX
  8
0
 10
531.623377
 20
217.125361
 42
0.014416
  0
VERTEX
  8
0
 10
529.729764
 20
216.456094
 42
-0.025620
  0
VERTEX
  8
0
 10
528.031036
 20
215.898181
 42
-0.017118
  0
VERTEX
  8
0
 10
526.038556
 20
215.427727
 42
-0.017258
  0
VERTEX
  8
0
 10
524.070457
 20
215.103810
 42
-0.032163
  0
VERTEX
  8
0
 10
522.458325
 20
215.000000
 42
0.032906
  0
VERTEX
  8
0
 10
520.638179
 20
214.880083
 42
0.092457
  0
VERTEX
  8
0
 10
519.429716
 20
214.485015
 42
0.107295
  0
VERTEX
  8
0
 10
518.549443
 20
213.722057
 42
0.053895
  0
VERTEX
  8
0
 10
517.795514
 20
212.450547
 42
-0.048758
  0
VERTEX
  8
0
 10
517.032737
 20
211.133539
 42
-0.125521
  0
VERTEX
  8
0
 10
516.196900
 20
210.431441
 42
-0.105289
  0
VERTEX
  8
0
 10
515.031412
 20
210.147319
 42
-0.028617
  0
VERTEX
  8
0
 10
513.124799
 20
210.200547
 42
-0.032072
  0
VERTEX
  8
0
 10
511.185161
 20
210.492211
 42
-0.119720
  0
VERTEX
  8
0
 10
510.083237
 20
211.026786
 42
-0.123075
  0
VERTEX
  8
0
 10
509.366002
 20
211.998415
 42
-0.034777
  0
VERTEX
  8
0
 10
508.767067
 20
213.797033
 42
0.034255
  0
VERTEX
  8
0
 10
508.334676
 20
215.100048
 42
0.037598
  0
VERTEX
  8
0
 10
507.739079
 20
216.290050
 42
0.040691
  0
VERTEX
  8
0
 10
507.078770
 20
217.213904
 42
0.126292
  0
VERTEX
  8
0
 10
506.459220
 20
217.654022
 42
-0.256649
  0
VERTEX
  8
0
 10
505.335174
 20
218.983306
 42
-0.052086
  0
VERTEX
  8
0
 10
505.030406
 20
222.168042
 42
-0.044952
  0
VERTEX
  8
0
 10
505.433038
 20
226.241857
 42
-0.034749
  0
VERTEX
  8
0
 10
506.571118
 20
230.557727
 42
0.010845
  0
VERTEX
  8
0
 10
507.455804
 20
233.361859
 42
0.077060
  0
VERTEX
  8
0
 10
507.640202
 20
234.771157
 42
0.127972
  0
VERTEX
  8
0
 10
507.333131
 20
235.846015
 42
0.050726
  0
VERTEX
  8
0
 10
506.416131
 20
237.092674
 42
0.067817
  0
VERTEX
  8
0
 10
505.548471
 20
237.823206
 42
0.042035
  0
VERTEX
  8
0
 10
504.365288
 20
238.439723
 42
0.041474
  0
VERTEX
  8
0
 10
503.069198
 20
238.859815
 42
0.057698
  0
VERTEX
  8
0
 10
501.858432
 20
239.000000
 42
-0.058732
  0
VERTEX
  8
0
 10
500.337824
 20
239.179234
 42
-0.117355
  0
VERTEX
  8
0
 10
499.263575
 20
239.722620
 42
-0.090730
  0
VERTEX
  8
0
 10
498.379888
 20
240.797930
 42
-0.025744
  0
VERTEX
  8
0
 10
497.423773
 20
242.750000
 42
-0.025358
  0
VERTEX
  8
0
 10
496.710346
 20
244.684788
 42
-0.051804
  0
VERTEX
  8
0
 10
496.390734
 20
246.269220
 42
-0.060739
  0
VERTEX
  8
0
 10
496.427993
 20
247.713335
 42
-0.050629
  0
VERTEX
  8
0
 10
496.805481
 20
249.202291
 42
0.035298
  0
VERTEX
  8
0
 10
497.189768
 20
250.544259
 42
0.066179
  0
VERTEX
  8
0
 10
497.275504
 20
251.667735
 42
0.076995
  0
VERTEX
  8
0
 10
497.065065
 20
252.656576
 42
0.067100
  0
VERTEX
  8
0
 10
496.559653
 20
253.587533
 42
-0.063254
  0
VERTEX
  8
0
 10
496.117877
 20
254.386615
 42
-0.041069
  0
VERTEX
  8
0
 10
495.808987
 20
255.397327
 42
-0.040889
  0
VERTEX
  8
0
 10
495.668092
 20
256.452210
 42
-0.059936
  0
VERTEX
  8
0
 10
495.732276
 20
257.385241
 42
0.102658
  0
VERTEX
  8
0
 10
495.714430
 20
258.487473
 42
0.065343
  0
VERTEX
  8
0
 10
495.271388
 20
259.696350
 42
0.051968
  0
VERTEX
  8
0
 10
494.405818
 20
261.001395
 42
0.029430
  0
VERTEX
  8
0
 10
493.113773
 20
262.392999
 42
0.000000
  0
VERTEX
  8
0
 10
490.092044
 20
265.285999
 42
0.000000
  0
VERTEX
  8
0
 10
478.296022
 20
263.686400
 42
0.002179
  0
VERTEX
  8
0
 10
473.579285
 20
263.025844
 42
0.002642
  0
VERTEX
  8
0
 10
469.162629
 20
262.363839
 42
0.002234
  0
VERTEX
  8
0
 10
465.451962
 20
261.770604
 42
0.018214
  0
VERTEX
  8
0
 10
463.768246
 20
261.430311
 42
-0.037217
  0
VERTEX
  8
0
 10
462.268629
 20
261.186079
 42
-0.143643
  0
VERTEX
  8
0
 10
461.353431
 20
261.369969
 42
-0.144294
  0
VERTEX
  8
0
 10
460.684950
 20
262.018478
 42
-0.037676
  0
VERTEX
  8
0
 10
460.042996
 20
263.386911
 42
0.024104
  0
VERTEX
  8
0
 10
459.605929
 20
264.388348
 42
0.033393
  0
VERTEX
  8
0
 10
459.113758
 20
265.235170
 42
0.035245
  0
VERTEX
  8
0
 10
458.635865
 20
265.846244
 42
0.209090
  0
VERTEX
  8
0
 10
458.274751
 20
266.009413
 42
-0.042620
  0
VERTEX
  8
0
 10
457.708713
 20
266.064683
 42
-0.000857
  0
VERTEX
  8
0
 10
454.876729
 20
266.592425
 42
-0.002025
  0
VERTEX
  8
0
 10
451.570111
 20
267.228357
 42
-0.001358
  0
VERTEX
  8
0
 10
447.794966
 20
267.980919
 42
0.006235
  0
VERTEX
  8
0
 10
442.134827
 20
269.051954
 42
0.033742
  0
VERTEX
  8
0
 10
439.026869
 20
269.386044
 42
0.055694
  0
VERTEX
  8
0
 10
436.657309
 20
269.215976
 42
0.039086
  0
VERTEX
  8
0
 10
434.070910
 20
268.525019
 42
-0.017755
  0
VERTEX
  8
0
 10
432.499371
 20
268.032541
 42
-0.027204
  0
VERTEX
  8
0
 10
431.104996
 20
267.729828
 42
-0.025575
  0
VERTEX
  8
0
 10
430.000820
 20
267.609837
 42
-0.275232
  0
VERTEX
  8
0
 10
429.617915
 20
267.809210
 42
-0.216774
  0
VERTEX
  8
0
 10
429.319973
 20
270.149453
 42
-0.061796
  0
VERTEX
  8
0
 10
430.863334
 20
273.570977
 42
-0.048646
  0
VERTEX
  8
0
 10
433.823974
 20
277.511141
 42
-0.030887
  0
VERTEX
  8
0
 10
437.958810
 20
281.500000
 42
0.047147
  0
VERTEX
  8
0
 10
438.534263
 20
282.092392
 42
0.011899
  0
VERTEX
  8
0
 10
439.351430
 20
283.160937
 42
0.012036
  0
VERTEX
  8
0
 10
440.230684
 20
284.432435
 42
0.011886
  0
VERTEX
  8
0
 10
441.051534
 20
285.750000
 42
-0.064995
  0
VERTEX
  8
0
 10
442.641101
 20
287.784661
 42
-0.132764
  0
VERTEX
  8
0
 10
444.392360
 20
288.773013
 42
-0.053260
  0
VERTEX
  8
0
 10
447.346121
 20
289.199514
 42
-0.003959
  0
VERTEX
  8
0
 10
455.500000
 20
289.436557
 42
0.044773
  0
VERTEX
  8
0
 10
456.889952
 20
289.590959
 42
0.022426
  0
VERTEX
  8
0
 10
458.606490
 20
290.020062
 42
0.022068
  0
VERTEX
  8
0
 10
460.355668
 20
290.626900
 42
0.030316
  0
VERTEX
  8
0
 10
461.862518
 20
291.333866
 42
-0.064637
  0
VERTEX
  8
0
 10
465.782820
 20
292.855299
 42
-0.037120
  0
VERTEX
  8
0
 10
470.789693
 20
293.698775
 42
-0.037149
  0
VERTEX
  8
0
 10
475.855364
 20
293.792125
 42
-0.065829
  0
VERTEX
  8
0
 10
479.953026
 20
293.015503
 42
0.034023
  0
VERTEX
  8
0
 10
482.404875
 20
292.387472
 42
0.104639
  0
VERTEX
  8
0
 10
484.108205
 20
292.431401
 42
0.068766
  0
VERTEX
  8
0
 10
486.022479
 20
293.177442
 42
0.009240
  0
VERTEX
  8
0
 10
489.765651
 20
295.357640
 42
0.011592
  0
VERTEX
  8
0
 10
493.481995
 20
297.734854
 42
0.084875
  0
VERTEX
  8
0
 10
495.004851
 20
299.186908
 42
0.107417
  0
VERTEX
  8
0
 10
495.793162
 20
300.924841
 42
0.023489
  0
VERTEX
  8
0
 10
496.335424
 20
304.184319
 42
0.016113
  0
VERTEX
  8
0
 10
496.566415
 20
306.874222
 42
0.049885
  0
VERTEX
  8
0
 10
496.482248
 20
308.692877
 42
0.072511
  0
VERTEX
  8
0
 10
496.075715
 20
310.051703
 42
0.075164
  0
VERTEX
  8
0
 10
495.301402
 20
311.219448
 42
-0.055095
  0
VERTEX
  8
0
 10
494.462980
 20
312.380342
 42
-0.204201
  0
VERTEX
  8
0
 10
494.363734
 20
313.258479
 42
-0.109247
  0
VERTEX
  8
0
 10
494.930135
 20
314.275957
 42
-0.011050
  0
VERTEX
  8
0
 10
496.825129
 20
316.319579
 42
0.029258
  0
VERTEX
  8
0
 10
499.079600
 20
318.935718
 42
0.137993
  0
VERTEX
  8
0
 10
499.804830
 20
320.759254
 42
0.130002
  0
VERTEX
  8
0
 10
499.494913
 20
322.752076
 42
0.024805
  0
VERTEX
  8
0
 10
497.844743
 20
326.062452
 42
-0.018871
  0
VERTEX
  8
0
 10
496.637471
 20
328.414057
 42
-0.086082
  0
VERTEX
  8
0
 10
496.236634
 20
329.892139
 42
-0.091422
  0
VERTEX
  8
0
 10
496.369365
 20
331.375198
 42
-0.022771
  0
VERTEX
  8
0
 10
497.131933
 20
333.698607
 42
-0.035094
  0
VERTEX
  8
0
 10
498.012137
 20
335.603616
 42
-0.069915
  0
VERTEX
  8
0
 10
499.005686
 20
336.930866
 42
-0.074111
  0
VERTEX
  8
0
 10
500.285181
 20
337.884801
 42
-0.043993
  0
VERTEX
  8
0
 10
502.037189
 20
338.635407
 42
0.063188
  0
VERTEX
  8
0
 10
504.250993
 20
339.685880
 42
0.179906
  0
VERTEX
  8
0
 10
505.261407
 20
341.027409
 42
0.063157
  0
VERTEX
  8
0
 10
505.673065
 20
343.524538
 42
0.003282
  0
VERTEX
  8
0
 10
505.923308
 20
351.680449
 42
-0.031898
  0
VERTEX
  8
0
 10
506.065303
 20
353.292015
 42
-0.107930
  0
VERTEX
  8
0
 10
506.441852
 20
354.272476
 42
-0.141338
  0
VERTEX
  8
0
 10
507.125918
 20
354.858395
 42
-0.071323
  0
VERTEX
  8
0
 10
508.224968
 20
355.180449
 42
0.078997
  0
VERTEX
  8
0
 10
509.159731
 20
355.469925
 42
0.050172
  0
VERTEX
  8
0
 10
510.128439
 20
356.074884
 42
0.049090
  0
VERTEX
  8
0
 10
510.983359
 20
356.881935
 42
0.063883
  0
VERTEX
  8
0
 10
511.580445
 20
357.776603
 42
-0.019062
  0
VERTEX
  8
0
 10
512.265903
 20
359.034237
 42
-0.184674
  0
VERTEX
  8
0
 10
512.734244
 20
359.404078
 42
-0.262870
  0
VERTEX
  8
0
 10
513.231410
 20
359.297630
 42
-0.038279
  0
VERTEX
  8
0
 10
513.977921
 20
358.526603
 42
0.060439
  0
VERTEX
  8
0
 10
514.595951
 20
357.942316
 42
0.043978
  0
VERTEX
  8
0
 10
515.403819
 20
357.448440
 42
0.044600
  0
VERTEX
  8
0
 10
516.267890
 20
357.111637
 42
0.070750
  0
VERTEX
  8
0
 10
517.052894
 20
357.000000
 42
-0.101814
  0
VERTEX
  8
0
 10
517.819601
 20
356.842241
 42
-0.102230
  0
VERTEX
  8
0
 10
518.460470
 20
356.394698
 42
-0.090872
  0
VERTEX
  8
0
 10
518.925216
 20
355.679412
 42
-0.063551
  0
VERTEX
  8
0
 10
519.180449
 20
354.750000
 42
0.063240
  0
VERTEX
  8
0
 10
519.502267
 20
353.575268
 42
0.179968
  0
VERTEX
  8
0
 10
520.071295
 20
352.964246
 42
0.119287
  0
VERTEX
  8
0
 10
521.071406
 20
352.732825
 42
0.021309
  0
VERTEX
  8
0
 10
523.000000
 20
352.834499
 42
0.036958
  0
VERTEX
  8
0
 10
524.486659
 20
353.088416
 42
0.028464
  0
VERTEX
  8
0
 10
526.059375
 20
353.574845
 42
0.029164
  0
VERTEX
  8
0
 10
527.483774
 20
354.202735
 42
0.058982
  0
VERTEX
  8
0
 10
528.500000
 20
354.885105
 42
-0.031406
  0
VERTEX
  8
0
 10
529.623268
 20
355.732582
 42
-0.008220
  0
VERTEX
  8
0
 10
531.528125
 20
356.945828
 42
-0.008318
  0
VERTEX
  8
0
 10
533.747661
 20
358.258395
 42
-0.008429
  0
VERTEX
  8
0
 10
536.000000
 20
359.490481
 42
0.005641
  0
VERTEX
  8
0
 10
538.433522
 20
360.804105
 42
0.003707
  0
VERTEX
  8
0
 10
541.206250
 20
362.368470
 42
0.003730
  0
VERTEX
  8
0
 10
543.882818
 20
363.931515
 42
0.007174
  0
VERTEX
  8
0
 10
546.000000
 20
365.230615
 42
-0.022971
  0
VERTEX
  8
0
 10
548.374601
 20
366.586351
 42
-0.045102
  0
VERTEX
  8
0
 10
550.391241
 20
367.398126
 42
-0.051182
  0
VERTEX
  8
0
 10
552.343237
 20
367.774088
 42
-0.040160
  0
VERTEX
  8
0
 10
554.500000
 20
367.790739
 42
-0.019635
  0
VERTEX
  8
0
 10
556.952411
 20
367.515355
 42
-0.150984
  0
VERTEX
  8
0
 10
557.981525
 20
367.017228
 42
-0.162201
  0
VERTEX
  8
0
 10
558.512496
 20
366.042275
 42
-0.023600
  0
SEQEND
  0
POLYLINE
  8
0
 66
1
 70
1
  0
VERTEX
  8
0
 10
495.000000
 20
345.191130
 42
-0.067730
  0
VERTEX
  8
0
 10
494.577123
 20
342.083667
 42
-0.166135
  0
VERTEX
  8
0
 10
493.292341
 20
340.204778
 42
-0.135771
  0
VERTEX
  8
0
 10
490.920717
 20
339.279801
 42
-0.039664
  0
VERTEX
  8
0
 10
486.969633
 20
339.190123
 42
-0.010293
  0
VERTEX
  8
0
 10
483.612102
 20
339.449766
 42
-0.099425
  0
VERTEX
  8
0
 10
482.250941
 20
339.864807
 42
-0.186882
  0
VERTEX
  8
0
 10
481.551775
 20
340.682969
 42
-0.055925
  0
VERTEX
  8
0
 10
481.177742
 20
342.310472
 42
-0.083649
  0
VERTEX
  8
0
 10
481.323447
 20
345.070314
 42
-0.184466
  0
VERTEX
  8
0
 10
482.470237
 20
346.803669
 42
-0.125329
  0
VERTEX
  8
0
 10
484.864969
 20
347.738342
 42
-0.030700
  0
VERTEX
  8
0
 10
489.122445
 20
348.000000
 42
-0.007205
  0
VERTEX
  8
0
 10
492.925918
 20
347.945191
 42
-0.104627
  0
VERTEX
  8
0
 10
494.226876
 20
347.630526
 42
-0.233052
  0
VERTEX
  8
0
 10
494.823509
 20
346.872869
 42
-0.052329
  0
SEQEND
  0
POLYLINE
  8
0
 66
1
 70
1
  0
VERTEX
  8
0
 10
344.554219
 20
313.853160
 42
0.013098
  0
VERTEX
  8
0
 10
350.424197
 20
310.330801
 42
0.062358
  0
VERTEX
  8
0
 10
354.037500
 20
308.846727
 42
0.101935
  0
VERTEX
  8
0
 10
356.994280
 20
308.663187
 42
0.070732
  0
VERTEX
  8
0
 10
360.219691
 20
309.599067
 42
-0.021980
  0
VERTEX
  8
0
 10
362.419070
 20
310.476713
 42
-0.064582
  0
VERTEX
  8
0
 10
364.011339
 20
310.810676
 42
-0.072749
  0
VERTEX
  8
0
 10
365.527183
 20
310.708227
 42
-0.033575
  0
VERTEX
  8
0
 10
367.431370
 20
310.160977
 42
0.052928
  0
VERTEX
  8
0
 10
370.027239
 20
309.522374
 42
0.091047
  0
VERTEX
  8
0
 10
372.244844
 20
309.624752
 42
0.085110
  0
VERTEX
  8
0
 10
374.382127
 20
310.522182
 42
0.041400
  0
VERTEX
  8
0
 10
376.746057
 20
312.319622
 42
-0.040716
  0
VERTEX
  8
0
 10
378.844979
 20
313.920087
 42
-0.547772
  0
VERTEX
  8
0
 10
379.569487
 20
313.585895
 42
-0.191804
  0
VERTEX
  8
0
 10
379.203098
 20
312.105729
 42
-0.024723
  0
VERTEX
  8
0
 10
377.133081
 20
309.498790
 42
0.010379
  0
VERTEX
  8
0
 10
375.932951
 20
308.073298
 42
0.014336
  0
VERTEX
  8
0
 10
374.920343
 20
306.742242
 42
0.010876
  0
VERTEX
  8
0
 10
374.142636
 20
305.605297
 42
0.145559
  0
VERTEX
  8
0
 10
374.000000
 20
305.125719
 42
0.285768
  0
VERTEX
  8
0
 10
374.726175
 20
303.958909
 42
0.045447
  0
VERTEX
  8
0
 10
377.355544
 20
302.949437
 42
0.040107
  0
VERTEX
  8
0
 10
380.955158
 20
302.236357
 42
0.028857
  0
VERTEX
  8
0
 10
385.047053
 20
302.000000
 42
-0.007507
  0
VERTEX
  8
0
 10
388.757859
 20
301.944282
 42
-0.090882
  0
VERTEX
  8
0
 10
390.146208
 20
301.646488
 42
-0.223179
  0
VERTEX
  8
0
 10
390.787276
 20
300.943096
 42
-0.075120
  0
VERTEX
  8
0
 10
391.000000
 20
299.535184
 42
0.066326
  0
VERTEX
  8
0
 10
391.137075
 20
298.506388
 42
0.057462
  0
VERTEX
  8
0
 10
391.540881
 20
297.494549
 42
0.059569
  0
VERTEX
  8
0
 10
392.143726
 20
296.638423
 42
0.086941
  0
VERTEX
  8
0
 10
392.868097
 20
296.070592
 42
-0.073220
  0
VERTEX
  8
0
 10
393.699449
 20
295.454740
 42
-0.107630
  0
VERTEX
  8
0
 10
394.190396
 20
294.693168
 42
-0.093106
  0
VERTEX
  8
0
 10
394.361283
 20
293.712329
 42
-0.043954
  0
VERTEX
  8
0
 10
394.231186
 20
292.429041
 42
0.094052
  0
VERTEX
  8
0
 10
394.228513
 20
290.420591
 42
0.178571
  0
VERTEX
  8
0
 10
395.048290
 20
289.051868
 42
0.128818
  0
VERTEX
  8
0
 10
396.807392
 20
288.263097
 42
0.040154
  0
VERTEX
  8
0
 10
399.714517
 20
288.015313
 42
-0.080664
  0
VERTEX
  8
0
 10
402.341486
 20
287.575879
 42
-0.024333
  0
VERTEX
  8
0
 10
406.119250
 20
286.087196
 42
-0.023257
  0
VERTEX
  8
0
 10
410.331752
 20
283.944527
 42
-0.021068
  0
VERTEX
  8
0
 10
414.472506
 20
281.353244
 42
0.036682
  0
VERTEX
  8
0
 10
415.360917
 20
280.835125
 42
0.027928
  0
VERTEX
  8
0
 10
416.399430
 20
280.397515
 42
0.028571
  0
VERTEX
  8
0
 10
417.424690
 20
280.096209
 42
0.057240
  0
VERTEX
  8
0
 10
418.262344
 20
280.000000
 42
-0.067508
  0
VERTEX
  8
0
 10
419.219979
 20
279.870113
 42
-0.017017
  0
VERTEX
  8
0
 10
420.724538
 20
279.398670
 42
-0.017055
  0
VERTEX
  8
0
 10
422.422732
 20
278.736506
 42
-0.016464
  0
VERTEX
  8
0
 10
424.092283
 20
277.952921
 42
-0.016665
  0
VERTEX
  8
0
 10
426.265814
 20
276.751166
 42
-0.095370
  0
VERTEX
  8
0
 10
427.244566
 20
275.877795
 42
-0.166917
  0
VERTEX
  8
0
 10
427.553945
 20
274.948216
 42
-0.081653
  0
VERTEX
  8
0
 10
427.337047
 20
273.702921
 42
0.048268
  0
VERTEX
  8
0
 10
426.886355
 20
271.852634
 42
0.030343
  0
VERTEX
  8
0
 10
426.704352
 20
269.632550
 42
0.027615
  0
VERTEX
  8
0
 10
426.788674
 20
267.159716
 42
0.022721
  0
VERTEX
  8
0
 10
427.143455
 20
264.542527
 42
-0.096909
  0
VERTEX
  8
0
 10
427.131122
 20
263.597151
 42
-0.102312
  0
VERTEX
  8
0
 10
426.761088
 20
262.746184
 42
-0.082760
  0
VERTEX
  8
0
 10
426.004350
 20
261.980058
 42
-0.042680
  0
VERTEX
  8
0
 10
424.846140
 20
261.284040
 42
0.067767
  0
VERTEX
  8
0
 10
422.118004
 20
259.452924
 42
0.031811
  0
VERTEX
  8
0
 10
419.121405
 20
256.428252
 42
0.029033
  0
VERTEX
  8
0
 10
416.650474
 20
253.238473
 42
0.151400
  0
VERTEX
  8
0
 10
416.000000
 20
251.139518
 42
-0.100057
  0
VERTEX
  8
0
 10
415.828090
 20
250.289058
 42
-0.036117
  0
VERTEX
  8
0
 10
415.265625
 20
249.184792
 42
-0.034074
  0
VERTEX
  8
0
 10
414.456684
 20
248.030892
 42
-0.034277
  0
VERTEX
  8
0
 10
413.500000
 20
247.000000
 42
0.045255
  0
VERTEX
  8
0
 10
412.543312
 20
245.922680
 42
0.038235
  0
VERTEX
  8
0
 10
411.734375
 20
244.630338
 42
0.039903
  0
VERTEX
  8
0
 10
411.178795
 20
243.327482
 42
0.081006
  0
VERTEX
  8
0
 10
411.000000
 20
242.231139
 42
-0.133010
  0
VERTEX
  8
0
 10
410.054575
 20
238.740043
 42
-0.020853
  0
VERTEX
  8
0
 10
406.168207
 20
232.685232
 42
-0.023291
  0
VERTEX
  8
0
 10
401.698873
 20
226.913580
 42
-0.083359
  0
VERTEX
  8
0
 10
398.139456
 20
223.921731
 42
0.018657
  0
VERTEX
  8
0
 10
392.197130
 20
220.113256
 42
0.024722
  0
VERTEX
  8
0
 10
387.109851
 20
216.191824
 42
0.027834
  0
VERTEX
  8
0
 10
383.131821
 20
212.397342
 42
0.060596
  0
VERTEX
  8
0
 10
380.642718
 20
209.000000
 42
-0.015541
  0
VERTEX
  8
0
 10
379.530315
 20
207.154077
 42
-0.014323
  0
VERTEX
  8
0
 10
378.276008
 20
205.328793
 42
-0.014489
  0
VERTEX
  8
0
 10
377.064841
 20
203.767229
 42
-0.045203
  0
VERTEX
  8
0
 10
376.131035
 20
202.821421
 42
0.080343
  0
VERTEX
  8
0
 10
375.289844
 20
201.840806
 42
0.036164
  0
VERTEX
  8
0
 10
374.509941
 20
200.329418
 42
0.033279
  0
VERTEX
  8
0
 10
373.871710
 20
198.511003
 42
0.030551
  0
VERTEX
  8
0
 10
373.458439
 20
196.571421
 42
-0.038024
  0
VERTEX
  8
0
 10
372.734543
 20
193.406553
 42
-0.225159
  0
VERTEX
  8
0
 10
371.615148
 20
192.189932
 42
-0.221787
  0
VERTEX
  8
0
 10
369.951908
 20
192.277240
 42
-0.036938
  0
VERTEX
  8
0
 10
367.172075
 20
194.030901
 42
0.028631
  0
VERTEX
  8
0
 10
365.394107
 20
195.194223
 42
0.119568
  0
VERTEX
  8
0
 10
364.174935
 20
195.550270
 42
0.088677
  0
VERTEX
  8
0
 10
362.745568
 20
195.362294
 42
0.011821
  0
VERTEX
  8
0
 10
359.856677
 20
194.368612
 42
-0.063360
  0
VERTEX
  8
0
 10
355.006942
 20
193.241364
 42
-0.253659
  0
VERTEX
  8
0
 10
352.289240
 20
194.374434
 42
-0.119769
  0
VERTEX
  8
0
 10
350.526098
 20
198.114277
 42
-0.011207
  0
VERTEX
  8
0
 10
348.692986
 20
208.203459
 42
0.011257
  0
VERTEX
  8
0
 10
347.189980
 20
216.471084
 42
0.065536
  0
VERTEX
  8
0
 10
345.744850
 20
220.646125
 42
0.130838
  0
VERTEX
  8
0
 10
343.753089
 20
222.897408
 42
0.106690
  0
VERTEX
  8
0
 10
340.747478
 20
224.076028
 42
-0.030730
  0
VERTEX
  8
0
 10
339.180857
 20
224.430596
 42
-0.025550
  0
VERTEX
  8
0
 10
337.567292
 20
224.992501
 42
-0.026305
  0
VERTEX
  8
0
 10
336.139680
 20
225.662484
 42
-0.061120
  0
VERTEX
  8
0
 10
335.174533
 20
226.342049
 42
0.053112
  0
VERTEX
  8
0
 10
333.561886
 20
227.516470
 42
0.127218
  0
VERTEX
  8
0
 10
332.146657
 20
227.908508
 42
0.112847
  0
VERTEX
  8
0
 10
330.609540
 20
227.584766
 42
0.036945
  0
VERTEX
  8
0
 10
328.572215
 20
226.455360
 42
-0.071194
  0
VERTEX
  8
0
 10
326.959913
 20
225.700468
 42
-0.062330
  0
VERTEX
  8
0
 10
325.124906
 20
225.383126
 42
-0.035496
  0
VERTEX
  8
0
 10
322.488198
 20
225.446994
 42
-0.007390
  0
VERTEX
  8
0
 10
317.883633
 20
225.955360
 42
0.001260
  0
VERTEX
  8
0
 10
314.625281
 20
226.355586
 42
0.001799
  0
VERTEX
  8
0
 10
311.730985
 20
226.693137
 42
0.000981
  0
VERTEX
  8
0
 10
309.281754
 20
226.964990
 42
0.027152
  0
VERTEX
  8
0
 10
308.637529
 20
227.000000
 42
-0.388019
  0
VERTEX
  8
0
 10
308.280604
 20
227.326082
 42
-0.011223
  0
VERTEX
  8
0
 10
308.129441
 20
229.551912
 42
-0.016602
  0
VERTEX
  8
0
 10
308.094630
 20
232.413705
 42
-0.008980
  0
VERTEX
  8
0
 10
308.231973
 20
235.933827
 42
0.021225
  0
VERTEX
  8
0
 10
308.322540
 20
242.173877
 42
0.031284
  0
VERTEX
  8
0
 10
307.827560
 20
247.629629
 42
0.034328
  0
VERTEX
  8
0
 10
306.713718
 20
252.572146
 42
0.035474
  0
VERTEX
  8
0
 10
304.942794
 20
257.259891
 42
-0.032521
  0
VERTEX
  8
0
 10
304.316121
 20
258.889593
 42
-0.124529
  0
VERTEX
  8
0
 10
304.257567
 20
259.966919
 42
-0.114936
  0
VERTEX
  8
0
 10
304.717314
 20
260.989950
 42
-0.025748
  0
VERTEX
  8
0
 10
305.961492
 20
262.459010
 42
0.047524
  0
VERTEX
  8
0
 10
307.254981
 20
264.128366
 42
0.149456
  0
VERTEX
  8
0
 10
307.625530
 20
265.480296
 42
0.121711
  0
VERTEX
  8
0
 10
307.208593
 20
266.978474
 42
0.026795
  0
VERTEX
  8
0
 10
305.763242
 20
269.247206
 42
-0.086248
  0
VERTEX
  8
0
 10
305.224445
 20
270.366195
 42
-0.091773
  0
VERTEX
  8
0
 10
305.110763
 20
271.576696
 42
-0.055971
  0
VERTEX
  8
0
 10
305.439791
 20
273.189743
 42
-0.013721
  0
VERTEX
  8
0
 10
306.345855
 20
275.747206
 42
0.007682
  0
VERTEX
  8
0
 10
307.122705
 20
277.858587
 42
0.005253
  0
VERTEX
  8
0
 10
307.942777
 20
280.278867
 42
0.005295
  0
VERTEX
  8
0
 10
308.684134
 20
282.628801
 42
0.010659
  0
VERTEX
  8
0
 10
309.209447
 20
284.500000
 42
-0.008547
  0
VERTEX
  8
0
 10
309.736594
 20
286.408679
 42
-0.003877
  0
VERTEX
  8
0
 10
310.488526
 20
288.889346
 42
-0.003837
  0
VERTEX
  8
0
 10
311.322172
 20
291.494135
 42
-0.005251
  0
VERTEX
  8
0
 10
312.115283
 20
293.825432
 42
0.015329
  0
VERTEX
  8
0
 10
312.939474
 20
296.418331
 42
0.038842
  0
VERTEX
  8
0
 10
313.330992
 20
298.355080
 42
0.055025
  0
VERTEX
  8
0
 10
313.348679
 20
299.844011
 42
0.098652
  0
VERTEX
  8
0
 10
312.994814
 20
301.009690
 42
-0.036193
  0
VERTEX
  8
0
 10
312.146128
 20
302.915036
 42
-0.170179
  0
VERTEX
  8
0
 10
312.134846
 20
304.095449
 42
-0.241846
  0
VERTEX
  8
0
 10
312.838643
 20
304.776051
 42
-0.073649
  0
VERTEX
  8
0
 10
314.350777
 20
305.000000
 42
0.056989
  0
VERTEX
  8
0
 10
317.591916
 20
305.370622
 42
0.072006
  0
VERTEX
  8
0
 10
320.400192
 20
306.464609
 42
0.074419
  0
VERTEX
  8
0
 10
322.713295
 20
308.273943
 42
0.066494
  0
VERTEX
  8
0
 10
324.500000
 20
310.747025
 42
-0.031228
  0
VERTEX
  8
0
 10
325.693219
 20
312.670330
 42
-0.077211
  0
VERTEX
  8
0
 10
326.847497
 20
313.856347
 42
-0.082233
  0
VERTEX
  8
0
 10
328.260666
 20
314.593401
 42
-0.039060
  0
VERTEX
  8
0
 10
330.261043
 20
315.079899
 42
0.013108
  0
VERTEX
  8
0
 10
331.749186
 20
315.361019
 42
0.016481
  0
VERTEX
  8
0
 10
333.109870
 20
315.702492
 42
0.014688
  0
VERTEX
  8
0
 10
334.218213
 20
316.055340
 42
0.112424
  0
VERTEX
  8
0
 10
334.677710
 20
316.344377
 42
-0.187704
  0
VERTEX
  8
0
 10
336.145913
 20
316.990038
 42
-0.072703
  0
VERTEX
  8
0
 10
338.394470
 20
316.760041
 42
-0.052593
  0
VERTEX
  8
0
 10
341.246179
 20
315.712065
 42
-0.027357
  0
SEQEND
  0
POLYLINE
  8
0
 66
1
 70
1
  0
VERTEX
  8
0
 10
622.830532
 20
292.312123
 42
-0.000092
  0
VERTEX
  8
0
 10
625.026687
 20
290.882994
 42
-0.000141
  0
VERTEX
  8
0
 10
626.929136
 20
289.643728
 42
-0.000046
  0
VERTEX
  8
0
 10
628.576199
 20
288.569946
 42
-0.004011
  0
VERTEX
  8
0
 10
628.821847
 20
288.406943
 42
-0.311970
  0
VERTEX
  8
0
 10
628.906756
 20
288.189397
 42
-0.005234
  0
VERTEX
  8
0
 10
628.579512
 20
286.870183
 42
-0.011365
  0
VERTEX
  8
0
 10
628.134623
 20
285.301493
 42
-0.007055
  0
VERTEX
  8
0
 10
627.544922
 20
283.480569
 42
0.031793
  0
VERTEX
  8
0
 10
626.937064
 20
281.229429
 42
0.017142
  0
VERTEX
  8
0
 10
626.462468
 20
278.394762
 42
0.016909
  0
VERTEX
  8
0
 10
626.171712
 20
275.431018
 42
0.023498
  0
VERTEX
  8
0
 10
626.126402
 20
272.764347
 42
-0.013781
  0
VERTEX
  8
0
 10
626.135415
 20
269.064878
 42
-0.081657
  0
VERTEX
  8
0
 10
625.774825
 20
267.170284
 42
-0.098948
  0
VERTEX
  8
0
 10
624.851791
 20
265.658958
 42
-0.024872
  0
VERTEX
  8
0
 10
622.780938
 20
263.628598
 42
0.029011
  0
VERTEX
  8
0
 10
621.338692
 20
262.190965
 42
0.021827
  0
VERTEX
  8
0
 10
619.920871
 20
260.456716
 42
0.022238
  0
VERTEX
  8
0
 10
618.727996
 20
258.702686
 42
0.046450
  0
VERTEX
  8
0
 10
617.995544
 20
257.224054
 42
-0.045103
  0
VERTEX
  8
0
 10
617.305132
 20
255.820818
 42
-0.028136
  0
VERTEX
  8
0
 10
616.264142
 20
254.311035
 42
-0.028131
  0
VERTEX
  8
0
 10
615.059700
 20
252.927052
 42
-0.044937
  0
VERTEX
  8
0
 10
613.870321
 20
251.907660
 42
0.040597
  0
VERTEX
  8
0
 10
612.728076
 20
250.945705
 42
0.032783
  0
VERTEX
  8
0
 10
611.665164
 20
249.743974
 42
0.033865
  0
VERTEX
  8
0
 10
610.828159
 20
248.496390
 42
0.069441
  0
VERTEX
  8
0
 10
610.387360
 20
247.407229
 42
-0.054006
  0
VERTEX
  8
0
 10
610.012145
 20
246.391364
 42
-0.040877
  0
VERTEX
  8
0
 10
609.397114
 20
245.373269
 42
-0.041841
  0
VERTEX
  8
0
 10
608.651004
 20
244.503060
 42
-0.071872
  0
VERTEX
  8
0
 10
607.883322
 20
243.937556
 42
0.079386
  0
VERTEX
  8
0
 10
607.057858
 20
243.310247
 42
0.030527
  0
VERTEX
  8
0
 10
606.125744
 20
242.206933
 42
0.029288
  0
VERTEX
  8
0
 10
605.242280
 20
240.864029
 42
0.031900
  0
VERTEX
  8
0
 10
604.549377
 20
239.463933
 42
-0.057689
  0
VERTEX
  8
0
 10
603.273001
 20
237.187578
 42
-0.177502
  0
VERTEX
  8
0
 10
601.831618
 20
236.215854
 42
-0.132927
  0
VERTEX
  8
0
 10
599.818002
 20
236.261122
 42
-0.027256
  0
VERTEX
  8
0
 10
596.435347
 20
237.462567
 42
-0.086241
  0
VERTEX
  8
0
 10
593.500026
 20
239.335066
 42
-0.105649
  0
VERTEX
  8
0
 10
591.612549
 20
241.976770
 42
-0.099412
  0
VERTEX
  8
0
 10
590.900229
 20
245.291189
 42
-0.068697
  0
VERTEX
  8
0
 10
591.374861
 20
249.109916
 42
-0.028508
  0
VERTEX
  8
0
 10
592.015762
 20
251.058012
 42
-0.073110
  0
VERTEX
  8
0
 10
592.752298
 20
252.342030
 42
-0.094264
  0
VERTEX
  8
0
 10
593.699045
 20
253.165829
 42
-0.073778
  0
VERTEX
  8
0
 10
594.965975
 20
253.673042
 42
0.049616
  0
VERTEX
  8
0
 10
597.336701
 20
254.492146
 42
0.082694
  0
VERTEX
  8
0
 10
599.079412
 20
255.676306
 42
0.062248
  0
VERTEX
  8
0
 10
600.652381
 20
257.603187
 42
0.017961
  0
VERTEX
  8
0
 10
602.580673
 20
260.937186
 42
-0.010376
  0
VERTEX
  8
0
 10
603.665441
 20
262.880147
 42
-0.008099
  0
VERTEX
  8
0
 10
604.921021
 20
264.945872
 42
-0.008201
  0
VERTEX
  8
0
 10
606.153545
 20
266.832264
 42
-0.019703
  0
VERTEX
  8
0
 10
607.142979
 20
268.176419
 42
0.034010
  0
VERTEX
  8
0
 10
608.259184
 20
269.787313
 42
0.093103
  0
VERTEX
  8
0
 10
608.735031
 20
271.081702
 42
0.081736
  0
VERTEX
  8
0
 10
608.740213
 20
272.558611
 42
0.022248
  0
VERTEX
  8
0
 10
608.265608
 20
274.851712
 42
-0.020808
  0
VERTEX
  8
0
 10
607.899991
 20
276.592956
 42
-0.037755
  0
VERTEX
  8
0
 10
607.769453
 20
278.041332
 42
-0.047291
  0
VERTEX
  8
0
 10
607.858367
 20
279.148969
 42
-0.153894
  0
VERTEX
  8
0
 10
608.194381
 20
279.794381
 42
0.161124
  0
VERTEX
  8
0
 10
608.539301
 20
280.480361
 42
0.034944
  0
VERTEX
  8
0
 10
608.642063
 20
281.820411
 42
0.029965
  0
VERTEX
  8
0
 10
608.548117
 20
283.583491
 42
0.016663
  0
VERTEX
  8
0
 10
608.233898
 20
285.713411
 42
-0.013758
  0
VERTEX
  8
0
 10
607.780367
 20
288.668656
 42
-0.081008
  0
VERTEX
  8
0
 10
607.838022
 20
290.230402
 42
-0.117951
  0
VERTEX
  8
0
 10
608.385209
 20
291.412948
 42
-0.043761
  0
VERTEX
  8
0
 10
609.651057
 20
292.756406
 42
-0.044064
  0
VERTEX
  8
0
 10
612.858683
 20
295.142603
 42
-0.147358
  0
VERTEX
  8
0
 10
615.365853
 20
295.806646
 42
-0.114565
  0
VERTEX
  8
0
 10
618.196619
 20
295.048044
 42
-0.021690
  0
SEQEND
  0
POLYLINE
  8
0
 66
1
 70
1
  0
VERTEX
  8
0
 10
448.894295
 20
264.876907
 42
-0.010409
  0
VERTEX
  8
0
 10
453.035759
 20
264.106033
 42
-0.052907
  0
VERTEX
  8
0
 10
455.266381
 20
263.390117
 42
-0.090096
  0
VERTEX
  8
0
 10
456.702067
 20
262.416346
 42
-0.068627
  0
VERTEX
  8
0
 10
457.866313
 20
260.910216
 42
0.102864
  0
VERTEX
  8
0
 10
459.670260
 20
258.878271
 42
0.092031
  0
VERTEX
  8
0
 10
462.204810
 20
257.634457
 42
0.100038
  0
VERTEX
  8
0
 10
464.831514
 20
257.441687
 42
0.149892
  0
VERTEX
  8
0
 10
466.912887
 20
258.380480
 42
-0.115458
  0
VERTEX
  8
0
 10
468.066428
 20
258.997831
 42
-0.012331
  0
VERTEX
  8
0
 10
471.040682
 20
259.715711
 42
-0.014396
  0
VERTEX
  8
0
 10
474.730899
 20
260.400134
 42
-0.010253
  0
VERTEX
  8
0
 10
478.898002
 20
260.962277
 42
-0.017236
  0
VERTEX
  8
0
 10
487.466029
 20
261.641565
 42
-0.163825
  0
VERTEX
  8
0
 10
490.949971
 20
260.639301
 42
-0.204453
  0
VERTEX
  8
0
 10
492.713402
 20
257.842568
 42
-0.028961
  0
VERTEX
  8
0
 10
493.416641
 20
250.925157
 42
0.016899
  0
VERTEX
  8
0
 10
493.670740
 20
247.640363
 42
0.019200
  0
VERTEX
  8
0
 10
494.140643
 20
244.518388
 42
0.020792
  0
VERTEX
  8
0
 10
494.774450
 20
241.803728
 42
0.045040
  0
VERTEX
  8
0
 10
495.530578
 20
239.800767
 42
0.028755
  0
VERTEX
  8
0
 10
496.630251
 20
237.827781
 42
0.091639
  0
VERTEX
  8
0
 10
497.652952
 20
236.727215
 42
0.100497
  0
VERTEX
  8
0
 10
498.945874
 20
236.120167
 42
0.038778
  0
VERTEX
  8
0
 10
500.911003
 20
235.800767
 42
-0.022486
  0
VERTEX
  8
0
 10
502.595851
 20
235.582943
 42
-0.084579
  0
VERTEX
  8
0
 10
503.595825
 20
235.226635
 42
-0.165151
  0
VERTEX
  8
0
 10
504.066614
 20
234.703100
 42
-0.164366
  0
VERTEX
  8
0
 10
504.122440
 20
234.000000
 42
0.009754
  0
VERTEX
  8
0
 10
503.910345
 20
233.082085
 42
0.001231
  0
VERTEX
  8
0
 10
503.495804
 20
231.089421
 42
0.001446
  0
VERTEX
  8
0
 10
503.016282
 20
228.720878
 42
0.001200
  0
VERTEX
  8
0
 10
502.519401
 20
226.198028
 42
0.009208
  0
VERTEX
  8
0
 10
501.857692
 20
222.425730
 42
0.059153
  0
VERTEX
  8
0
 10
501.786032
 20
220.493130
 42
0.098284
  0
VERTEX
  8
0
 10
502.197043
 20
219.047726
 42
0.048421
  0
VERTEX
  8
0
 10
503.231910
 20
217.432303
 42
-0.034027
  0
VERTEX
  8
0
 10
504.042645
 20
216.243406
 42
-0.018671
  0
VERTEX
  8
0
 10
504.877249
 20
214.690391
 42
-0.018535
  0
VERTEX
  8
0
 10
505.610183
 20
213.043492
 42
-0.028071
  0
VERTEX
  8
0
 10
506.111633
 20
211.557870
 42
0.037127
  0
VERTEX
  8
0
 10
506.724130
 20
209.846100
 42
0.087454
  0
VERTEX
  8
0
 10
507.478768
 20
208.724621
 42
0.095951
  0
VERTEX
  8
0
 10
508.523322
 20
207.990336
 42
0.051343
  0
VERTEX
  8
0
 10
510.026684
 20
207.494139
 42
0.057037
  0
VERTEX
  8
0
 10
512.970918
 20
207.192028
 42
0.052934
  0
VERTEX
  8
0
 10
515.985064
 20
207.547723
 42
0.057802
  0
VERTEX
  8
0
 10
518.497789
 20
208.432917
 42
0.152774
  0
VERTEX
  8
0
 10
519.867793
 20
209.728243
 42
-0.145024
  0
VERTEX
  8
0
 10
520.596108
 20
210.438080
 42
-0.020476
  0
VERTEX
  8
0
 10
522.508985
 20
211.346968
 42
-0.021930
  0
VERTEX
  8
0
 10
524.926317
 20
212.253455
 42
-0.017071
  0
VERTEX
  8
0
 10
527.623750
 20
213.031377
 42
-0.008220
  0
VERTEX
  8
0
 10
531.478575
 20
213.934759
 42
-0.043586
  0
VERTEX
  8
0
 10
533.626683
 20
214.208257
 42
-0.080403
  0
VERTEX
  8
0
 10
535.124031
 20
214.026282
 42
-0.082563
  0
VERTEX
  8
0
 10
536.472506
 20
213.381281
 42
0.044821
  0
VERTEX
  8
0
 10
537.393858
 20
212.852131
 42
0.029384
  0
VERTEX
  8
0
 10
538.534603
 20
212.405751
 42
0.029534
  0
VERTEX
  8
0
 10
539.706958
 20
212.099913
 42
0.049073
  0
VERTEX
  8
0
 10
540.722506
 20
212.000000
 42
-0.041979
  0
VERTEX
  8
0
 10
541.594453
 20
211.926664
 42
-0.061557
  0
VERTEX
  8
0
 10
542.330986
 20
211.706250
 42
-0.080877
  0
VERTEX
  8
0
 10
542.830537
 20
211.382420
 42
-0.211642
  0
VERTEX
  8
0
 10
543.000000
 20
211.000000
 42
-0.223459
  0
VERTEX
  8
0
 10
542.819918
 20
210.617178
 42
-0.076223
  0
VERTEX
  8
0
 10
542.279447
 20
210.293750
 42
-0.057976
  0
VERTEX
  8
0
 10
541.486348
 20
210.073159
 42
-0.038885
  0
VERTEX
  8
0
 10
540.547053
 20
210.000000
 42
0.100054
  0
VERTEX
  8
0
 10
536.602395
 20
209.202660
 42
0.088058
  0
VERTEX
  8
0
 10
533.072601
 20
206.917436
 42
0.121051
  0
VERTEX
  8
0
 10
531.250677
 20
204.134462
 42
0.288669
  0
VERTEX
  8
0
 10
531.775287
 20
201.824713
 42
-0.280108
  0
VERTEX
  8
0
 10
531.946140
 20
201.124062
 42
-0.136842
  0
VERTEX
  8
0
 10
531.423826
 20
200.325154
 42
-0.053207
  0
VERTEX
  8
0
 10
529.990367
 20
199.315887
 42
-0.011439
  0
VERTEX
  8
0
 10
527.297817
 20
197.899478
 42
0.011810
  0
VERTEX
  8
0
 10
525.090070
 20
196.736004
 42
0.014705
  0
VERTEX
  8
0
 10
523.098429
 20
195.547465
 42
0.012991
  0
VERTEX
  8
0
 10
521.498655
 20
194.468375
 42
0.099784
  0
VERTEX
  8
0
 10
520.883192
 20
193.811001
 42
-0.135681
  0
VERTEX
  8
0
 10
520.363879
 20
193.329623
 42
-0.055128
  0
VERTEX
  8
0
 10
519.456376
 20
192.980087
 42
-0.048602
  0
VERTEX
  8
0
 10
518.329017
 20
192.797716
 42
-0.041965
  0
VERTEX
  8
0
 10
517.129532
 20
192.822465
 42
0.107776
  0
VERTEX
  8
0
 10
512.901163
 20
192.354552
 42
0.023576
  0
VERTEX
  8
0
 10
506.039887
 20
189.676901
 42
0.025546
  0
VERTEX
  8
0
 10
499.048649
 20
186.122944
 42
0.046331
  0
VERTEX
  8
0
 10
493.809749
 20
182.430284
 42
-0.015112
  0
VERTEX
  8
0
 10
491.562830
 20
180.626812
 42
-0.011679
  0
VERTEX
  8
0
 10
489.012010
 20
178.795068
 42
-0.011846
  0
VERTEX
  8
0
 10
486.547793
 20
177.195615
 42
-0.027587
  0
VERTEX
  8
0
 10
484.613761
 20
176.146892
 42
0.023269
  0
VERTEX
  8
0
 10
482.868900
 20
175.220144
 42
0.017190
  0
VERTEX
  8
0
 10
481.027017
 20
174.041773
 42
0.017452
  0
VERTEX
  8
0
 10
479.360583
 20
172.805122
 42
0.036856
  0
VERTEX
  8
0
 10
478.180338
 20
171.712202
 42
-0.022309
  0
VERTEX
  8
0
 10
476.714291
 20
170.273251
 42
-0.135362
  0
VERTEX
  8
0
 10
475.770988
 20
169.803102
 42
-0.140319
  0
VERTEX
  8
0
 10
474.737049
 20
169.891757
 42
-0.024602
  0
VERTEX
  8
0
 10
472.930338
 20
170.684639
 42
-0.045239
  0
VERTEX
  8
0
 10
471.806537
 20
171.378535
 42
-0.049032
  0
VERTEX
  8
0
 10
470.858567
 20
172.246824
 42
-0.054697
  0
VERTEX
  8
0
 10
470.209208
 20
173.152626
 42
-0.128878
  0
VERTEX
  8
0
 10
470.000000
 20
173.950797
 42
0.123801
  0
VERTEX
  8
0
 10
469.573090
 20
175.648558
 42
0.129657
  0
VERTEX
  8
0
 10
468.398344
 20
176.908119
 42
0.079740
  0
VERTEX
  8
0
 10
466.246668
 20
177.825977
 42
0.024074
  0
VERTEX
  8
0
 10
462.750000
 20
178.519957
 42
-0.013166
  0
VERTEX
  8
0
 10
459.813734
 20
179.036431
 42
-0.124219
  0
VERTEX
  8
0
 10
458.669573
 20
179.585763
 42
-0.184465
  0
VERTEX
  8
0
 10
458.143287
 20
180.524038
 42
-0.036604
  0
VERTEX
  8
0
 10
458.000000
 20
182.478685
 42
0.053158
  0
VERTEX
  8
0
 10
457.844440
 20
183.937740
 42
0.033485
  0
VERTEX
  8
0
 10
457.371408
 20
185.586628
 42
0.033179
  0
VERTEX
  8
0
 10
456.672513
 20
187.183044
 42
0.046917
  0
VERTEX
  8
0
 10
455.832020
 20
188.486422
 42
-0.032819
  0
VERTEX
  8
0
 10
454.976730
 20
189.734181
 42
-0.024723
  0
VERTEX
  8
0
 10
454.199967
 20
191.205132
 42
-0.025228
  0
VERTEX
  8
0
 10
453.605954
 20
192.666963
 42
-0.051437
  0
VERTEX
  8
0
 10
453.320491
 20
193.871281
 42
0.006825
  0
VERTEX
  8
0
 10
452.419231
 20
200.104057
 42
0.035661
  0
VERTEX
  8
0
 10
451.633951
 20
203.479992
 42
0.057738
  0
VERTEX
  8
0
 10
450.561272
 20
205.913410
 42
0.039731
  0
VERTEX
  8
0
 10
448.832990
 20
208.386445
 42
0.026351
  0
VERTEX
  8
0
 10
446.860740
 20
210.537484
 42
0.104031
  0
VERTEX
  8
0
 10
445.355543
 20
211.499565
 42
0.079091
  0
VERTEX
  8
0
 10
443.386581
 20
211.905993
 42
0.011427
  0
VERTEX
  8
0
 10
439.273688
 20
212.000000
 42
-0.019578
  0
VERTEX
  8
0
 10
435.819805
 20
212.135290
 42
-0.032929
  0
VERTEX
  8
0
 10
432.949464
 20
212.551897
 42
-0.034323
  0
VERTEX
  8
0
 10
430.242769
 20
213.326088
 42
-0.023671
  0
VERTEX
  8
0
 10
427.298302
 20
214.552093
 42
0.019641
  0
VERTEX
  8
0
 10
425.038339
 20
215.514524
 42
0.025598
  0
VERTEX
  8
0
 10
422.899041
 20
216.204846
 42
0.026934
  0
VERTEX
  8
0
 10
421.091279
 20
216.584674
 42
0.115655
  0
VERTEX
  8
0
 10
420.001789
 20
216.500568
 42
-0.092723
  0
VERTEX
  8
0
 10
419.048448
 20
216.383280
 42
-0.035314
  0
VERTEX
  8
0
 10
417.716057
 20
216.561681
 42
-0.033476
  0
VERTEX
  8
0
 10
416.259438
 20
216.965800
 42
-0.034937
  0
VERTEX
  8
0
 10
414.891230
 20
217.556247
 42
0.040950
  0
VERTEX
  8
0
 10
413.149324
 20
218.283276
 42
0.044634
  0
VERTEX
  8
0
 10
411.361489
 20
218.691210
 42
0.040632
  0
VERTEX
  8
0
 10
409.390512
 20
218.797559
 42
0.025603
  0
VERTEX
  8
0
 10
407.091252
 20
218.616674
 42
-0.022562
  0
VERTEX
  8
0
 10
405.113595
 20
218.448986
 42
-0.017858
  0
VERTEX
  8
0
 10
402.967430
 20
218.440915
 42
-0.018202
  0
VERTEX
  8
0
 10
400.972430
 20
218.577490
 42
-0.042206
  0
VERTEX
  8
0
 10
399.500000
 20
218.859313
 42
0.000000
  0
VERTEX
  8
0
 10
396.500000
 20
219.700821
 42
0.000000
  0
VERTEX
  8
0
 10
400.262146
 20
221.956353
 42
0.084646
  0
VERTEX
  8
0
 10
403.796602
 20
224.987971
 42
0.018910
  0
VERTEX
  8
0
 10
408.656313
 20
231.313055
 42
0.016120
  0
VERTEX
  8
0
 10
413.042604
 20
237.934434
 42
0.139096
  0
VERTEX
  8
0
 10
414.000000
 20
241.309348
 42
-0.089473
  0
VERTEX
  8
0
 10
414.168263
 20
242.242119
 42
-0.029277
  0
VERTEX
  8
0
 10
414.734375
 20
243.525348
 42
-0.028100
  0
VERTEX
  8
0
 10
415.543205
 20
244.905165
 42
-0.028288
  0
VERTEX
  8
0
 10
416.500000
 20
246.182369
 42
0.025965
  0
VERTEX
  8
0
 10
417.456831
 20
247.447343
 42
0.026870
  0
VERTEX
  8
0
 10
418.265625
 20
248.790699
 42
0.027841
  0
VERTEX
  8
0
 10
418.834834
 20
250.023539
 42
0.094499
  0
VERTEX
  8
0
 10
419.000000
 20
250.889634
 42
-0.161360
  0
VERTEX
  8
0
 10
419.621799
 20
252.766214
 42
-0.040779
  0
VERTEX
  8
0
 10
421.773729
 20
255.212666
 42
-0.041178
  0
VERTEX
  8
0
 10
424.553841
 20
257.486405
 42
-0.060563
  0
VERTEX
  8
0
 10
427.346768
 20
258.948422
 42
0.051927
  0
VERTEX
  8
0
 10
428.476460
 20
259.515223
 42
0.045726
  0
VERTEX
  8
0
 10
429.518407
 20
260.324186
 42
0.048285
  0
VERTEX
  8
0
 10
430.325861
 20
261.239762
 42
0.092880
  0
VERTEX
  8
0
 10
430.741992
 20
262.121376
 42
-0.154027
  0
VERTEX
  8
0
 10
431.843258
 20
263.872356
 42
-0.059392
  0
VERTEX
  8
0
 10
434.263466
 20
265.475599
 42
-0.058411
  0
VERTEX
  8
0
 10
437.096446
 20
266.508874
 42
-0.112424
  0
VERTEX
  8
0
 10
439.500000
 20
266.530842
 42
0.008803
  0
VERTEX
  8
0
 10
440.689009
 20
266.293327
 42
0.001322
  0
VERTEX
  8
0
 10
443.084574
 20
265.865039
 42
0.001484
  0
VERTEX
  8
0
 10
445.916661
 20
265.375092
 42
0.001281
  0
SEQEND
  0
POLYLINE
  8
0
 66
1
 70
1
  0
VERTEX
  8
0
 10
591.300000
 20
237.500000
 42
0.025499
  0
VERTEX
  8
0
 10
593.116121
 20
235.860235
 42
0.050679
  0
VERTEX
  8
0
 10
594.733730
 20
234.795442
 42
0.060988
  0
VERTEX
  8
0
 10
596.315526
 20
234.201751
 42
0.059378
  0
VERTEX
  8
0
 10
598.008408
 20
234.000000
 42
-0.017726
  0
VERTEX
  8
0
 10
599.948457
 20
233.931200
 42
-0.195516
  0
VERTEX
  8
0
 10
600.632312
 20
233.594888
 42
-0.228486
  0
VERTEX
  8
0
 10
600.828556
 20
232.908086
 42
-0.024623
  0
VERTEX
  8
0
 10
600.457469
 20
231.250000
 42
0.015451
  0
VERTEX
  8
0
 10
600.148809
 20
229.980537
 42
0.008754
  0
VERTEX
  8
0
 10
599.849776
 20
228.426563
 42
0.008733
  0
VERTEX
  8
0
 10
599.602941
 20
226.848252
 42
0.014206
  0
VERTEX
  8
0
 10
599.455042
 20
225.500000
 42
-0.000205
  0
VERTEX
  8
0
 10
599.354204
 20
224.261817
 42
-0.000204
  0
VERTEX
  8
0
 10
599.252234
 20
223.022268
 42
-0.000200
  0
VERTEX
  8
0
 10
599.162263
 20
221.939295
 42
-0.000805
  0
VERTEX
  8
0
 10
599.105980
 20
221.277935
 42
-0.233826
  0
VERTEX
  8
0
 10
598.762704
 20
220.712854
 42
-0.025342
  0
VERTEX
  8
0
 10
597.395297
 20
219.939301
 42
-0.026869
  0
VERTEX
  8
0
 10
595.572307
 20
219.146052
 42
-0.018449
  0
VERTEX
  8
0
 10
593.431199
 20
218.436975
 42
0.047676
  0
VERTEX
  8
0
 10
589.269797
 20
216.783582
 42
0.036691
  0
VERTEX
  8
0
 10
585.092904
 20
214.240946
 42
0.033780
  0
VERTEX
  8
0
 10
581.790442
 20
211.528036
 42
0.237951
  0
VERTEX
  8
0
 10
581.101799
 20
209.631759
 42
-0.102624
  0
VERTEX
  8
0
 10
580.895222
 20
207.226181
 42
-0.261856
  0
VERTEX
  8
0
 10
579.679652
 20
206.051273
 42
-0.067260
  0
VERTEX
  8
0
 10
576.659331
 20
205.681385
 42
-0.003422
  0
VERTEX
  8
0
 10
566.750415
 20
205.872666
 42
0.001749
  0
VERTEX
  8
0
 10
560.909627
 20
206.004963
 42
0.001819
  0
VERTEX
  8
0
 10
555.143872
 20
206.094394
 42
0.001749
  0
VERTEX
  8
0
 10
550.156360
 20
206.136152
 42
0.007939
  0
VERTEX
  8
0
 10
547.250000
 20
206.104168
 42
-0.028787
  0
VERTEX
  8
0
 10
543.953090
 20
206.205335
 42
-0.130017
  0
VERTEX
  8
0
 10
542.157667
 20
206.854247
 42
-0.585063
  0
VERTEX
  8
0
 10
542.227382
 20
207.599037
 42
-0.069526
  0
VERTEX
  8
0
 10
544.250000
 20
208.180449
 42
0.063836
  0
VERTEX
  8
0
 10
545.299761
 20
208.469373
 42
0.124543
  0
VERTEX
  8
0
 10
545.989709
 20
208.987251
 42
0.117337
  0
VERTEX
  8
0
 10
546.375224
 20
209.794600
 42
0.053021
  0
VERTEX
  8
0
 10
546.500000
 20
210.967961
 42
0.074672
  0
VERTEX
  8
0
 10
546.303607
 20
212.275664
 42
0.134609
  0
VERTEX
  8
0
 10
545.726725
 20
213.184168
 42
0.091296
  0
VERTEX
  8
0
 10
544.590279
 20
213.889331
 42
0.022428
  0
VERTEX
  8
0
 10
542.500000
 20
214.601610
 42
0.000000
  0
VERTEX
  8
0
 10
538.500000
 20
215.767299
 42
0.000000
  0
VERTEX
  8
0
 10
541.315100
 20
216.883650
 42
-0.017719
  0
VERTEX
  8
0
 10
542.516478
 20
217.311465
 42
-0.015554
  0
VERTEX
  8
0
 10
543.798203
 20
217.673882
 42
-0.015820
  0
VERTEX
  8
0
 10
544.975938
 20
217.928383
 42
-0.044411
  0
VERTEX
  8
0
 10
545.815100
 20
218.006161
 42
0.061641
  0
VERTEX
  8
0
 10
546.664325
 20
218.114409
 42
0.019716
  0
VERTEX
  8
0
 10
547.886311
 20
218.478185
 42
0.019338
  0
VERTEX
  8
0
 10
549.227782
 20
218.994542
 42
0.020450
  0
VERTEX
  8
0
 10
550.500000
 20
219.604400
 42
-0.050851
  0
VERTEX
  8
0
 10
552.299483
 20
220.336284
 42
-0.045344
  0
VERTEX
  8
0
 10
554.280507
 20
220.725592
 42
-0.034370
  0
VERTEX
  8
0
 10
556.750675
 20
220.811358
 42
-0.013840
  0
VERTEX
  8
0
 10
560.122434
 20
220.603113
 42
0.017093
  0
VERTEX
  8
0
 10
564.050714
 20
220.386138
 42
0.050303
  0
VERTEX
  8
0
 10
566.745711
 20
220.600910
 42
0.047478
  0
VERTEX
  8
0
 10
569.427510
 20
221.357372
 42
0.013971
  0
VERTEX
  8
0
 10
573.372434
 20
223.014830
 42
0.012328
  0
VERTEX
  8
0
 10
576.595905
 20
224.573336
 42
0.043104
  0
VERTEX
  8
0
 10
578.549037
 20
225.801008
 42
0.073415
  0
VERTEX
  8
0
 10
579.634971
 20
226.905525
 42
0.158904
  0
VERTEX
  8
0
 10
580.000000
 20
228.025104
 42
-0.111011
  0
VERTEX
  8
0
 10
580.541170
 20
230.432523
 42
-0.013062
  0
VERTEX
  8
0
 10
583.037292
 20
235.366553
 42
-0.008526
  0
VERTEX
  8
0
 10
585.821386
 20
240.326042
 42
-0.266615
  0
VERTEX
  8
0
 10
586.995458
 20
241.000000
 42
-0.160826
  0
VERTEX
  8
0
 10
587.469231
 20
240.843564
 42
-0.011209
  0
VERTEX
  8
0
 10
588.591791
 20
239.971875
 42
-0.014998
  0
VERTEX
  8
0
 10
589.900675
 20
238.840765
 42
-0.010685
  0
SEQEND
  0
POLYLINE
  8
0
 66
1
 70
1
  0
VERTEX
  8
0
 10
414.457581
 20
214.703058
 42
0.049638
  0
VERTEX
  8
0
 10
415.423526
 20
214.326954
 42
0.023183
  0
VERTEX
  8
0
 10
416.733834
 20
214.026020
 42
0.022701
  0
VERTEX
  8
0
 10
418.149302
 20
213.835206
 42
0.029462
  0
VERTEX
  8
0
 10
419.457581
 20
213.796345
 42
-0.060190
  0
VERTEX
  8
0
 10
420.929679
 20
213.661978
 42
-0.023999
  0
VERTEX
  8
0
 10
422.891726
 20
213.141610
 42
-0.023331
  0
VERTEX
  8
0
 10
424.977296
 20
212.371110
 42
-0.027148
  0
VERTEX
  8
0
 10
426.875953
 20
211.442623
 42
0.030381
  0
VERTEX
  8
0
 10
429.386158
 20
210.235104
 42
0.043167
  0
VERTEX
  8
0
 10
431.749783
 20
209.500464
 42
0.037335
  0
VERTEX
  8
0
 10
434.450269
 20
209.118722
 42
0.016450
  0
VERTEX
  8
0
 10
438.057859
 20
209.000000
 42
-0.009738
  0
VERTEX
  8
0
 10
442.138477
 20
208.920518
 42
-0.066457
  0
VERTEX
  8
0
 10
444.117316
 20
208.577436
 42
-0.112078
  0
VERTEX
  8
0
 10
445.463428
 20
207.793039
 42
-0.050964
  0
VERTEX
  8
0
 10
446.811652
 20
206.250000
 42
-0.059265
  0
VERTEX
  8
0
 10
447.628145
 20
204.747884
 42
-0.022820
  0
VERTEX
  8
0
 10
448.407244
 20
202.501661
 42
-0.021738
  0
VERTEX
  8
0
 10
449.055712
 20
199.905418
 42
-0.021715
  0
VERTEX
  8
0
 10
449.476567
 20
197.261771
 42
0.020379
  0
VERTEX
  8
0
 10
449.919114
 20
194.433210
 42
0.028030
  0
VERTEX
  8
0
 10
450.560614
 20
191.941645
 42
0.031924
  0
VERTEX
  8
0
 10
451.369494
 20
189.867661
 42
0.057770
  0
VERTEX
  8
0
 10
452.322443
 20
188.317209
 42
-0.053133
  0
VERTEX
  8
0
 10
453.176755
 20
186.955623
 42
-0.025979
  0
VERTEX
  8
0
 10
453.979945
 20
185.067702
 42
-0.025432
  0
VERTEX
  8
0
 10
454.618950
 20
182.997883
 42
-0.033508
  0
VERTEX
  8
0
 10
454.975622
 20
181.055438
 42
0.016536
  0
VERTEX
  8
0
 10
455.354030
 20
178.511642
 42
0.095072
  0
VERTEX
  8
0
 10
455.844701
 20
177.247765
 42
0.156992
  0
VERTEX
  8
0
 10
456.647341
 20
176.572446
 42
0.070255
  0
VERTEX
  8
0
 10
458.000000
 20
176.230307
 42
-0.008233
  0
VERTEX
  8
0
 10
463.170377
 20
175.586262
 42
-0.067075
  0
VERTEX
  8
0
 10
465.458978
 20
174.942165
 42
-0.156766
  0
VERTEX
  8
0
 10
466.616970
 20
173.927980
 42
-0.106409
  0
VERTEX
  8
0
 10
467.186806
 20
172.256088
 42
0.054203
  0
VERTEX
  8
0
 10
467.472400
 20
171.006918
 42
0.092291
  0
VERTEX
  8
0
 10
468.000304
 20
170.078733
 42
0.096471
  0
VERTEX
  8
0
 10
468.807884
 20
169.429317
 42
0.063902
  0
VERTEX
  8
0
 10
469.925861
 20
169.011963
 42
-0.063876
  0
VERTEX
  8
0
 10
471.899357
 20
168.275348
 42
-0.213215
  0
VERTEX
  8
0
 10
472.733561
 20
167.213349
 42
-0.367146
  0
VERTEX
  8
0
 10
472.301012
 20
166.335977
 42
-0.102614
  0
VERTEX
  8
0
 10
470.681158
 20
166.000000
 42
0.065178
  0
VERTEX
  8
0
 10
469.459627
 20
165.840088
 42
0.106147
  0
VERTEX
  8
0
 10
468.531924
 20
165.366692
 42
0.094606
  0
VERTEX
  8
0
 10
467.810972
 20
164.508660
 42
0.043708
  0
VERTEX
  8
0
 10
467.210577
 20
163.174216
 42
0.037186
  0
VERTEX
  8
0
 10
466.882854
 20
161.947666
 42
0.039704
  0
VERTEX
  8
0
 10
466.749732
 20
160.712808
 42
0.043312
  0
VERTEX
  8
0
 10
466.814200
 20
159.612922
 42
0.091527
  0
VERTEX
  8
0
 10
467.088161
 20
158.806949
 42
-0.223812
  0
VERTEX
  8
0
 10
467.201724
 20
157.183514
 42
-0.140208
  0
VERTEX
  8
0
 10
466.029101
 20
155.638205
 42
-0.082592
  0
VERTEX
  8
0
 10
463.540434
 20
154.348076
 42
-0.038602
  0
VERTEX
  8
0
 10
460.000000
 20
153.495603
 42
0.021421
  0
VERTEX
  8
0
 10
458.074923
 20
153.101454
 42
0.016458
  0
VERTEX
  8
0
 10
456.010994
 20
152.513094
 42
0.016737
  0
VERTEX
  8
0
 10
454.114448
 20
151.833484
 42
0.037529
  0
VERTEX
  8
0
 10
452.739554
 20
151.164956
 42
-0.027250
  0
VERTEX
  8
0
 10
451.048314
 20
150.299225
 42
-0.106252
  0
VERTEX
  8
0
 10
449.904897
 20
150.059195
 42
-0.096042
  0
VERTEX
  8
0
 10
448.703353
 20
150.298121
 42
-0.020045
  0
VERTEX
  8
0
 10
446.739554
 20
151.193706
 42
0.059617
  0
VERTEX
  8
0
 10
443.356513
 20
152.424254
 42
0.024676
  0
VERTEX
  8
0
 10
438.558753
 20
153.299416
 42
0.016808
  0
VERTEX
  8
0
 10
433.879255
 20
153.756983
 42
0.277049
  0
VERTEX
  8
0
 10
432.540608
 20
153.065705
 42
-0.111203
  0
VERTEX
  8
0
 10
432.118990
 20
152.635287
 42
-0.010608
  0
VERTEX
  8
0
 10
430.859552
 20
151.857885
 42
-0.013119
  0
VERTEX
  8
0
 10
429.296221
 20
150.992507
 42
-0.009980
  0
VERTEX
  8
0
 10
427.541211
 20
150.124376
 42
0.028810
  0
VERTEX
  8
0
 10
425.698333
 20
149.124748
 42
0.024250
  0
VERTEX
  8
0
 10
423.869225
 20
147.865032
 42
0.024949
  0
VERTEX
  8
0
 10
422.310187
 20
146.547917
 42
0.059918
  0
VERTEX
  8
0
 10
421.337914
 20
145.392970
 42
-0.045195
  0
VERTEX
  8
0
 10
420.165844
 20
143.914679
 42
-0.135174
  0
VERTEX
  8
0
 10
419.070034
 20
143.255763
 42
-0.085832
  0
VERTEX
  8
0
 10
417.503127
 20
143.096308
 42
-0.011792
  0
VERTEX
  8
0
 10
414.223324
 20
143.403572
 42
-0.018867
  0
VERTEX
  8
0
 10
411.937649
 20
143.760067
 42
-0.015553
  0
VERTEX
  8
0
 10
409.531517
 20
144.307112
 42
-0.015835
  0
VERTEX
  8
0
 10
407.352707
 20
144.948583
 42
-0.039836
  0
VERTEX
  8
0
 10
405.827985
 20
145.588952
 42
0.045208
  0
VERTEX
  8
0
 10
404.202274
 20
146.251317
 42
0.013311
  0
VERTEX
  8
0
 10
401.604947
 20
146.969932
 42
0.013247
  0
VERTEX
  8
0
 10
398.626924
 20
147.625906
 42
0.013879
  0
VERTEX
  8
0
 10
395.664113
 20
148.111827
 42
-0.002457
  0
VERTEX
  8
0
 10
385.235437
 20
149.578452
 42
-0.062398
  0
VERTEX
  8
0
 10
382.471069
 20
150.341329
 42
-0.166572
  0
VERTEX
  8
0
 10
380.929082
 20
151.704745
 42
-0.039929
  0
VERTEX
  8
0
 10
379.462504
 20
154.845560
 42
0.024893
  0
VERTEX
  8
0
 10
377.655951
 20
159.038576
 42
0.088475
  0
VERTEX
  8
0
 10
375.931570
 20
161.388380
 42
0.121604
  0
VERTEX
  8
0
 10
373.824406
 20
162.592644
 42
0.069408
  0
VERTEX
  8
0
 10
370.904029
 20
163.000000
 42
-0.018441
  0
VERTEX
  8
0
 10
369.420818
 20
163.054724
 42
-0.025330
  0
VERTEX
  8
0
 10
368.096666
 20
163.220313
 42
-0.023835
  0
VERTEX
  8
0
 10
367.049944
 20
163.457367
 42
-0.191184
  0
VERTEX
  8
0
 10
366.663550
 20
163.750000
 42
-0.185763
  0
VERTEX
  8
0
 10
366.561593
 20
164.318477
 42
-0.006046
  0
VERTEX
  8
0
 10
367.034826
 20
166.629687
 42
-0.010857
  0
VERTEX
  8
0
 10
367.695555
 20
169.380023
 42
-0.007248
  0
VERTEX
  8
0
 10
368.565678
 20
172.500000
 42
0.012229
  0
VERTEX
  8
0
 10
369.470686
 20
175.874593
 42
0.011113
  0
VERTEX
  8
0
 10
370.241448
 20
179.398438
 42
0.011203
  0
VERTEX
  8
0
 10
370.790014
 20
182.580650
 42
0.034804
  0
VERTEX
  8
0
 10
370.961144
 20
184.750000
 42
-0.016202
  0
VERTEX
  8
0
 10
371.054884
 20
187.005076
 42
-0.088402
  0
VERTEX
  8
0
 10
371.356175
 20
188.183593
 42
-0.175134
  0
VERTEX
  8
0
 10
371.939920
 20
188.781531
 42
-0.113144
  0
VERTEX
  8
0
 10
372.893011
 20
189.000000
 42
0.139676
  0
VERTEX
  8
0
 10
374.274489
 20
189.393598
 42
0.136687
  0
VERTEX
  8
0
 10
375.254817
 20
190.458662
 42
0.086978
  0
VERTEX
  8
0
 10
375.826454
 20
192.314590
 42
0.031327
  0
VERTEX
  8
0
 10
376.000000
 20
195.081787
 42
-0.060099
  0
VERTEX
  8
0
 10
376.158933
 20
196.399278
 42
-0.042733
  0
VERTEX
  8
0
 10
376.635116
 20
197.810084
 42
-0.042053
  0
VERTEX
  8
0
 10
377.356842
 20
199.147071
 42
-0.051890
  0
VERTEX
  8
0
 10
378.250000
 20
200.245406
 42
0.035723
  0
VERTEX
  8
0
 10
379.253908
 20
201.401625
 42
0.015464
  0
VERTEX
  8
0
 10
380.426562
 20
203.069958
 42
0.015211
  0
VERTEX
  8
0
 10
381.569559
 20
204.928731
 42
0.019513
  0
VERTEX
  8
0
 10
382.500000
 20
206.707778
 42
-0.037562
  0
VERTEX
  8
0
 10
383.520635
 20
208.498882
 42
-0.024843
  0
VERTEX
  8
0
 10
384.940625
 20
210.395327
 42
-0.025022
  0
VERTEX
  8
0
 10
386.514168
 20
212.110293
 42
-0.043633
  0
VERTEX
  8
0
 10
388.000000
 20
213.339437
 42
-0.044908
  0
VERTEX
  8
0
 10
390.343268
 20
214.663017
 42
-0.063972
  0
VERTEX
  8
0
 10
392.626746
 20
215.360989
 42
-0.036762
  0
VERTEX
  8
0
 10
395.824926
 20
215.666966
 42
-0.006133
  0
VERTEX
  8
0
 10
402.000000
 20
215.726401
 42
-0.008691
  0
VERTEX
  8
0
 10
406.164084
 20
215.643012
 42
-0.011140
  0
VERTEX
  8
0
 10
409.990665
 20
215.414356
 42
-0.009142
  0
VERTEX
  8
0
 10
413.165347
 20
215.095038
 42
-0.088220
  0
SEQEND
  0
POLYLINE
  8
0
 66
1
 70
1
  0
VERTEX
  8
0
 10
446.363576
 20
148.225354
 42
0.016599
  0
VERTEX
  8
0
 10
448.721252
 20
147.320716
 42
0.086183
  0
VERTEX
  8
0
 10
450.092218
 20
147.097727
 42
0.100920
  0
VERTEX
  8
0
 10
451.354368
 20
147.369202
 42
0.027007
  0
VERTEX
  8
0
 10
453.197372
 20
148.298492
 42
-0.030630
  0
VERTEX
  8
0
 10
454.604300
 20
148.995171
 42
-0.017002
  0
VERTEX
  8
0
 10
456.394116
 20
149.678158
 42
-0.016904
  0
VERTEX
  8
0
 10
458.260058
 20
150.248694
 42
-0.026097
  0
VERTEX
  8
0
 10
459.908957
 20
150.601432
 42
0.000000
  0
VERTEX
  8
0
 10
463.650322
 20
151.199701
 42
0.000000
  0
VERTEX
  8
0
 10
463.607662
 20
138.617350
 42
0.005981
  0
VERTEX
  8
0
 10
463.656860
 20
132.877584
 42
0.016100
  0
VERTEX
  8
0
 10
463.871920
 20
128.802967
 42
0.017470
  0
VERTEX
  8
0
 10
464.218169
 20
125.928187
 42
0.158968
  0
VERTEX
  8
0
 10
464.782501
 20
124.817499
 42
-0.128459
  0
VERTEX
  8
0
 10
465.683331
 20
123.279605
 42
-0.108778
  0
VERTEX
  8
0
 10
465.792192
 20
121.393657
 42
-0.048091
  0
VERTEX
  8
0
 10
465.031290
 20
118.476540
 42
-0.007107
  0
VERTEX
  8
0
 10
462.851869
 20
112.781226
 42
-0.012970
  0
VERTEX
  8
0
 10
461.036481
 20
108.553929
 42
-0.040627
  0
VERTEX
  8
0
 10
459.520470
 20
105.861241
 42
-0.053662
  0
VERTEX
  8
0
 10
457.844224
 20
103.876004
 42
-0.038957
  0
VERTEX
  8
0
 10
455.601869
 20
102.045978
 42
0.014257
  0
VERTEX
  8
0
 10
453.817190
 20
100.730665
 42
0.009448
  0
VERTEX
  8
0
 10
451.842153
 20
99.125218
 42
0.009513
  0
VERTEX
  8
0
 10
449.981300
 20
97.491607
 42
0.018219
  0
VERTEX
  8
0
 10
448.562909
 20
96.099854
 42
-0.019639
  0
VERTEX
  8
0
 10
447.346480
 20
94.913029
 42
-0.024246
  0
VERTEX
  8
0
 10
446.120257
 20
93.910582
 42
-0.023736
  0
VERTEX
  8
0
 10
445.033160
 20
93.183685
 42
-0.136315
  0
VERTEX
  8
0
 10
444.371926
 20
93.000000
 42
-0.127992
  0
VERTEX
  8
0
 10
443.224065
 20
93.298727
 42
-0.172233
  0
VERTEX
  8
0
 10
442.521042
 20
94.099513
 42
-0.140988
  0
VERTEX
  8
0
 10
442.401148
 20
95.303780
 42
-0.078058
  0
VERTEX
  8
0
 10
442.893125
 20
96.709323
 42
0.008531
  0
VERTEX
  8
0
 10
443.302435
 20
97.504370
 42
0.005946
  0
VERTEX
  8
0
 10
443.738194
 20
98.414614
 42
0.005999
  0
VERTEX
  8
0
 10
444.135412
 20
99.297925
 42
0.012354
  0
VERTEX
  8
0
 10
444.420637
 20
100.000000
 42
-0.024462
  0
VERTEX
  8
0
 10
444.726158
 20
100.702755
 42
-0.011149
  0
VERTEX
  8
0
 10
445.189879
 20
101.590642
 42
-0.011010
  0
VERTEX
  8
0
 10
445.721100
 20
102.506456
 42
-0.014876
  0
VERTEX
  8
0
 10
446.243635
 20
103.308569
 42
0.043360
  0
VERTEX
  8
0
 10
446.826815
 20
104.325992
 42
0.161756
  0
VERTEX
  8
0
 10
446.908950
 20
105.049273
 42
0.147851
  0
VERTEX
  8
0
 10
446.542992
 20
105.717196
 42
0.034328
  0
VERTEX
  8
0
 10
445.558870
 20
106.558569
 42
0.069677
  0
VERTEX
  8
0
 10
444.543875
 20
107.112538
 42
0.029226
  0
VERTEX
  8
0
 10
443.054504
 20
107.576580
 42
0.028215
  0
VERTEX
  8
0
 10
441.378909
 20
107.893944
 42
0.032705
  0
VERTEX
  8
0
 10
439.759210
 20
108.000000
 42
-0.054624
  0
VERTEX
  8
0
 10
436.387738
 20
108.369428
 42
-0.056730
  0
VERTEX
  8
0
 10
433.221471
 20
109.459675
 42
-0.063671
  0
VERTEX
  8
0
 10
430.764897
 20
111.041638
 42
-0.141985
  0
VERTEX
  8
0
 10
429.540364
 20
112.872826
 42
0.116594
  0
VERTEX
  8
0
 10
427.782744
 20
115.808499
 42
0.021409
  0
VERTEX
  8
0
 10
423.154713
 20
120.175384
 42
0.022811
  0
VERTEX
  8
0
 10
418.113124
 20
124.152790
 42
0.088463
  0
VERTEX
  8
0
 10
414.536460
 20
125.862322
 42
-0.024990
  0
VERTEX
  8
0
 10
412.954690
 20
126.385400
 42
-0.020487
  0
VERTEX
  8
0
 10
411.321991
 20
127.095622
 42
-0.020961
  0
VERTEX
  8
0
 10
409.873028
 20
127.874433
 42
-0.050156
  0
VERTEX
  8
0
 10
408.891856
 20
128.597869
 42
0.082520
  0
VERTEX
  8
0
 10
407.798795
 20
129.299872
 42
0.030011
  0
VERTEX
  8
0
 10
406.060945
 20
129.926818
 42
0.027823
  0
VERTEX
  8
0
 10
403.976129
 20
130.416265
 42
0.024528
  0
VERTEX
  8
0
 10
401.760131
 20
130.696774
 42
-0.016955
  0
VERTEX
  8
0
 10
399.364675
 20
130.963220
 42
-0.009710
  0
VERTEX
  8
0
 10
396.495010
 20
131.438404
 42
-0.009691
  0
VERTEX
  8
0
 10
393.624864
 20
132.028882
 42
-0.015881
  0
VERTEX
  8
0
 10
391.222882
 20
132.652557
 42
0.020964
  0
VERTEX
  8
0
 10
389.021090
 20
133.200428
 42
0.020635
  0
VERTEX
  8
0
 10
386.769508
 20
133.565384
 42
0.021028
  0
VERTEX
  8
0
 10
384.774277
 20
133.720080
 42
0.070424
  0
VERTEX
  8
0
 10
383.472882
 20
133.582550
 42
-0.041188
  0
VERTEX
  8
0
 10
382.036654
 20
133.345501
 42
-0.245782
  0
VERTEX
  8
0
 10
381.360017
 20
133.632189
 42
-0.151430
  0
VERTEX
  8
0
 10
381.017661
 20
134.471149
 42
-0.014082
  0
VERTEX
  8
0
 10
380.884846
 20
136.730948
 42
-0.022363
  0
VERTEX
  8
0
 10
380.963686
 20
142.292022
 42
-0.114618
  0
VERTEX
  8
0
 10
381.832008
 20
145.232531
 42
-0.213791
  0
VERTEX
  8
0
 10
383.593712
 20
146.528323
 42
-0.104162
  0
VERTEX
  8
0
 10
386.443118
 20
146.543600
 42
0.009274
  0
VERTEX
  8
0
 10
388.056845
 20
146.243833
 42
0.002659
  0
VERTEX
  8
0
 10
390.567205
 20
145.839222
 42
0.002675
  0
VERTEX
  8
0
 10
393.404454
 20
145.412927
 42
0.002841
  0
VERTEX
  8
0
 10
396.189922
 20
145.025781
 42
-0.012487
  0
VERTEX
  8
0
 10
398.920539
 20
144.592413
 42
-0.012945
  0
VERTEX
  8
0
 10
401.593265
 20
144.027615
 42
-0.012736
  0
VERTEX
  8
0
 10
403.877083
 20
143.421016
 42
-0.053242
  0
VERTEX
  8
0
 10
405.189922
 20
142.879115
 42
0.062563
  0
VERTEX
  8
0
 10
408.557240
 20
141.561861
 42
0.019671
  0
VERTEX
  8
0
 10
413.859794
 20
140.439492
 42
0.015043
  0
VERTEX
  8
0
 10
419.144827
 20
139.699207
 42
0.156071
  0
VERTEX
  8
0
 10
421.270054
 20
140.131254
 42
0.077635
  0
VERTEX
  8
0
 10
421.889377
 20
140.617058
 42
0.039880
  0
VERTEX
  8
0
 10
422.504102
 20
141.391455
 42
0.038411
  0
VERTEX
  8
0
 10
423.022779
 20
142.309109
 42
0.046879
  0
VERTEX
  8
0
 10
423.355250
 20
143.237228
 42
-0.109942
  0
VERTEX
  8
0
 10
423.932885
 20
144.376372
 42
-0.049605
  0
VERTEX
  8
0
 10
425.126175
 20
145.564830
 42
-0.038932
  0
VERTEX
  8
0
 10
426.883907
 20
146.783991
 42
-0.020940
  0
VERTEX
  8
0
 10
429.216864
 20
148.018551
 42
-0.045379
  0
VERTEX
  8
0
 10
433.543700
 20
149.618355
 42
-0.062932
  0
VERTEX
  8
0
 10
437.635132
 20
150.185575
 42
-0.061636
  0
VERTEX
  8
0
 10
441.803275
 20
149.720767
 42
-0.041373
  0
SEQEND
  0
POLYLINE
  8
0
 66
1
 70
1
  0
VERTEX
  8
0
 10
391.338691
 20
129.500000
 42
0.013001
  0
VERTEX
  8
0
 10
393.814775
 20
128.923364
 42
0.010584
  0
VERTEX
  8
0
 10
396.493137
 20
128.431457
 42
0.010731
  0
VERTEX
  8
0
 10
398.980216
 20
128.083492
 42
0.027285
  0
VERTEX
  8
0
 10
400.798790
 20
127.968790
 42
-0.048255
  0
VERTEX
  8
0
 10
402.544183
 20
127.785082
 42
-0.028004
  0
VERTEX
  8
0
 10
404.584684
 20
127.248167
 42
-0.027160
  0
VERTEX
  8
0
 10
406.654766
 20
126.450975
 42
-0.032546
  0
VERTEX
  8
0
 10
408.500000
 20
125.473914
 42
0.017559
  0
VERTEX
  8
0
 10
410.159562
 20
124.530474
 42
0.019021
  0
VERTEX
  8
0
 10
411.838216
 20
123.732444
 42
0.018889
  0
VERTEX
  8
0
 10
413.320911
 20
123.160835
 42
0.081997
  0
VERTEX
  8
0
 10
414.247119
 20
123.005123
 42
-0.162497
  0
VERTEX
  8
0
 10
416.440938
 20
122.265651
 42
-0.022667
  0
VERTEX
  8
0
 10
420.180783
 20
119.162547
 42
-0.026697
  0
VERTEX
  8
0
 10
423.926264
 20
115.372427
 42
-0.040772
  0
VERTEX
  8
0
 10
426.702550
 20
111.679140
 42
0.065853
  0
VERTEX
  8
0
 10
429.050862
 20
108.860451
 42
0.065747
  0
VERTEX
  8
0
 10
432.052482
 20
106.747514
 42
0.063921
  0
VERTEX
  8
0
 10
435.578755
 20
105.442766
 42
0.056740
  0
VERTEX
  8
0
 10
439.467881
 20
105.000000
 42
-0.039809
  0
VERTEX
  8
0
 10
441.618747
 20
104.828479
 42
-0.156218
  0
VERTEX
  8
0
 10
442.791305
 20
104.234209
 42
-0.345271
  0
VERTEX
  8
0
 10
442.896384
 20
103.410417
 42
-0.120372
  0
VERTEX
  8
0
 10
442.000000
 20
102.500000
 42
0.128561
  0
VERTEX
  8
0
 10
441.615613
 20
102.096789
 42
0.046040
  0
VERTEX
  8
0
 10
441.293750
 20
101.363811
 42
0.041947
  0
VERTEX
  8
0
 10
441.073871
 20
100.457084
 42
0.038534
  0
VERTEX
  8
0
 10
441.000000
 20
99.500000
 42
-0.038534
  0
VERTEX
  8
0
 10
440.926129
 20
98.542916
 42
-0.041947
  0
VERTEX
  8
0
 10
440.706250
 20
97.636189
 42
-0.046040
  0
VERTEX
  8
0
 10
440.384387
 20
96.903211
 42
-0.128561
  0
VERTEX
  8
0
 10
440.000000
 20
96.500000
 42
0.197676
  0
VERTEX
  8
0
 10
439.169566
 20
95.353596
 42
0.079313
  0
VERTEX
  8
0
 10
439.015256
 20
93.386566
 42
0.087866
  0
VERTEX
  8
0
 10
439.476776
 20
91.618179
 42
0.293037
  0
VERTEX
  8
0
 10
440.440983
 20
91.000000
 42
-0.159672
  0
VERTEX
  8
0
 10
441.900083
 20
90.521854
 42
-0.250000
  0
VERTEX
  8
0
 10
442.458570
 20
89.358264
 42
-0.107123
  0
VERTEX
  8
0
 10
441.924760
 20
87.317957
 42
-0.024727
  0
VERTEX
  8
0
 10
440.152657
 20
84.214097
 42
0.015556
  0
VERTEX
  8
0
 10
438.849026
 20
82.024991
 42
0.009046
  0
VERTEX
  8
0
 10
437.415205
 20
79.323273
 42
0.009038
  0
VERTEX
  8
0
 10
436.075155
 20
76.561467
 42
0.015061
  0
VERTEX
  8
0
 10
435.060138
 20
74.184278
 42
-0.039541
  0
VERTEX
  8
0
 10
431.017895
 20
65.868667
 42
-0.034444
  0
VERTEX
  8
0
 10
425.547145
 20
57.878417
 42
-0.035370
  0
VERTEX
  8
0
 10
419.233823
 20
50.963326
 42
-0.050627
  0
VERTEX
  8
0
 10
412.673453
 20
45.882515
 42
0.027580
  0
VERTEX
  8
0
 10
406.153406
 20
41.296780
 42
0.057312
  0
VERTEX
  8
0
 10
401.750673
 20
36.918606
 42
0.055147
  0
VERTEX
  8
0
 10
398.355245
 20
31.544853
 42
0.023831
  0
VERTEX
  8
0
 10
395.009698
 20
23.755466
 42
-0.055477
  0
VERTEX
  8
0
 10
392.831513
 20
19.455320
 42
-0.036479
  0
VERTEX
  8
0
 10
389.458896
 20
15.042999
 42
-0.032002
  0
VERTEX
  8
0
 10
385.987087
 20
11.599817
 42
-0.328853
  0
VERTEX
  8
0
 10
384.090267
 20
11.444212
 42
-0.230951
  0
VERTEX
  8
0
 10
383.248718
 20
12.776771
 42
-0.024650
  0
VERTEX
  8
0
 10
383.022640
 20
16.537183
 42
-0.023462
  0
VERTEX
  8
0
 10
383.156407
 20
20.235271
 42
-0.390087
  0
VERTEX
  8
0
 10
383.987455
 20
21.000000
 42
0.236962
  0
VERTEX
  8
0
 10
384.997394
 20
21.507109
 42
0.010176
  0
VERTEX
  8
0
 10
387.375916
 20
24.840478
 42
0.013212
  0
VERTEX
  8
0
 10
389.557901
 20
28.222399
 42
0.137498
  0
VERTEX
  8
0
 10
390.000000
 20
29.799661
 42
0.215503
  0
VERTEX
  8
0
 10
389.815495
 20
30.207859
 42
0.028033
  0
VERTEX
  8
0
 10
389.045313
 20
30.812690
 42
0.028560
  0
VERTEX
  8
0
 10
387.994867
 20
31.460432
 42
0.020210
  0
VERTEX
  8
0
 10
386.750000
 20
32.069533
 42
-0.052755
  0
VERTEX
  8
0
 10
385.374865
 20
32.856956
 42
-0.034781
  0
VERTEX
  8
0
 10
383.974015
 20
34.024922
 42
-0.034698
  0
VERTEX
  8
0
 10
382.743398
 20
35.381072
 42
-0.051102
  0
VERTEX
  8
0
 10
381.882323
 20
36.738097
 42
0.023403
  0
VERTEX
  8
0
 10
380.132364
 20
39.865832
 42
0.055128
  0
VERTEX
  8
0
 10
378.480327
 20
41.963766
 42
0.060221
  0
VERTEX
  8
0
 10
376.504721
 20
43.539615
 42
0.032896
  0
VERTEX
  8
0
 10
373.761939
 20
44.992878
 42
-0.042417
  0
VERTEX
  8
0
 10
372.165578
 20
45.877987
 42
-0.026605
  0
VERTEX
  8
0
 10
370.457489
 20
47.161022
 42
-0.026634
  0
VERTEX
  8
0
 10
368.899326
 20
48.614617
 42
-0.043321
  0
VERTEX
  8
0
 10
367.761939
 20
50.020372
 42
0.046015
  0
VERTEX
  8
0
 10
366.456206
 20
51.616561
 42
0.044631
  0
VERTEX
  8
0
 10
364.868047
 20
52.965110
 42
0.041148
  0
VERTEX
  8
0
 10
362.945611
 20
54.098051
 42
0.029489
  0
VERTEX
  8
0
 10
360.638480
 20
55.049981
 42
-0.029293
  0
VERTEX
  8
0
 10
358.137978
 20
56.080553
 42
-0.052381
  0
VERTEX
  8
0
 10
356.249669
 20
57.249149
 42
-0.053612
  0
VERTEX
  8
0
 10
354.674199
 20
58.764525
 42
-0.032282
  0
VERTEX
  8
0
 10
353.138480
 20
60.856812
 42
0.041841
  0
VERTEX
  8
0
 10
351.048878
 20
63.592655
 42
0.139131
  0
VERTEX
  8
0
 10
349.148375
 20
64.779971
 42
0.207576
  0
VERTEX
  8
0
 10
347.383997
 20
64.553939
 42
0.106154
  0
VERTEX
  8
0
 10
345.717009
 20
63.006361
 42
-0.062327
  0
VERTEX
  8
0
 10
344.674567
 20
61.854341
 42
-0.267159
  0
VERTEX
  8
0
 10
343.799545
 20
61.687259
 42
-0.255969
  0
VERTEX
  8
0
 10
343.187000
 20
62.363289
 42
-0.058816
  0
VERTEX
  8
0
 10
343.000000
 20
63.947487
 42
0.206737
  0
VERTEX
  8
0
 10
341.979892
 20
66.309205
 42
0.011303
  0
VERTEX
  8
0
 10
335.834302
 20
71.839306
 42
0.012544
  0
VERTEX
  8
0
 10
329.476845
 20
77.033547
 42
0.166502
  0
VERTEX
  8
0
 10
326.655077
 20
78.000000
 42
0.056377
  0
VERTEX
  8
0
 10
325.643918
 20
77.885624
 42
0.029242
  0
VERTEX
  8
0
 10
324.422362
 20
77.529413
 42
0.028656
  0
VERTEX
  8
0
 10
323.195434
 20
77.011400
 42
0.038573
  0
VERTEX
  8
0
 10
322.157839
 20
76.398001
 42
-0.025167
  0
VERTEX
  8
0
 10
321.242636
 20
75.823336
 42
-0.037383
  0
VERTEX
  8
0
 10
320.384978
 20
75.424133
 42
-0.041942
  0
VERTEX
  8
0
 10
319.685479
 20
75.225208
 42
-0.249659
  0
VERTEX
  8
0
 10
319.334345
 20
75.332322
 42
-0.360877
  0
VERTEX
  8
0
 10
319.246984
 20
76.271680
 42
-0.013493
  0
VERTEX
  8
0
 10
321.479969
 20
79.354212
 42
-0.019389
  0
VERTEX
  8
0
 10
323.890363
 20
82.258860
 42
-0.118790
  0
VERTEX
  8
0
 10
325.482730
 20
83.354999
 42
0.122900
  0
VERTEX
  8
0
 10
326.247898
 20
83.890909
 42
0.008991
  0
VERTEX
  8
0
 10
327.909951
 20
85.875184
 42
0.012113
  0
VERTEX
  8
0
 10
329.814222
 20
88.354037
 42
0.008867
  0
VERTEX
  8
0
 10
331.810730
 20
91.191869
 42
-0.028299
  0
VERTEX
  8
0
 10
337.290891
 20
98.371671
 42
-0.012683
  0
VERTEX
  8
0
 10
345.246663
 20
107.192305
 42
-0.007979
  0
VERTEX
  8
0
 10
353.353672
 20
115.466133
 42
-0.123826
  0
VERTEX
  8
0
 10
356.751061
 20
117.471472
 42
0.055547
  0
VERTEX
  8
0
 10
357.687407
 20
117.864935
 42
0.039105
  0
VERTEX
  8
0
 10
358.639359
 20
118.498131
 42
0.039542
  0
VERTEX
  8
0
 10
359.465097
 20
119.258439
 42
0.064135
  0
VERTEX
  8
0
 10
360.018243
 20
120.034087
 42
-0.143627
  0
VERTEX
  8
0
 10
362.818278
 20
122.883263
 42
-0.023139
  0
VERTEX
  8
0
 10
369.860719
 20
126.394605
 42
-0.026603
  0
VERTEX
  8
0
 10
377.759564
 20
129.395397
 42
-0.047556
  0
VERTEX
  8
0
 10
384.539901
 20
130.874833
 42
-0.074084
  0
VERTEX
  8
0
 10
385.211649
 20
130.855945
 42
-0.005880
  0
VERTEX
  8
0
 10
386.966005
 20
130.522607
 42
-0.007871
  0
VERTEX
  8
0
 10
389.057152
 20
130.065366
 42
-0.005949
  0
SEQEND
  0
POLYLINE
  8
0
 66
1
 70
1
  0
VERTEX
  8
0
 10
710.045681
 20
732.555042
 42
0.078914
  0
VERTEX
  8
0
 10
709.618181
 20
731.834074
 42
0.044558
  0
VERTEX
  8
0
 10
709.328161
 20
730.857434
 42
0.043115
  0
VERTEX
  8
0
 10
709.206988
 20
729.793751
 42
0.054081
  0
VERTEX
  8
0
 10
709.287054
 20
728.805042
 42
0.002714
  0
VERTEX
  8
0
 10
709.565942
 20
727.387713
 42
0.555487
  0
VERTEX
  8
0
 10
709.676667
 20
727.346416
 42
0.217742
  0
VERTEX
  8
0
 10
709.772871
 20
727.529015
 42
0.001658
  0
VERTEX
  8
0
 10
709.863818
 20
729.250000
 42
-0.038723
  0
VERTEX
  8
0
 10
710.043244
 20
730.656468
 42
-0.138035
  0
VERTEX
  8
0
 10
710.457269
 20
731.454404
 42
-0.153811
  0
VERTEX
  8
0
 10
711.196665
 20
731.870519
 42
-0.051889
  0
VERTEX
  8
0
 10
712.440983
 20
732.000000
 42
0.037634
  0
VERTEX
  8
0
 10
713.420660
 20
732.073842
 42
0.041396
  0
VERTEX
  8
0
 10
714.346475
 20
732.293750
 42
0.045439
  0
VERTEX
  8
0
 10
715.093337
 20
732.615492
 42
0.130646
  0
VERTEX
  8
0
 10
715.500000
 20
733.000000
 42
0.476979
  0
VERTEX
  8
0
 10
715.231941
 20
733.766193
 42
0.106784
  0
VERTEX
  8
0
 10
713.641883
 20
733.976278
 42
0.062064
  0
VERTEX
  8
0
 10
711.442217
 20
733.518078
 42
0.138051
  0
SEQEND
  0
POLYLINE
  8
0
 66
1
 70
1
  0
VERTEX
  8
0
 10
721.500000
 20
733.000000
 42
0.130646
  0
VERTEX
  8
0
 10
721.906663
 20
732.615492
 42
0.045439
  0
VERTEX
  8
0
 10
722.653525
 20
732.293750
 42
0.041396
  0
VERTEX
  8
0
 10
723.579340
 20
732.073842
 42
0.037634
  0
VERTEX
  8
0
 10
724.559017
 20
732.000000
 42
-0.051889
  0
VERTEX
  8
0
 10
725.803335
 20
731.870519
 42
-0.153811
  0
VERTEX
  8
0
 10
726.542731
 20
731.454404
 42
-0.138035
  0
VERTEX
  8
0
 10
726.956756
 20
730.656468
 42
-0.038723
  0
VERTEX
  8
0
 10
727.136182
 20
729.250000
 42
0.001658
  0
VERTEX
  8
0
 10
727.227129
 20
727.529015
 42
0.217742
  0
VERTEX
  8
0
 10
727.323333
 20
727.346416
 42
0.555487
  0
VERTEX
  8
0
 10
727.434058
 20
727.387713
 42
0.002714
  0
VERTEX
  8
0
 10
727.712946
 20
728.805042
 42
0.054081
  0
VERTEX
  8
0
 10
727.793012
 20
729.793751
 42
0.043115
  0
VERTEX
  8
0
 10
727.671839
 20
730.857434
 42
0.044558
  0
VERTEX
  8
0
 10
727.381819
 20
731.834074
 42
0.078914
  0
VERTEX
  8
0
 10
726.954319
 20
732.555042
 42
0.138051
  0
VERTEX
  8
0
 10
725.557783
 20
733.518078
 42
0.062064
  0
VERTEX
  8
0
 10
723.358117
 20
733.976278
 42
0.106784
  0
VERTEX
  8
0
 10
721.768059
 20
733.766193
 42
0.476979
  0
SEQEND
  0
POLYLINE
  8
0
 66
1
 70
1
  0
VERTEX
  8
0
 10
716.389987
 20
725.573907
 42
0.095227
  0
VERTEX
  8
0
 10
716.088246
 20
723.882367
 42
0.120562
  0
VERTEX
  8
0
 10
716.485001
 20
722.349808
 42
0.148624
  0
VERTEX
  8
0
 10
717.457899
 20
721.382688
 42
0.171035
  0
VERTEX
  8
0
 10
718.746976
 20
721.189788
 42
0.105702
  0
VERTEX
  8
0
 10
719.481024
 20
721.500896
 42
0.100729
  0
VERTEX
  8
0
 10
720.038622
 20
722.089303
 42
0.085459
  0
VERTEX
  8
0
 10
720.384361
 20
722.937062
 42
0.054236
  0
VERTEX
  8
0
 10
720.500000
 20
724.000000
 42
0.131217
  0
VERTEX
  8
0
 10
720.037387
 20
725.732423
 42
0.172478
  0
VERTEX
  8
0
 10
718.802645
 20
726.787963
 42
0.216096
  0
VERTEX
  8
0
 10
717.392251
 20
726.703338
 42
0.181663
  0
SEQEND
  0
POLYLINE
  8
0
 66
1
 70
1
  0
VERTEX
  8
0
 10
720.000000
 20
724.000000
 42
-0.072314
  0
VERTEX
  8
0
 10
719.888136
 20
723.230589
 42
-0.088920
  0
VERTEX
  8
0
 10
719.562500
 20
722.583333
 42
-0.102140
  0
VERTEX
  8
0
 10
719.075754
 20
722.153209
 42
-0.130775
  0
VERTEX
  8
0
 10
718.500000
 20
722.000000
 42
-0.130775
  0
VERTEX
  8
0
 10
717.924246
 20
722.153209
 42
-0.102140
  0
VERTEX
  8
0
 10
717.437500
 20
722.583333
 42
-0.088920
  0
VERTEX
  8
0
 10
717.111864
 20
723.230589
 42
-0.072314
  0
VERTEX
  8
0
 10
717.000000
 20
724.000000
 42
-0.072314
  0
VERTEX
  8
0
 10
717.111864
 20
724.769411
 42
-0.088920
  0
VERTEX
  8
0
 10
717.437500
 20
725.416667
 42
-0.102140
  0
VERTEX
  8
0
 10
717.924246
 20
725.846791
 42
-0.130775
  0
VERTEX
  8
0
 10
718.500000
 20
726.000000
 42
-0.130775
  0
VERTEX
  8
0
 10
719.075754
 20
725.846791
 42
-0.102140
  0
VERTEX
  8
0
 10
719.562500
 20
725.416667
 42
-0.088920
  0
VERTEX
  8
0
 10
719.888136
 20
724.769411
 42
-0.072314
  0
SEQEND
  0
POLYLINE
  8
0
 66
1
 70
1
  0
VERTEX
  8
0
 10
709.099680
 20
718.950000
 42
0.077813
  0
VERTEX
  8
0
 10
709.346263
 20
716.838298
 42
0.125272
  0
VERTEX
  8
0
 10
710.242765
 20
715.275435
 42
0.124553
  0
VERTEX
  8
0
 10
711.781808
 20
714.325648
 42
0.076420
  0
VERTEX
  8
0
 10
713.900000
 20
714.000000
 42
0.090340
  0
VERTEX
  8
0
 10
715.250626
 20
714.246038
 42
0.474279
  0
VERTEX
  8
0
 10
715.459156
 20
714.865539
 42
0.167688
  0
VERTEX
  8
0
 10
714.505497
 20
715.632772
 42
0.041776
  0
VERTEX
  8
0
 10
712.543845
 20
716.158187
 42
-0.100903
  0
VERTEX
  8
0
 10
711.744057
 20
716.477003
 42
-0.060254
  0
VERTEX
  8
0
 10
710.958400
 20
717.139842
 42
-0.056779
  0
VERTEX
  8
0
 10
710.304583
 20
718.025010
 42
-0.062925
  0
VERTEX
  8
0
 10
709.893525
 20
719.005251
 42
0.000000
  0
VERTEX
  8
0
 10
709.199360
 20
721.500000
 42
0.000000
  0
SEQEND
  0
POLYLINE
  8
0
 66
1
 70
1
  0
VERTEX
  8
0
 10
727.136182
 20
719.218615
 42
-0.068920
  0
VERTEX
  8
0
 10
726.953453
 20
718.304253
 42
-0.062689
  0
VERTEX
  8
0
 10
726.525941
 20
717.441551
 42
-0.066343
  0
VERTEX
  8
0
 10
725.929371
 20
716.758321
 42
-0.102471
  0
VERTEX
  8
0
 10
725.250000
 20
716.372681
 42
0.004747
  0
VERTEX
  8
0
 10
722.298021
 20
715.389335
 42
0.100788
  0
VERTEX
  8
0
 10
721.506156
 20
714.923297
 42
0.575734
  0
VERTEX
  8
0
 10
721.581997
 20
714.561831
 42
0.037096
  0
VERTEX
  8
0
 10
722.877966
 20
714.237739
 42
0.111209
  0
VERTEX
  8
0
 10
724.961360
 20
714.343280
 42
0.130067
  0
VERTEX
  8
0
 10
726.664295
 20
715.342898
 42
0.130631
  0
VERTEX
  8
0
 10
727.645128
 20
717.049935
 42
0.112676
  0
VERTEX
  8
0
 10
727.722502
 20
719.122034
 42
0.000806
  0
VERTEX
  8
0
 10
727.396561
 20
720.828841
 42
0.314063
  0
VERTEX
  8
0
 10
727.312045
 20
720.911102
 42
0.443756
  0
VERTEX
  8
0
 10
727.236779
 20
720.851221
 42
0.000959
  0
SEQEND
  0
ENDSEC
  0
EOF
