  0
SECTION
  2
HEADER
  9
$ACADVER
  1
AC1024
  9
$ACADMAINTVER
 70
     6
  9
$DWGCODEPAGE
  3
UNDEFINED
  9
$INSBASE
 10
0.0
 20
0.0
 30
0.0
  9
$EXTMIN
 10
1.000000000000000E+20
 20
1.000000000000000E+20
 30
1.000000000000000E+20
  9
$EXTMAX
 10
-1.000000000000000E+20
 20
-1.000000000000000E+20
 30
-1.000000000000000E+20
  9
$LIMMIN
 10
0.0
 20
0.0
  9
$LIMMAX
 10
12.0
 20
9.0
  9
$ORTHOMODE
 70
     0
  9
$REGENMODE
 70
     1
  9
$FILLMODE
 70
     1
  9
$QTEXTMODE
 70
     0
  9
$MIRRTEXT
 70
     1
  9
$LTSCALE
 40
1.0
  9
$ATTMODE
 70
     1
  9
$TEXTSIZE
 40
0.2
  9
$TRACEWID
 40
0.05
  9
$TEXTSTYLE
  7
Standard
  9
$CLAYER
  8
0
  9
$CELTYPE
  6
ByLayer
  9
$CECOLOR
 62
   256
  9
$CELTSCALE
 40
1.0
  9
$DISPSILH
 70
     0
  9
$DIMSCALE
 40
1.0
  9
$DIMASZ
 40
0.18
  9
$DIMEXO
 40
0.0625
  9
$DIMDLI
 40
0.38
  9
$DIMRND
 40
0.0
  9
$DIMDLE
 40
0.0
  9
$DIMEXE
 40
0.18
  9
$DIMTP
 40
0.0
  9
$DIMTM
 40
0.0
  9
$DIMTXT
 40
0.18
  9
$DIMCEN
 40
0.09
  9
$DIMTSZ
 40
0.0
  9
$DIMTOL
 70
     0
  9
$DIMLIM
 70
     0
  9
$DIMTIH
 70
     1
  9
$DIMTOH
 70
     1
  9
$DIMSE1
 70
     0
  9
$DIMSE2
 70
     0
  9
$DIMTAD
 70
     0
  9
$DIMZIN
 70
     0
  9
$DIMBLK
  1

  9
$DIMASO
 70
     1
  9
$DIMSHO
 70
     1
  9
$DIMPOST
  1

  9
$DIMAPOST
  1

  9
$DIMALT
 70
     0
  9
$DIMALTD
 70
     2
  9
$DIMALTF
 40
25.4
  9
$DIMLFAC
 40
1.0
  9
$DIMTOFL
 70
     0
  9
$DIMTVP
 40
0.0
  9
$DIMTIX
 70
     0
  9
$DIMSOXD
 70
     0
  9
$DIMSAH
 70
     0
  9
$DIMBLK1
  1

  9
$DIMBLK2
  1

  9
$DIMSTYLE
  2
Standard
  9
$DIMCLRD
 70
     0
  9
$DIMCLRE
 70
     0
  9
$DIMCLRT
 70
     0
  9
$DIMTFAC
 40
1.0
  9
$DIMGAP
 40
0.09
  9
$DIMJUST
 70
     0
  9
$DIMSD1
 70
     0
  9
$DIMSD2
 70
     0
  9
$DIMTOLJ
 70
     1
  9
$DIMTZIN
 70
     0
  9
$DIMALTZ
 70
     0
  9
$DIMALTTZ
 70
     0
  9
$DIMUPT
 70
     0
  9
$DIMDEC
 70
     4
  9
$DIMTDEC
 70
     4
  9
$DIMALTU
 70
     2
  9
$DIMALTTD
 70
     2
  9
$DIMTXSTY
  7
Standard
  9
$DIMAUNIT
 70
     0
  9
$DIMADEC
 70
     0
  9
$DIMALTRND
 40
0.0
  9
$DIMAZIN
 70
     0
  9
$DIMDSEP
 70
    46
  9
$DIMATFIT
 70
     3
  9
$DIMFRAC
 70
     0
  9
$DIMLDRBLK
  1

  9
$DIMLUNIT
 70
     2
  9
$DIMLWD
 70
    -2
  9
$DIMLWE
 70
    -2
  9
$DIMTMOVE
 70
     0
  9
$DIMFXL
 40
1.0
  9
$DIMFXLON
 70
     0
  9
$DIMJOGANG
 40
0.7853981633974483
  9
$DIMTFILL
 70
     0
  9
$DIMTFILLCLR
 70
     0
  9
$DIMARCSYM
 70
     0
  9
$DIMLTYPE
  6

  9
$DIMLTEX1
  6

  9
$DIMLTEX2
  6

  9
$DIMTXTDIRECTION
 70
     0
  9
$LUNITS
 70
     2
  9
$LUPREC
 70
     4
  9
$SKETCHINC
 40
0.1
  9
$FILLETRAD
 40
0.5
  9
$AUNITS
 70
     0
  9
$AUPREC
 70
     0
  9
$MENU
  1
.
  9
$ELEVATION
 40
0.0
  9
$PELEVATION
 40
0.0
  9
$THICKNESS
 40
0.0
  9
$LIMCHECK
 70
     0
  9
$CHAMFERA
 40
0.5
  9
$CHAMFERB
 40
0.5
  9
$CHAMFERC
 40
1.0
  9
$CHAMFERD
 40
0.0
  9
$SKPOLY
 70
     0
  9
$TDCREATE
 40
2457411.656354155
  9
$TDUCREATE
 40
2457411.8646875
  9
$TDUPDATE
 40
2457411.656354155
  9
$TDUUPDATE
 40
2457411.8646875
  9
$TDINDWG
 40
0.0000000116
  9
$TDUSRTIMER
 40
0.0000000116
  9
$USRTIMER
 70
     1
  9
$ANGBASE
 50
0.0
  9
$ANGDIR
 70
     0
  9
$PDMODE
 70
     0
  9
$PDSIZE
 40
0.0
  9
$PLINEWID
 40
0.0
  9
$SPLFRAME
 70
     0
  9
$SPLINETYPE
 70
     6
  9
$SPLINESEGS
 70
     8
  9
$HANDSEED
  5
DD
  9
$SURFTAB1
 70
     6
  9
$SURFTAB2
 70
     6
  9
$SURFTYPE
 70
     6
  9
$SURFU
 70
     6
  9
$SURFV
 70
     6
  9
$UCSBASE
  2

  9
$UCSNAME
  2

  9
$UCSORG
 10
0.0
 20
0.0
 30
0.0
  9
$UCSXDIR
 10
1.0
 20
0.0
 30
0.0
  9
$UCSYDIR
 10
0.0
 20
1.0
 30
0.0
  9
$UCSORTHOREF
  2

  9
$UCSORTHOVIEW
 70
     0
  9
$UCSORGTOP
 10
0.0
 20
0.0
 30
0.0
  9
$UCSORGBOTTOM
 10
0.0
 20
0.0
 30
0.0
  9
$UCSORGLEFT
 10
0.0
 20
0.0
 30
0.0
  9
$UCSORGRIGHT
 10
0.0
 20
0.0
 30
0.0
  9
$UCSORGFRONT
 10
0.0
 20
0.0
 30
0.0
  9
$UCSORGBACK
 10
0.0
 20
0.0
 30
0.0
  9
$PUCSBASE
  2

  9
$PUCSNAME
  2

  9
$PUCSORG
 10
0.0
 20
0.0
 30
0.0
  9
$PUCSXDIR
 10
1.0
 20
0.0
 30
0.0
  9
$PUCSYDIR
 10
0.0
 20
1.0
 30
0.0
  9
$PUCSORTHOREF
  2

  9
$PUCSORTHOVIEW
 70
     0
  9
$PUCSORGTOP
 10
0.0
 20
0.0
 30
0.0
  9
$PUCSORGBOTTOM
 10
0.0
 20
0.0
 30
0.0
  9
$PUCSORGLEFT
 10
0.0
 20
0.0
 30
0.0
  9
$PUCSORGRIGHT
 10
0.0
 20
0.0
 30
0.0
  9
$PUCSORGFRONT
 10
0.0
 20
0.0
 30
0.0
  9
$PUCSORGBACK
 10
0.0
 20
0.0
 30
0.0
  9
$USERI1
 70
     0
  9
$USERI2
 70
     0
  9
$USERI3
 70
     0
  9
$USERI4
 70
     0
  9
$USERI5
 70
     0
  9
$USERR1
 40
0.0
  9
$USERR2
 40
0.0
  9
$USERR3
 40
0.0
  9
$USERR4
 40
0.0
  9
$USERR5
 40
0.0
  9
$WORLDVIEW
 70
     1
  9
$SHADEDGE
 70
     3
  9
$SHADEDIF
 70
    70
  9
$TILEMODE
 70
     1
  9
$MAXACTVP
 70
    64
  9
$PINSBASE
 10
0.0
 20
0.0
 30
0.0
  9
$PLIMCHECK
 70
     0
  9
$PEXTMIN
 10
1.000000000000000E+20
 20
1.000000000000000E+20
 30
1.000000000000000E+20
  9
$PEXTMAX
 10
-1.000000000000000E+20
 20
-1.000000000000000E+20
 30
-1.000000000000000E+20
  9
$PLIMMIN
 10
0.0
 20
0.0
  9
$PLIMMAX
 10
12.0
 20
9.0
  9
$UNITMODE
 70
     0
  9
$VISRETAIN
 70
     1
  9
$PLINEGEN
 70
     0
  9
$PSLTSCALE
 70
     1
  9
$TREEDEPTH
 70
  3020
  9
$CMLSTYLE
  2
Standard
  9
$CMLJUST
 70
     0
  9
$CMLSCALE
 40
1.0
  9
$PROXYGRAPHICS
 70
     1
  9
$MEASUREMENT
 70
     0
  9
$CELWEIGHT
370
    -1
  9
$ENDCAPS
280
     0
  9
$JOINSTYLE
280
     0
  9
$LWDISPLAY
290
     1
  9
$INSUNITS
 70
     1
  9
$HYPERLINKBASE
  1

  9
$STYLESHEET
  1

  9
$XEDIT
290
     1
  9
$CEPSNTYPE
380
     0
  9
$PSTYLEMODE
290
     1
  9
$FINGERPRINTGUID
  2
{2539E234-171E-C291-D69F-674070FE2D46}
  9
$VERSIONGUID
  2
{FAEB1C32-E019-11D5-929B-00C0DF256EC4}
  9
$EXTNAMES
290
     1
  9
$PSVPSCALE
 40
0.0
  9
$OLESTARTUP
290
     0
  9
$SORTENTS
280
   127
  9
$INDEXCTL
280
     0
  9
$HIDETEXT
280
     1
  9
$XCLIPFRAME
280
     2
  9
$HALOGAP
280
     0
  9
$OBSCOLOR
 70
   257
  9
$OBSLTYPE
280
     0
  9
$INTERSECTIONDISPLAY
280
     0
  9
$INTERSECTIONCOLOR
 70
   257
  9
$DIMASSOC
280
     2
  9
$PROJECTNAME
  1

  9
$CAMERADISPLAY
290
     0
  9
$LENSLENGTH
 40
50.0
  9
$CAMERAHEIGHT
 40
0.0
  9
$STEPSPERSEC
 40
2.0
  9
$STEPSIZE
 40
6.0
  9
$3DDWFPREC
 40
2.0
  9
$PSOLWIDTH
 40
0.25
  9
$PSOLHEIGHT
 40
4.0
  9
$LOFTANG1
 40
1.570796326794897
  9
$LOFTANG2
 40
1.570796326794897
  9
$LOFTMAG1
 40
0.0
  9
$LOFTMAG2
 40
0.0
  9
$LOFTPARAM
 70
     7
  9
$LOFTNORMALS
280
     1
  9
$LATITUDE
 40
37.795
  9
$LONGITUDE
 40
-122.394
  9
$NORTHDIRECTION
 40
0.0
  9
$TIMEZONE
 70
 -8000
  9
$LIGHTGLYPHDISPLAY
280
     1
  9
$TILEMODELIGHTSYNCH
280
     1
  9
$CMATERIAL
347
3C
  9
$SOLIDHIST
280
     1
  9
$SHOWHIST
280
     1
  9
$DWFFRAME
280
     2
  9
$DGNFRAME
280
     2
  9
$REALWORLDSCALE
290
     1
  9
$INTERFERECOLOR
 62
   256
  9
$CSHADOW
280
     0
  9
$SHADOWPLANELOCATION
 40
0.0
  0
ENDSEC
  0
SECTION
  2
CLASSES
  0
CLASS
  1
ACDBDICTIONARYWDFLT
  2
AcDbDictionaryWithDefault
  3
ObjectDBX Classes
 90
        0
 91
        4
280
     0
281
     0
  0
CLASS
  1
VISUALSTYLE
  2
AcDbVisualStyle
  3
ObjectDBX Classes
 90
     4095
 91
        4
280
     0
281
     0
  0
CLASS
  1
MATERIAL
  2
AcDbMaterial
  3
ObjectDBX Classes
 90
     1153
 91
        4
280
     0
281
     0
  0
CLASS
  1
SUN
  2
AcDbSun
  3
SCENEOE
 90
     1024
 91
        4
280
     0
281
     0
  0
ENDSEC
  0
SECTION
  2
TABLES
  0
TABLE
  2
VPORT
  5
8
330
0
100
AcDbSymbolTable
 70
     1
  0
VPORT
  5
29
330
8
100
AcDbSymbolTableRecord
100
AcDbViewportTableRecord
  2
*Active
 70
     0
 10
0.0
 20
0.0
 11
1.0
 21
1.0
 12
0.0
 22
0.0
 13
0.0
 23
0.0
 14
0.5
 24
0.5
 15
0.5
 25
0.5
 16
0.0
 26
0.0
 36
1.0
 17
2.0
 27
-2.0
 37
0.0
 40
4.0
 41
1.0
 42
50.0
 43
0.0
 44
0.0
 50
0.0
 51
0.0
 71
     0
 72
   100
 73
     1
 74
     3
 75
     0
 76
     0
 77
     0
 78
     0
281
     0
 65
     1
110
0.0
120
0.0
130
0.0
111
1.0
121
0.0
131
0.0
112
0.0
122
1.0
132
0.0
 79
     0
146
0.0
 60
     3
 61
     5
292
     1
282
     1
141
0.0
142
0.0
 63
   250
361
3F
  0
ENDTAB
  0
TABLE
  2
LTYPE
  5
5
330
0
100
AcDbSymbolTable
 70
     1
  0
LTYPE
  5
14
330
5
100
AcDbSymbolTableRecord
100
AcDbLinetypeTableRecord
  2
ByBlock
 70
     0
  3

 72
    65
 73
     0
 40
0.0
  0
LTYPE
  5
15
330
5
100
AcDbSymbolTableRecord
100
AcDbLinetypeTableRecord
  2
ByLayer
 70
     0
  3

 72
    65
 73
     0
 40
0.0
  0
LTYPE
  5
16
330
5
100
AcDbSymbolTableRecord
100
AcDbLinetypeTableRecord
  2
Continuous
 70
     0
  3
Solid line
 72
    65
 73
     0
 40
0.0
  0
ENDTAB
  0
TABLE
  2
LAYER
  5
2
330
0
100
AcDbSymbolTable
 70
     2
  0
LAYER
  5
10
330
2
100
AcDbSymbolTableRecord
100
AcDbLayerTableRecord
  2
0
 70
     0
 62
     7
  6
Continuous
370
    -3
390
F
347
3E
  0
LAYER
  5
40
330
2
100
AcDbSymbolTableRecord
100
AcDbLayerTableRecord
  2
Layer 1
 70
     0
 62
     7
  6
Continuous
370
    -3
390
F
347
3E
  0
ENDTAB
  0
TABLE
  2
STYLE
  5
3
330
0
100
AcDbSymbolTable
 70
     1
  0
STYLE
  5
11
330
3
100
AcDbSymbolTableRecord
100
AcDbTextStyleTableRecord
  2
Standard
 70
     0
 40
0.0
 41
1.0
 50
0.0
 71
     0
 42
0.2
  3
txt
  4

  0
ENDTAB
  0
TABLE
  2
VIEW
  5
6
330
0
100
AcDbSymbolTable
 70
     0
  0
ENDTAB
  0
TABLE
  2
UCS
  5
7
330
0
100
AcDbSymbolTable
 70
     0
  0
ENDTAB
  0
TABLE
  2
APPID
  5
9
330
0
100
AcDbSymbolTable
 70
     1
  0
APPID
  5
12
330
9
100
AcDbSymbolTableRecord
100
AcDbRegAppTableRecord
  2
ACAD
 70
     0
  0
ENDTAB
  0
TABLE
  2
DIMSTYLE
  5
A
330
0
100
AcDbSymbolTable
 70
     1
100
AcDbDimStyleTable
  0
DIMSTYLE
105
27
330
A
100
AcDbSymbolTableRecord
100
AcDbDimStyleTableRecord
  2
Standard
 70
     0
178
     0
340
11
  0
ENDTAB
  0
TABLE
  2
BLOCK_RECORD
  5
1
330
0
100
AcDbSymbolTable
 70
     1
  0
BLOCK_RECORD
  5
1F
330
1
100
AcDbSymbolTableRecord
100
AcDbBlockTableRecord
  2
*Model_Space
340
22
 70
     0
280
     1
281
     0
  0
BLOCK_RECORD
  5
1B
330
1
100
AcDbSymbolTableRecord
100
AcDbBlockTableRecord
  2
*Paper_Space
340
1E
 70
     0
280
     1
281
     0
  0
BLOCK_RECORD
  5
23
330
1
100
AcDbSymbolTableRecord
100
AcDbBlockTableRecord
  2
*Paper_Space0
340
26
 70
     0
280
     1
281
     0
  0
ENDTAB
  0
ENDSEC
  0
SECTION
  2
BLOCKS
  0
BLOCK
  5
20
330
1F
100
AcDbEntity
  8
0
100
AcDbBlockBegin
  2
*Model_Space
 70
     0
 10
0.0
 20
0.0
 30
0.0
  3
*Model_Space
  1

  0
ENDBLK
  5
21
330
1F
100
AcDbEntity
  8
0
100
AcDbBlockEnd
  0
BLOCK
  5
1C
330
1B
100
AcDbEntity
 67
     1
  8
0
100
AcDbBlockBegin
  2
*Paper_Space
 70
     0
 10
0.0
 20
0.0
 30
0.0
  3
*Paper_Space
  1

  0
ENDBLK
  5
1D
330
1B
100
AcDbEntity
 67
     1
  8
0
100
AcDbBlockEnd
  0
BLOCK
  5
24
330
23
100
AcDbEntity
  8
0
100
AcDbBlockBegin
  2
*Paper_Space0
 70
     0
 10
0.0
 20
0.0
 30
0.0
  3
*Paper_Space0
  1

  0
ENDBLK
  5
25
330
23
100
AcDbEntity
  8
0
100
AcDbBlockEnd
  0
ENDSEC
  0
SECTION
  2
ENTITIES
  0
POLYLINE
  5
41
330
1F
100
AcDbEntity
  8
Layer 1
 62
   114
420
    42320
370
    35
100
AcDb2dPolyline
 66
     1
 10
0.0
 20
0.0
 30
0.0
  0
VERTEX
  5
42
330
41
100
AcDbEntity
  8
Layer 1
 62
   114
420
    42320
370
    35
100
AcDbVertex
100
AcDb2dVertex
 10
1.382383333333337
 20
-1.732273611111117
 30
0.0
  0
VERTEX
  5
43
330
41
100
AcDbEntity
  8
Layer 1
 62
   114
420
    42320
370
    35
100
AcDbVertex
100
AcDb2dVertex
 10
1.382383333333337
 20
-2.28226944444446
 30
0.0
  0
SEQEND
  5
44
330
41
100
AcDbEntity
  8
Layer 1
 62
   114
420
    42320
370
    35
  0
POLYLINE
  5
45
330
1F
100
AcDbEntity
  8
Layer 1
 62
   114
420
    42320
370
    35
100
AcDb2dPolyline
 66
     1
 10
0.0
 20
0.0
 30
0.0
  0
VERTEX
  5
46
330
45
100
AcDbEntity
  8
Layer 1
 62
   114
420
    42320
370
    35
100
AcDbVertex
100
AcDb2dVertex
 10
1.882379166666662
 20
-2.28226944444446
 30
0.0
  0
VERTEX
  5
47
330
45
100
AcDbEntity
  8
Layer 1
 62
   114
420
    42320
370
    35
100
AcDbVertex
100
AcDb2dVertex
 10
1.882379166666662
 20
-1.775537500000003
 30
0.0
  0
SEQEND
  5
48
330
45
100
AcDbEntity
  8
Layer 1
 62
   114
420
    42320
370
    35
  0
SPLINE
  5
49
330
1F
100
AcDbEntity
  8
Layer 1
 62
   114
420
    42320
370
    35
100
AcDbSpline
210
0.0
220
0.0
230
1.0
 70
     8
 71
     3
 72
    26
 73
    22
 74
     0
 42
0.0000000001
 43
0.0000000001
 12
1.0
 22
0.0
 32
0.0
 13
1.0
 23
0.0
 33
0.0
 40
0.0
 40
0.0
 40
0.0
 40
0.0
 40
1.0
 40
1.0
 40
1.0
 40
2.0
 40
2.0
 40
2.0
 40
3.0
 40
3.0
 40
3.0
 40
4.0
 40
4.0
 40
4.0
 40
5.0
 40
5.0
 40
5.0
 40
6.0
 40
6.0
 40
6.0
 40
7.0
 40
7.0
 40
7.0
 40
7.0
 10
1.382383333333337
 20
-2.28226944444446
 30
0.0
 10
1.382383333333337
 20
-2.28226944444446
 30
0.0
 10
1.38703194444444
 20
-2.291095833333328
 30
0.0
 10
1.38703194444444
 20
-2.291095833333328
 30
0.0
 10
1.38703194444444
 20
-2.291095833333328
 30
0.0
 10
1.402383333333331
 20
-2.301797222222224
 30
0.0
 10
1.402383333333331
 20
-2.301797222222224
 30
0.0
 10
1.468670833333337
 20
-2.334080555555551
 30
0.0
 10
1.555304166666663
 20
-2.35373472222222
 30
0.0
 10
1.608799999999999
 20
-2.353631944444436
 30
0.0
 10
1.66619722222222
 20
-2.353524999999991
 30
0.0
 10
1.750406944444446
 20
-2.349501388888888
 30
0.0
 10
1.807359722222221
 20
-2.330544444444437
 30
0.0
 10
1.807359722222221
 20
-2.330544444444437
 30
0.0
 10
1.861031944444449
 20
-2.305986111111098
 30
0.0
 10
1.861031944444449
 20
-2.305986111111098
 30
0.0
 10
1.861031944444449
 20
-2.305986111111098
 30
0.0
 10
1.876815277777774
 20
-2.293713888888886
 30
0.0
 10
1.876815277777774
 20
-2.293713888888886
 30
0.0
 10
1.876815277777774
 20
-2.293713888888886
 30
0.0
 10
1.882379166666662
 20
-2.28226944444446
 30
0.0
 10
1.882379166666662
 20
-2.28226944444446
 30
0.0
  0
SPLINE
  5
4A
330
1F
100
AcDbEntity
  8
Layer 1
 62
   114
420
    42320
370
    35
100
AcDbSpline
210
0.0
220
0.0
230
1.0
 70
     8
 71
     3
 72
    29
 73
    25
 74
     0
 42
0.0000000001
 43
0.0000000001
 12
1.0
 22
0.0
 32
0.0
 13
1.0
 23
0.0
 33
0.0
 40
0.0
 40
0.0
 40
0.0
 40
0.0
 40
1.0
 40
1.0
 40
1.0
 40
2.0
 40
2.0
 40
2.0
 40
3.0
 40
3.0
 40
3.0
 40
4.0
 40
4.0
 40
4.0
 40
5.0
 40
5.0
 40
5.0
 40
6.0
 40
6.0
 40
6.0
 40
7.0
 40
7.0
 40
7.0
 40
8.0
 40
8.0
 40
8.0
 40
8.0
 10
1.382383333333337
 20
-1.732273611111117
 30
0.0
 10
1.382383333333337
 20
-1.732273611111117
 30
0.0
 10
1.384795833333328
 20
-1.741638888888891
 30
0.0
 10
1.384795833333328
 20
-1.741638888888891
 30
0.0
 10
1.384795833333328
 20
-1.741638888888891
 30
0.0
 10
1.393020833333329
 20
-1.749863888888891
 30
0.0
 10
1.393020833333329
 20
-1.749863888888891
 30
0.0
 10
1.40316666666667
 20
-1.754305555555548
 30
0.0
 10
1.413312499999999
 20
-1.758745833333326
 30
0.0
 10
1.423454166666665
 20
-1.763183333333334
 30
0.0
 10
1.487819444444439
 20
-1.791179166666666
 30
0.0
 10
1.564579166666666
 20
-1.787324999999997
 30
0.0
 10
1.633461111111109
 20
-1.787509722222214
 30
0.0
 10
1.703430555555554
 20
-1.788438888888891
 30
0.0
 10
1.795761111111106
 20
-1.759080555555556
 30
0.0
 10
1.862276388888884
 20
-1.738801388888886
 30
0.0
 10
1.862276388888884
 20
-1.738801388888886
 30
0.0
 10
1.899143055555555
 20
-1.728651388888895
 30
0.0
 10
1.899143055555555
 20
-1.728651388888895
 30
0.0
 10
1.899143055555555
 20
-1.728651388888895
 30
0.0
 10
1.913068055555552
 20
-1.729447222222221
 30
0.0
 10
1.913068055555552
 20
-1.729447222222221
 30
0.0
 10
1.913068055555552
 20
-1.729447222222221
 30
0.0
 10
1.921902777777783
 20
-1.736947222222221
 30
0.0
 10
1.921902777777783
 20
-1.736947222222221
 30
0.0
  0
POLYLINE
  5
4B
330
1F
100
AcDbEntity
  8
Layer 1
 62
   114
420
    42320
370
    35
100
AcDb2dPolyline
 66
     1
 10
0.0
 20
0.0
 30
0.0
  0
VERTEX
  5
4C
330
4B
100
AcDbEntity
  8
Layer 1
 62
   114
420
    42320
370
    35
100
AcDbVertex
100
AcDb2dVertex
 10
1.919866666666672
 20
-1.732868055555552
 30
0.0
  0
VERTEX
  5
4D
330
4B
100
AcDbEntity
  8
Layer 1
 62
   114
420
    42320
370
    35
100
AcDbVertex
100
AcDb2dVertex
 10
1.890709722222217
 20
-1.755284722222225
 30
0.0
  0
VERTEX
  5
4E
330
4B
100
AcDbEntity
  8
Layer 1
 62
   114
420
    42320
370
    35
100
AcDbVertex
100
AcDb2dVertex
 10
1.881024999999997
 20
-1.780065277777781
 30
0.0
  0
SEQEND
  5
4F
330
4B
100
AcDbEntity
  8
Layer 1
 62
   114
420
    42320
370
    35
  0
SPLINE
  5
50
330
1F
100
AcDbEntity
  8
Layer 1
 62
   114
420
    42320
370
    35
100
AcDbSpline
210
0.0
220
0.0
230
1.0
 70
     8
 71
     3
 72
    20
 73
    16
 74
     0
 42
0.0000000001
 43
0.0000000001
 12
1.0
 22
0.0
 32
0.0
 13
1.0
 23
0.0
 33
0.0
 40
0.0
 40
0.0
 40
0.0
 40
0.0
 40
1.0
 40
1.0
 40
1.0
 40
2.0
 40
2.0
 40
2.0
 40
3.0
 40
3.0
 40
3.0
 40
4.0
 40
4.0
 40
4.0
 40
5.0
 40
5.0
 40
5.0
 40
5.0
 10
1.382383333333337
 20
-1.732273611111117
 30
0.0
 10
1.382383333333337
 20
-1.732273611111117
 30
0.0
 10
1.388626388888888
 20
-1.715213888888886
 30
0.0
 10
1.388626388888888
 20
-1.715213888888886
 30
0.0
 10
1.388626388888888
 20
-1.715213888888886
 30
0.0
 10
1.407194444444447
 20
-1.700281944444441
 30
0.0
 10
1.407194444444447
 20
-1.700281944444441
 30
0.0
 10
1.487473611111113
 20
-1.667836111111114
 30
0.0
 10
1.522422222222227
 20
-1.658281944444449
 30
0.0
 10
1.634119444444448
 20
-1.658595833333329
 30
0.0
 10
1.724838888888889
 20
-1.657025000000001
 30
0.0
 10
1.824984722222224
 20
-1.676100000000007
 30
0.0
 10
1.894611111111115
 20
-1.711331944444446
 30
0.0
 10
1.894611111111115
 20
-1.711331944444446
 30
0.0
 10
1.921902777777783
 20
-1.736947222222221
 30
0.0
 10
1.921902777777783
 20
-1.736947222222221
 30
0.0
  0
POLYLINE
  5
51
330
1F
100
AcDbEntity
  8
Layer 1
 62
     7
420
 16777215
370
    53
100
AcDb2dPolyline
 66
     1
 10
0.0
 20
0.0
 30
0.0
  0
VERTEX
  5
52
330
51
100
AcDbEntity
  8
Layer 1
 62
     7
420
 16777215
370
    53
100
AcDbVertex
100
AcDb2dVertex
 10
1.505201388888887
 20
-1.909376388888884
 30
0.0
  0
VERTEX
  5
53
330
51
100
AcDbEntity
  8
Layer 1
 62
     7
420
 16777215
370
    53
100
AcDbVertex
100
AcDb2dVertex
 10
1.548295833333327
 20
-1.923076388888881
 30
0.0
  0
VERTEX
  5
54
330
51
100
AcDbEntity
  8
Layer 1
 62
     7
420
 16777215
370
    53
100
AcDbVertex
100
AcDb2dVertex
 10
1.58381527777778
 20
-1.925761111111115
 30
0.0
  0
SEQEND
  5
55
330
51
100
AcDbEntity
  8
Layer 1
 62
     7
420
 16777215
370
    53
  0
SPLINE
  5
56
330
1F
100
AcDbEntity
  8
Layer 1
 62
     7
420
 16777215
370
    53
100
AcDbSpline
210
0.0
220
0.0
230
1.0
 70
     8
 71
     3
 72
    11
 73
     7
 74
     0
 42
0.0000000001
 43
0.0000000001
 12
1.0
 22
0.0
 32
0.0
 13
1.0
 23
0.0
 33
0.0
 40
0.0
 40
0.0
 40
0.0
 40
0.0
 40
1.0
 40
1.0
 40
1.0
 40
2.0
 40
2.0
 40
2.0
 40
2.0
 10
1.479961111111114
 20
-1.939458333333328
 30
0.0
 10
1.504162499999994
 20
-1.947108333333328
 30
0.0
 10
1.525197222222219
 20
-1.959281944444443
 30
0.0
 10
1.552555555555551
 20
-1.962400000000002
 30
0.0
 10
1.552555555555551
 20
-1.962400000000002
 30
0.0
 10
1.612347222222221
 20
-1.967990277777769
 30
0.0
 10
1.612347222222221
 20
-1.967990277777769
 30
0.0
  0
SPLINE
  5
57
330
1F
100
AcDbEntity
  8
Layer 1
 62
   178
420
        0
370
    25
100
AcDbSpline
210
0.0
220
0.0
230
1.0
 70
     8
 71
     3
 72
    11
 73
     7
 74
     0
 42
0.0000000001
 43
0.0000000001
 12
1.0
 22
0.0
 32
0.0
 13
1.0
 23
0.0
 33
0.0
 40
0.0
 40
0.0
 40
0.0
 40
0.0
 40
1.0
 40
1.0
 40
1.0
 40
2.0
 40
2.0
 40
2.0
 40
2.0
 10
1.475229166666673
 20
-2.01395416666666
 30
0.0
 10
1.499430555555553
 20
-2.021604166666672
 30
0.0
 10
1.520465277777779
 20
-2.033777777777787
 30
0.0
 10
1.54782361111111
 20
-2.036895833333347
 30
0.0
 10
1.54782361111111
 20
-2.036895833333347
 30
0.0
 10
1.60761527777778
 20
-2.042486111111126
 30
0.0
 10
1.60761527777778
 20
-2.042486111111126
 30
0.0
  0
POLYLINE
  5
58
330
1F
100
AcDbEntity
  8
Layer 1
 62
   178
420
        0
370
    25
100
AcDb2dPolyline
 66
     1
 10
0.0
 20
0.0
 30
0.0
  0
VERTEX
  5
59
330
58
100
AcDbEntity
  8
Layer 1
 62
   178
420
        0
370
    25
100
AcDbVertex
100
AcDb2dVertex
 10
1.494115277777774
 20
-2.058591666666669
 30
0.0
  0
VERTEX
  5
5A
330
58
100
AcDbEntity
  8
Layer 1
 62
   178
420
        0
370
    25
100
AcDbVertex
100
AcDb2dVertex
 10
1.537209722222226
 20
-2.072293055555545
 30
0.0
  0
VERTEX
  5
5B
330
58
100
AcDbEntity
  8
Layer 1
 62
   178
420
        0
370
    25
100
AcDbVertex
100
AcDb2dVertex
 10
1.572729166666666
 20
-2.074977777777778
 30
0.0
  0
SEQEND
  5
5C
330
58
100
AcDbEntity
  8
Layer 1
 62
   178
420
        0
370
    25
  0
SPLINE
  5
5D
330
1F
100
AcDbEntity
  8
Layer 1
 62
   178
420
        0
370
    25
100
AcDbSpline
210
0.0
220
0.0
230
1.0
 70
     8
 71
     3
 72
    11
 73
     7
 74
     0
 42
0.0000000001
 43
0.0000000001
 12
1.0
 22
0.0
 32
0.0
 13
1.0
 23
0.0
 33
0.0
 40
0.0
 40
0.0
 40
0.0
 40
0.0
 40
1.0
 40
1.0
 40
1.0
 40
2.0
 40
2.0
 40
2.0
 40
2.0
 10
1.468875
 20
-2.088674999999992
 30
0.0
 10
1.493075000000001
 20
-2.096325000000004
 30
0.0
 10
1.514111111111106
 20
-2.108497222222215
 30
0.0
 10
1.54146944444445
 20
-2.111615277777774
 30
0.0
 10
1.54146944444445
 20
-2.111615277777774
 30
0.0
 10
1.601261111111108
 20
-2.117206944444459
 30
0.0
 10
1.601261111111108
 20
-2.117206944444459
 30
0.0
  0
POLYLINE
  5
5E
330
1F
100
AcDbEntity
  8
Layer 1
 62
   178
420
        0
370
    25
100
AcDb2dPolyline
 66
     1
 10
0.0
 20
0.0
 30
0.0
  0
VERTEX
  5
5F
330
5E
100
AcDbEntity
  8
Layer 1
 62
   178
420
        0
370
    25
100
AcDbVertex
100
AcDb2dVertex
 10
1.489205555555549
 20
-2.134958333333341
 30
0.0
  0
VERTEX
  5
60
330
5E
100
AcDbEntity
  8
Layer 1
 62
   178
420
        0
370
    25
100
AcDbVertex
100
AcDb2dVertex
 10
1.532300000000002
 20
-2.148659722222217
 30
0.0
  0
VERTEX
  5
61
330
5E
100
AcDbEntity
  8
Layer 1
 62
   178
420
        0
370
    25
100
AcDbVertex
100
AcDb2dVertex
 10
1.567819444444442
 20
-2.15134444444445
 30
0.0
  0
SEQEND
  5
62
330
5E
100
AcDbEntity
  8
Layer 1
 62
   178
420
        0
370
    25
  0
SPLINE
  5
63
330
1F
100
AcDbEntity
  8
Layer 1
 62
   178
420
        0
370
    25
100
AcDbSpline
210
0.0
220
0.0
230
1.0
 70
     8
 71
     3
 72
    11
 73
     7
 74
     0
 42
0.0000000001
 43
0.0000000001
 12
1.0
 22
0.0
 32
0.0
 13
1.0
 23
0.0
 33
0.0
 40
0.0
 40
0.0
 40
0.0
 40
0.0
 40
1.0
 40
1.0
 40
1.0
 40
2.0
 40
2.0
 40
2.0
 40
2.0
 10
1.463965277777776
 20
-2.165041666666664
 30
0.0
 10
1.488166666666668
 20
-2.172690277777772
 30
0.0
 10
1.509201388888894
 20
-2.184863888888887
 30
0.0
 10
1.536559722222225
 20
-2.187981944444446
 30
0.0
 10
1.536559722222225
 20
-2.187981944444446
 30
0.0
 10
1.596351388888883
 20
-2.193572222222226
 30
0.0
 10
1.596351388888883
 20
-2.193572222222226
 30
0.0
  0
POLYLINE
  5
64
330
1F
100
AcDbEntity
  8
Layer 1
 62
   178
420
        0
370
    25
100
AcDb2dPolyline
 66
     1
 10
0.0
 20
0.0
 30
0.0
  0
VERTEX
  5
65
330
64
100
AcDbEntity
  8
Layer 1
 62
   178
420
        0
370
    25
100
AcDbVertex
100
AcDb2dVertex
 10
1.48883194444444
 20
-2.214709722222223
 30
0.0
  0
VERTEX
  5
66
330
64
100
AcDbEntity
  8
Layer 1
 62
   178
420
        0
370
    25
100
AcDbVertex
100
AcDb2dVertex
 10
1.531926388888893
 20
-2.228411111111098
 30
0.0
  0
VERTEX
  5
67
330
64
100
AcDbEntity
  8
Layer 1
 62
   178
420
        0
370
    25
100
AcDbVertex
100
AcDb2dVertex
 10
1.567445833333333
 20
-2.231095833333332
 30
0.0
  0
SEQEND
  5
68
330
64
100
AcDbEntity
  8
Layer 1
 62
   178
420
        0
370
    25
  0
SPLINE
  5
69
330
1F
100
AcDbEntity
  8
Layer 1
 62
   178
420
        0
370
    25
100
AcDbSpline
210
0.0
220
0.0
230
1.0
 70
     8
 71
     3
 72
    11
 73
     7
 74
     0
 42
0.0000000001
 43
0.0000000001
 12
1.0
 22
0.0
 32
0.0
 13
1.0
 23
0.0
 33
0.0
 40
0.0
 40
0.0
 40
0.0
 40
0.0
 40
1.0
 40
1.0
 40
1.0
 40
2.0
 40
2.0
 40
2.0
 40
2.0
 10
1.463591666666667
 20
-2.244793055555571
 30
0.0
 10
1.487791666666668
 20
-2.252443055555558
 30
0.0
 10
1.508827777777772
 20
-2.264615277777769
 30
0.0
 10
1.536186111111116
 20
-2.267734722222233
 30
0.0
 10
1.536186111111116
 20
-2.267734722222233
 30
0.0
 10
1.595977777777774
 20
-2.273325000000012
 30
0.0
 10
1.595977777777774
 20
-2.273325000000012
 30
0.0
  0
SPLINE
  5
6A
330
1F
100
AcDbEntity
  8
Layer 1
370
     0
100
AcDbSpline
210
0.0
220
0.0
230
1.0
 70
    11
 71
     3
 72
    41
 73
    37
 74
     0
 42
0.0000000001
 43
0.0000000001
 12
1.0
 22
0.0
 32
0.0
 13
1.0
 23
0.0
 33
0.0
 40
0.0
 40
0.0
 40
0.0
 40
0.0
 40
1.0
 40
1.0
 40
1.0
 40
2.0
 40
2.0
 40
2.0
 40
3.0
 40
3.0
 40
3.0
 40
4.0
 40
4.0
 40
4.0
 40
5.0
 40
5.0
 40
5.0
 40
6.0
 40
6.0
 40
6.0
 40
7.0
 40
7.0
 40
7.0
 40
8.0
 40
8.0
 40
8.0
 40
9.0
 40
9.0
 40
9.0
 40
10.0
 40
10.0
 40
10.0
 40
11.0
 40
11.0
 40
11.0
 40
12.0
 40
12.0
 40
12.0
 40
12.0
 10
1.496152082864443
 20
-2.050109022426619
 30
0.0
 10
1.496152082864443
 20
-2.050109022426619
 30
0.0
 10
1.415314582864438
 20
-2.068915966871044
 30
0.0
 10
1.415314582864438
 20
-2.068915966871044
 30
0.0
 10
1.415314582864438
 20
-2.068915966871044
 30
0.0
 10
1.415314582864438
 20
-2.260757633537701
 30
0.0
 10
1.415314582864438
 20
-2.260757633537701
 30
0.0
 10
1.415314582864438
 20
-2.260757633537701
 30
0.0
 10
1.419349305086661
 20
-2.267690966871062
 30
0.0
 10
1.419349305086661
 20
-2.267690966871062
 30
0.0
 10
1.419349305086661
 20
-2.267690966871062
 30
0.0
 10
1.432675693975549
 20
-2.276096522426592
 30
0.0
 10
1.432675693975549
 20
-2.276096522426592
 30
0.0
 10
1.49023541619777
 20
-2.301446522426608
 30
0.0
 10
1.565456249531116
 20
-2.316884022426621
 30
0.0
 10
1.611904860642223
 20
-2.31680068909327
 30
0.0
 10
1.661743749531107
 20
-2.316718744648824
 30
0.0
 10
1.734857638420004
 20
-2.313557633537711
 30
0.0
 10
1.784310416197779
 20
-2.298671522426603
 30
0.0
 10
1.784310416197779
 20
-2.298671522426603
 30
0.0
 10
1.83091180508667
 20
-2.27938402242661
 30
0.0
 10
1.83091180508667
 20
-2.27938402242661
 30
0.0
 10
1.83091180508667
 20
-2.27938402242661
 30
0.0
 10
1.844617360642221
 20
-2.269746522426607
 30
0.0
 10
1.844617360642221
 20
-2.269746522426607
 30
0.0
 10
1.844617360642221
 20
-2.269746522426607
 30
0.0
 10
1.849447916197783
 20
-2.260757633537701
 30
0.0
 10
1.849447916197783
 20
-2.260757633537701
 30
0.0
 10
1.849447916197783
 20
-2.260757633537701
 30
0.0
 10
1.849447916197783
 20
-1.967915966871045
 30
0.0
 10
1.849447916197783
 20
-1.967915966871045
 30
0.0
 10
1.849447916197783
 20
-1.967915966871045
 30
0.0
 10
1.553684027308893
 20
-2.036722911315489
 30
0.0
 10
1.553684027308893
 20
-2.036722911315489
 30
0.0
 10
1.553684027308893
 20
-2.036722911315489
 30
0.0
 10
1.496152082864443
 20
-2.050109022426619
 30
0.0
 10
1.496152082864443
 20
-2.050109022426619
 30
0.0
  0
HATCH
  5
6B
330
1F
100
AcDbEntity
  8
Layer 1
 62
     7
420
 16777215
100
AcDbHatch
 10
0.0
 20
0.0
 30
0.0
210
0.0
220
0.0
230
1.0
  2
SOLID
 70
     1
 71
     0
 91
        1
 92
        1
 93
        1
 72
     4
 94
        3
 73
     0
 74
     1
 95
       41
 96
       37
 40
0.0
 40
0.0
 40
0.0
 40
0.0
 40
1.0
 40
1.0
 40
1.0
 40
2.0
 40
2.0
 40
2.0
 40
3.0
 40
3.0
 40
3.0
 40
4.0
 40
4.0
 40
4.0
 40
5.0
 40
5.0
 40
5.0
 40
6.0
 40
6.0
 40
6.0
 40
7.0
 40
7.0
 40
7.0
 40
8.0
 40
8.0
 40
8.0
 40
9.0
 40
9.0
 40
9.0
 40
10.0
 40
10.0
 40
10.0
 40
11.0
 40
11.0
 40
11.0
 40
12.0
 40
12.0
 40
12.0
 40
12.0
 10
1.496152082864443
 20
-2.050109022426619
 10
1.496152082864443
 20
-2.050109022426619
 10
1.415314582864438
 20
-2.068915966871044
 10
1.415314582864438
 20
-2.068915966871044
 10
1.415314582864438
 20
-2.068915966871044
 10
1.415314582864438
 20
-2.260757633537701
 10
1.415314582864438
 20
-2.260757633537701
 10
1.415314582864438
 20
-2.260757633537701
 10
1.419349305086661
 20
-2.267690966871062
 10
1.419349305086661
 20
-2.267690966871062
 10
1.419349305086661
 20
-2.267690966871062
 10
1.432675693975549
 20
-2.276096522426592
 10
1.432675693975549
 20
-2.276096522426592
 10
1.49023541619777
 20
-2.301446522426608
 10
1.565456249531116
 20
-2.316884022426621
 10
1.611904860642223
 20
-2.31680068909327
 10
1.661743749531107
 20
-2.316718744648824
 10
1.734857638420004
 20
-2.313557633537711
 10
1.784310416197779
 20
-2.298671522426603
 10
1.784310416197779
 20
-2.298671522426603
 10
1.83091180508667
 20
-2.27938402242661
 10
1.83091180508667
 20
-2.27938402242661
 10
1.83091180508667
 20
-2.27938402242661
 10
1.844617360642221
 20
-2.269746522426607
 10
1.844617360642221
 20
-2.269746522426607
 10
1.844617360642221
 20
-2.269746522426607
 10
1.849447916197783
 20
-2.260757633537701
 10
1.849447916197783
 20
-2.260757633537701
 10
1.849447916197783
 20
-2.260757633537701
 10
1.849447916197783
 20
-1.967915966871045
 10
1.849447916197783
 20
-1.967915966871045
 10
1.849447916197783
 20
-1.967915966871045
 10
1.553684027308893
 20
-2.036722911315489
 10
1.553684027308893
 20
-2.036722911315489
 10
1.553684027308893
 20
-2.036722911315489
 10
1.496152082864443
 20
-2.050109022426619
 10
1.496152082864443
 20
-2.050109022426619
 97
        0
 97
        0
 75
     0
 76
     1
 98
        0
  0
POLYLINE
  5
6C
330
1F
100
AcDbEntity
  8
Layer 1
 62
   240
420
 15539236
370
     9
100
AcDb2dPolyline
 66
     1
 10
0.0
 20
0.0
 30
0.0
  0
VERTEX
  5
6D
330
6C
100
AcDbEntity
  8
Layer 1
 62
   240
420
 15539236
370
     9
100
AcDbVertex
100
AcDb2dVertex
 10
1.326261111111105
 20
-1.688902777777773
 30
0.0
  0
VERTEX
  5
6E
330
6C
100
AcDbEntity
  8
Layer 1
 62
   240
420
 15539236
370
     9
100
AcDbVertex
100
AcDb2dVertex
 10
1.326261111111105
 20
-2.314591666666678
 30
0.0
  0
SEQEND
  5
6F
330
6C
100
AcDbEntity
  8
Layer 1
 62
   240
420
 15539236
370
     9
  0
POLYLINE
  5
70
330
1F
100
AcDbEntity
  8
Layer 1
 62
   240
420
 15539236
370
     9
100
AcDb2dPolyline
 66
     1
 10
0.0
 20
0.0
 30
0.0
  0
VERTEX
  5
71
330
70
100
AcDbEntity
  8
Layer 1
 62
   240
420
 15539236
370
     9
100
AcDbVertex
100
AcDb2dVertex
 10
1.970658333333328
 20
-2.314591666666678
 30
0.0
  0
VERTEX
  5
72
330
70
100
AcDbEntity
  8
Layer 1
 62
   240
420
 15539236
370
     9
100
AcDbVertex
100
AcDb2dVertex
 10
1.970658333333328
 20
-1.706900000000006
 30
0.0
  0
SEQEND
  5
73
330
70
100
AcDbEntity
  8
Layer 1
 62
   240
420
 15539236
370
     9
  0
SPLINE
  5
74
330
1F
100
AcDbEntity
  8
Layer 1
 62
   240
420
 15539236
370
     9
100
AcDbSpline
210
0.0
220
0.0
230
1.0
 70
     8
 71
     3
 72
    26
 73
    22
 74
     0
 42
0.0000000001
 43
0.0000000001
 12
1.0
 22
0.0
 32
0.0
 13
1.0
 23
0.0
 33
0.0
 40
0.0
 40
0.0
 40
0.0
 40
0.0
 40
1.0
 40
1.0
 40
1.0
 40
2.0
 40
2.0
 40
2.0
 40
3.0
 40
3.0
 40
3.0
 40
4.0
 40
4.0
 40
4.0
 40
5.0
 40
5.0
 40
5.0
 40
6.0
 40
6.0
 40
6.0
 40
7.0
 40
7.0
 40
7.0
 40
7.0
 10
1.326261111111105
 20
-2.314591666666678
 30
0.0
 10
1.326261111111105
 20
-2.314591666666678
 30
0.0
 10
1.332252777777777
 20
-2.324636111111102
 30
0.0
 10
1.332252777777777
 20
-2.324636111111102
 30
0.0
 10
1.332252777777777
 20
-2.324636111111102
 30
0.0
 10
1.352036111111109
 20
-2.336808333333339
 30
0.0
 10
1.352036111111109
 20
-2.336808333333339
 30
0.0
 10
1.437465277777783
 20
-2.373533333333348
 30
0.0
 10
1.549123611111112
 20
-2.395891666666658
 30
0.0
 10
1.618068055555556
 20
-2.395777777777766
 30
0.0
 10
1.69204444444444
 20
-2.39565555555555
 30
0.0
 10
1.800572222222222
 20
-2.391076388888905
 30
0.0
 10
1.873973611111106
 20
-2.369513888888882
 30
0.0
 10
1.873973611111106
 20
-2.369513888888882
 30
0.0
 10
1.943147222222226
 20
-2.341572222222213
 30
0.0
 10
1.943147222222226
 20
-2.341572222222213
 30
0.0
 10
1.943147222222226
 20
-2.341572222222213
 30
0.0
 10
1.963488888888883
 20
-2.327612500000012
 30
0.0
 10
1.963488888888883
 20
-2.327612500000012
 30
0.0
 10
1.963488888888883
 20
-2.327612500000012
 30
0.0
 10
1.970658333333328
 20
-2.314591666666678
 30
0.0
 10
1.970658333333328
 20
-2.314591666666678
 30
0.0
  0
SPLINE
  5
75
330
1F
100
AcDbEntity
  8
Layer 1
 62
   240
420
 15539236
370
     9
100
AcDbSpline
210
0.0
220
0.0
230
1.0
 70
     8
 71
     3
 72
    20
 73
    16
 74
     0
 42
0.0000000001
 43
0.0000000001
 12
1.0
 22
0.0
 32
0.0
 13
1.0
 23
0.0
 33
0.0
 40
0.0
 40
0.0
 40
0.0
 40
0.0
 40
1.0
 40
1.0
 40
1.0
 40
2.0
 40
2.0
 40
2.0
 40
3.0
 40
3.0
 40
3.0
 40
4.0
 40
4.0
 40
4.0
 40
5.0
 40
5.0
 40
5.0
 40
5.0
 10
1.326261111111105
 20
-1.688902777777773
 30
0.0
 10
1.326261111111105
 20
-1.688902777777773
 30
0.0
 10
1.334308333333335
 20
-1.669494444444442
 30
0.0
 10
1.334308333333335
 20
-1.669494444444442
 30
0.0
 10
1.334308333333335
 20
-1.669494444444442
 30
0.0
 10
1.358237499999998
 20
-1.652505555555561
 30
0.0
 10
1.358237499999998
 20
-1.652505555555561
 30
0.0
 10
1.461701388888893
 20
-1.615595833333335
 30
0.0
 10
1.506744444444444
 20
-1.604726388888884
 30
0.0
 10
1.65069722222222
 20
-1.605084722222222
 30
0.0
 10
1.767623611111111
 20
-1.603297222222219
 30
0.0
 10
1.956426388888884
 20
-1.64546666666667
 30
0.0
 10
1.967149999999997
 20
-1.664179166666663
 30
0.0
 10
1.972720833333331
 20
-1.674005555555558
 30
0.0
 10
1.969480555555555
 20
-1.692659722222225
 30
0.0
 10
1.970654166666665
 20
-1.706900000000006
 30
0.0
  0
SPLINE
  5
76
330
1F
100
AcDbEntity
  8
Layer 1
 62
   178
420
        0
370
    53
100
AcDbSpline
210
0.0
220
0.0
230
1.0
 70
     8
 71
     3
 72
    11
 73
     7
 74
     0
 42
0.0000000001
 43
0.0000000001
 12
1.0
 22
0.0
 32
0.0
 13
1.0
 23
0.0
 33
0.0
 40
0.0
 40
0.0
 40
0.0
 40
0.0
 40
1.0
 40
1.0
 40
1.0
 40
2.0
 40
2.0
 40
2.0
 40
2.0
 10
1.474862499999997
 20
-2.023848611111109
 30
0.0
 10
1.49906388888889
 20
-2.031497222222217
 30
0.0
 10
1.520098611111115
 20
-2.043670833333332
 30
0.0
 10
1.547456944444447
 20
-2.046788888888892
 30
0.0
 10
1.547456944444447
 20
-2.046788888888892
 30
0.0
 10
1.607248611111117
 20
-2.052379166666671
 30
0.0
 10
1.607248611111117
 20
-2.052379166666671
 30
0.0
  0
POLYLINE
  5
77
330
1F
100
AcDbEntity
  8
Layer 1
 62
   178
420
        0
370
    53
100
AcDb2dPolyline
 66
     1
 10
0.0
 20
0.0
 30
0.0
  0
VERTEX
  5
78
330
77
100
AcDbEntity
  8
Layer 1
 62
   178
420
        0
370
    53
100
AcDbVertex
100
AcDb2dVertex
 10
1.493748611111111
 20
-2.068486111111118
 30
0.0
  0
VERTEX
  5
79
330
77
100
AcDbEntity
  8
Layer 1
 62
   178
420
        0
370
    53
100
AcDbVertex
100
AcDb2dVertex
 10
1.536843055555551
 20
-2.082186111111115
 30
0.0
  0
VERTEX
  5
7A
330
77
100
AcDbEntity
  8
Layer 1
 62
   178
420
        0
370
    53
100
AcDbVertex
100
AcDb2dVertex
 10
1.572362500000003
 20
-2.084872222222228
 30
0.0
  0
SEQEND
  5
7B
330
77
100
AcDbEntity
  8
Layer 1
 62
   178
420
        0
370
    53
  0
SPLINE
  5
7C
330
1F
100
AcDbEntity
  8
Layer 1
 62
   178
420
        0
370
    53
100
AcDbSpline
210
0.0
220
0.0
230
1.0
 70
     8
 71
     3
 72
    11
 73
     7
 74
     0
 42
0.0000000001
 43
0.0000000001
 12
1.0
 22
0.0
 32
0.0
 13
1.0
 23
0.0
 33
0.0
 40
0.0
 40
0.0
 40
0.0
 40
0.0
 40
1.0
 40
1.0
 40
1.0
 40
2.0
 40
2.0
 40
2.0
 40
2.0
 10
1.468508333333337
 20
-2.098568055555562
 30
0.0
 10
1.492709722222217
 20
-2.106218055555549
 30
0.0
 10
1.513744444444443
 20
-2.118391666666664
 30
0.0
 10
1.541102777777774
 20
-2.121509722222223
 30
0.0
 10
1.541102777777774
 20
-2.121509722222223
 30
0.0
 10
1.600894444444445
 20
-2.127100000000003
 30
0.0
 10
1.600894444444445
 20
-2.127100000000003
 30
0.0
  0
POLYLINE
  5
7D
330
1F
100
AcDbEntity
  8
Layer 1
 62
   178
420
        0
370
    53
100
AcDb2dPolyline
 66
     1
 10
0.0
 20
0.0
 30
0.0
  0
VERTEX
  5
7E
330
7D
100
AcDbEntity
  8
Layer 1
 62
   178
420
        0
370
    53
100
AcDbVertex
100
AcDb2dVertex
 10
1.488838888888886
 20
-2.14485277777779
 30
0.0
  0
VERTEX
  5
7F
330
7D
100
AcDbEntity
  8
Layer 1
 62
   178
420
        0
370
    53
100
AcDbVertex
100
AcDb2dVertex
 10
1.531933333333338
 20
-2.158552777777762
 30
0.0
  0
VERTEX
  5
80
330
7D
100
AcDbEntity
  8
Layer 1
 62
   178
420
        0
370
    53
100
AcDbVertex
100
AcDb2dVertex
 10
1.56745416666667
 20
-2.161237499999995
 30
0.0
  0
SEQEND
  5
81
330
7D
100
AcDbEntity
  8
Layer 1
 62
   178
420
        0
370
    53
  0
SPLINE
  5
82
330
1F
100
AcDbEntity
  8
Layer 1
 62
   178
420
        0
370
    53
100
AcDbSpline
210
0.0
220
0.0
230
1.0
 70
     8
 71
     3
 72
    11
 73
     7
 74
     0
 42
0.0000000001
 43
0.0000000001
 12
1.0
 22
0.0
 32
0.0
 13
1.0
 23
0.0
 33
0.0
 40
0.0
 40
0.0
 40
0.0
 40
0.0
 40
1.0
 40
1.0
 40
1.0
 40
2.0
 40
2.0
 40
2.0
 40
2.0
 10
1.463598611111113
 20
-2.174934722222234
 30
0.0
 10
1.487800000000006
 20
-2.182584722222221
 30
0.0
 10
1.50883611111111
 20
-2.194758333333337
 30
0.0
 10
1.536194444444441
 20
-2.197876388888896
 30
0.0
 10
1.536194444444441
 20
-2.197876388888896
 30
0.0
 10
1.59598472222222
 20
-2.203466666666675
 30
0.0
 10
1.59598472222222
 20
-2.203466666666675
 30
0.0
  0
POLYLINE
  5
83
330
1F
100
AcDbEntity
  8
Layer 1
 62
   178
420
        0
370
    53
100
AcDb2dPolyline
 66
     1
 10
0.0
 20
0.0
 30
0.0
  0
VERTEX
  5
84
330
83
100
AcDbEntity
  8
Layer 1
 62
   178
420
        0
370
    53
100
AcDbVertex
100
AcDb2dVertex
 10
1.488465277777777
 20
-2.224604166666672
 30
0.0
  0
VERTEX
  5
85
330
83
100
AcDbEntity
  8
Layer 1
 62
   178
420
        0
370
    53
100
AcDbVertex
100
AcDb2dVertex
 10
1.531559722222217
 20
-2.238305555555548
 30
0.0
  0
VERTEX
  5
86
330
83
100
AcDbEntity
  8
Layer 1
 62
   178
420
        0
370
    53
100
AcDbVertex
100
AcDb2dVertex
 10
1.56707916666667
 20
-2.240990277777781
 30
0.0
  0
SEQEND
  5
87
330
83
100
AcDbEntity
  8
Layer 1
 62
   178
420
        0
370
    53
  0
SPLINE
  5
88
330
1F
100
AcDbEntity
  8
Layer 1
 62
   178
420
        0
370
    53
100
AcDbSpline
210
0.0
220
0.0
230
1.0
 70
     8
 71
     3
 72
    11
 73
     7
 74
     0
 42
0.0000000001
 43
0.0000000001
 12
1.0
 22
0.0
 32
0.0
 13
1.0
 23
0.0
 33
0.0
 40
0.0
 40
0.0
 40
0.0
 40
0.0
 40
1.0
 40
1.0
 40
1.0
 40
2.0
 40
2.0
 40
2.0
 40
2.0
 10
1.463225000000004
 20
-2.254686111111116
 30
0.0
 10
1.487426388888884
 20
-2.262336111111103
 30
0.0
 10
1.508461111111109
 20
-2.274509722222218
 30
0.0
 10
1.535819444444441
 20
-2.277627777777778
 30
0.0
 10
1.535819444444441
 20
-2.277627777777778
 30
0.0
 10
1.595611111111111
 20
-2.283218055555557
 30
0.0
 10
1.595611111111111
 20
-2.283218055555557
 30
0.0
  0
POLYLINE
  5
89
330
1F
100
AcDbEntity
  8
Layer 1
 62
     7
420
 16777215
370
    53
100
AcDb2dPolyline
 66
     1
 10
0.0
 20
0.0
 30
0.0
  0
VERTEX
  5
8A
330
89
100
AcDbEntity
  8
Layer 1
 62
     7
420
 16777215
370
    53
100
AcDbVertex
100
AcDb2dVertex
 10
1.495540277777776
 20
-1.989372222222225
 30
0.0
  0
VERTEX
  5
8B
330
89
100
AcDbEntity
  8
Layer 1
 62
     7
420
 16777215
370
    53
100
AcDbVertex
100
AcDb2dVertex
 10
1.538634722222216
 20
-2.003072222222221
 30
0.0
  0
VERTEX
  5
8C
330
89
100
AcDbEntity
  8
Layer 1
 62
     7
420
 16777215
370
    53
100
AcDbVertex
100
AcDb2dVertex
 10
1.574154166666669
 20
-2.005758333333334
 30
0.0
  0
SEQEND
  5
8D
330
89
100
AcDbEntity
  8
Layer 1
 62
     7
420
 16777215
370
    53
  0
POLYLINE
  5
8E
330
1F
100
AcDbEntity
  8
Layer 1
 62
   114
420
    42320
370
    35
100
AcDb2dPolyline
 66
     1
 10
0.0
 20
0.0
 30
0.0
  0
VERTEX
  5
8F
330
8E
100
AcDbEntity
  8
Layer 1
 62
   114
420
    42320
370
    35
100
AcDbVertex
100
AcDb2dVertex
 10
2.630729120383471
 20
-1.735887500000002
 30
0.0
  0
VERTEX
  5
90
330
8E
100
AcDbEntity
  8
Layer 1
 62
   114
420
    42320
370
    35
100
AcDbVertex
100
AcDb2dVertex
 10
2.630729120383471
 20
-2.285883333333332
 30
0.0
  0
SEQEND
  5
91
330
8E
100
AcDbEntity
  8
Layer 1
 62
   114
420
    42320
370
    35
  0
POLYLINE
  5
92
330
1F
100
AcDbEntity
  8
Layer 1
 62
   114
420
    42320
370
    35
100
AcDb2dPolyline
 66
     1
 10
0.0
 20
0.0
 30
0.0
  0
VERTEX
  5
93
330
92
100
AcDbEntity
  8
Layer 1
 62
   114
420
    42320
370
    35
100
AcDbVertex
100
AcDb2dVertex
 10
2.130733333333334
 20
-2.285883333333332
 30
0.0
  0
VERTEX
  5
94
330
92
100
AcDbEntity
  8
Layer 1
 62
   114
420
    42320
370
    35
100
AcDbVertex
100
AcDb2dVertex
 10
2.130733333333334
 20
-1.779151388888888
 30
0.0
  0
SEQEND
  5
95
330
92
100
AcDbEntity
  8
Layer 1
 62
   114
420
    42320
370
    35
  0
SPLINE
  5
96
330
1F
100
AcDbEntity
  8
Layer 1
 62
   114
420
    42320
370
    35
100
AcDbSpline
210
0.0
220
0.0
230
1.0
 70
     8
 71
     3
 72
    26
 73
    22
 74
     0
 42
0.0000000001
 43
0.0000000001
 12
1.0
 22
0.0
 32
0.0
 13
1.0
 23
0.0
 33
0.0
 40
0.0
 40
0.0
 40
0.0
 40
0.0
 40
1.0
 40
1.0
 40
1.0
 40
2.0
 40
2.0
 40
2.0
 40
3.0
 40
3.0
 40
3.0
 40
4.0
 40
4.0
 40
4.0
 40
5.0
 40
5.0
 40
5.0
 40
6.0
 40
6.0
 40
6.0
 40
7.0
 40
7.0
 40
7.0
 40
7.0
 10
2.630729120383471
 20
-2.285883333333332
 30
0.0
 10
2.630729120383471
 20
-2.285883333333332
 30
0.0
 10
2.62607912050094
 20
-2.294709722222226
 30
0.0
 10
2.62607912050094
 20
-2.294709722222226
 30
0.0
 10
2.62607912050094
 20
-2.294709722222226
 30
0.0
 10
2.610729120888714
 20
-2.305411111111122
 30
0.0
 10
2.610729120888714
 20
-2.305411111111122
 30
0.0
 10
2.544441622563277
 20
-2.337694444444449
 30
0.0
 10
2.457808291418486
 20
-2.357348611111118
 30
0.0
 10
2.404312459436571
 20
-2.357245833333334
 30
0.0
 10
2.346913849775471
 20
-2.357138888888888
 30
0.0
 10
2.262705518569419
 20
-2.353115277777761
 30
0.0
 10
2.205752742230389
 20
-2.334159722222214
 30
0.0
 10
2.205752742230389
 20
-2.334159722222214
 30
0.0
 10
2.152079166666681
 20
-2.309599999999995
 30
0.0
 10
2.152079166666681
 20
-2.309599999999995
 30
0.0
 10
2.152079166666681
 20
-2.309599999999995
 30
0.0
 10
2.13629583333333
 20
-2.297329166666663
 30
0.0
 10
2.13629583333333
 20
-2.297329166666663
 30
0.0
 10
2.13629583333333
 20
-2.297329166666663
 30
0.0
 10
2.130733333333334
 20
-2.285883333333332
 30
0.0
 10
2.130733333333334
 20
-2.285883333333332
 30
0.0
  0
SPLINE
  5
97
330
1F
100
AcDbEntity
  8
Layer 1
 62
   114
420
    42320
370
    35
100
AcDbSpline
210
0.0
220
0.0
230
1.0
 70
     8
 71
     3
 72
    29
 73
    25
 74
     0
 42
0.0000000001
 43
0.0000000001
 12
1.0
 22
0.0
 32
0.0
 13
1.0
 23
0.0
 33
0.0
 40
0.0
 40
0.0
 40
0.0
 40
0.0
 40
1.0
 40
1.0
 40
1.0
 40
2.0
 40
2.0
 40
2.0
 40
3.0
 40
3.0
 40
3.0
 40
4.0
 40
4.0
 40
4.0
 40
5.0
 40
5.0
 40
5.0
 40
6.0
 40
6.0
 40
6.0
 40
7.0
 40
7.0
 40
7.0
 40
8.0
 40
8.0
 40
8.0
 40
8.0
 10
2.630729120383471
 20
-1.735887500000002
 30
0.0
 10
2.630729120383471
 20
-1.735887500000002
 30
0.0
 10
2.628315231555562
 20
-1.745254166666667
 30
0.0
 10
2.628315231555562
 20
-1.745254166666667
 30
0.0
 10
2.628315231555562
 20
-1.745254166666667
 30
0.0
 10
2.620091620652197
 20
-1.753477777777776
 30
0.0
 10
2.620091620652197
 20
-1.753477777777776
 30
0.0
 10
2.609945787575169
 20
-1.757919444444446
 30
0.0
 10
2.599799954498141
 20
-1.762359722222224
 30
0.0
 10
2.589658288087675
 20
-1.766797222222218
 30
0.0
 10
2.525291623047047
 20
-1.794793055555551
 30
0.0
 10
2.448531902763938
 20
-1.790938888888882
 30
0.0
 10
2.379649960059598
 20
-1.791123611111112
 30
0.0
 10
2.309681906271584
 20
-1.792052777777775
 30
0.0
 10
2.217351353048495
 20
-1.762694444444441
 30
0.0
 10
2.150836111111099
 20
-1.742415277777784
 30
0.0
 10
2.150836111111099
 20
-1.742415277777784
 30
0.0
 10
2.11396944444444
 20
-1.73226527777778
 30
0.0
 10
2.11396944444444
 20
-1.73226527777778
 30
0.0
 10
2.11396944444444
 20
-1.73226527777778
 30
0.0
 10
2.100044444444443
 20
-1.733061111111106
 30
0.0
 10
2.100044444444443
 20
-1.733061111111106
 30
0.0
 10
2.100044444444443
 20
-1.733061111111106
 30
0.0
 10
2.091209722222225
 20
-1.740561111111106
 30
0.0
 10
2.091209722222225
 20
-1.740561111111106
 30
0.0
  0
POLYLINE
  5
98
330
1F
100
AcDbEntity
  8
Layer 1
 62
   114
420
    42320
370
    35
100
AcDb2dPolyline
 66
     1
 10
0.0
 20
0.0
 30
0.0
  0
VERTEX
  5
99
330
98
100
AcDbEntity
  8
Layer 1
 62
   114
420
    42320
370
    35
100
AcDbVertex
100
AcDb2dVertex
 10
2.093244444444432
 20
-1.736481944444449
 30
0.0
  0
VERTEX
  5
9A
330
98
100
AcDbEntity
  8
Layer 1
 62
   114
420
    42320
370
    35
100
AcDbVertex
100
AcDb2dVertex
 10
2.122402777777779
 20
-1.758900000000002
 30
0.0
  0
VERTEX
  5
9B
330
98
100
AcDbEntity
  8
Layer 1
 62
   114
420
    42320
370
    35
100
AcDbVertex
100
AcDb2dVertex
 10
2.132087499999999
 20
-1.783679166666666
 30
0.0
  0
SEQEND
  5
9C
330
98
100
AcDbEntity
  8
Layer 1
 62
   114
420
    42320
370
    35
  0
SPLINE
  5
9D
330
1F
100
AcDbEntity
  8
Layer 1
 62
   114
420
    42320
370
    35
100
AcDbSpline
210
0.0
220
0.0
230
1.0
 70
     8
 71
     3
 72
    20
 73
    16
 74
     0
 42
0.0000000001
 43
0.0000000001
 12
1.0
 22
0.0
 32
0.0
 13
1.0
 23
0.0
 33
0.0
 40
0.0
 40
0.0
 40
0.0
 40
0.0
 40
1.0
 40
1.0
 40
1.0
 40
2.0
 40
2.0
 40
2.0
 40
3.0
 40
3.0
 40
3.0
 40
4.0
 40
4.0
 40
4.0
 40
5.0
 40
5.0
 40
5.0
 40
5.0
 10
2.630729120383471
 20
-1.735887500000002
 30
0.0
 10
2.630729120383471
 20
-1.735887500000002
 30
0.0
 10
2.624484676096775
 20
-1.718829166666662
 30
0.0
 10
2.624484676096775
 20
-1.718829166666662
 30
0.0
 10
2.624484676096775
 20
-1.718829166666662
 30
0.0
 10
2.605918009899142
 20
-1.703895833333339
 30
0.0
 10
2.605918009899142
 20
-1.703895833333339
 30
0.0
 10
2.525638845260497
 20
-1.671449999999999
 30
0.0
 10
2.490690235032262
 20
-1.661895833333334
 30
0.0
 10
2.37899301563175
 20
-1.662209722222213
 30
0.0
 10
2.288272184590217
 20
-1.660638888888886
 30
0.0
 10
2.18812635378678
 20
-1.679713888888892
 30
0.0
 10
2.118501388888894
 20
-1.714947222222223
 30
0.0
 10
2.118501388888894
 20
-1.714947222222223
 30
0.0
 10
2.091209722222225
 20
-1.740561111111106
 30
0.0
 10
2.091209722222225
 20
-1.740561111111106
 30
0.0
  0
POLYLINE
  5
9E
330
1F
100
AcDbEntity
  8
Layer 1
 62
     7
420
 16777215
370
    53
100
AcDb2dPolyline
 66
     1
 10
0.0
 20
0.0
 30
0.0
  0
VERTEX
  5
9F
330
9E
100
AcDbEntity
  8
Layer 1
 62
     7
420
 16777215
370
    53
100
AcDbVertex
100
AcDb2dVertex
 10
2.507909679041707
 20
-1.912990277777782
 30
0.0
  0
VERTEX
  5
A0
330
9E
100
AcDbEntity
  8
Layer 1
 62
     7
420
 16777215
370
    53
100
AcDbVertex
100
AcDb2dVertex
 10
2.46481523568592
 20
-1.926690277777778
 30
0.0
  0
VERTEX
  5
A1
330
9E
100
AcDbEntity
  8
Layer 1
 62
     7
420
 16777215
370
    53
100
AcDbVertex
100
AcDb2dVertex
 10
2.429295792138772
 20
-1.929376388888891
 30
0.0
  0
SEQEND
  5
A2
330
9E
100
AcDbEntity
  8
Layer 1
 62
     7
420
 16777215
370
    53
  0
SPLINE
  5
A3
330
1F
100
AcDbEntity
  8
Layer 1
 62
     7
420
 16777215
370
    53
100
AcDbSpline
210
0.0
220
0.0
230
1.0
 70
     8
 71
     3
 72
    11
 73
     7
 74
     0
 42
0.0000000001
 43
0.0000000001
 12
1.0
 22
0.0
 32
0.0
 13
1.0
 23
0.0
 33
0.0
 40
0.0
 40
0.0
 40
0.0
 40
0.0
 40
1.0
 40
1.0
 40
1.0
 40
2.0
 40
2.0
 40
2.0
 40
2.0
 10
2.533149956181862
 20
-1.943072222222225
 30
0.0
 10
2.508949956793205
 20
-1.950722222222225
 30
0.0
 10
2.487913846213511
 20
-1.962895833333328
 30
0.0
 10
2.460555513571308
 20
-1.966013888888887
 30
0.0
 10
2.460555513571308
 20
-1.966013888888887
 30
0.0
 10
2.400765237303959
 20
-1.971604166666667
 30
0.0
 10
2.400765237303959
 20
-1.971604166666667
 30
0.0
  0
SPLINE
  5
A4
330
1F
100
AcDbEntity
  8
Layer 1
 62
   178
420
        0
370
    25
100
AcDbSpline
210
0.0
220
0.0
230
1.0
 70
     8
 71
     3
 72
    11
 73
     7
 74
     0
 42
0.0000000001
 43
0.0000000001
 12
1.0
 22
0.0
 32
0.0
 13
1.0
 23
0.0
 33
0.0
 40
0.0
 40
0.0
 40
0.0
 40
0.0
 40
1.0
 40
1.0
 40
1.0
 40
2.0
 40
2.0
 40
2.0
 40
2.0
 10
2.537883289395621
 20
-2.017568055555557
 30
0.0
 10
2.513681901118111
 20
-2.025218055555544
 30
0.0
 10
2.49264717942727
 20
-2.03739166666666
 30
0.0
 10
2.465288846785067
 20
-2.040509722222219
 30
0.0
 10
2.465288846785067
 20
-2.040509722222219
 30
0.0
 10
2.405497181628864
 20
-2.046099999999999
 30
0.0
 10
2.405497181628864
 20
-2.046099999999999
 30
0.0
  0
POLYLINE
  5
A5
330
1F
100
AcDbEntity
  8
Layer 1
 62
   178
420
        0
370
    25
100
AcDb2dPolyline
 66
     1
 10
0.0
 20
0.0
 30
0.0
  0
VERTEX
  5
A6
330
A5
100
AcDbEntity
  8
Layer 1
 62
   178
420
        0
370
    25
100
AcDbVertex
100
AcDb2dVertex
 10
2.518997178761613
 20
-2.062206944444445
 30
0.0
  0
VERTEX
  5
A7
330
A5
100
AcDbEntity
  8
Layer 1
 62
   178
420
        0
370
    25
100
AcDbVertex
100
AcDb2dVertex
 10
2.475902735405826
 20
-2.075906944444442
 30
0.0
  0
VERTEX
  5
A8
330
A5
100
AcDbEntity
  8
Layer 1
 62
   178
420
        0
370
    25
100
AcDbVertex
100
AcDb2dVertex
 10
2.440383291858678
 20
-2.078591666666651
 30
0.0
  0
SEQEND
  5
A9
330
A5
100
AcDbEntity
  8
Layer 1
 62
   178
420
        0
370
    25
  0
SPLINE
  5
AA
330
1F
100
AcDbEntity
  8
Layer 1
 62
   178
420
        0
370
    25
100
AcDbSpline
210
0.0
220
0.0
230
1.0
 70
     8
 71
     3
 72
    11
 73
     7
 74
     0
 42
0.0000000001
 43
0.0000000001
 12
1.0
 22
0.0
 32
0.0
 13
1.0
 23
0.0
 33
0.0
 40
0.0
 40
0.0
 40
0.0
 40
0.0
 40
1.0
 40
1.0
 40
1.0
 40
2.0
 40
2.0
 40
2.0
 40
2.0
 10
2.544237455901768
 20
-2.092288888888889
 30
0.0
 10
2.520036067624258
 20
-2.099938888888876
 30
0.0
 10
2.499001345933417
 20
-2.112112499999992
 30
0.0
 10
2.471643013291214
 20
-2.115230555555551
 30
0.0
 10
2.471643013291214
 20
-2.115230555555551
 30
0.0
 10
2.411851348135011
 20
-2.12082083333333
 30
0.0
 10
2.411851348135011
 20
-2.12082083333333
 30
0.0
  0
POLYLINE
  5
AB
330
1F
100
AcDbEntity
  8
Layer 1
 62
   178
420
        0
370
    25
100
AcDb2dPolyline
 66
     1
 10
0.0
 20
0.0
 30
0.0
  0
VERTEX
  5
AC
330
AB
100
AcDbEntity
  8
Layer 1
 62
   178
420
        0
370
    25
100
AcDbVertex
100
AcDb2dVertex
 10
2.523906900859806
 20
-2.138572222222238
 30
0.0
  0
VERTEX
  5
AD
330
AB
100
AcDbEntity
  8
Layer 1
 62
   178
420
        0
370
    25
100
AcDbVertex
100
AcDb2dVertex
 10
2.480812457504018
 20
-2.152273611111114
 30
0.0
  0
VERTEX
  5
AE
330
AB
100
AcDbEntity
  8
Layer 1
 62
   178
420
        0
370
    25
100
AcDbVertex
100
AcDb2dVertex
 10
2.445291625068017
 20
-2.154958333333323
 30
0.0
  0
SEQEND
  5
AF
330
AB
100
AcDbEntity
  8
Layer 1
 62
   178
420
        0
370
    25
  0
SPLINE
  5
B0
330
1F
100
AcDbEntity
  8
Layer 1
 62
   178
420
        0
370
    25
100
AcDbSpline
210
0.0
220
0.0
230
1.0
 70
     8
 71
     3
 72
    11
 73
     7
 74
     0
 42
0.0000000001
 43
0.0000000001
 12
1.0
 22
0.0
 32
0.0
 13
1.0
 23
0.0
 33
0.0
 40
0.0
 40
0.0
 40
0.0
 40
0.0
 40
1.0
 40
1.0
 40
1.0
 40
2.0
 40
2.0
 40
2.0
 40
2.0
 10
2.54914717799996
 20
-2.168655555555561
 30
0.0
 10
2.52494578972245
 20
-2.176305555555548
 30
0.0
 10
2.503909679142756
 20
-2.188477777777785
 30
0.0
 10
2.476551346500552
 20
-2.191595833333344
 30
0.0
 10
2.476551346500552
 20
-2.191595833333344
 30
0.0
 10
2.416761070233204
 20
-2.197186111111124
 30
0.0
 10
2.416761070233204
 20
-2.197186111111124
 30
0.0
  0
POLYLINE
  5
B1
330
1F
100
AcDbEntity
  8
Layer 1
 62
   178
420
        0
370
    25
100
AcDb2dPolyline
 66
     1
 10
0.0
 20
0.0
 30
0.0
  0
VERTEX
  5
B2
330
B1
100
AcDbEntity
  8
Layer 1
 62
   178
420
        0
370
    25
100
AcDbVertex
100
AcDb2dVertex
 10
2.524280511961479
 20
-2.218324999999999
 30
0.0
  0
VERTEX
  5
B3
330
B1
100
AcDbEntity
  8
Layer 1
 62
   178
420
        0
370
    25
100
AcDbVertex
100
AcDb2dVertex
 10
2.481186068605691
 20
-2.232024999999996
 30
0.0
  0
VERTEX
  5
B4
330
B1
100
AcDbEntity
  8
Layer 1
 62
   178
420
        0
370
    25
100
AcDbVertex
100
AcDb2dVertex
 10
2.445666625058543
 20
-2.234709722222204
 30
0.0
  0
SEQEND
  5
B5
330
B1
100
AcDbEntity
  8
Layer 1
 62
   178
420
        0
370
    25
  0
SPLINE
  5
B6
330
1F
100
AcDbEntity
  8
Layer 1
 62
   178
420
        0
370
    25
100
AcDbSpline
210
0.0
220
0.0
230
1.0
 70
     8
 71
     3
 72
    11
 73
     7
 74
     0
 42
0.0000000001
 43
0.0000000001
 12
1.0
 22
0.0
 32
0.0
 13
1.0
 23
0.0
 33
0.0
 40
0.0
 40
0.0
 40
0.0
 40
0.0
 40
1.0
 40
1.0
 40
1.0
 40
2.0
 40
2.0
 40
2.0
 40
2.0
 10
2.549520789101633
 20
-2.248406944444443
 30
0.0
 10
2.525319400824123
 20
-2.25605694444443
 30
0.0
 10
2.504284679133282
 20
-2.268230555555571
 30
0.0
 10
2.476926346491079
 20
-2.271348611111105
 30
0.0
 10
2.476926346491079
 20
-2.271348611111105
 30
0.0
 10
2.417134681334876
 20
-2.276938888888885
 30
0.0
 10
2.417134681334876
 20
-2.276938888888885
 30
0.0
  0
SPLINE
  5
B7
330
1F
100
AcDbEntity
  8
Layer 1
370
     0
100
AcDbSpline
210
0.0
220
0.0
230
1.0
 70
    11
 71
     3
 72
    41
 73
    37
 74
     0
 42
0.0000000001
 43
0.0000000001
 12
1.0
 22
0.0
 32
0.0
 13
1.0
 23
0.0
 33
0.0
 40
0.0
 40
0.0
 40
0.0
 40
0.0
 40
1.0
 40
1.0
 40
1.0
 40
2.0
 40
2.0
 40
2.0
 40
3.0
 40
3.0
 40
3.0
 40
4.0
 40
4.0
 40
4.0
 40
5.0
 40
5.0
 40
5.0
 40
6.0
 40
6.0
 40
6.0
 40
7.0
 40
7.0
 40
7.0
 40
8.0
 40
8.0
 40
8.0
 40
9.0
 40
9.0
 40
9.0
 40
10.0
 40
10.0
 40
10.0
 40
11.0
 40
11.0
 40
11.0
 40
12.0
 40
12.0
 40
12.0
 40
12.0
 10
2.516958983895973
 20
-2.056216504347023
 30
0.0
 10
2.516958983895973
 20
-2.056216504347023
 30
0.0
 10
2.5977978707427
 20
-2.075023448791474
 30
0.0
 10
2.5977978707427
 20
-2.075023448791474
 30
0.0
 10
2.5977978707427
 20
-2.075023448791474
 30
0.0
 10
2.5977978707427
 20
-2.266866504347036
 30
0.0
 10
2.5977978707427
 20
-2.266866504347036
 30
0.0
 10
2.5977978707427
 20
-2.266866504347036
 30
0.0
 10
2.593763148622404
 20
-2.273798448791467
 30
0.0
 10
2.593763148622404
 20
-2.273798448791467
 30
0.0
 10
2.593763148622404
 20
-2.273798448791467
 30
0.0
 10
2.580435371181314
 20
-2.282204004347022
 30
0.0
 10
2.580435371181314
 20
-2.282204004347022
 30
0.0
 10
2.522877039302026
 20
-2.307555393235917
 30
0.0
 10
2.447656207868931
 20
-2.322991504347025
 30
0.0
 10
2.401207597931211
 20
-2.322909559902579
 30
0.0
 10
2.351368710301358
 20
-2.322826226569254
 30
0.0
 10
2.278254823259481
 20
-2.31966511545814
 30
0.0
 10
2.228802046730986
 20
-2.304779004347033
 30
0.0
 10
2.228802046730986
 20
-2.304779004347033
 30
0.0
 10
2.182199305196617
 20
-2.28549150434704
 30
0.0
 10
2.182199305196617
 20
-2.28549150434704
 30
0.0
 10
2.182199305196617
 20
-2.28549150434704
 30
0.0
 10
2.168495138529932
 20
-2.275854004347012
 30
0.0
 10
2.168495138529932
 20
-2.275854004347012
 30
0.0
 10
2.168495138529932
 20
-2.275854004347012
 30
0.0
 10
2.163664582974383
 20
-2.266866504347036
 30
0.0
 10
2.163664582974383
 20
-2.266866504347036
 30
0.0
 10
2.163664582974383
 20
-2.266866504347036
 30
0.0
 10
2.163664582974383
 20
-1.974023448791463
 30
0.0
 10
2.163664582974383
 20
-1.974023448791463
 30
0.0
 10
2.163664582974383
 20
-1.974023448791463
 30
0.0
 10
2.459428429793762
 20
-2.042830393235918
 30
0.0
 10
2.459428429793762
 20
-2.042830393235918
 30
0.0
 10
2.459428429793762
 20
-2.042830393235918
 30
0.0
 10
2.516958983895973
 20
-2.056216504347023
 30
0.0
 10
2.516958983895973
 20
-2.056216504347023
 30
0.0
  0
HATCH
  5
B8
330
1F
100
AcDbEntity
  8
Layer 1
 62
     7
420
 16777215
100
AcDbHatch
 10
0.0
 20
0.0
 30
0.0
210
0.0
220
0.0
230
1.0
  2
SOLID
 70
     1
 71
     0
 91
        1
 92
        1
 93
        1
 72
     4
 94
        3
 73
     0
 74
     1
 95
       41
 96
       37
 40
0.0
 40
0.0
 40
0.0
 40
0.0
 40
1.0
 40
1.0
 40
1.0
 40
2.0
 40
2.0
 40
2.0
 40
3.0
 40
3.0
 40
3.0
 40
4.0
 40
4.0
 40
4.0
 40
5.0
 40
5.0
 40
5.0
 40
6.0
 40
6.0
 40
6.0
 40
7.0
 40
7.0
 40
7.0
 40
8.0
 40
8.0
 40
8.0
 40
9.0
 40
9.0
 40
9.0
 40
10.0
 40
10.0
 40
10.0
 40
11.0
 40
11.0
 40
11.0
 40
12.0
 40
12.0
 40
12.0
 40
12.0
 10
2.516958983895973
 20
-2.056216504347023
 10
2.516958983895973
 20
-2.056216504347023
 10
2.5977978707427
 20
-2.075023448791474
 10
2.5977978707427
 20
-2.075023448791474
 10
2.5977978707427
 20
-2.075023448791474
 10
2.5977978707427
 20
-2.266866504347036
 10
2.5977978707427
 20
-2.266866504347036
 10
2.5977978707427
 20
-2.266866504347036
 10
2.593763148622404
 20
-2.273798448791467
 10
2.593763148622404
 20
-2.273798448791467
 10
2.593763148622404
 20
-2.273798448791467
 10
2.580435371181314
 20
-2.282204004347022
 10
2.580435371181314
 20
-2.282204004347022
 10
2.522877039302026
 20
-2.307555393235917
 10
2.447656207868931
 20
-2.322991504347025
 10
2.401207597931211
 20
-2.322909559902579
 10
2.351368710301358
 20
-2.322826226569254
 10
2.278254823259481
 20
-2.31966511545814
 10
2.228802046730986
 20
-2.304779004347033
 10
2.228802046730986
 20
-2.304779004347033
 10
2.182199305196617
 20
-2.28549150434704
 10
2.182199305196617
 20
-2.28549150434704
 10
2.182199305196617
 20
-2.28549150434704
 10
2.168495138529932
 20
-2.275854004347012
 10
2.168495138529932
 20
-2.275854004347012
 10
2.168495138529932
 20
-2.275854004347012
 10
2.163664582974383
 20
-2.266866504347036
 10
2.163664582974383
 20
-2.266866504347036
 10
2.163664582974383
 20
-2.266866504347036
 10
2.163664582974383
 20
-1.974023448791463
 10
2.163664582974383
 20
-1.974023448791463
 10
2.163664582974383
 20
-1.974023448791463
 10
2.459428429793762
 20
-2.042830393235918
 10
2.459428429793762
 20
-2.042830393235918
 10
2.459428429793762
 20
-2.042830393235918
 10
2.516958983895973
 20
-2.056216504347023
 10
2.516958983895973
 20
-2.056216504347023
 97
        0
 97
        0
 75
     0
 76
     1
 98
        0
  0
POLYLINE
  5
B9
330
1F
100
AcDbEntity
  8
Layer 1
 62
   240
420
 15539236
370
     9
100
AcDb2dPolyline
 66
     1
 10
0.0
 20
0.0
 30
0.0
  0
VERTEX
  5
BA
330
B9
100
AcDbEntity
  8
Layer 1
 62
   240
420
 15539236
370
     9
100
AcDbVertex
100
AcDb2dVertex
 10
2.686851341187927
 20
-1.692518055555562
 30
0.0
  0
VERTEX
  5
BB
330
B9
100
AcDbEntity
  8
Layer 1
 62
   240
420
 15539236
370
     9
100
AcDbVertex
100
AcDb2dVertex
 10
2.686851341187927
 20
-2.31820694444443
 30
0.0
  0
SEQEND
  5
BC
330
B9
100
AcDbEntity
  8
Layer 1
 62
   240
420
 15539236
370
     9
  0
POLYLINE
  5
BD
330
1F
100
AcDbEntity
  8
Layer 1
 62
   240
420
 15539236
370
     9
100
AcDb2dPolyline
 66
     1
 10
0.0
 20
0.0
 30
0.0
  0
VERTEX
  5
BE
330
BD
100
AcDbEntity
  8
Layer 1
 62
   240
420
 15539236
370
     9
100
AcDbVertex
100
AcDb2dVertex
 10
2.042454166666681
 20
-2.31820694444443
 30
0.0
  0
VERTEX
  5
BF
330
BD
100
AcDbEntity
  8
Layer 1
 62
   240
420
 15539236
370
     9
100
AcDbVertex
100
AcDb2dVertex
 10
2.042454166666681
 20
-1.710513888888891
 30
0.0
  0
SEQEND
  5
C0
330
BD
100
AcDbEntity
  8
Layer 1
 62
   240
420
 15539236
370
     9
  0
SPLINE
  5
C1
330
1F
100
AcDbEntity
  8
Layer 1
 62
   240
420
 15539236
370
     9
100
AcDbSpline
210
0.0
220
0.0
230
1.0
 70
     8
 71
     3
 72
    26
 73
    22
 74
     0
 42
0.0000000001
 43
0.0000000001
 12
1.0
 22
0.0
 32
0.0
 13
1.0
 23
0.0
 33
0.0
 40
0.0
 40
0.0
 40
0.0
 40
0.0
 40
1.0
 40
1.0
 40
1.0
 40
2.0
 40
2.0
 40
2.0
 40
3.0
 40
3.0
 40
3.0
 40
4.0
 40
4.0
 40
4.0
 40
5.0
 40
5.0
 40
5.0
 40
6.0
 40
6.0
 40
6.0
 40
7.0
 40
7.0
 40
7.0
 40
7.0
 10
2.686851341187927
 20
-2.31820694444443
 30
0.0
 10
2.686851341187927
 20
-2.31820694444443
 30
0.0
 10
2.680859674672623
 20
-2.32825
 30
0.0
 10
2.680859674672623
 20
-2.32825
 30
0.0
 10
2.680859674672623
 20
-2.32825
 30
0.0
 10
2.661074952950205
 20
-2.340423611111115
 30
0.0
 10
2.661074952950205
 20
-2.340423611111115
 30
0.0
 10
2.575647177330514
 20
-2.37714722222222
 30
0.0
 10
2.463988846817907
 20
-2.399505555555556
 30
0.0
 10
2.395044404115146
 20
-2.399391666666664
 30
0.0
 10
2.321068017095058
 20
-2.399269444444447
 30
0.0
 10
2.212540242058922
 20
-2.394690277777777
 30
0.0
 10
2.139138888888889
 20
-2.37312777777778
 30
0.0
 10
2.139138888888889
 20
-2.37312777777778
 30
0.0
 10
2.069965277777783
 20
-2.345186111111111
 30
0.0
 10
2.069965277777783
 20
-2.345186111111111
 30
0.0
 10
2.069965277777783
 20
-2.345186111111111
 30
0.0
 10
2.0496236111111
 20
-2.331226388888884
 30
0.0
 10
2.0496236111111
 20
-2.331226388888884
 30
0.0
 10
2.0496236111111
 20
-2.331226388888884
 30
0.0
 10
2.042454166666681
 20
-2.31820694444443
 30
0.0
 10
2.042454166666681
 20
-2.31820694444443
 30
0.0
  0
SPLINE
  5
C2
330
1F
100
AcDbEntity
  8
Layer 1
 62
   240
420
 15539236
370
     9
100
AcDbSpline
210
0.0
220
0.0
230
1.0
 70
     8
 71
     3
 72
    20
 73
    16
 74
     0
 42
0.0000000001
 43
0.0000000001
 12
1.0
 22
0.0
 32
0.0
 13
1.0
 23
0.0
 33
0.0
 40
0.0
 40
0.0
 40
0.0
 40
0.0
 40
1.0
 40
1.0
 40
1.0
 40
2.0
 40
2.0
 40
2.0
 40
3.0
 40
3.0
 40
3.0
 40
4.0
 40
4.0
 40
4.0
 40
5.0
 40
5.0
 40
5.0
 40
5.0
 10
2.686851341187927
 20
-1.692518055555562
 30
0.0
 10
2.686851341187927
 20
-1.692518055555562
 30
0.0
 10
2.678804119168995
 20
-1.673108333333327
 30
0.0
 10
2.678804119168995
 20
-1.673108333333327
 30
0.0
 10
2.678804119168995
 20
-1.673108333333327
 30
0.0
 10
2.65487495310683
 20
-1.656119444444446
 30
0.0
 10
2.65487495310683
 20
-1.656119444444446
 30
0.0
 10
2.551409677942805
 20
-1.61920972222222
 30
0.0
 10
2.506366623525132
 20
-1.608340277777769
 30
0.0
 10
2.362413849383908
 20
-1.608698611111107
 30
0.0
 10
2.245488852337682
 20
-1.606911111111104
 30
0.0
 10
2.056686111111099
 20
-1.649080555555555
 30
0.0
 10
2.045961111111107
 20
-1.667793055555547
 30
0.0
 10
2.040390277777786
 20
-1.677619444444442
 30
0.0
 10
2.043630555555561
 20
-1.69627361111111
 30
0.0
 10
2.042456944444439
 20
-1.710513888888891
 30
0.0
  0
SPLINE
  5
C3
330
1F
100
AcDbEntity
  8
Layer 1
 62
   178
420
        0
370
    53
100
AcDbSpline
210
0.0
220
0.0
230
1.0
 70
     8
 71
     3
 72
    11
 73
     7
 74
     0
 42
0.0000000001
 43
0.0000000001
 12
1.0
 22
0.0
 32
0.0
 13
1.0
 23
0.0
 33
0.0
 40
0.0
 40
0.0
 40
0.0
 40
0.0
 40
1.0
 40
1.0
 40
1.0
 40
2.0
 40
2.0
 40
2.0
 40
2.0
 10
2.538248567164171
 20
-2.027462500000007
 30
0.0
 10
2.514048567775515
 20
-2.035112499999994
 30
0.0
 10
2.493012457195821
 20
-2.04728472222223
 30
0.0
 10
2.465654124553617
 20
-2.050402777777789
 30
0.0
 10
2.465654124553617
 20
-2.050402777777789
 30
0.0
 10
2.405862459397415
 20
-2.055994444444448
 30
0.0
 10
2.405862459397415
 20
-2.055994444444448
 30
0.0
  0
POLYLINE
  5
C4
330
1F
100
AcDbEntity
  8
Layer 1
 62
   178
420
        0
370
    53
100
AcDb2dPolyline
 66
     1
 10
0.0
 20
0.0
 30
0.0
  0
VERTEX
  5
C5
330
C4
100
AcDbEntity
  8
Layer 1
 62
   178
420
        0
370
    53
100
AcDbVertex
100
AcDb2dVertex
 10
2.519362456530164
 20
-2.072100000000015
 30
0.0
  0
VERTEX
  5
C6
330
C4
100
AcDbEntity
  8
Layer 1
 62
   178
420
        0
370
    53
100
AcDbVertex
100
AcDb2dVertex
 10
2.476268013174376
 20
-2.085801388888891
 30
0.0
  0
VERTEX
  5
C7
330
C4
100
AcDbEntity
  8
Layer 1
 62
   178
420
        0
370
    53
100
AcDbVertex
100
AcDb2dVertex
 10
2.440748569627229
 20
-2.088486111111099
 30
0.0
  0
SEQEND
  5
C8
330
C4
100
AcDbEntity
  8
Layer 1
 62
   178
420
        0
370
    53
  0
SPLINE
  5
C9
330
1F
100
AcDbEntity
  8
Layer 1
 62
   178
420
        0
370
    53
100
AcDbSpline
210
0.0
220
0.0
230
1.0
 70
     8
 71
     3
 72
    11
 73
     7
 74
     0
 42
0.0000000001
 43
0.0000000001
 12
1.0
 22
0.0
 32
0.0
 13
1.0
 23
0.0
 33
0.0
 40
0.0
 40
0.0
 40
0.0
 40
0.0
 40
1.0
 40
1.0
 40
1.0
 40
2.0
 40
2.0
 40
2.0
 40
2.0
 10
2.544602733670318
 20
-2.102183333333338
 30
0.0
 10
2.520402734281662
 20
-2.109831944444446
 30
0.0
 10
2.499366623701967
 20
-2.122005555555562
 30
0.0
 10
2.472008291059764
 20
-2.125123611111121
 30
0.0
 10
2.472008291059764
 20
-2.125123611111121
 30
0.0
 10
2.412218014792415
 20
-2.130713888888901
 30
0.0
 10
2.412218014792415
 20
-2.130713888888901
 30
0.0
  0
POLYLINE
  5
CA
330
1F
100
AcDbEntity
  8
Layer 1
 62
   178
420
        0
370
    53
100
AcDb2dPolyline
 66
     1
 10
0.0
 20
0.0
 30
0.0
  0
VERTEX
  5
CB
330
CA
100
AcDbEntity
  8
Layer 1
 62
   178
420
        0
370
    53
100
AcDbVertex
100
AcDb2dVertex
 10
2.524272178628356
 20
-2.148466666666662
 30
0.0
  0
VERTEX
  5
CC
330
CA
100
AcDbEntity
  8
Layer 1
 62
   178
420
        0
370
    53
100
AcDbVertex
100
AcDb2dVertex
 10
2.481177735272568
 20
-2.162166666666659
 30
0.0
  0
VERTEX
  5
CD
330
CA
100
AcDbEntity
  8
Layer 1
 62
   178
420
        0
370
    53
100
AcDbVertex
100
AcDb2dVertex
 10
2.445658291725421
 20
-2.164852777777772
 30
0.0
  0
SEQEND
  5
CE
330
CA
100
AcDbEntity
  8
Layer 1
 62
   178
420
        0
370
    53
  0
SPLINE
  5
CF
330
1F
100
AcDbEntity
  8
Layer 1
 62
   178
420
        0
370
    53
100
AcDbSpline
210
0.0
220
0.0
230
1.0
 70
     8
 71
     3
 72
    11
 73
     7
 74
     0
 42
0.0000000001
 43
0.0000000001
 12
1.0
 22
0.0
 32
0.0
 13
1.0
 23
0.0
 33
0.0
 40
0.0
 40
0.0
 40
0.0
 40
0.0
 40
1.0
 40
1.0
 40
1.0
 40
2.0
 40
2.0
 40
2.0
 40
2.0
 10
2.54951245576851
 20
-2.178548611111106
 30
0.0
 10
2.525312456379854
 20
-2.186198611111093
 30
0.0
 10
2.50427634580016
 20
-2.198372222222234
 30
0.0
 10
2.476918013157956
 20
-2.201490277777793
 30
0.0
 10
2.476918013157956
 20
-2.201490277777793
 30
0.0
 10
2.417126348001754
 20
-2.207080555555548
 30
0.0
 10
2.417126348001754
 20
-2.207080555555548
 30
0.0
  0
POLYLINE
  5
D0
330
1F
100
AcDbEntity
  8
Layer 1
 62
   178
420
        0
370
    53
100
AcDb2dPolyline
 66
     1
 10
0.0
 20
0.0
 30
0.0
  0
VERTEX
  5
D1
330
D0
100
AcDbEntity
  8
Layer 1
 62
   178
420
        0
370
    53
100
AcDbVertex
100
AcDb2dVertex
 10
2.524647178618882
 20
-2.22821805555557
 30
0.0
  0
VERTEX
  5
D2
330
D0
100
AcDbEntity
  8
Layer 1
 62
   178
420
        0
370
    53
100
AcDbVertex
100
AcDb2dVertex
 10
2.481551346374241
 20
-2.241919444444445
 30
0.0
  0
VERTEX
  5
D3
330
D0
100
AcDbEntity
  8
Layer 1
 62
   178
420
        0
370
    53
100
AcDbVertex
100
AcDb2dVertex
 10
2.446031902827094
 20
-2.244604166666654
 30
0.0
  0
SEQEND
  5
D4
330
D0
100
AcDbEntity
  8
Layer 1
 62
   178
420
        0
370
    53
  0
SPLINE
  5
D5
330
1F
100
AcDbEntity
  8
Layer 1
 62
   178
420
        0
370
    53
100
AcDbSpline
210
0.0
220
0.0
230
1.0
 70
     8
 71
     3
 72
    11
 73
     7
 74
     0
 42
0.0000000001
 43
0.0000000001
 12
1.0
 22
0.0
 32
0.0
 13
1.0
 23
0.0
 33
0.0
 40
0.0
 40
0.0
 40
0.0
 40
0.0
 40
1.0
 40
1.0
 40
1.0
 40
2.0
 40
2.0
 40
2.0
 40
2.0
 10
2.549886066870183
 20
-2.258301388888893
 30
0.0
 10
2.525686067481527
 20
-2.265950000000001
 30
0.0
 10
2.504649956901833
 20
-2.278123611111116
 30
0.0
 10
2.477291624259629
 20
-2.281241666666675
 30
0.0
 10
2.477291624259629
 20
-2.281241666666675
 30
0.0
 10
2.41750134799228
 20
-2.286831944444455
 30
0.0
 10
2.41750134799228
 20
-2.286831944444455
 30
0.0
  0
POLYLINE
  5
D6
330
1F
100
AcDbEntity
  8
Layer 1
 62
     7
420
 16777215
370
    53
100
AcDb2dPolyline
 66
     1
 10
0.0
 20
0.0
 30
0.0
  0
VERTEX
  5
D7
330
D6
100
AcDbEntity
  8
Layer 1
 62
     7
420
 16777215
370
    53
100
AcDbVertex
100
AcDb2dVertex
 10
2.517572178797612
 20
-1.99298611111111
 30
0.0
  0
VERTEX
  5
D8
330
D6
100
AcDbEntity
  8
Layer 1
 62
     7
420
 16777215
370
    53
100
AcDbVertex
100
AcDb2dVertex
 10
2.474477735441825
 20
-2.006686111111106
 30
0.0
  0
VERTEX
  5
D9
330
D6
100
AcDbEntity
  8
Layer 1
 62
     7
420
 16777215
370
    53
100
AcDbVertex
100
AcDb2dVertex
 10
2.438956903005823
 20
-2.009372222222219
 30
0.0
  0
SEQEND
  5
DA
330
D6
100
AcDbEntity
  8
Layer 1
 62
     7
420
 16777215
370
    53
  0
ENDSEC
  0
SECTION
  2
OBJECTS
  0
DICTIONARY
  5
C
330
0
100
AcDbDictionary
281
     1
  3
ACAD_GROUP
350
D
  3
ACAD_LAYOUT
350
1A
  3
ACAD_MATERIAL
350
3B
  3
ACAD_MLEADERSTYLE
350
DC
  3
ACAD_MLINESTYLE
350
17
  3
ACAD_PLOTSETTINGS
350
19
  3
ACAD_PLOTSTYLENAME
350
E
  3
ACAD_TABLESTYLE
350
DB
  3
ACAD_VISUALSTYLE
350
2A
  0
SUN
  5
3F
330
29
100
AcDbSun
 90
        1
290
     0
 63
     7
421
 16777215
 40
1.0
291
     1
 91
  2455826
 92
 54000000
292
     0
 70
     2
 71
   256
280
     1
  0
DICTIONARY
  5
D
102
{ACAD_REACTORS
330
C
102
}
330
C
100
AcDbDictionary
281
     1
  0
DICTIONARY
  5
1A
102
{ACAD_REACTORS
330
C
102
}
330
C
100
AcDbDictionary
281
     1
  3
Layout1
350
1E
  3
Layout2
350
26
  3
Model
350
22
  0
DICTIONARY
  5
3B
102
{ACAD_REACTORS
330
C
102
}
330
C
100
AcDbDictionary
281
     1
  3
ByBlock
350
3D
  3
ByLayer
350
3C
  3
Global
350
3E
  0
DICTIONARY
  5
DC
102
{ACAD_REACTORS
330
C
102
}
330
C
100
AcDbDictionary
281
     1
  0
DICTIONARY
  5
17
102
{ACAD_REACTORS
330
C
102
}
330
C
100
AcDbDictionary
281
     1
  3
Standard
350
18
  0
DICTIONARY
  5
19
102
{ACAD_REACTORS
330
C
102
}
330
C
100
AcDbDictionary
281
     1
  0
ACDBDICTIONARYWDFLT
  5
E
102
{ACAD_REACTORS
330
C
102
}
330
C
100
AcDbDictionary
281
     1
  3
Normal
350
F
100
AcDbDictionaryWithDefault
340
F
  0
DICTIONARY
  5
DB
102
{ACAD_REACTORS
330
C
102
}
330
C
100
AcDbDictionary
281
     1
  0
DICTIONARY
  5
2A
102
{ACAD_REACTORS
330
C
102
}
330
C
100
AcDbDictionary
281
     1
  3
2dWireframe
350
2F
  3
3D Hidden
350
31
  3
3dWireframe
350
30
  3
Basic
350
32
  3
Brighten
350
36
  3
ColorChange
350
3A
  3
Conceptual
350
34
  3
Dim
350
35
  3
Facepattern
350
39
  3
Flat
350
2B
  3
FlatWithEdges
350
2C
  3
Gouraud
350
2D
  3
GouraudWithEdges
350
2E
  3
Linepattern
350
38
  3
Realistic
350
33
  3
Thicken
350
37
  0
LAYOUT
  5
1E
102
{ACAD_REACTORS
330
1A
102
}
330
1A
100
AcDbPlotSettings
  1

  2
none_device
  4

  6

 40
0.0
 41
0.0
 42
0.0
 43
0.0
 44
0.0
 45
0.0
 46
0.0
 47
0.0
 48
0.0
 49
0.0
140
0.0
141
0.0
142
1.0
143
1.0
 70
   688
 72
     0
 73
     0
 74
     5
  7

 75
    16
 76
     0
 77
     2
 78
   300
147
1.0
148
0.0
149
0.0
100
AcDbLayout
  1
Layout1
 70
     1
 71
     1
 10
0.0
 20
0.0
 11
12.0
 21
9.0
 12
0.0
 22
0.0
 32
0.0
 14
1.000000000000000E+20
 24
1.000000000000000E+20
 34
1.000000000000000E+20
 15
-1.000000000000000E+20
 25
-1.000000000000000E+20
 35
-1.000000000000000E+20
146
0.0
 13
0.0
 23
0.0
 33
0.0
 16
1.0
 26
0.0
 36
0.0
 17
0.0
 27
1.0
 37
0.0
 76
     0
330
1B
  0
LAYOUT
  5
26
102
{ACAD_REACTORS
330
1A
102
}
330
1A
100
AcDbPlotSettings
  1

  2
none_device
  4

  6

 40
0.0
 41
0.0
 42
0.0
 43
0.0
 44
0.0
 45
0.0
 46
0.0
 47
0.0
 48
0.0
 49
0.0
140
0.0
141
0.0
142
1.0
143
1.0
 70
   688
 72
     0
 73
     0
 74
     5
  7

 75
    16
 76
     0
 77
     2
 78
   300
147
1.0
148
0.0
149
0.0
100
AcDbLayout
  1
Layout2
 70
     1
 71
     2
 10
0.0
 20
0.0
 11
0.0
 21
0.0
 12
0.0
 22
0.0
 32
0.0
 14
0.0
 24
0.0
 34
0.0
 15
0.0
 25
0.0
 35
0.0
146
0.0
 13
0.0
 23
0.0
 33
0.0
 16
1.0
 26
0.0
 36
0.0
 17
0.0
 27
1.0
 37
0.0
 76
     0
330
23
  0
LAYOUT
  5
22
102
{ACAD_REACTORS
330
1A
102
}
330
1A
100
AcDbPlotSettings
  1

  2
none_device
  4

  6

 40
0.0
 41
0.0
 42
0.0
 43
0.0
 44
0.0
 45
0.0
 46
0.0
 47
0.0
 48
0.0
 49
0.0
140
0.0
141
0.0
142
1.0
143
1.0
 70
  1712
 72
     0
 73
     0
 74
     0
  7

 75
     0
 76
     0
 77
     2
 78
   300
147
1.0
148
0.0
149
0.0
100
AcDbLayout
  1
Model
 70
     1
 71
     0
 10
0.0
 20
0.0
 11
12.0
 21
9.0
 12
0.0
 22
0.0
 32
0.0
 14
1.000000000000000E+20
 24
1.000000000000000E+20
 34
1.000000000000000E+20
 15
-1.000000000000000E+20
 25
-1.000000000000000E+20
 35
-1.000000000000000E+20
146
0.0
 13
0.0
 23
0.0
 33
0.0
 16
1.0
 26
0.0
 36
0.0
 17
0.0
 27
1.0
 37
0.0
 76
     0
330
1F
331
29
  0
MATERIAL
  5
3D
102
{ACAD_REACTORS
330
3B
102
}
330
3B
100
AcDbMaterial
  1
ByBlock
 72
     1
 94
      127
  0
MATERIAL
  5
3C
102
{ACAD_REACTORS
330
3B
102
}
330
3B
100
AcDbMaterial
  1
ByLayer
 72
     1
 94
      127
  0
MATERIAL
  5
3E
102
{ACAD_REACTORS
330
3B
102
}
330
3B
100
AcDbMaterial
  1
Global
 72
     1
 94
      127
  0
MLINESTYLE
  5
18
102
{ACAD_REACTORS
330
17
102
}
330
17
100
AcDbMlineStyle
  2
Standard
 70
     0
  3

 62
   256
 51
90.0
 52
90.0
 71
     2
 49
0.5
 62
   256
  6
BYLAYER
 49
-0.5
 62
   256
  6
BYLAYER
  0
ACDBPLACEHOLDER
  5
F
102
{ACAD_REACTORS
330
E
102
}
330
E
  0
VISUALSTYLE
  5
2F
102
{ACAD_REACTORS
330
2A
102
}
330
2A
100
AcDbVisualStyle
  2
2dWireframe
 70
     4
177
     2
291
     0
 71
     0
176
     1
 72
     2
176
     1
 73
     0
176
     1
 90
        0
176
     1
 40
-0.6
176
     1
 41
-30.0
176
     1
 62
     5
 63
     7
421
 16777215
176
     1
 74
     1
176
     1
 91
        4
176
     1
 64
     7
176
     1
 65
   257
176
     1
 75
     1
176
     1
175
     1
176
     1
 42
1.0
176
     1
 92
        0
176
     1
 66
   257
176
     1
 43
1.0
176
     1
 76
     1
176
     1
 77
     6
176
     1
 78
     2
176
     1
 67
     7
176
     1
 79
     5
176
     1
170
     0
176
     1
171
     0
176
     1
290
     0
176
     1
 93
        1
176
     1
 44
0.0
176
     1
173
     0
176
     1
  0
VISUALSTYLE
  5
31
102
{ACAD_REACTORS
330
2A
102
}
330
2A
100
AcDbVisualStyle
  2
3D Hidden
 70
     6
177
     2
291
     0
 71
     1
176
     1
 72
     2
176
     1
 73
     2
176
     1
 90
        0
176
     1
 40
-0.6
176
     1
 41
-30.0
176
     1
 62
     5
 63
     7
421
 16777215
176
     1
 74
     2
176
     1
 91
        2
176
     1
 64
     7
176
     1
 65
   257
176
     1
 75
     2
176
     1
175
     1
176
     1
 42
40.0
176
     1
 92
        0
176
     1
 66
   257
176
     1
 43
1.0
176
     1
 76
     1
176
     1
 77
     6
176
     1
 78
     2
176
     1
 67
     7
176
     1
 79
     3
176
     1
170
     0
176
     1
171
     0
176
     1
290
     0
176
     1
 93
        1
176
     1
 44
0.0
176
     1
173
     0
176
     1
  0
VISUALSTYLE
  5
30
102
{ACAD_REACTORS
330
2A
102
}
330
2A
100
AcDbVisualStyle
  2
3dWireframe
 70
     5
177
     2
291
     0
 71
     0
176
     1
 72
     2
176
     1
 73
     0
176
     1
 90
        0
176
     1
 40
-0.6
176
     1
 41
-30.0
176
     1
 62
     5
 63
     7
421
 16777215
176
     1
 74
     1
176
     1
 91
        4
176
     1
 64
     7
176
     1
 65
   257
176
     1
 75
     1
176
     1
175
     1
176
     1
 42
1.0
176
     1
 92
        0
176
     1
 66
   257
176
     1
 43
1.0
176
     1
 76
     1
176
     1
 77
     6
176
     1
 78
     2
176
     1
 67
     7
176
     1
 79
     5
176
     1
170
     0
176
     1
171
     0
176
     1
290
     0
176
     1
 93
        1
176
     1
 44
0.0
176
     1
173
     0
176
     1
  0
VISUALSTYLE
  5
32
102
{ACAD_REACTORS
330
2A
102
}
330
2A
100
AcDbVisualStyle
  2
Basic
 70
     7
177
     2
291
     1
 71
     1
176
     1
 72
     0
176
     1
 73
     1
176
     1
 90
        0
176
     1
 40
-0.6
176
     1
 41
-30.0
176
     1
 62
     5
 63
     7
421
 16777215
176
     1
 74
     0
176
     1
 91
        4
176
     1
 64
     7
176
     1
 65
   257
176
     1
 75
     1
176
     1
175
     1
176
     1
 42
1.0
176
     1
 92
        8
176
     1
 66
     7
176
     1
 43
1.0
176
     1
 76
     1
176
     1
 77
     6
176
     1
 78
     2
176
     1
 67
     7
176
     1
 79
     5
176
     1
170
     0
176
     1
171
     0
176
     1
290
     0
176
     1
 93
        1
176
     1
 44
0.0
176
     1
173
     0
176
     1
  0
VISUALSTYLE
  5
36
102
{ACAD_REACTORS
330
2A
102
}
330
2A
100
AcDbVisualStyle
  2
Brighten
 70
    12
177
     2
291
     1
 71
     2
176
     1
 72
     2
176
     1
 73
     0
176
     1
 90
        0
176
     1
 40
-0.6
176
     1
 41
-30.0
176
     1
 62
     5
 63
     7
421
 16777215
176
     1
 74
     1
176
     1
 91
        4
176
     1
 64
     7
176
     1
 65
   257
176
     1
 75
     1
176
     1
175
     1
176
     1
 42
1.0
176
     1
 92
        8
176
     1
 66
     7
176
     1
 43
1.0
176
     1
 76
     1
176
     1
 77
     6
176
     1
 78
     2
176
     1
 67
     7
176
     1
 79
     5
176
     1
170
     0
176
     1
171
     0
176
     1
290
     0
176
     1
 93
        1
176
     1
 44
50.0
176
     1
173
     0
176
     1
  0
VISUALSTYLE
  5
3A
102
{ACAD_REACTORS
330
2A
102
}
330
2A
100
AcDbVisualStyle
  2
ColorChange
 70
    16
177
     2
291
     1
 71
     2
176
     1
 72
     2
176
     1
 73
     3
176
     1
 90
        0
176
     1
 40
-0.6
176
     1
 41
-30.0
176
     1
 62
     5
 63
     8
421
  8421504
176
     1
 74
     1
176
     1
 91
        4
176
     1
 64
     7
176
     1
 65
   257
176
     1
 75
     1
176
     1
175
     1
176
     1
 42
1.0
176
     1
 92
        8
176
     1
 66
     8
424
  8421504
176
     1
 43
1.0
176
     1
 76
     1
176
     1
 77
     6
176
     1
 78
     2
176
     1
 67
     7
176
     1
 79
     5
176
     1
170
     0
176
     1
171
     0
176
     1
290
     0
176
     1
 93
        1
176
     1
 44
0.0
176
     1
173
     0
176
     1
  0
VISUALSTYLE
  5
34
102
{ACAD_REACTORS
330
2A
102
}
330
2A
100
AcDbVisualStyle
  2
Conceptual
 70
     9
177
     2
291
     0
 71
     3
176
     1
 72
     2
176
     1
 73
     0
176
     1
 90
        0
176
     1
 40
-0.6
176
     1
 41
-30.0
176
     1
 62
     5
 63
     7
421
 16777215
176
     1
 74
     2
176
     1
 91
        2
176
     1
 64
     7
176
     1
 65
   257
176
     1
 75
     1
176
     1
175
     1
176
     1
 42
40.0
176
     1
 92
        8
176
     1
 66
     7
176
     1
 43
1.0
176
     1
 76
     1
176
     1
 77
     6
176
     1
 78
     2
176
     1
 67
     7
176
     1
 79
     3
176
     1
170
     0
176
     1
171
     0
176
     1
290
     0
176
     1
 93
        1
176
     1
 44
0.0
176
     1
173
     0
176
     1
  0
VISUALSTYLE
  5
35
102
{ACAD_REACTORS
330
2A
102
}
330
2A
100
AcDbVisualStyle
  2
Dim
 70
    11
177
     2
291
     1
 71
     2
176
     1
 72
     2
176
     1
 73
     0
176
     1
 90
        0
176
     1
 40
-0.6
176
     1
 41
-30.0
176
     1
 62
     5
 63
     7
421
 16777215
176
     1
 74
     1
176
     1
 91
        4
176
     1
 64
     7
176
     1
 65
   257
176
     1
 75
     1
176
     1
175
     1
176
     1
 42
1.0
176
     1
 92
        8
176
     1
 66
     7
176
     1
 43
1.0
176
     1
 76
     1
176
     1
 77
     6
176
     1
 78
     2
176
     1
 67
     7
176
     1
 79
     5
176
     1
170
     0
176
     1
171
     0
176
     1
290
     0
176
     1
 93
        1
176
     1
 44
-50.0
176
     1
173
     0
176
     1
  0
VISUALSTYLE
  5
39
102
{ACAD_REACTORS
330
2A
102
}
330
2A
100
AcDbVisualStyle
  2
Facepattern
 70
    15
177
     2
291
     1
 71
     2
176
     1
 72
     2
176
     1
 73
     0
176
     1
 90
        0
176
     1
 40
-0.6
176
     1
 41
-30.0
176
     1
 62
     5
 63
     7
421
 16777215
176
     1
 74
     1
176
     1
 91
        4
176
     1
 64
     7
176
     1
 65
   257
176
     1
 75
     1
176
     1
175
     1
176
     1
 42
1.0
176
     1
 92
        8
176
     1
 66
     7
176
     1
 43
1.0
176
     1
 76
     1
176
     1
 77
     6
176
     1
 78
     2
176
     1
 67
     7
176
     1
 79
     5
176
     1
170
     0
176
     1
171
     0
176
     1
290
     0
176
     1
 93
        1
176
     1
 44
0.0
176
     1
173
     0
176
     1
  0
VISUALSTYLE
  5
2B
102
{ACAD_REACTORS
330
2A
102
}
330
2A
100
AcDbVisualStyle
  2
Flat
 70
     0
177
     2
291
     1
 71
     2
176
     1
 72
     1
176
     1
 73
     1
176
     1
 90
        2
176
     1
 40
-0.6
176
     1
 41
30.0
176
     1
 62
     5
 63
     7
421
 16777215
176
     1
 74
     0
176
     1
 91
        4
176
     1
 64
     7
176
     1
 65
   257
176
     1
 75
     1
176
     1
175
     1
176
     1
 42
1.0
176
     1
 92
        8
176
     1
 66
     7
176
     1
 43
1.0
176
     1
 76
     1
176
     1
 77
     6
176
     1
 78
     2
176
     1
 67
     7
176
     1
 79
     5
176
     1
170
     0
176
     1
171
     0
176
     1
290
     0
176
     1
 93
       13
176
     1
 44
0.0
176
     1
173
     0
176
     1
  0
VISUALSTYLE
  5
2C
102
{ACAD_REACTORS
330
2A
102
}
330
2A
100
AcDbVisualStyle
  2
FlatWithEdges
 70
     1
177
     2
291
     1
 71
     2
176
     1
 72
     1
176
     1
 73
     1
176
     1
 90
        2
176
     1
 40
-0.6
176
     1
 41
30.0
176
     1
 62
     5
 63
     7
421
 16777215
176
     1
 74
     1
176
     1
 91
        4
176
     1
 64
     7
176
     1
 65
   257
176
     1
 75
     1
176
     1
175
     1
176
     1
 42
1.0
176
     1
 92
        0
176
     1
 66
   257
176
     1
 43
1.0
176
     1
 76
     1
176
     1
 77
     6
176
     1
 78
     2
176
     1
 67
     7
176
     1
 79
     5
176
     1
170
     0
176
     1
171
     0
176
     1
290
     0
176
     1
 93
       13
176
     1
 44
0.0
176
     1
173
     0
176
     1
  0
VISUALSTYLE
  5
2D
102
{ACAD_REACTORS
330
2A
102
}
330
2A
100
AcDbVisualStyle
  2
Gouraud
 70
     2
177
     2
291
     1
 71
     2
176
     1
 72
     2
176
     1
 73
     1
176
     1
 90
        2
176
     1
 40
-0.6
176
     1
 41
30.0
176
     1
 62
     5
 63
     7
421
 16777215
176
     1
 74
     0
176
     1
 91
        4
176
     1
 64
     7
176
     1
 65
   257
176
     1
 75
     1
176
     1
175
     1
176
     1
 42
1.0
176
     1
 92
        0
176
     1
 66
     7
176
     1
 43
1.0
176
     1
 76
     1
176
     1
 77
     6
176
     1
 78
     2
176
     1
 67
     7
176
     1
 79
     5
176
     1
170
     0
176
     1
171
     0
176
     1
290
     0
176
     1
 93
       13
176
     1
 44
0.0
176
     1
173
     0
176
     1
  0
VISUALSTYLE
  5
2E
102
{ACAD_REACTORS
330
2A
102
}
330
2A
100
AcDbVisualStyle
  2
GouraudWithEdges
 70
     3
177
     2
291
     1
 71
     2
176
     1
 72
     2
176
     1
 73
     1
176
     1
 90
        2
176
     1
 40
-0.6
176
     1
 41
30.0
176
     1
 62
     5
 63
     7
421
 16777215
176
     1
 74
     1
176
     1
 91
        4
176
     1
 64
     7
176
     1
 65
   257
176
     1
 75
     1
176
     1
175
     1
176
     1
 42
1.0
176
     1
 92
        0
176
     1
 66
   257
176
     1
 43
1.0
176
     1
 76
     1
176
     1
 77
     6
176
     1
 78
     2
176
     1
 67
     7
176
     1
 79
     5
176
     1
170
     0
176
     1
171
     0
176
     1
290
     0
176
     1
 93
       13
176
     1
 44
0.0
176
     1
173
     0
176
     1
  0
VISUALSTYLE
  5
38
102
{ACAD_REACTORS
330
2A
102
}
330
2A
100
AcDbVisualStyle
  2
Linepattern
 70
    14
177
     2
291
     1
 71
     2
176
     1
 72
     2
176
     1
 73
     0
176
     1
 90
        0
176
     1
 40
-0.6
176
     1
 41
-30.0
176
     1
 62
     5
 63
     7
421
 16777215
176
     1
 74
     1
176
     1
 91
        4
176
     1
 64
     7
176
     1
 65
   257
176
     1
 75
     7
176
     1
175
     7
176
     1
 42
1.0
176
     1
 92
        8
176
     1
 66
     7
176
     1
 43
1.0
176
     1
 76
     1
176
     1
 77
     6
176
     1
 78
     2
176
     1
 67
     7
176
     1
 79
     5
176
     1
170
     0
176
     1
171
     0
176
     1
290
     0
176
     1
 93
        1
176
     1
 44
0.0
176
     1
173
     0
176
     1
  0
VISUALSTYLE
  5
33
102
{ACAD_REACTORS
330
2A
102
}
330
2A
100
AcDbVisualStyle
  2
Realistic
 70
     8
177
     2
291
     0
 71
     2
176
     1
 72
     2
176
     1
 73
     0
176
     1
 90
        0
176
     1
 40
-0.6
176
     1
 41
-30.0
176
     1
 62
     5
 63
     7
421
 16777215
176
     1
 74
     1
176
     1
 91
        0
176
     1
 64
     7
176
     1
 65
   257
176
     1
 75
     1
176
     1
175
     1
176
     1
 42
1.0
176
     1
 92
        8
176
     1
 66
     8
424
  7895160
176
     1
 43
1.0
176
     1
 76
     1
176
     1
 77
     6
176
     1
 78
     2
176
     1
 67
     7
176
     1
 79
     5
176
     1
170
     0
176
     1
171
     0
176
     1
290
     0
176
     1
 93
       13
176
     1
 44
0.0
176
     1
173
     0
176
     1
  0
VISUALSTYLE
  5
37
102
{ACAD_REACTORS
330
2A
102
}
330
2A
100
AcDbVisualStyle
  2
Thicken
 70
    13
177
     2
291
     1
 71
     2
176
     1
 72
     2
176
     1
 73
     0
176
     1
 90
        0
176
     1
 40
-0.6
176
     1
 41
-30.0
176
     1
 62
     5
 63
     7
421
 16777215
176
     1
 74
     1
176
     1
 91
        4
176
     1
 64
     7
176
     1
 65
   257
176
     1
 75
     1
176
     1
175
     1
176
     1
 42
1.0
176
     1
 92
       12
176
     1
 66
     7
176
     1
 43
1.0
176
     1
 76
     1
176
     1
 77
     6
176
     1
 78
     2
176
     1
 67
     7
176
     1
 79
     5
176
     1
170
     0
176
     1
171
     0
176
     1
290
     0
176
     1
 93
        1
176
     1
 44
0.0
176
     1
173
     0
176
     1
  0
ENDSEC
  0
EOF
