ISO-10303-21;
HEADER;
/* Generated by software containing ST-Developer
 * from STEP Tools, Inc. (www.steptools.com) 
 */

FILE_DESCRIPTION(
/* description */ (''),
/* implementation_level */ '2;1');

FILE_NAME(
/* name */ 'Pupil.step',
/* time_stamp */ '2025-09-09T20:18:06+02:00',
/* author */ (''),
/* organization */ (''),
/* preprocessor_version */ 'ST-DEVELOPER v20.1',
/* originating_system */ 'Autodesk Translation Framework v14.10.0.0',
/* authorisation */ '');

FILE_SCHEMA (('AUTOMOTIVE_DESIGN { 1 0 10303 214 3 1 1 }'));
ENDSEC;

DATA;
#10=MECHANICAL_DESIGN_GEOMETRIC_PRESENTATION_REPRESENTATION('',(#13),#111);
#11=SHAPE_REPRESENTATION_RELATIONSHIP('SRR','None',#118,#12);
#12=ADVANCED_BREP_SHAPE_REPRESENTATION('',(#14),#110);
#13=STYLED_ITEM('',(#128),#14);
#14=MANIFOLD_SOLID_BREP('RIghtPupil',#56);
#15=PLANE('',#75);
#16=PLANE('',#76);
#17=CYLINDRICAL_SURFACE('',#73,1.325);
#18=FACE_OUTER_BOUND('',#22,.T.);
#19=FACE_OUTER_BOUND('',#23,.T.);
#20=FACE_OUTER_BOUND('',#24,.T.);
#21=FACE_OUTER_BOUND('',#25,.T.);
#22=EDGE_LOOP('',(#41,#42,#43,#44));
#23=EDGE_LOOP('',(#45,#46,#47,#48));
#24=EDGE_LOOP('',(#49));
#25=EDGE_LOOP('',(#50));
#26=LINE('',#100,#28);
#27=LINE('',#105,#29);
#28=VECTOR('',#83,1.2);
#29=VECTOR('',#90,1.4);
#30=CIRCLE('',#71,1.325);
#31=CIRCLE('',#72,1.075);
#32=CIRCLE('',#74,1.325);
#33=VERTEX_POINT('',#97);
#34=VERTEX_POINT('',#99);
#35=VERTEX_POINT('',#103);
#36=EDGE_CURVE('',#33,#33,#30,.T.);
#37=EDGE_CURVE('',#33,#34,#26,.T.);
#38=EDGE_CURVE('',#34,#34,#31,.T.);
#39=EDGE_CURVE('',#35,#35,#32,.F.);
#40=EDGE_CURVE('',#35,#33,#27,.T.);
#41=ORIENTED_EDGE('',*,*,#36,.T.);
#42=ORIENTED_EDGE('',*,*,#37,.T.);
#43=ORIENTED_EDGE('',*,*,#38,.T.);
#44=ORIENTED_EDGE('',*,*,#37,.F.);
#45=ORIENTED_EDGE('',*,*,#39,.F.);
#46=ORIENTED_EDGE('',*,*,#40,.T.);
#47=ORIENTED_EDGE('',*,*,#36,.F.);
#48=ORIENTED_EDGE('',*,*,#40,.F.);
#49=ORIENTED_EDGE('',*,*,#38,.F.);
#50=ORIENTED_EDGE('',*,*,#39,.T.);
#51=CONICAL_SURFACE('',#70,1.2,0.785398163397451);
#52=ADVANCED_FACE('',(#18),#51,.T.);
#53=ADVANCED_FACE('',(#19),#17,.T.);
#54=ADVANCED_FACE('',(#20),#15,.F.);
#55=ADVANCED_FACE('',(#21),#16,.T.);
#56=CLOSED_SHELL('',(#52,#53,#54,#55));
#57=DERIVED_UNIT_ELEMENT(#59,1.);
#58=DERIVED_UNIT_ELEMENT(#113,-3.);
#59=(
MASS_UNIT()
NAMED_UNIT(*)
SI_UNIT(.KILO.,.GRAM.)
);
#60=DERIVED_UNIT((#57,#58));
#61=MEASURE_REPRESENTATION_ITEM('density measure',
POSITIVE_RATIO_MEASURE(2700.),#60);
#62=PROPERTY_DEFINITION_REPRESENTATION(#67,#64);
#63=PROPERTY_DEFINITION_REPRESENTATION(#68,#65);
#64=REPRESENTATION('material name',(#66),#110);
#65=REPRESENTATION('density',(#61),#110);
#66=DESCRIPTIVE_REPRESENTATION_ITEM('Aluminum','Aluminum');
#67=PROPERTY_DEFINITION('material property','material name',#120);
#68=PROPERTY_DEFINITION('material property','density of part',#120);
#69=AXIS2_PLACEMENT_3D('',#95,#77,#78);
#70=AXIS2_PLACEMENT_3D('',#96,#79,#80);
#71=AXIS2_PLACEMENT_3D('',#98,#81,#82);
#72=AXIS2_PLACEMENT_3D('',#101,#84,#85);
#73=AXIS2_PLACEMENT_3D('',#102,#86,#87);
#74=AXIS2_PLACEMENT_3D('',#104,#88,#89);
#75=AXIS2_PLACEMENT_3D('',#106,#91,#92);
#76=AXIS2_PLACEMENT_3D('',#107,#93,#94);
#77=DIRECTION('axis',(0.,0.,1.));
#78=DIRECTION('refdir',(1.,0.,0.));
#79=DIRECTION('center_axis',(0.,0.,1.));
#80=DIRECTION('ref_axis',(1.,0.,0.));
#81=DIRECTION('center_axis',(0.,0.,-1.));
#82=DIRECTION('ref_axis',(1.,0.,0.));
#83=DIRECTION('',(0.707106781186549,8.65956056235495E-17,-0.707106781186546));
#84=DIRECTION('center_axis',(0.,0.,1.));
#85=DIRECTION('ref_axis',(1.,0.,0.));
#86=DIRECTION('center_axis',(0.,0.,1.));
#87=DIRECTION('ref_axis',(1.,0.,0.));
#88=DIRECTION('center_axis',(0.,0.,-1.));
#89=DIRECTION('ref_axis',(1.,0.,0.));
#90=DIRECTION('',(0.,0.,-1.));
#91=DIRECTION('center_axis',(0.,0.,1.));
#92=DIRECTION('ref_axis',(1.,0.,0.));
#93=DIRECTION('center_axis',(0.,0.,1.));
#94=DIRECTION('ref_axis',(1.,0.,0.));
#95=CARTESIAN_POINT('',(0.,0.,0.));
#96=CARTESIAN_POINT('Origin',(-3.83050847457626,47.4163417959292,11.8877118644068));
#97=CARTESIAN_POINT('',(-5.15550847457627,47.4163417959292,12.0127118644068));
#98=CARTESIAN_POINT('Origin',(-3.83050847457626,47.4163417959292,12.0127118644068));
#99=CARTESIAN_POINT('',(-4.90550847457627,47.4163417959292,11.7627118644068));
#100=CARTESIAN_POINT('',(-5.03050847457627,47.4163417959292,11.8877118644068));
#101=CARTESIAN_POINT('Origin',(-3.83050847457626,47.4163417959292,11.7627118644068));
#102=CARTESIAN_POINT('Origin',(-3.83050847457626,47.4163417959292,11.7627118644068));
#103=CARTESIAN_POINT('',(-5.15550847457627,47.4163417959292,16.6097118644068));
#104=CARTESIAN_POINT('Origin',(-3.83050847457626,47.4163417959292,16.6097118644068));
#105=CARTESIAN_POINT('',(-5.15550847457627,47.4163417959292,11.7627118644068));
#106=CARTESIAN_POINT('Origin',(-3.83050847457626,47.4163417959292,11.7627118644068));
#107=CARTESIAN_POINT('Origin',(-3.83050847457626,47.4163417959292,16.6097118644068));
#108=UNCERTAINTY_MEASURE_WITH_UNIT(LENGTH_MEASURE(0.01),#112,
'DISTANCE_ACCURACY_VALUE',
'Maximum model space distance between geometric entities at asserted c
onnectivities');
#109=UNCERTAINTY_MEASURE_WITH_UNIT(LENGTH_MEASURE(0.01),#112,
'DISTANCE_ACCURACY_VALUE',
'Maximum model space distance between geometric entities at asserted c
onnectivities');
#110=(
GEOMETRIC_REPRESENTATION_CONTEXT(3)
GLOBAL_UNCERTAINTY_ASSIGNED_CONTEXT((#108))
GLOBAL_UNIT_ASSIGNED_CONTEXT((#112,#114,#115))
REPRESENTATION_CONTEXT('','3D')
);
#111=(
GEOMETRIC_REPRESENTATION_CONTEXT(3)
GLOBAL_UNCERTAINTY_ASSIGNED_CONTEXT((#109))
GLOBAL_UNIT_ASSIGNED_CONTEXT((#112,#114,#115))
REPRESENTATION_CONTEXT('','3D')
);
#112=(
LENGTH_UNIT()
NAMED_UNIT(*)
SI_UNIT(.MILLI.,.METRE.)
);
#113=(
LENGTH_UNIT()
NAMED_UNIT(*)
SI_UNIT($,.METRE.)
);
#114=(
NAMED_UNIT(*)
PLANE_ANGLE_UNIT()
SI_UNIT($,.RADIAN.)
);
#115=(
NAMED_UNIT(*)
SI_UNIT($,.STERADIAN.)
SOLID_ANGLE_UNIT()
);
#116=SHAPE_DEFINITION_REPRESENTATION(#117,#118);
#117=PRODUCT_DEFINITION_SHAPE('',$,#120);
#118=SHAPE_REPRESENTATION('',(#69),#110);
#119=PRODUCT_DEFINITION_CONTEXT('part definition',#124,'design');
#120=PRODUCT_DEFINITION('2025-09-09-20-18-06-051','Head',#121,#119);
#121=PRODUCT_DEFINITION_FORMATION('',$,#126);
#122=PRODUCT_RELATED_PRODUCT_CATEGORY('Head','Head',(#126));
#123=APPLICATION_PROTOCOL_DEFINITION('international standard',
'automotive_design',2009,#124);
#124=APPLICATION_CONTEXT(
'Core Data for Automotive Mechanical Design Process');
#125=PRODUCT_CONTEXT('part definition',#124,'mechanical');
#126=PRODUCT('2025-09-09-20-18-06-051','Head',$,(#125));
#127=PRESENTATION_STYLE_ASSIGNMENT((#131));
#128=PRESENTATION_STYLE_ASSIGNMENT((#132));
#129=PRESENTATION_STYLE_ASSIGNMENT((#133));
#130=PRESENTATION_STYLE_ASSIGNMENT((#134));
#131=SURFACE_STYLE_USAGE(.BOTH.,#135);
#132=SURFACE_STYLE_USAGE(.BOTH.,#136);
#133=SURFACE_STYLE_USAGE(.BOTH.,#137);
#134=SURFACE_STYLE_USAGE(.BOTH.,#138);
#135=SURFACE_SIDE_STYLE('',(#139));
#136=SURFACE_SIDE_STYLE('',(#140));
#137=SURFACE_SIDE_STYLE('',(#141));
#138=SURFACE_SIDE_STYLE('',(#142));
#139=SURFACE_STYLE_FILL_AREA(#143);
#140=SURFACE_STYLE_FILL_AREA(#144);
#141=SURFACE_STYLE_FILL_AREA(#145);
#142=SURFACE_STYLE_FILL_AREA(#146);
#143=FILL_AREA_STYLE('Aluminum - Satin',(#147));
#144=FILL_AREA_STYLE('Polymide (Kapton)',(#148));
#145=FILL_AREA_STYLE('Plastic - Glossy (Black)',(#149));
#146=FILL_AREA_STYLE('Plastic - Matte (Red)',(#150));
#147=FILL_AREA_STYLE_COLOUR('Aluminum - Satin',#151);
#148=FILL_AREA_STYLE_COLOUR('Polymide (Kapton)',#152);
#149=FILL_AREA_STYLE_COLOUR('Plastic - Glossy (Black)',#153);
#150=FILL_AREA_STYLE_COLOUR('Plastic - Matte (Red)',#154);
#151=COLOUR_RGB('Aluminum - Satin',0.96078431372549,0.96078431372549,0.964705882352941);
#152=COLOUR_RGB('Polymide (Kapton)',0.784313725490196,0.556862745098039,
0.0274509803921569);
#153=COLOUR_RGB('Plastic - Glossy (Black)',0.0980392156862745,0.0980392156862745,
0.0980392156862745);
#154=COLOUR_RGB('Plastic - Matte (Red)',0.768627450980392,0.207843137254902,
0.152941176470588);
ENDSEC;
END-ISO-10303-21;
