ISO-10303-21;
HEADER;
/* Generated by software containing ST-Developer
 * from STEP Tools, Inc. (www.steptools.com) 
 */

FILE_DESCRIPTION(
/* description */ (''),
/* implementation_level */ '2;1');

FILE_NAME(
/* name */ 
'C:\\Users\\Mark\\Desktop\\Inventor Projects\\Nail_Box\\nail_block1.st
p',
/* time_stamp */ '2017-10-14T10:36:03-04:00',
/* author */ ('Mark'),
/* organization */ (''),
/* preprocessor_version */ 'ST-DEVELOPER v16.1',
/* originating_system */ 'Autodesk Inventor 2016',
/* authorisation */ '');

FILE_SCHEMA (('AUTOMOTIVE_DESIGN { 1 0 10303 214 3 1 1 }'));
ENDSEC;

DATA;
#10=MECHANICAL_DESIGN_GEOMETRIC_PRESENTATION_REPRESENTATION('',(#13),#555);
#11=SHAPE_REPRESENTATION_RELATIONSHIP('SRR','None',#567,#12);
#12=ADVANCED_BREP_SHAPE_REPRESENTATION('',(#14),#554);
#13=STYLED_ITEM('',(#576),#14);
#14=MANIFOLD_SOLID_BREP('Solid1',#326);
#15=LINE('',#495,#27);
#16=LINE('',#497,#28);
#17=LINE('',#499,#29);
#18=LINE('',#500,#30);
#19=LINE('',#538,#31);
#20=LINE('',#540,#32);
#21=LINE('',#542,#33);
#22=LINE('',#543,#34);
#23=LINE('',#545,#35);
#24=LINE('',#546,#36);
#25=LINE('',#548,#37);
#26=LINE('',#549,#38);
#27=VECTOR('',#404,1.719);
#28=VECTOR('',#405,0.25);
#29=VECTOR('',#406,1.719);
#30=VECTOR('',#407,0.25);
#31=VECTOR('',#452,1.719);
#32=VECTOR('',#453,0.25);
#33=VECTOR('',#454,1.719);
#34=VECTOR('',#455,0.25);
#35=VECTOR('',#458,0.5);
#36=VECTOR('',#459,0.5);
#37=VECTOR('',#462,0.5);
#38=VECTOR('',#463,0.5);
#39=CONICAL_SURFACE('',#340,0.0749999999999999,18.4349488229219);
#40=CONICAL_SURFACE('',#351,0.0749999999999999,18.4349488229219);
#41=CONICAL_SURFACE('',#355,0.075,18.4349488229221);
#42=PLANE('',#333);
#43=PLANE('',#339);
#44=PLANE('',#343);
#45=PLANE('',#365);
#46=PLANE('',#366);
#47=PLANE('',#367);
#48=PLANE('',#368);
#49=PLANE('',#369);
#50=CYLINDRICAL_SURFACE('',#331,0.08875);
#51=CYLINDRICAL_SURFACE('',#337,0.08875);
#52=CYLINDRICAL_SURFACE('',#349,0.0625);
#53=CYLINDRICAL_SURFACE('',#353,0.0625);
#54=CYLINDRICAL_SURFACE('',#357,0.0625);
#55=CYLINDRICAL_SURFACE('',#359,0.0625);
#56=CYLINDRICAL_SURFACE('',#361,0.0625);
#57=CYLINDRICAL_SURFACE('',#363,0.0625);
#58=FACE_BOUND('',#107,.T.);
#59=FACE_BOUND('',#109,.T.);
#60=FACE_BOUND('',#112,.T.);
#61=FACE_BOUND('',#114,.T.);
#62=FACE_BOUND('',#117,.T.);
#63=FACE_BOUND('',#119,.T.);
#64=FACE_BOUND('',#120,.T.);
#65=FACE_BOUND('',#121,.T.);
#66=FACE_BOUND('',#122,.T.);
#67=FACE_BOUND('',#123,.T.);
#68=FACE_BOUND('',#124,.T.);
#69=FACE_BOUND('',#126,.T.);
#70=FACE_BOUND('',#128,.T.);
#71=FACE_BOUND('',#130,.T.);
#72=FACE_BOUND('',#132,.T.);
#73=FACE_BOUND('',#134,.T.);
#74=FACE_BOUND('',#136,.T.);
#75=FACE_BOUND('',#138,.T.);
#76=FACE_BOUND('',#140,.T.);
#77=FACE_BOUND('',#142,.T.);
#78=FACE_BOUND('',#143,.T.);
#79=FACE_BOUND('',#144,.T.);
#80=FACE_BOUND('',#145,.T.);
#81=FACE_BOUND('',#146,.T.);
#82=FACE_BOUND('',#147,.T.);
#83=FACE_BOUND('',#151,.T.);
#84=FACE_BOUND('',#152,.T.);
#85=FACE_OUTER_BOUND('',#106,.T.);
#86=FACE_OUTER_BOUND('',#108,.T.);
#87=FACE_OUTER_BOUND('',#110,.T.);
#88=FACE_OUTER_BOUND('',#111,.T.);
#89=FACE_OUTER_BOUND('',#113,.T.);
#90=FACE_OUTER_BOUND('',#115,.T.);
#91=FACE_OUTER_BOUND('',#116,.T.);
#92=FACE_OUTER_BOUND('',#118,.T.);
#93=FACE_OUTER_BOUND('',#125,.T.);
#94=FACE_OUTER_BOUND('',#127,.T.);
#95=FACE_OUTER_BOUND('',#129,.T.);
#96=FACE_OUTER_BOUND('',#131,.T.);
#97=FACE_OUTER_BOUND('',#133,.T.);
#98=FACE_OUTER_BOUND('',#135,.T.);
#99=FACE_OUTER_BOUND('',#137,.T.);
#100=FACE_OUTER_BOUND('',#139,.T.);
#101=FACE_OUTER_BOUND('',#141,.T.);
#102=FACE_OUTER_BOUND('',#148,.T.);
#103=FACE_OUTER_BOUND('',#149,.T.);
#104=FACE_OUTER_BOUND('',#150,.T.);
#105=FACE_OUTER_BOUND('',#153,.T.);
#106=EDGE_LOOP('',(#237));
#107=EDGE_LOOP('',(#238));
#108=EDGE_LOOP('',(#239));
#109=EDGE_LOOP('',(#240));
#110=EDGE_LOOP('',(#241));
#111=EDGE_LOOP('',(#242));
#112=EDGE_LOOP('',(#243));
#113=EDGE_LOOP('',(#244));
#114=EDGE_LOOP('',(#245));
#115=EDGE_LOOP('',(#246));
#116=EDGE_LOOP('',(#247));
#117=EDGE_LOOP('',(#248));
#118=EDGE_LOOP('',(#249,#250,#251,#252));
#119=EDGE_LOOP('',(#253));
#120=EDGE_LOOP('',(#254));
#121=EDGE_LOOP('',(#255));
#122=EDGE_LOOP('',(#256));
#123=EDGE_LOOP('',(#257));
#124=EDGE_LOOP('',(#258));
#125=EDGE_LOOP('',(#259));
#126=EDGE_LOOP('',(#260));
#127=EDGE_LOOP('',(#261));
#128=EDGE_LOOP('',(#262));
#129=EDGE_LOOP('',(#263));
#130=EDGE_LOOP('',(#264));
#131=EDGE_LOOP('',(#265));
#132=EDGE_LOOP('',(#266));
#133=EDGE_LOOP('',(#267));
#134=EDGE_LOOP('',(#268));
#135=EDGE_LOOP('',(#269));
#136=EDGE_LOOP('',(#270));
#137=EDGE_LOOP('',(#271));
#138=EDGE_LOOP('',(#272));
#139=EDGE_LOOP('',(#273));
#140=EDGE_LOOP('',(#274));
#141=EDGE_LOOP('',(#275,#276,#277,#278));
#142=EDGE_LOOP('',(#279));
#143=EDGE_LOOP('',(#280));
#144=EDGE_LOOP('',(#281));
#145=EDGE_LOOP('',(#282));
#146=EDGE_LOOP('',(#283));
#147=EDGE_LOOP('',(#284));
#148=EDGE_LOOP('',(#285,#286,#287,#288));
#149=EDGE_LOOP('',(#289,#290,#291,#292));
#150=EDGE_LOOP('',(#293,#294,#295,#296));
#151=EDGE_LOOP('',(#297));
#152=EDGE_LOOP('',(#298));
#153=EDGE_LOOP('',(#299,#300,#301,#302));
#154=CIRCLE('',#329,0.08875);
#155=CIRCLE('',#330,0.06375);
#156=CIRCLE('',#332,0.08875);
#157=CIRCLE('',#335,0.08875);
#158=CIRCLE('',#336,0.06375);
#159=CIRCLE('',#338,0.08875);
#160=CIRCLE('',#341,0.0625);
#161=CIRCLE('',#342,0.0874999999999998);
#162=CIRCLE('',#344,0.0874999999999998);
#163=CIRCLE('',#345,0.0625);
#164=CIRCLE('',#346,0.0625);
#165=CIRCLE('',#347,0.0625);
#166=CIRCLE('',#348,0.0875000000000001);
#167=CIRCLE('',#350,0.0625);
#168=CIRCLE('',#352,0.0625);
#169=CIRCLE('',#354,0.0625);
#170=CIRCLE('',#356,0.0625);
#171=CIRCLE('',#358,0.0625);
#172=CIRCLE('',#360,0.0625);
#173=CIRCLE('',#362,0.0625);
#174=CIRCLE('',#364,0.0625);
#175=VERTEX_POINT('',#470);
#176=VERTEX_POINT('',#472);
#177=VERTEX_POINT('',#475);
#178=VERTEX_POINT('',#479);
#179=VERTEX_POINT('',#481);
#180=VERTEX_POINT('',#484);
#181=VERTEX_POINT('',#488);
#182=VERTEX_POINT('',#490);
#183=VERTEX_POINT('',#493);
#184=VERTEX_POINT('',#494);
#185=VERTEX_POINT('',#496);
#186=VERTEX_POINT('',#498);
#187=VERTEX_POINT('',#501);
#188=VERTEX_POINT('',#503);
#189=VERTEX_POINT('',#505);
#190=VERTEX_POINT('',#507);
#191=VERTEX_POINT('',#509);
#192=VERTEX_POINT('',#512);
#193=VERTEX_POINT('',#515);
#194=VERTEX_POINT('',#518);
#195=VERTEX_POINT('',#521);
#196=VERTEX_POINT('',#524);
#197=VERTEX_POINT('',#527);
#198=VERTEX_POINT('',#530);
#199=VERTEX_POINT('',#533);
#200=VERTEX_POINT('',#536);
#201=VERTEX_POINT('',#537);
#202=VERTEX_POINT('',#539);
#203=VERTEX_POINT('',#541);
#204=EDGE_CURVE('',#175,#175,#154,.T.);
#205=EDGE_CURVE('',#176,#176,#155,.T.);
#206=EDGE_CURVE('',#177,#177,#156,.T.);
#207=EDGE_CURVE('',#178,#178,#157,.T.);
#208=EDGE_CURVE('',#179,#179,#158,.T.);
#209=EDGE_CURVE('',#180,#180,#159,.T.);
#210=EDGE_CURVE('',#181,#181,#160,.T.);
#211=EDGE_CURVE('',#182,#182,#161,.T.);
#212=EDGE_CURVE('',#183,#184,#15,.T.);
#213=EDGE_CURVE('',#184,#185,#16,.T.);
#214=EDGE_CURVE('',#186,#185,#17,.T.);
#215=EDGE_CURVE('',#183,#186,#18,.T.);
#216=EDGE_CURVE('',#187,#187,#162,.T.);
#217=EDGE_CURVE('',#188,#188,#163,.T.);
#218=EDGE_CURVE('',#189,#189,#164,.T.);
#219=EDGE_CURVE('',#190,#190,#165,.T.);
#220=EDGE_CURVE('',#191,#191,#166,.T.);
#221=EDGE_CURVE('',#192,#192,#167,.T.);
#222=EDGE_CURVE('',#193,#193,#168,.T.);
#223=EDGE_CURVE('',#194,#194,#169,.T.);
#224=EDGE_CURVE('',#195,#195,#170,.T.);
#225=EDGE_CURVE('',#196,#196,#171,.T.);
#226=EDGE_CURVE('',#197,#197,#172,.T.);
#227=EDGE_CURVE('',#198,#198,#173,.T.);
#228=EDGE_CURVE('',#199,#199,#174,.T.);
#229=EDGE_CURVE('',#200,#201,#19,.T.);
#230=EDGE_CURVE('',#201,#202,#20,.T.);
#231=EDGE_CURVE('',#203,#202,#21,.T.);
#232=EDGE_CURVE('',#200,#203,#22,.T.);
#233=EDGE_CURVE('',#184,#200,#23,.T.);
#234=EDGE_CURVE('',#185,#203,#24,.T.);
#235=EDGE_CURVE('',#201,#183,#25,.T.);
#236=EDGE_CURVE('',#202,#186,#26,.T.);
#237=ORIENTED_EDGE('',*,*,#204,.T.);
#238=ORIENTED_EDGE('',*,*,#205,.T.);
#239=ORIENTED_EDGE('',*,*,#206,.F.);
#240=ORIENTED_EDGE('',*,*,#204,.F.);
#241=ORIENTED_EDGE('',*,*,#205,.F.);
#242=ORIENTED_EDGE('',*,*,#207,.T.);
#243=ORIENTED_EDGE('',*,*,#208,.T.);
#244=ORIENTED_EDGE('',*,*,#209,.F.);
#245=ORIENTED_EDGE('',*,*,#207,.F.);
#246=ORIENTED_EDGE('',*,*,#208,.F.);
#247=ORIENTED_EDGE('',*,*,#210,.T.);
#248=ORIENTED_EDGE('',*,*,#211,.T.);
#249=ORIENTED_EDGE('',*,*,#212,.T.);
#250=ORIENTED_EDGE('',*,*,#213,.T.);
#251=ORIENTED_EDGE('',*,*,#214,.F.);
#252=ORIENTED_EDGE('',*,*,#215,.F.);
#253=ORIENTED_EDGE('',*,*,#216,.F.);
#254=ORIENTED_EDGE('',*,*,#217,.T.);
#255=ORIENTED_EDGE('',*,*,#218,.T.);
#256=ORIENTED_EDGE('',*,*,#219,.T.);
#257=ORIENTED_EDGE('',*,*,#220,.F.);
#258=ORIENTED_EDGE('',*,*,#211,.F.);
#259=ORIENTED_EDGE('',*,*,#221,.F.);
#260=ORIENTED_EDGE('',*,*,#210,.F.);
#261=ORIENTED_EDGE('',*,*,#222,.T.);
#262=ORIENTED_EDGE('',*,*,#216,.T.);
#263=ORIENTED_EDGE('',*,*,#223,.F.);
#264=ORIENTED_EDGE('',*,*,#222,.F.);
#265=ORIENTED_EDGE('',*,*,#224,.T.);
#266=ORIENTED_EDGE('',*,*,#220,.T.);
#267=ORIENTED_EDGE('',*,*,#225,.F.);
#268=ORIENTED_EDGE('',*,*,#224,.F.);
#269=ORIENTED_EDGE('',*,*,#226,.F.);
#270=ORIENTED_EDGE('',*,*,#219,.F.);
#271=ORIENTED_EDGE('',*,*,#227,.F.);
#272=ORIENTED_EDGE('',*,*,#218,.F.);
#273=ORIENTED_EDGE('',*,*,#228,.F.);
#274=ORIENTED_EDGE('',*,*,#217,.F.);
#275=ORIENTED_EDGE('',*,*,#229,.T.);
#276=ORIENTED_EDGE('',*,*,#230,.T.);
#277=ORIENTED_EDGE('',*,*,#231,.F.);
#278=ORIENTED_EDGE('',*,*,#232,.F.);
#279=ORIENTED_EDGE('',*,*,#221,.T.);
#280=ORIENTED_EDGE('',*,*,#226,.T.);
#281=ORIENTED_EDGE('',*,*,#223,.T.);
#282=ORIENTED_EDGE('',*,*,#227,.T.);
#283=ORIENTED_EDGE('',*,*,#225,.T.);
#284=ORIENTED_EDGE('',*,*,#228,.T.);
#285=ORIENTED_EDGE('',*,*,#233,.T.);
#286=ORIENTED_EDGE('',*,*,#232,.T.);
#287=ORIENTED_EDGE('',*,*,#234,.F.);
#288=ORIENTED_EDGE('',*,*,#213,.F.);
#289=ORIENTED_EDGE('',*,*,#235,.T.);
#290=ORIENTED_EDGE('',*,*,#215,.T.);
#291=ORIENTED_EDGE('',*,*,#236,.F.);
#292=ORIENTED_EDGE('',*,*,#230,.F.);
#293=ORIENTED_EDGE('',*,*,#236,.T.);
#294=ORIENTED_EDGE('',*,*,#214,.T.);
#295=ORIENTED_EDGE('',*,*,#234,.T.);
#296=ORIENTED_EDGE('',*,*,#231,.T.);
#297=ORIENTED_EDGE('',*,*,#206,.T.);
#298=ORIENTED_EDGE('',*,*,#209,.T.);
#299=ORIENTED_EDGE('',*,*,#235,.F.);
#300=ORIENTED_EDGE('',*,*,#229,.F.);
#301=ORIENTED_EDGE('',*,*,#233,.F.);
#302=ORIENTED_EDGE('',*,*,#212,.F.);
#303=TOROIDAL_SURFACE('',#328,0.06375,0.025);
#304=TOROIDAL_SURFACE('',#334,0.06375,0.025);
#305=ADVANCED_FACE('',(#85,#58),#303,.T.);
#306=ADVANCED_FACE('',(#86,#59),#50,.T.);
#307=ADVANCED_FACE('',(#87),#42,.T.);
#308=ADVANCED_FACE('',(#88,#60),#304,.T.);
#309=ADVANCED_FACE('',(#89,#61),#51,.T.);
#310=ADVANCED_FACE('',(#90),#43,.T.);
#311=ADVANCED_FACE('',(#91,#62),#39,.F.);
#312=ADVANCED_FACE('',(#92,#63,#64,#65,#66,#67,#68),#44,.T.);
#313=ADVANCED_FACE('',(#93,#69),#52,.F.);
#314=ADVANCED_FACE('',(#94,#70),#40,.F.);
#315=ADVANCED_FACE('',(#95,#71),#53,.F.);
#316=ADVANCED_FACE('',(#96,#72),#41,.F.);
#317=ADVANCED_FACE('',(#97,#73),#54,.F.);
#318=ADVANCED_FACE('',(#98,#74),#55,.F.);
#319=ADVANCED_FACE('',(#99,#75),#56,.F.);
#320=ADVANCED_FACE('',(#100,#76),#57,.F.);
#321=ADVANCED_FACE('',(#101,#77,#78,#79,#80,#81,#82),#45,.T.);
#322=ADVANCED_FACE('',(#102),#46,.T.);
#323=ADVANCED_FACE('',(#103),#47,.T.);
#324=ADVANCED_FACE('',(#104,#83,#84),#48,.T.);
#325=ADVANCED_FACE('',(#105),#49,.F.);
#326=CLOSED_SHELL('',(#305,#306,#307,#308,#309,#310,#311,#312,#313,#314,
#315,#316,#317,#318,#319,#320,#321,#322,#323,#324,#325));
#327=AXIS2_PLACEMENT_3D('placement',#468,#370,#371);
#328=AXIS2_PLACEMENT_3D('',#469,#372,#373);
#329=AXIS2_PLACEMENT_3D('',#471,#374,#375);
#330=AXIS2_PLACEMENT_3D('',#473,#376,#377);
#331=AXIS2_PLACEMENT_3D('',#474,#378,#379);
#332=AXIS2_PLACEMENT_3D('',#476,#380,#381);
#333=AXIS2_PLACEMENT_3D('',#477,#382,#383);
#334=AXIS2_PLACEMENT_3D('',#478,#384,#385);
#335=AXIS2_PLACEMENT_3D('',#480,#386,#387);
#336=AXIS2_PLACEMENT_3D('',#482,#388,#389);
#337=AXIS2_PLACEMENT_3D('',#483,#390,#391);
#338=AXIS2_PLACEMENT_3D('',#485,#392,#393);
#339=AXIS2_PLACEMENT_3D('',#486,#394,#395);
#340=AXIS2_PLACEMENT_3D('',#487,#396,#397);
#341=AXIS2_PLACEMENT_3D('',#489,#398,#399);
#342=AXIS2_PLACEMENT_3D('',#491,#400,#401);
#343=AXIS2_PLACEMENT_3D('',#492,#402,#403);
#344=AXIS2_PLACEMENT_3D('',#502,#408,#409);
#345=AXIS2_PLACEMENT_3D('',#504,#410,#411);
#346=AXIS2_PLACEMENT_3D('',#506,#412,#413);
#347=AXIS2_PLACEMENT_3D('',#508,#414,#415);
#348=AXIS2_PLACEMENT_3D('',#510,#416,#417);
#349=AXIS2_PLACEMENT_3D('',#511,#418,#419);
#350=AXIS2_PLACEMENT_3D('',#513,#420,#421);
#351=AXIS2_PLACEMENT_3D('',#514,#422,#423);
#352=AXIS2_PLACEMENT_3D('',#516,#424,#425);
#353=AXIS2_PLACEMENT_3D('',#517,#426,#427);
#354=AXIS2_PLACEMENT_3D('',#519,#428,#429);
#355=AXIS2_PLACEMENT_3D('',#520,#430,#431);
#356=AXIS2_PLACEMENT_3D('',#522,#432,#433);
#357=AXIS2_PLACEMENT_3D('',#523,#434,#435);
#358=AXIS2_PLACEMENT_3D('',#525,#436,#437);
#359=AXIS2_PLACEMENT_3D('',#526,#438,#439);
#360=AXIS2_PLACEMENT_3D('',#528,#440,#441);
#361=AXIS2_PLACEMENT_3D('',#529,#442,#443);
#362=AXIS2_PLACEMENT_3D('',#531,#444,#445);
#363=AXIS2_PLACEMENT_3D('',#532,#446,#447);
#364=AXIS2_PLACEMENT_3D('',#534,#448,#449);
#365=AXIS2_PLACEMENT_3D('',#535,#450,#451);
#366=AXIS2_PLACEMENT_3D('',#544,#456,#457);
#367=AXIS2_PLACEMENT_3D('',#547,#460,#461);
#368=AXIS2_PLACEMENT_3D('',#550,#464,#465);
#369=AXIS2_PLACEMENT_3D('',#551,#466,#467);
#370=DIRECTION('axis',(0.,0.,1.));
#371=DIRECTION('refdir',(1.,0.,0.));
#372=DIRECTION('center_axis',(0.,0.,1.));
#373=DIRECTION('ref_axis',(1.,0.,0.));
#374=DIRECTION('center_axis',(0.,0.,1.));
#375=DIRECTION('ref_axis',(-1.,0.,0.));
#376=DIRECTION('center_axis',(0.,0.,-1.));
#377=DIRECTION('ref_axis',(-1.,0.,0.));
#378=DIRECTION('center_axis',(0.,0.,1.));
#379=DIRECTION('ref_axis',(-1.,0.,0.));
#380=DIRECTION('center_axis',(0.,0.,-1.));
#381=DIRECTION('ref_axis',(-1.,0.,0.));
#382=DIRECTION('center_axis',(0.,0.,1.));
#383=DIRECTION('ref_axis',(1.,0.,0.));
#384=DIRECTION('center_axis',(0.,0.,1.));
#385=DIRECTION('ref_axis',(1.,0.,0.));
#386=DIRECTION('center_axis',(0.,0.,1.));
#387=DIRECTION('ref_axis',(-1.,0.,0.));
#388=DIRECTION('center_axis',(0.,0.,-1.));
#389=DIRECTION('ref_axis',(-1.,0.,0.));
#390=DIRECTION('center_axis',(0.,0.,1.));
#391=DIRECTION('ref_axis',(-1.,0.,0.));
#392=DIRECTION('center_axis',(0.,0.,-1.));
#393=DIRECTION('ref_axis',(-1.,0.,0.));
#394=DIRECTION('center_axis',(0.,0.,1.));
#395=DIRECTION('ref_axis',(1.,0.,0.));
#396=DIRECTION('center_axis',(1.,0.,0.));
#397=DIRECTION('ref_axis',(2.03418582425262E-16,-1.,0.));
#398=DIRECTION('center_axis',(-1.,-2.03418582425262E-16,0.));
#399=DIRECTION('ref_axis',(2.03418582425262E-16,-1.,0.));
#400=DIRECTION('center_axis',(1.,2.03418582425262E-16,0.));
#401=DIRECTION('ref_axis',(2.03418582425262E-16,-1.,0.));
#402=DIRECTION('center_axis',(1.,2.03418582425262E-16,0.));
#403=DIRECTION('ref_axis',(-1.40998324127395E-16,1.,0.));
#404=DIRECTION('',(-2.03418582425262E-16,1.,0.));
#405=DIRECTION('',(0.,0.,1.));
#406=DIRECTION('',(-2.03418582425262E-16,1.,0.));
#407=DIRECTION('',(0.,0.,1.));
#408=DIRECTION('center_axis',(1.,2.03418582425262E-16,0.));
#409=DIRECTION('ref_axis',(2.03418582425262E-16,-1.,0.));
#410=DIRECTION('center_axis',(-1.,-2.03418582425262E-16,0.));
#411=DIRECTION('ref_axis',(-2.03418582425262E-16,1.,0.));
#412=DIRECTION('center_axis',(-1.,-2.03418582425262E-16,0.));
#413=DIRECTION('ref_axis',(-2.03418582425262E-16,1.,0.));
#414=DIRECTION('center_axis',(-1.,-2.03418582425262E-16,0.));
#415=DIRECTION('ref_axis',(-2.03418582425262E-16,1.,0.));
#416=DIRECTION('center_axis',(1.,2.03418582425262E-16,0.));
#417=DIRECTION('ref_axis',(2.03418582425262E-16,-1.,0.));
#418=DIRECTION('center_axis',(1.,2.03418582425262E-16,0.));
#419=DIRECTION('ref_axis',(-2.03418582425262E-16,1.,0.));
#420=DIRECTION('center_axis',(1.,3.06161699786838E-16,0.));
#421=DIRECTION('ref_axis',(-2.03418582425262E-16,1.,0.));
#422=DIRECTION('center_axis',(1.,0.,0.));
#423=DIRECTION('ref_axis',(2.03418582425262E-16,-1.,0.));
#424=DIRECTION('center_axis',(-1.,-2.03418582425262E-16,0.));
#425=DIRECTION('ref_axis',(2.03418582425262E-16,-1.,0.));
#426=DIRECTION('center_axis',(1.,2.03418582425262E-16,0.));
#427=DIRECTION('ref_axis',(-2.03418582425262E-16,1.,0.));
#428=DIRECTION('center_axis',(1.,3.06161699786838E-16,0.));
#429=DIRECTION('ref_axis',(-2.03418582425262E-16,1.,0.));
#430=DIRECTION('center_axis',(1.,0.,0.));
#431=DIRECTION('ref_axis',(2.03418582425262E-16,-1.,0.));
#432=DIRECTION('center_axis',(-1.,-2.03418582425262E-16,0.));
#433=DIRECTION('ref_axis',(2.03418582425262E-16,-1.,0.));
#434=DIRECTION('center_axis',(1.,2.03418582425262E-16,0.));
#435=DIRECTION('ref_axis',(-2.03418582425262E-16,1.,0.));
#436=DIRECTION('center_axis',(1.,3.06161699786838E-16,0.));
#437=DIRECTION('ref_axis',(-2.03418582425262E-16,1.,0.));
#438=DIRECTION('center_axis',(1.,2.03418582425262E-16,0.));
#439=DIRECTION('ref_axis',(-2.03418582425262E-16,1.,0.));
#440=DIRECTION('center_axis',(1.,3.06161699786838E-16,0.));
#441=DIRECTION('ref_axis',(-2.03418582425262E-16,1.,0.));
#442=DIRECTION('center_axis',(1.,2.03418582425262E-16,0.));
#443=DIRECTION('ref_axis',(-2.03418582425262E-16,1.,0.));
#444=DIRECTION('center_axis',(1.,3.06161699786838E-16,0.));
#445=DIRECTION('ref_axis',(-2.03418582425262E-16,1.,0.));
#446=DIRECTION('center_axis',(1.,2.03418582425262E-16,0.));
#447=DIRECTION('ref_axis',(-2.03418582425262E-16,1.,0.));
#448=DIRECTION('center_axis',(1.,3.06161699786838E-16,0.));
#449=DIRECTION('ref_axis',(-2.03418582425262E-16,1.,0.));
#450=DIRECTION('center_axis',(-1.,-3.06161699786838E-16,0.));
#451=DIRECTION('ref_axis',(3.06161699786838E-16,-1.,0.));
#452=DIRECTION('',(3.06161699786838E-16,-1.,0.));
#453=DIRECTION('',(0.,0.,1.));
#454=DIRECTION('',(3.06161699786838E-16,-1.,0.));
#455=DIRECTION('',(0.,0.,1.));
#456=DIRECTION('center_axis',(-6.99353086378051E-16,1.,0.));
#457=DIRECTION('ref_axis',(-1.,-5.6399329650958E-16,0.));
#458=DIRECTION('',(-1.,-6.99353086378051E-16,0.));
#459=DIRECTION('',(-1.,-6.99353086378051E-16,0.));
#460=DIRECTION('center_axis',(0.,-1.,0.));
#461=DIRECTION('ref_axis',(1.,0.,0.));
#462=DIRECTION('',(1.,0.,0.));
#463=DIRECTION('',(1.,0.,0.));
#464=DIRECTION('center_axis',(0.,0.,1.));
#465=DIRECTION('ref_axis',(1.,0.,0.));
#466=DIRECTION('center_axis',(0.,0.,1.));
#467=DIRECTION('ref_axis',(1.,0.,0.));
#468=CARTESIAN_POINT('',(0.,0.,0.));
#469=CARTESIAN_POINT('Origin',(0.25,1.419,0.325));
#470=CARTESIAN_POINT('',(0.33875,1.419,0.325));
#471=CARTESIAN_POINT('Origin',(0.25,1.419,0.325));
#472=CARTESIAN_POINT('',(0.31375,1.419,0.35));
#473=CARTESIAN_POINT('Origin',(0.25,1.419,0.35));
#474=CARTESIAN_POINT('Origin',(0.25,1.419,0.25));
#475=CARTESIAN_POINT('',(0.33875,1.419,0.25));
#476=CARTESIAN_POINT('Origin',(0.25,1.419,0.25));
#477=CARTESIAN_POINT('Origin',(0.25,1.419,0.35));
#478=CARTESIAN_POINT('Origin',(0.25,0.25,0.325));
#479=CARTESIAN_POINT('',(0.33875,0.25,0.325));
#480=CARTESIAN_POINT('Origin',(0.25,0.25,0.325));
#481=CARTESIAN_POINT('',(0.31375,0.25,0.35));
#482=CARTESIAN_POINT('Origin',(0.25,0.25,0.35));
#483=CARTESIAN_POINT('Origin',(0.25,0.25,0.25));
#484=CARTESIAN_POINT('',(0.33875,0.25,0.25));
#485=CARTESIAN_POINT('Origin',(0.25,0.25,0.25));
#486=CARTESIAN_POINT('Origin',(0.25,0.25,0.35));
#487=CARTESIAN_POINT('Origin',(0.4625,1.4895,0.125));
#488=CARTESIAN_POINT('',(0.425,1.552,0.125));
#489=CARTESIAN_POINT('Origin',(0.425,1.4895,0.125));
#490=CARTESIAN_POINT('',(0.499999999999999,1.577,0.125));
#491=CARTESIAN_POINT('Origin',(0.499999999999999,1.4895,0.125));
#492=CARTESIAN_POINT('Origin',(0.5,0.,0.));
#493=CARTESIAN_POINT('',(0.5,0.,0.));
#494=CARTESIAN_POINT('',(0.499999999999999,1.719,0.));
#495=CARTESIAN_POINT('',(0.5,0.,0.));
#496=CARTESIAN_POINT('',(0.499999999999999,1.719,0.25));
#497=CARTESIAN_POINT('',(0.499999999999999,1.719,0.));
#498=CARTESIAN_POINT('',(0.5,0.,0.25));
#499=CARTESIAN_POINT('',(0.5,0.,0.25));
#500=CARTESIAN_POINT('',(0.5,0.,0.));
#501=CARTESIAN_POINT('',(0.5,1.077,0.125));
#502=CARTESIAN_POINT('Origin',(0.5,0.9895,0.125));
#503=CARTESIAN_POINT('',(0.5,0.302,0.125));
#504=CARTESIAN_POINT('Origin',(0.5,0.2395,0.125));
#505=CARTESIAN_POINT('',(0.5,0.802,0.125));
#506=CARTESIAN_POINT('Origin',(0.5,0.7395,0.125));
#507=CARTESIAN_POINT('',(0.499999999999999,1.302,0.125));
#508=CARTESIAN_POINT('Origin',(0.5,1.2395,0.125));
#509=CARTESIAN_POINT('',(0.5,0.577,0.125));
#510=CARTESIAN_POINT('Origin',(0.5,0.4895,0.125));
#511=CARTESIAN_POINT('Origin',(-5.16530635423347E-16,1.4895,0.125));
#512=CARTESIAN_POINT('',(-4.66893735865398E-16,1.427,0.125));
#513=CARTESIAN_POINT('Origin',(-4.79607397266977E-16,1.4895,0.125));
#514=CARTESIAN_POINT('Origin',(0.4625,0.9895,0.125));
#515=CARTESIAN_POINT('',(0.425,1.052,0.125));
#516=CARTESIAN_POINT('Origin',(0.425,0.9895,0.125));
#517=CARTESIAN_POINT('Origin',(-4.14821344210716E-16,0.9895,0.125));
#518=CARTESIAN_POINT('',(-3.65184444652767E-16,0.927,0.125));
#519=CARTESIAN_POINT('Origin',(-3.77898106054346E-16,0.9895,0.125));
#520=CARTESIAN_POINT('Origin',(0.4625,0.4895,0.125));
#521=CARTESIAN_POINT('',(0.425,0.552,0.125));
#522=CARTESIAN_POINT('Origin',(0.425,0.4895,0.125));
#523=CARTESIAN_POINT('Origin',(-3.13112052998085E-16,0.4895,0.125));
#524=CARTESIAN_POINT('',(-2.63475153440136E-16,0.427,0.125));
#525=CARTESIAN_POINT('Origin',(-2.76188814841715E-16,0.4895,0.125));
#526=CARTESIAN_POINT('Origin',(-4.65675989817031E-16,1.2395,0.125));
#527=CARTESIAN_POINT('',(-4.16039090259083E-16,1.177,0.125));
#528=CARTESIAN_POINT('Origin',(-4.28752751660662E-16,1.2395,0.125));
#529=CARTESIAN_POINT('Origin',(-3.639666986044E-16,0.7395,0.125));
#530=CARTESIAN_POINT('',(-3.14329799046452E-16,0.677,0.125));
#531=CARTESIAN_POINT('Origin',(-3.27043460448031E-16,0.7395,0.125));
#532=CARTESIAN_POINT('Origin',(-2.62257407391769E-16,0.2395,0.125));
#533=CARTESIAN_POINT('',(-2.12620507833821E-16,0.177,0.125));
#534=CARTESIAN_POINT('Origin',(-2.253341692354E-16,0.2395,0.125));
#535=CARTESIAN_POINT('Origin',(-5.26291961933575E-16,1.719,0.));
#536=CARTESIAN_POINT('',(-5.26291961933575E-16,1.719,0.));
#537=CARTESIAN_POINT('',(0.,0.,0.));
#538=CARTESIAN_POINT('',(-5.26291961933575E-16,1.719,0.));
#539=CARTESIAN_POINT('',(0.,0.,0.25));
#540=CARTESIAN_POINT('',(0.,0.,0.));
#541=CARTESIAN_POINT('',(-5.26291961933575E-16,1.719,0.25));
#542=CARTESIAN_POINT('',(-5.26291961933575E-16,1.719,0.25));
#543=CARTESIAN_POINT('',(-5.26291961933575E-16,1.719,0.));
#544=CARTESIAN_POINT('Origin',(0.499999999999999,1.719,0.));
#545=CARTESIAN_POINT('',(0.499999999999999,1.719,0.));
#546=CARTESIAN_POINT('',(0.499999999999999,1.719,0.25));
#547=CARTESIAN_POINT('Origin',(0.,0.,0.));
#548=CARTESIAN_POINT('',(0.,0.,0.));
#549=CARTESIAN_POINT('',(0.,0.,0.25));
#550=CARTESIAN_POINT('Origin',(0.25,0.8595,0.25));
#551=CARTESIAN_POINT('Origin',(0.25,0.8595,0.));
#552=UNCERTAINTY_MEASURE_WITH_UNIT(LENGTH_MEASURE(0.000393700787401575),
#556,'DISTANCE_ACCURACY_VALUE',
'Maximum model space distance between geometric entities at asserted c
onnectivities');
#553=UNCERTAINTY_MEASURE_WITH_UNIT(LENGTH_MEASURE(1.E-6),#557,
'DISTANCE_ACCURACY_VALUE',
'Maximum model space distance between geometric entities at asserted c
onnectivities');
#554=(
GEOMETRIC_REPRESENTATION_CONTEXT(3)
GLOBAL_UNCERTAINTY_ASSIGNED_CONTEXT((#552))
GLOBAL_UNIT_ASSIGNED_CONTEXT((#556,#562,#559))
REPRESENTATION_CONTEXT('','3D')
);
#555=(
GEOMETRIC_REPRESENTATION_CONTEXT(3)
GLOBAL_UNCERTAINTY_ASSIGNED_CONTEXT((#553))
GLOBAL_UNIT_ASSIGNED_CONTEXT((#557,#562,#559))
REPRESENTATION_CONTEXT('','3D')
);
#556=(
CONVERSION_BASED_UNIT('__CONSTANT UNIT inch',#558)
LENGTH_UNIT()
NAMED_UNIT(#561)
);
#557=(
LENGTH_UNIT()
NAMED_UNIT(*)
SI_UNIT(.MILLI.,.METRE.)
);
#558=LENGTH_MEASURE_WITH_UNIT(LENGTH_MEASURE(25.4),#557);
#559=(
NAMED_UNIT(*)
SI_UNIT($,.STERADIAN.)
SOLID_ANGLE_UNIT()
);
#560=DIMENSIONAL_EXPONENTS(0.,0.,0.,0.,0.,0.,0.);
#561=DIMENSIONAL_EXPONENTS(1.,0.,0.,0.,0.,0.,0.);
#562=(
CONVERSION_BASED_UNIT('degree',#564)
NAMED_UNIT(#560)
PLANE_ANGLE_UNIT()
);
#563=(
NAMED_UNIT(*)
PLANE_ANGLE_UNIT()
SI_UNIT($,.RADIAN.)
);
#564=PLANE_ANGLE_MEASURE_WITH_UNIT(PLANE_ANGLE_MEASURE(0.01745329252),#563);
#565=SHAPE_DEFINITION_REPRESENTATION(#566,#567);
#566=PRODUCT_DEFINITION_SHAPE('',$,#569);
#567=SHAPE_REPRESENTATION('',(#327),#554);
#568=PRODUCT_DEFINITION_CONTEXT('part definition',#573,'design');
#569=PRODUCT_DEFINITION('nail_block1','nail_block1',#570,#568);
#570=PRODUCT_DEFINITION_FORMATION('',$,#575);
#571=PRODUCT_RELATED_PRODUCT_CATEGORY('nail_block1','nail_block1',(#575));
#572=APPLICATION_PROTOCOL_DEFINITION('international standard',
'automotive_design',2009,#573);
#573=APPLICATION_CONTEXT(
'Core Data for Automotive Mechanical Design Process');
#574=PRODUCT_CONTEXT('part definition',#573,'mechanical');
#575=PRODUCT('nail_block1','nail_block1',$,(#574));
#576=PRESENTATION_STYLE_ASSIGNMENT((#577));
#577=SURFACE_STYLE_USAGE(.BOTH.,#578);
#578=SURFACE_SIDE_STYLE('',(#579));
#579=SURFACE_STYLE_FILL_AREA(#580);
#580=FILL_AREA_STYLE('',(#581));
#581=FILL_AREA_STYLE_COLOUR('',#582);
#582=COLOUR_RGB('',0.,0.737254901960784,0.729411764705882);
ENDSEC;
END-ISO-10303-21;
