  0
SECTION
  2
HEADER
  9
$ACADVER
  1
AC1014
  9
$HANDSEED
  5
FFFF
  9
$MEASUREMENT
 70
     1
  0
ENDSEC
  0
SECTION
  2
TABLES
  0
TABLE
  2
VPORT
  5
8
330
0
100
AcDbSymbolTable
 70
     4
  0
VPORT
  5
2E
330
8
100
AcDbSymbolTableRecord
100
AcDbViewportTableRecord
  2
*ACTIVE
 70
     0
 10
0.0
 20
0.0
 11
1.0
 21
1.0
 12
210.0
 22
148.5
 13
0.0
 23
0.0
 14
10.0
 24
10.0
 15
10.0
 25
10.0
 16
0.0
 26
0.0
 36
1.0
 17
0.0
 27
0.0
 37
0.0
 40
341.0
 41
1.24
 42
50.0
 43
0.0
 44
0.0
 50
0.0
 51
0.0
 71
     0
 72
   100
 73
     1
 74
     3
 75
     0
 76
     0
 77
     0
 78
     0
  0
ENDTAB
  0
TABLE
  2
LTYPE
  5
5
330
0
100
AcDbSymbolTable
 70
     1
  0
LTYPE
  5
14
330
5
100
AcDbSymbolTableRecord
100
AcDbLinetypeTableRecord
  2
BYBLOCK
 70
     0
  3

 72
    65
 73
     0
 40
0.0
  0
LTYPE
  5
15
330
5
100
AcDbSymbolTableRecord
100
AcDbLinetypeTableRecord
  2
BYLAYER
 70
     0
  3

 72
    65
 73
     0
 40
0.0
  0
LTYPE
  5
16
330
5
100
AcDbSymbolTableRecord
100
AcDbLinetypeTableRecord
  2
CONTINUOUS
 70
     0
  3
Solid line
 72
    65
 73
     0
 40
0.0
  0
ENDTAB
  0
TABLE
  2
LAYER
  5
2
100
AcDbSymbolTable
 70
1
  0
LAYER
  5
50
100
AcDbSymbolTableRecord
100
AcDbLayerTableRecord
  2
0
 70
0
  6
CONTINUOUS
  0
ENDTAB
  0
TABLE
  2
STYLE
  5
3
330
0
100
AcDbSymbolTable
 70
     1
  0
STYLE
  5
11
330
3
100
AcDbSymbolTableRecord
100
AcDbTextStyleTableRecord
  2
STANDARD
 70
     0
 40
0.0
 41
1.0
 50
0.0
 71
     0
 42
2.5
  3
txt
  4

  0
ENDTAB
  0
TABLE
  2
VIEW
  5
6
330
0
100
AcDbSymbolTable
 70
     0
  0
ENDTAB
  0
TABLE
  2
UCS
  5
7
330
0
100
AcDbSymbolTable
 70
     0
  0
ENDTAB
  0
TABLE
  2
APPID
  5
9
330
0
100
AcDbSymbolTable
 70
     2
  0
APPID
  5
12
330
9
100
AcDbSymbolTableRecord
100
AcDbRegAppTableRecord
  2
ACAD
 70
     0
  0
ENDTAB
  0
TABLE
  2
DIMSTYLE
  5
A
330
0
100
AcDbSymbolTable
 70
     1
  0
DIMSTYLE
105
27
330
A
100
AcDbSymbolTableRecord
100
AcDbDimStyleTableRecord
  2
ISO-25
 70
     0
  3

  4

  5

  6

  7

 40
1.0
 41
2.5
 42
0.625
 43
3.75
 44
1.25
 45
0.0
 46
0.0
 47
0.0
 48
0.0
140
2.5
141
2.5
142
0.0
143
0.03937007874016
144
1.0
145
0.0
146
1.0
147
0.625
 71
     0
 72
     0
 73
     0
 74
     0
 75
     0
 76
     0
 77
     1
 78
     8
170
     0
171
     3
172
     1
173
     0
174
     0
175
     0
176
     0
177
     0
178
     0
270
     2
271
     2
272
     2
273
     2
274
     3
340
11
275
     0
280
     0
281
     0
282
     0
283
     0
284
     8
285
     0
286
     0
287
     3
288
     0
  0
ENDTAB
  0
TABLE
  2
BLOCK_RECORD
  5
1
330
0
100
AcDbSymbolTable
 70
     1
  0
BLOCK_RECORD
  5
1F
330
1
100
AcDbSymbolTableRecord
100
AcDbBlockTableRecord
  2
*MODEL_SPACE
  0
BLOCK_RECORD
  5
1B
330
1
100
AcDbSymbolTableRecord
100
AcDbBlockTableRecord
  2
*PAPER_SPACE
  0
ENDTAB
  0
ENDSEC
  0
SECTION
  2
BLOCKS
  0
BLOCK
  5
20
330
1F
100
AcDbEntity
  8
0
100
AcDbBlockBegin
  2
*MODEL_SPACE
 70
     0
 10
0.0
 20
0.0
 30
0.0
  3
*MODEL_SPACE
  1

  0
ENDBLK
  5
21
330
1F
100
AcDbEntity
  8
0
100
AcDbBlockEnd
  0
BLOCK
  5
1C
330
1B
100
AcDbEntity
 67
     1
  8
0
100
AcDbBlockBegin
  2
*PAPER_SPACE
  1

  0
ENDBLK
  5
1D
330
1B
100
AcDbEntity
 67
     1
  8
0
100
AcDbBlockEnd
  0
ENDSEC
  0
SECTION
  2
ENTITIES
  0
SPLINE
  5
100
100
AcDbEntity
  8
0
 62
7
100
AcDbSpline
 70
8
 71
3
 72
8
 73
4
 74
0
 40
0
 40
0
 40
0
 40
0
 40
1
 40
1
 40
1
 40
1
 10
12.867821
 20
29.469870
 30
0.0
 10
13.367015
 20
28.603063
 30
0.0
 10
13.894782
 20
27.753028
 30
0.0
 10
14.450254
 20
26.921163
 30
0.0
  0
SPLINE
  5
101
100
AcDbEntity
  8
0
 62
7
100
AcDbSpline
 70
8
 71
3
 72
8
 73
4
 74
0
 40
0
 40
0
 40
0
 40
0
 40
1
 40
1
 40
1
 40
1
 10
14.699745
 20
27.087759
 30
0.0
 10
14.147952
 20
27.914115
 30
0.0
 10
13.623680
 20
28.758520
 30
0.0
 10
13.127792
 20
29.619587
 30
0.0
  0
LWPOLYLINE
  5
102
100
AcDbEntity
  8
0
 62
7
100
AcDbPolyline
 90
2
 70
0
 10
14.450254
 20
26.921163
 30
0.0
 10
14.699745
 20
27.087759
 30
0.0
  0
LWPOLYLINE
  5
103
100
AcDbEntity
  8
0
 62
7
100
AcDbPolyline
 90
3
 70
0
 10
13.127792
 20
29.619587
 30
0.0
 10
12.867821
 20
29.469870
 30
0.0
 10
12.867821
 20
29.469870
 30
0.0
  0
SPLINE
  5
104
100
AcDbEntity
  8
0
 62
7
100
AcDbSpline
 70
8
 71
3
 72
8
 73
4
 74
0
 40
0
 40
0
 40
0
 40
0
 40
1
 40
1
 40
1
 40
1
 10
45.368065
 20
7.587086
 30
0.0
 10
46.350455
 20
7.437921
 30
0.0
 10
47.337516
 20
7.321335
 30
0.0
 10
48.327625
 20
7.237519
 30
0.0
  0
LWPOLYLINE
  5
105
100
AcDbEntity
  8
0
 62
7
100
AcDbPolyline
 90
2
 70
0
 10
45.323030
 20
7.290486
 30
0.0
 10
45.368065
 20
7.587086
 30
0.0
  0
SPLINE
  5
106
100
AcDbEntity
  8
0
 62
7
100
AcDbSpline
 70
8
 71
3
 72
8
 73
4
 74
0
 40
0
 40
0
 40
0
 40
0
 40
1
 40
1
 40
1
 40
1
 10
48.302320
 20
6.938589
 30
0.0
 10
47.305610
 20
7.022963
 30
0.0
 10
46.311969
 20
7.140326
 30
0.0
 10
45.323030
 20
7.290486
 30
0.0
  0
LWPOLYLINE
  5
107
100
AcDbEntity
  8
0
 62
7
100
AcDbPolyline
 90
2
 70
0
 10
48.327625
 20
7.237519
 30
0.0
 10
48.302320
 20
6.938589
 30
0.0
  0
SPLINE
  5
108
100
AcDbEntity
  8
0
 62
7
100
AcDbSpline
 70
8
 71
3
 72
8
 73
4
 74
0
 40
0
 40
0
 40
0
 40
0
 40
1
 40
1
 40
1
 40
1
 10
18.882633
 20
21.301491
 30
0.0
 10
19.562193
 20
20.567498
 30
0.0
 10
20.265879
 20
19.856214
 30
0.0
 10
20.992531
 20
19.168810
 30
0.0
  0
LWPOLYLINE
  5
109
100
AcDbEntity
  8
0
 62
7
100
AcDbPolyline
 90
1
 70
1
 10
45.323030
 20
7.290486
 30
0.0
  0
SPLINE
  5
10a
100
AcDbEntity
  8
0
 62
7
100
AcDbSpline
 70
8
 71
3
 72
8
 73
4
 74
0
 40
0
 40
0
 40
0
 40
0
 40
1
 40
1
 40
1
 40
1
 10
21.198696
 20
19.386746
 30
0.0
 10
20.476856
 20
20.069598
 30
0.0
 10
19.777831
 20
20.776171
 30
0.0
 10
19.102770
 20
21.505304
 30
0.0
  0
LWPOLYLINE
  5
10b
100
AcDbEntity
  8
0
 62
7
100
AcDbPolyline
 90
2
 70
0
 10
20.992531
 20
19.168810
 30
0.0
 10
21.198696
 20
19.386746
 30
0.0
  0
SPLINE
  5
10c
100
AcDbEntity
  8
0
 62
7
100
AcDbSpline
 70
8
 71
3
 72
8
 73
4
 74
0
 40
0
 40
0
 40
0
 40
0
 40
1
 40
1
 40
1
 40
1
 10
8.821449
 20
38.771871
 30
0.0
 10
9.115244
 20
37.815716
 30
0.0
 10
9.440628
 20
36.869554
 30
0.0
 10
9.797066
 20
35.934941
 30
0.0
  0
LWPOLYLINE
  5
10d
100
AcDbEntity
  8
0
 62
7
100
AcDbPolyline
 90
3
 70
0
 10
19.102770
 20
21.505304
 30
0.0
 10
18.882633
 20
21.301491
 30
0.0
 10
18.882633
 20
21.301491
 30
0.0
  0
SPLINE
  5
10e
100
AcDbEntity
  8
0
 62
7
100
AcDbSpline
 70
8
 71
3
 72
8
 73
4
 74
0
 40
0
 40
0
 40
0
 40
0
 40
1
 40
1
 40
1
 40
1
 10
10.077373
 20
36.041843
 30
0.0
 10
9.723295
 20
36.970266
 30
0.0
 10
9.400066
 20
37.910162
 30
0.0
 10
9.108217
 20
38.859985
 30
0.0
  0
LWPOLYLINE
  5
10f
100
AcDbEntity
  8
0
 62
7
100
AcDbPolyline
 90
2
 70
0
 10
9.797066
 20
35.934941
 30
0.0
 10
10.077373
 20
36.041843
 30
0.0
  0
SPLINE
  5
110
100
AcDbEntity
  8
0
 62
7
100
AcDbSpline
 70
8
 71
3
 72
8
 73
4
 74
0
 40
0
 40
0
 40
0
 40
0
 40
1
 40
1
 40
1
 40
1
 10
35.527560
 20
9.926607
 30
0.0
 10
36.458291
 20
9.560153
 30
0.0
 10
37.400904
 20
9.224626
 30
0.0
 10
38.353849
 20
8.920579
 30
0.0
  0
LWPOLYLINE
  5
111
100
AcDbEntity
  8
0
 62
7
100
AcDbPolyline
 90
3
 70
0
 10
9.108217
 20
38.859985
 30
0.0
 10
8.821449
 20
38.771871
 30
0.0
 10
8.821449
 20
38.771871
 30
0.0
  0
SPLINE
  5
112
100
AcDbEntity
  8
0
 62
7
100
AcDbSpline
 70
8
 71
3
 72
8
 73
4
 74
0
 40
0
 40
0
 40
0
 40
0
 40
1
 40
1
 40
1
 40
1
 10
38.445038
 20
9.206384
 30
0.0
 10
37.498404
 20
9.508417
 30
0.0
 10
36.562033
 20
9.841722
 30
0.0
 10
35.637466
 20
10.205750
 30
0.0
  0
LWPOLYLINE
  5
113
100
AcDbEntity
  8
0
 62
7
100
AcDbPolyline
 90
2
 70
0
 10
38.353849
 20
8.920579
 30
0.0
 10
38.445038
 20
9.206384
 30
0.0
  0
SPLINE
  5
114
100
AcDbEntity
  8
0
 62
7
100
AcDbSpline
 70
8
 71
3
 72
8
 73
4
 74
0
 40
0
 40
0
 40
0
 40
0
 40
1
 40
1
 40
1
 40
1
 10
26.564276
 20
14.676333
 30
0.0
 10
27.390127
 20
14.111959
 30
0.0
 10
28.234445
 20
13.575093
 30
0.0
 10
29.095841
 20
13.066619
 30
0.0
  0
LWPOLYLINE
  5
115
100
AcDbEntity
  8
0
 62
7
100
AcDbPolyline
 90
3
 70
0
 10
35.637466
 20
10.205750
 30
0.0
 10
35.527560
 20
9.926607
 30
0.0
 10
35.527560
 20
9.926607
 30
0.0
  0
SPLINE
  5
116
100
AcDbEntity
  8
0
 62
7
100
AcDbSpline
 70
8
 71
3
 72
8
 73
4
 74
0
 40
0
 40
0
 40
0
 40
0
 40
1
 40
1
 40
1
 40
1
 10
29.248341
 20
13.324967
 30
0.0
 10
28.392650
 20
13.830074
 30
0.0
 10
27.553924
 20
14.363384
 30
0.0
 10
26.733541
 20
14.924020
 30
0.0
  0
LWPOLYLINE
  5
117
100
AcDbEntity
  8
0
 62
7
100
AcDbPolyline
 90
2
 70
0
 10
29.095841
 20
13.066619
 30
0.0
 10
29.248341
 20
13.324967
 30
0.0
  0
SPLINE
  5
118
100
AcDbEntity
  8
0
 62
7
100
AcDbSpline
 70
8
 71
3
 72
8
 73
4
 74
0
 40
0
 40
0
 40
0
 40
0
 40
1
 40
1
 40
1
 40
1
 10
6.946417
 20
48.741054
 30
0.0
 10
7.020082
 20
47.743496
 30
0.0
 10
7.126767
 20
46.748652
 30
0.0
 10
7.266297
 20
45.758157
 30
0.0
  0
LWPOLYLINE
  5
119
100
AcDbEntity
  8
0
 62
7
100
AcDbPolyline
 90
3
 70
0
 10
26.733541
 20
14.924020
 30
0.0
 10
26.564276
 20
14.676333
 30
0.0
 10
26.564276
 20
14.676333
 30
0.0
  0
SPLINE
  5
11a
100
AcDbEntity
  8
0
 62
7
100
AcDbSpline
 70
8
 71
3
 72
8
 73
4
 74
0
 40
0
 40
0
 40
0
 40
0
 40
1
 40
1
 40
1
 40
1
 10
7.563364
 20
45.800005
 30
0.0
 10
7.424758
 20
46.783940
 30
0.0
 10
7.318779
 20
47.772196
 30
0.0
 10
7.245602
 20
48.763148
 30
0.0
  0
LWPOLYLINE
  5
11b
100
AcDbEntity
  8
0
 62
7
100
AcDbPolyline
 90
2
 70
0
 10
7.266297
 20
45.758157
 30
0.0
 10
7.563364
 20
45.800005
 30
0.0
  0
LWPOLYLINE
  5
11c
100
AcDbEntity
  8
0
 62
7
100
AcDbPolyline
 90
3
 70
0
 10
7.245602
 20
48.763148
 30
0.0
 10
6.946417
 20
48.741054
 30
0.0
 10
6.946417
 20
48.741054
 30
0.0
  0
SPLINE
  5
11d
100
AcDbEntity
  8
0
 62
7
100
AcDbSpline
 70
8
 71
3
 72
8
 73
4
 74
0
 40
0
 40
0
 40
0
 40
0
 40
1
 40
1
 40
1
 40
1
 10
25.127309
 20
29.332901
 30
0.0
 10
24.482705
 20
30.098009
 30
0.0
 10
23.870919
 20
30.890174
 30
0.0
 10
23.293607
 20
31.707251
 30
0.0
  0
LWPOLYLINE
  5
11e
100
AcDbEntity
  8
0
 62
7
100
AcDbPolyline
 90
2
 70
0
 10
25.356737
 20
29.526195
 30
0.0
 10
25.127309
 20
29.332901
 30
0.0
  0
SPLINE
  5
11f
100
AcDbEntity
  8
0
 62
7
100
AcDbSpline
 70
8
 71
3
 72
8
 73
4
 74
0
 40
0
 40
0
 40
0
 40
0
 40
1
 40
1
 40
1
 40
1
 10
23.538619
 20
31.880366
 30
0.0
 10
24.111025
 20
31.070233
 30
0.0
 10
24.717612
 20
30.284800
 30
0.0
 10
25.356737
 20
29.526195
 30
0.0
  0
LWPOLYLINE
  5
120
100
AcDbEntity
  8
0
 62
7
100
AcDbPolyline
 90
2
 70
0
 10
23.293607
 20
31.707251
 30
0.0
 10
23.538619
 20
31.880366
 30
0.0
  0
SPLINE
  5
121
100
AcDbEntity
  8
0
 62
7
100
AcDbSpline
 70
8
 71
3
 72
8
 73
4
 74
0
 40
0
 40
0
 40
0
 40
0
 40
1
 40
1
 40
1
 40
1
 10
46.141350
 20
17.287707
 30
0.0
 10
47.127332
 20
17.118167
 30
0.0
 10
48.120076
 20
16.990620
 30
0.0
 10
49.116892
 20
16.905411
 30
0.0
  0
LWPOLYLINE
  5
122
100
AcDbEntity
  8
0
 62
7
100
AcDbPolyline
 90
1
 70
1
 10
25.356737
 20
29.526195
 30
0.0
  0
SPLINE
  5
123
100
AcDbEntity
  8
0
 62
7
100
AcDbSpline
 70
8
 71
3
 72
8
 73
4
 74
0
 40
0
 40
0
 40
0
 40
0
 40
1
 40
1
 40
1
 40
1
 10
49.142443
 20
17.204321
 30
0.0
 10
48.154098
 20
17.288806
 30
0.0
 10
47.169792
 20
17.415269
 30
0.0
 10
46.192189
 20
17.583368
 30
0.0
  0
LWPOLYLINE
  5
124
100
AcDbEntity
  8
0
 62
7
100
AcDbPolyline
 90
2
 70
0
 10
49.116892
 20
16.905411
 30
0.0
 10
49.142443
 20
17.204321
 30
0.0
  0
SPLINE
  5
125
100
AcDbEntity
  8
0
 62
7
100
AcDbSpline
 70
8
 71
3
 72
8
 73
4
 74
0
 40
0
 40
0
 40
0
 40
0
 40
1
 40
1
 40
1
 40
1
 10
19.285312
 20
39.966843
 30
0.0
 10
19.628535
 20
39.036165
 30
0.0
 10
20.011168
 20
38.120498
 30
0.0
 10
20.432174
 20
37.222324
 30
0.0
  0
LWPOLYLINE
  5
126
100
AcDbEntity
  8
0
 62
7
100
AcDbPolyline
 90
3
 70
0
 10
46.192189
 20
17.583368
 30
0.0
 10
46.141350
 20
17.287707
 30
0.0
 10
46.141350
 20
17.287707
 30
0.0
  0
SPLINE
  5
127
100
AcDbEntity
  8
0
 62
7
100
AcDbSpline
 70
8
 71
3
 72
8
 73
4
 74
0
 40
0
 40
0
 40
0
 40
0
 40
1
 40
1
 40
1
 40
1
 10
20.160535
 20
37.094997
 30
0.0
 10
19.735920
 20
38.000870
 30
0.0
 10
19.350007
 20
38.924385
 30
0.0
 10
19.003842
 20
39.863040
 30
0.0
  0
LWPOLYLINE
  5
128
100
AcDbEntity
  8
0
 62
7
100
AcDbPolyline
 90
2
 70
0
 10
20.432174
 20
37.222324
 30
0.0
 10
20.160535
 20
37.094997
 30
0.0
  0
LWPOLYLINE
  5
129
100
AcDbEntity
  8
0
 62
7
100
AcDbPolyline
 90
3
 70
0
 10
19.003842
 20
39.863040
 30
0.0
 10
19.285312
 20
39.966843
 30
0.0
 10
19.285312
 20
39.966843
 30
0.0
  0
SPLINE
  5
12a
100
AcDbEntity
  8
0
 62
7
100
AcDbSpline
 70
8
 71
3
 72
8
 73
4
 74
0
 40
0
 40
0
 40
0
 40
0
 40
1
 40
1
 40
1
 40
1
 10
31.933822
 20
23.120788
 30
0.0
 10
31.113158
 20
23.692989
 30
0.0
 10
30.317190
 20
24.299820
 30
0.0
 10
29.548075
 20
24.939637
 30
0.0
  0
LWPOLYLINE
  5
12b
100
AcDbEntity
  8
0
 62
7
100
AcDbPolyline
 90
2
 70
0
 10
32.105405
 20
23.366876
 30
0.0
 10
31.933822
 20
23.120788
 30
0.0
  0
SPLINE
  5
12c
100
AcDbEntity
  8
0
 62
7
100
AcDbSpline
 70
8
 71
3
 72
8
 73
4
 74
0
 40
0
 40
0
 40
0
 40
0
 40
1
 40
1
 40
1
 40
1
 10
29.739934
 20
25.170267
 30
0.0
 10
30.502512
 20
24.535888
 30
0.0
 10
31.291715
 20
23.934214
 30
0.0
 10
32.105405
 20
23.366876
 30
0.0
  0
LWPOLYLINE
  5
12d
100
AcDbEntity
  8
0
 62
7
100
AcDbPolyline
 90
2
 70
0
 10
29.548075
 20
24.939637
 30
0.0
 10
29.739934
 20
25.170267
 30
0.0
  0
LWPOLYLINE
  5
12e
100
AcDbEntity
  8
0
 62
7
100
AcDbPolyline
 90
1
 70
1
 10
32.105405
 20
23.366876
 30
0.0
  0
SPLINE
  5
12f
100
AcDbEntity
  8
0
 62
7
100
AcDbSpline
 70
8
 71
3
 72
8
 73
4
 74
0
 40
0
 40
0
 40
0
 40
0
 40
1
 40
1
 40
1
 40
1
 10
40.116222
 20
18.882003
 30
0.0
 10
39.175425
 20
19.222303
 30
0.0
 10
38.249520
 20
19.602445
 30
0.0
 10
37.341015
 20
20.021399
 30
0.0
  0
LWPOLYLINE
  5
130
100
AcDbEntity
  8
0
 62
7
100
AcDbPolyline
 90
2
 70
0
 10
40.218266
 20
19.164114
 30
0.0
 10
40.116222
 20
18.882003
 30
0.0
  0
SPLINE
  5
131
100
AcDbEntity
  8
0
 62
7
100
AcDbSpline
 70
8
 71
3
 72
8
 73
4
 74
0
 40
0
 40
0
 40
0
 40
0
 40
1
 40
1
 40
1
 40
1
 10
37.466644
 20
20.293828
 30
0.0
 10
38.367428
 20
19.878434
 30
0.0
 10
39.285465
 20
19.501523
 30
0.0
 10
40.218266
 20
19.164114
 30
0.0
  0
LWPOLYLINE
  5
132
100
AcDbEntity
  8
0
 62
7
100
AcDbPolyline
 90
2
 70
0
 10
37.341015
 20
20.021399
 30
0.0
 10
37.466644
 20
20.293828
 30
0.0
  0
SPLINE
  5
133
100
AcDbEntity
  8
0
 62
7
100
AcDbSpline
 70
8
 71
3
 72
8
 73
4
 74
0
 40
0
 40
0
 40
0
 40
0
 40
1
 40
1
 40
1
 40
1
 10
17.269866
 20
48.878616
 30
0.0
 10
17.360516
 20
47.890817
 30
0.0
 10
17.493120
 20
46.907319
 30
0.0
 10
17.667316
 20
45.930785
 30
0.0
  0
LWPOLYLINE
  5
134
100
AcDbEntity
  8
0
 62
7
100
AcDbPolyline
 90
1
 70
1
 10
40.218266
 20
19.164114
 30
0.0
  0
SPLINE
  5
135
100
AcDbEntity
  8
0
 62
7
100
AcDbSpline
 70
8
 71
3
 72
8
 73
4
 74
0
 40
0
 40
0
 40
0
 40
0
 40
1
 40
1
 40
1
 40
1
 10
17.371978
 20
45.878102
 30
0.0
 10
17.196289
 20
46.863006
 30
0.0
 10
17.062549
 20
47.854935
 30
0.0
 10
16.971121
 20
48.851200
 30
0.0
  0
LWPOLYLINE
  5
136
100
AcDbEntity
  8
0
 62
7
100
AcDbPolyline
 90
2
 70
0
 10
17.667316
 20
45.930785
 30
0.0
 10
17.371978
 20
45.878102
 30
0.0
  0
LWPOLYLINE
  5
137
100
AcDbEntity
  8
0
 62
7
100
AcDbPolyline
 90
3
 70
0
 10
16.971121
 20
48.851200
 30
0.0
 10
17.269866
 20
48.878616
 30
0.0
 10
17.269866
 20
48.878616
 30
0.0
  0
SPLINE
  5
138
100
AcDbEntity
  8
0
 62
7
100
AcDbSpline
 70
8
 71
3
 72
8
 73
4
 74
0
 40
0
 40
0
 40
0
 40
0
 40
1
 40
1
 40
1
 40
1
 10
39.312481
 20
30.260405
 30
0.0
 10
38.449400
 20
30.767212
 30
0.0
 10
37.617154
 20
31.324787
 30
0.0
 10
36.820131
 20
31.930192
 30
0.0
  0
LWPOLYLINE
  5
139
100
AcDbEntity
  8
0
 62
7
100
AcDbPolyline
 90
2
 70
0
 10
39.464389
 20
30.519102
 30
0.0
 10
39.312481
 20
30.260405
 30
0.0
  0
SPLINE
  5
13a
100
AcDbEntity
  8
0
 62
7
100
AcDbSpline
 70
8
 71
3
 72
8
 73
4
 74
0
 40
0
 40
0
 40
0
 40
0
 40
1
 40
1
 40
1
 40
1
 10
37.001592
 20
32.169089
 30
0.0
 10
37.789165
 20
31.570863
 30
0.0
 10
38.611542
 20
31.019899
 30
0.0
 10
39.464389
 20
30.519102
 30
0.0
  0
LWPOLYLINE
  5
13b
100
AcDbEntity
  8
0
 62
7
100
AcDbPolyline
 90
2
 70
0
 10
36.820131
 20
31.930192
 30
0.0
 10
37.001592
 20
32.169089
 30
0.0
  0
LWPOLYLINE
  5
13c
100
AcDbEntity
  8
0
 62
7
100
AcDbPolyline
 90
1
 70
1
 10
39.464389
 20
30.519102
 30
0.0
  0
SPLINE
  5
13d
100
AcDbEntity
  8
0
 62
7
100
AcDbSpline
 70
8
 71
3
 72
8
 73
4
 74
0
 40
0
 40
0
 40
0
 40
0
 40
1
 40
1
 40
1
 40
1
 10
31.938750
 20
36.823635
 30
0.0
 10
31.335313
 20
37.622150
 30
0.0
 10
30.779793
 20
38.455770
 30
0.0
 10
30.275118
 20
39.320099
 30
0.0
  0
LWPOLYLINE
  5
13e
100
AcDbEntity
  8
0
 62
7
100
AcDbPolyline
 90
2
 70
0
 10
32.178094
 20
37.004507
 30
0.0
 10
31.938750
 20
36.823635
 30
0.0
  0
SPLINE
  5
13f
100
AcDbEntity
  8
0
 62
7
100
AcDbSpline
 70
8
 71
3
 72
8
 73
4
 74
0
 40
0
 40
0
 40
0
 40
0
 40
1
 40
1
 40
1
 40
1
 10
30.534189
 20
39.471368
 30
0.0
 10
31.032880
 20
38.617288
 30
0.0
 10
31.581813
 20
37.793553
 30
0.0
 10
32.178094
 20
37.004507
 30
0.0
  0
LWPOLYLINE
  5
140
100
AcDbEntity
  8
0
 62
7
100
AcDbPolyline
 90
2
 70
0
 10
30.275118
 20
39.320099
 30
0.0
 10
30.534189
 20
39.471368
 30
0.0
  0
SPLINE
  5
141
100
AcDbEntity
  8
0
 62
7
100
AcDbSpline
 70
8
 71
3
 72
8
 73
4
 74
0
 40
0
 40
0
 40
0
 40
0
 40
1
 40
1
 40
1
 40
1
 10
45.694928
 20
27.607477
 30
0.0
 10
46.662960
 20
27.353163
 30
0.0
 10
47.645231
 20
27.156517
 30
0.0
 10
48.636560
 20
27.018576
 30
0.0
  0
LWPOLYLINE
  5
142
100
AcDbEntity
  8
0
 62
7
100
AcDbPolyline
 90
1
 70
1
 10
32.178094
 20
37.004507
 30
0.0
  0
SPLINE
  5
143
100
AcDbEntity
  8
0
 62
7
100
AcDbSpline
 70
8
 71
3
 72
8
 73
4
 74
0
 40
0
 40
0
 40
0
 40
0
 40
1
 40
1
 40
1
 40
1
 10
48.677906
 20
27.315713
 30
0.0
 10
47.698331
 20
27.452019
 30
0.0
 10
46.727709
 20
27.646333
 30
0.0
 10
45.771155
 20
27.897631
 30
0.0
  0
LWPOLYLINE
  5
144
100
AcDbEntity
  8
0
 62
7
100
AcDbPolyline
 90
2
 70
0
 10
48.636560
 20
27.018576
 30
0.0
 10
48.677906
 20
27.315713
 30
0.0
  0
LWPOLYLINE
  5
145
100
AcDbEntity
  8
0
 62
7
100
AcDbPolyline
 90
3
 70
0
 10
45.771155
 20
27.897631
 30
0.0
 10
45.694928
 20
27.607477
 30
0.0
 10
45.694928
 20
27.607477
 30
0.0
  0
SPLINE
  5
146
100
AcDbEntity
  8
0
 62
7
100
AcDbSpline
 70
8
 71
3
 72
8
 73
4
 74
0
 40
0
 40
0
 40
0
 40
0
 40
1
 40
1
 40
1
 40
1
 10
27.637950
 20
45.709074
 30
0.0
 10
27.386026
 20
46.677730
 30
0.0
 10
27.191804
 20
47.660483
 30
0.0
 10
27.056310
 20
48.652149
 30
0.0
  0
LWPOLYLINE
  5
147
100
AcDbEntity
  8
0
 62
7
100
AcDbPolyline
 90
2
 70
0
 10
27.928291
 20
45.784584
 30
0.0
 10
27.637950
 20
45.709074
 30
0.0
  0
SPLINE
  5
148
100
AcDbEntity
  8
0
 62
7
100
AcDbSpline
 70
8
 71
3
 72
8
 73
4
 74
0
 40
0
 40
0
 40
0
 40
0
 40
1
 40
1
 40
1
 40
1
 10
27.353548
 20
48.692762
 30
0.0
 10
27.487436
 20
47.712854
 30
0.0
 10
27.679354
 20
46.741755
 30
0.0
 10
27.928291
 20
45.784584
 30
0.0
  0
LWPOLYLINE
  5
149
100
AcDbEntity
  8
0
 62
7
100
AcDbPolyline
 90
2
 70
0
 10
27.056310
 20
48.652149
 30
0.0
 10
27.353548
 20
48.692762
 30
0.0
  0
SPLINE
  5
14a
100
AcDbEntity
  8
0
 62
7
100
AcDbSpline
 70
8
 71
3
 72
8
 73
4
 74
0
 40
0
 40
0
 40
0
 40
0
 40
1
 40
1
 40
1
 40
1
 10
46.597049
 20
37.810073
 30
0.0
 10
47.531789
 20
37.448000
 30
0.0
 10
48.499850
 20
37.178667
 30
0.0
 10
49.487273
 20
37.005954
 30
0.0
  0
LWPOLYLINE
  5
14b
100
AcDbEntity
  8
0
 62
7
100
AcDbPolyline
 90
1
 70
1
 10
27.928291
 20
45.784584
 30
0.0
  0
SPLINE
  5
14c
100
AcDbEntity
  8
0
 62
7
100
AcDbSpline
 70
8
 71
3
 72
8
 73
4
 74
0
 40
0
 40
0
 40
0
 40
0
 40
1
 40
1
 40
1
 40
1
 10
49.538962
 20
37.301468
 30
0.0
 10
48.570900
 20
37.470794
 30
0.0
 10
47.621821
 20
37.734846
 30
0.0
 10
46.705409
 20
38.089819
 30
0.0
  0
LWPOLYLINE
  5
14d
100
AcDbEntity
  8
0
 62
7
100
AcDbPolyline
 90
2
 70
0
 10
49.487273
 20
37.005954
 30
0.0
 10
49.538962
 20
37.301468
 30
0.0
  0
LWPOLYLINE
  5
14e
100
AcDbEntity
  8
0
 62
7
100
AcDbPolyline
 90
3
 70
0
 10
46.705409
 20
38.089819
 30
0.0
 10
46.597049
 20
37.810073
 30
0.0
 10
46.597049
 20
37.810073
 30
0.0
  0
SPLINE
  5
14f
100
AcDbEntity
  8
0
 62
7
100
AcDbSpline
 70
8
 71
3
 72
8
 73
4
 74
0
 40
0
 40
0
 40
0
 40
0
 40
1
 40
1
 40
1
 40
1
 10
42.304853
 20
40.343178
 30
0.0
 10
41.536075
 20
40.986463
 30
0.0
 10
40.832377
 20
41.703744
 30
0.0
 10
40.203905
 20
42.484677
 30
0.0
  0
LWPOLYLINE
  5
150
100
AcDbEntity
  8
0
 62
7
100
AcDbPolyline
 90
2
 70
0
 10
42.497374
 20
40.573256
 30
0.0
 10
42.304853
 20
40.343178
 30
0.0
  0
SPLINE
  5
151
100
AcDbEntity
  8
0
 62
7
100
AcDbSpline
 70
8
 71
3
 72
8
 73
4
 74
0
 40
0
 40
0
 40
0
 40
0
 40
1
 40
1
 40
1
 40
1
 10
40.437621
 20
42.672765
 30
0.0
 10
41.053770
 20
41.907144
 30
0.0
 10
41.743670
 20
41.203928
 30
0.0
 10
42.497374
 20
40.573256
 30
0.0
  0
LWPOLYLINE
  5
152
100
AcDbEntity
  8
0
 62
7
100
AcDbPolyline
 90
2
 70
0
 10
40.203905
 20
42.484677
 30
0.0
 10
40.437621
 20
42.672765
 30
0.0
  0
LWPOLYLINE
  5
153
100
AcDbEntity
  8
0
 62
7
100
AcDbPolyline
 90
1
 70
1
 10
42.497374
 20
40.573256
 30
0.0
  0
SPLINE
  5
154
100
AcDbEntity
  8
0
 62
7
100
AcDbSpline
 70
8
 71
3
 72
8
 73
4
 74
0
 40
0
 40
0
 40
0
 40
0
 40
1
 40
1
 40
1
 40
1
 10
37.753306
 20
46.824509
 30
0.0
 10
37.409168
 20
47.765999
 30
0.0
 10
37.158388
 20
48.739031
 30
0.0
 10
37.004581
 20
49.729576
 30
0.0
  0
LWPOLYLINE
  5
155
100
AcDbEntity
  8
0
 62
7
100
AcDbPolyline
 90
2
 70
0
 10
38.035073
 20
46.927502
 30
0.0
 10
37.753306
 20
46.824509
 30
0.0
  0
SPLINE
  5
156
100
AcDbEntity
  8
0
 62
7
100
AcDbSpline
 70
8
 71
3
 72
8
 73
4
 74
0
 40
0
 40
0
 40
0
 40
0
 40
1
 40
1
 40
1
 40
1
 10
37.301029
 20
49.775606
 30
0.0
 10
37.451819
 20
48.804484
 30
0.0
 10
37.697682
 20
47.850532
 30
0.0
 10
38.035073
 20
46.927502
 30
0.0
  0
LWPOLYLINE
  5
157
100
AcDbEntity
  8
0
 62
7
100
AcDbPolyline
 90
2
 70
0
 10
37.004581
 20
49.729576
 30
0.0
 10
37.301029
 20
49.775606
 30
0.0
  0
SPLINE
  5
158
100
AcDbEntity
  8
0
 62
7
100
AcDbSpline
 70
8
 71
3
 72
8
 73
4
 74
0
 40
0
 40
0
 40
0
 40
0
 40
1
 40
1
 40
1
 40
1
 10
47.539849
 20
50.079399
 30
0.0
 10
47.924649
 20
49.196528
 30
0.0
 10
48.556237
 20
48.443576
 30
0.0
 10
49.358698
 20
47.911046
 30
0.0
  0
LWPOLYLINE
  5
159
100
AcDbEntity
  8
0
 62
7
100
AcDbPolyline
 90
1
 70
1
 10
38.035073
 20
46.927502
 30
0.0
  0
SPLINE
  5
15a
100
AcDbEntity
  8
0
 62
7
100
AcDbSpline
 70
8
 71
3
 72
8
 73
4
 74
0
 40
0
 40
0
 40
0
 40
0
 40
1
 40
1
 40
1
 40
1
 10
49.192816
 20
47.661080
 30
0.0
 10
48.342207
 20
48.225562
 30
0.0
 10
47.672723
 20
49.023691
 30
0.0
 10
47.264836
 20
49.959534
 30
0.0
  0
LWPOLYLINE
  5
15b
100
AcDbEntity
  8
0
 62
7
100
AcDbPolyline
 90
2
 70
0
 10
49.358698
 20
47.911046
 30
0.0
 10
49.192816
 20
47.661080
 30
0.0
  0
LWPOLYLINE
  5
15c
100
AcDbEntity
  8
0
 62
7
100
AcDbPolyline
 90
3
 70
0
 10
47.264836
 20
49.959534
 30
0.0
 10
47.539849
 20
50.079399
 30
0.0
 10
47.539849
 20
50.079399
 30
0.0
  0
LWPOLYLINE
  5
15d
100
AcDbEntity
  8
0
 62
7
100
AcDbPolyline
 90
22
 70
0
 10
52.123408
 20
52.077145
 30
0.0
 10
47.123408
 20
52.077145
 30
0.0
 10
47.123408
 20
53.077145
 30
0.0
 10
42.123408
 20
53.077145
 30
0.0
 10
42.123408
 20
51.077145
 30
0.0
 10
37.123408
 20
51.077145
 30
0.0
 10
37.123408
 20
53.077145
 30
0.0
 10
32.123408
 20
53.077145
 30
0.0
 10
32.123408
 20
51.077145
 30
0.0
 10
27.123408
 20
51.077145
 30
0.0
 10
27.123408
 20
53.077145
 30
0.0
 10
22.123408
 20
53.077145
 30
0.0
 10
22.123408
 20
51.077145
 30
0.0
 10
17.123408
 20
51.077145
 30
0.0
 10
17.123408
 20
53.077145
 30
0.0
 10
12.123408
 20
53.077145
 30
0.0
 10
12.123408
 20
51.077145
 30
0.0
 10
7.123408
 20
51.077145
 30
0.0
 10
7.123408
 20
53.077145
 30
0.0
 10
2.123408
 20
53.077145
 30
0.0
 10
2.123408
 20
52.077145
 30
0.0
 10
-2.876592
 20
52.077145
 30
0.0
  0
LWPOLYLINE
  5
15e
100
AcDbEntity
  8
0
 62
7
100
AcDbPolyline
 90
2
 70
0
 10
52.123408
 20
47.077144
 30
0.0
 10
52.123408
 20
52.077145
 30
0.0
  0
ENDSEC
  0
SECTION
  2
OBJECTS
  0
DICTIONARY
  5
C
330
0
100
AcDbDictionary
  3
ACAD_GROUP
350
D
  3
ACAD_MLINESTYLE
350
17
  0
DICTIONARY
  5
D
330
C
100
AcDbDictionary
  0
DICTIONARY
  5
1A
330
C
100
AcDbDictionary
  0
DICTIONARY
  5
17
330
C
100
AcDbDictionary
  3
STANDARD
350
18
  0
DICTIONARY
  5
19
330
C
100
AcDbDictionary
  0
ENDSEC
  0
EOF
