  0
SECTION
  2
HEADER
  9
$ACADVER
  1
AC1027
  9
$ACADMAINTVER
 70
     8
  9
$DWGCODEPAGE
  3
ANSI_1252
  9
$REQUIREDVERSIONS
160
                 0
  9
$LASTSAVEDBY
  1
richard
  9
$INSBASE
 10
0.0
 20
0.0
 30
0.0
  9
$EXTMIN
 10
80.2194191220099
 20
-4.000000000000114
 30
0.0
  9
$EXTMAX
 10
797.7869401775913
 20
541.9056164327311
 30
0.0
  9
$LIMMIN
 10
0.0
 20
0.0
  9
$LIMMAX
 10
12.0
 20
9.0
  9
$ORTHOMODE
 70
     0
  9
$REGENMODE
 70
     1
  9
$FILLMODE
 70
     1
  9
$QTEXTMODE
 70
     0
  9
$MIRRTEXT
 70
     0
  9
$LTSCALE
 40
1.0
  9
$ATTMODE
 70
     1
  9
$TEXTSIZE
 40
0.2
  9
$TRACEWID
 40
0.05
  9
$TEXTSTYLE
  7
Standard
  9
$CLAYER
  8
points
  9
$CELTYPE
  6
ByLayer
  9
$CECOLOR
 62
   256
  9
$CELTSCALE
 40
1.0
  9
$DISPSILH
 70
     0
  9
$DIMSCALE
 40
1.0
  9
$DIMASZ
 40
0.18
  9
$DIMEXO
 40
0.0625
  9
$DIMDLI
 40
0.38
  9
$DIMRND
 40
0.0
  9
$DIMDLE
 40
0.0
  9
$DIMEXE
 40
0.18
  9
$DIMTP
 40
0.0
  9
$DIMTM
 40
0.0
  9
$DIMTXT
 40
0.18
  9
$DIMCEN
 40
0.09
  9
$DIMTSZ
 40
0.0
  9
$DIMTOL
 70
     0
  9
$DIMLIM
 70
     0
  9
$DIMTIH
 70
     1
  9
$DIMTOH
 70
     1
  9
$DIMSE1
 70
     0
  9
$DIMSE2
 70
     0
  9
$DIMTAD
 70
     0
  9
$DIMZIN
 70
     0
  9
$DIMBLK
  1

  9
$DIMASO
 70
     1
  9
$DIMSHO
 70
     1
  9
$DIMPOST
  1

  9
$DIMAPOST
  1

  9
$DIMALT
 70
     0
  9
$DIMALTD
 70
     2
  9
$DIMALTF
 40
25.4
  9
$DIMLFAC
 40
1.0
  9
$DIMTOFL
 70
     0
  9
$DIMTVP
 40
0.0
  9
$DIMTIX
 70
     0
  9
$DIMSOXD
 70
     0
  9
$DIMSAH
 70
     0
  9
$DIMBLK1
  1

  9
$DIMBLK2
  1

  9
$DIMSTYLE
  2
Standard
  9
$DIMCLRD
 70
     0
  9
$DIMCLRE
 70
     0
  9
$DIMCLRT
 70
     0
  9
$DIMTFAC
 40
1.0
  9
$DIMGAP
 40
0.09
  9
$DIMJUST
 70
     0
  9
$DIMSD1
 70
     0
  9
$DIMSD2
 70
     0
  9
$DIMTOLJ
 70
     1
  9
$DIMTZIN
 70
     0
  9
$DIMALTZ
 70
     0
  9
$DIMALTTZ
 70
     0
  9
$DIMUPT
 70
     0
  9
$DIMDEC
 70
     4
  9
$DIMTDEC
 70
     4
  9
$DIMALTU
 70
     2
  9
$DIMALTTD
 70
     2
  9
$DIMTXSTY
  7
Standard
  9
$DIMAUNIT
 70
     0
  9
$DIMADEC
 70
     0
  9
$DIMALTRND
 40
0.0
  9
$DIMAZIN
 70
     0
  9
$DIMDSEP
 70
    46
  9
$DIMATFIT
 70
     3
  9
$DIMFRAC
 70
     0
  9
$DIMLDRBLK
  1

  9
$DIMLUNIT
 70
     2
  9
$DIMLWD
 70
    -2
  9
$DIMLWE
 70
    -2
  9
$DIMTMOVE
 70
     0
  9
$DIMFXL
 40
1.0
  9
$DIMFXLON
 70
     0
  9
$DIMJOGANG
 40
0.7853981633974483
  9
$DIMTFILL
 70
     0
  9
$DIMTFILLCLR
 70
     0
  9
$DIMARCSYM
 70
     0
  9
$DIMLTYPE
  6

  9
$DIMLTEX1
  6

  9
$DIMLTEX2
  6

  9
$DIMTXTDIRECTION
 70
     0
  9
$LUNITS
 70
     2
  9
$LUPREC
 70
     4
  9
$SKETCHINC
 40
0.1
  9
$FILLETRAD
 40
0.0
  9
$AUNITS
 70
     0
  9
$AUPREC
 70
     0
  9
$MENU
  1
.
  9
$ELEVATION
 40
0.0
  9
$PELEVATION
 40
0.0
  9
$THICKNESS
 40
0.0
  9
$LIMCHECK
 70
     0
  9
$CHAMFERA
 40
0.0
  9
$CHAMFERB
 40
0.0
  9
$CHAMFERC
 40
0.0
  9
$CHAMFERD
 40
0.0
  9
$SKPOLY
 70
     0
  9
$TDCREATE
 40
2452643.146717604
  9
$TDUCREATE
 40
2452643.063384271
  9
$TDUPDATE
 40
2457538.904746192
  9
$TDUUPDATE
 40
2457538.821412859
  9
$TDINDWG
 40
0.0438555093
  9
$TDUSRTIMER
 40
2457538.82112669
  9
$USRTIMER
 70
     1
  9
$ANGBASE
 50
0.0
  9
$ANGDIR
 70
     0
  9
$PDMODE
 70
     0
  9
$PDSIZE
 40
0.0
  9
$PLINEWID
 40
0.0
  9
$SPLFRAME
 70
     0
  9
$SPLINETYPE
 70
     6
  9
$SPLINESEGS
 70
     8
  9
$HANDSEED
  5
A61
  9
$SURFTAB1
 70
     6
  9
$SURFTAB2
 70
     6
  9
$SURFTYPE
 70
     6
  9
$SURFU
 70
     6
  9
$SURFV
 70
     6
  9
$UCSBASE
  2

  9
$UCSNAME
  2

  9
$UCSORG
 10
0.0
 20
0.0
 30
0.0
  9
$UCSXDIR
 10
1.0
 20
0.0
 30
0.0
  9
$UCSYDIR
 10
0.0
 20
1.0
 30
0.0
  9
$UCSORTHOREF
  2

  9
$UCSORTHOVIEW
 70
     0
  9
$UCSORGTOP
 10
0.0
 20
0.0
 30
0.0
  9
$UCSORGBOTTOM
 10
0.0
 20
0.0
 30
0.0
  9
$UCSORGLEFT
 10
0.0
 20
0.0
 30
0.0
  9
$UCSORGRIGHT
 10
0.0
 20
0.0
 30
0.0
  9
$UCSORGFRONT
 10
0.0
 20
0.0
 30
0.0
  9
$UCSORGBACK
 10
0.0
 20
0.0
 30
0.0
  9
$PUCSBASE
  2

  9
$PUCSNAME
  2

  9
$PUCSORG
 10
0.0
 20
0.0
 30
0.0
  9
$PUCSXDIR
 10
1.0
 20
0.0
 30
0.0
  9
$PUCSYDIR
 10
0.0
 20
1.0
 30
0.0
  9
$PUCSORTHOREF
  2

  9
$PUCSORTHOVIEW
 70
     0
  9
$PUCSORGTOP
 10
0.0
 20
0.0
 30
0.0
  9
$PUCSORGBOTTOM
 10
0.0
 20
0.0
 30
0.0
  9
$PUCSORGLEFT
 10
0.0
 20
0.0
 30
0.0
  9
$PUCSORGRIGHT
 10
0.0
 20
0.0
 30
0.0
  9
$PUCSORGFRONT
 10
0.0
 20
0.0
 30
0.0
  9
$PUCSORGBACK
 10
0.0
 20
0.0
 30
0.0
  9
$USERI1
 70
     0
  9
$USERI2
 70
     0
  9
$USERI3
 70
     0
  9
$USERI4
 70
     0
  9
$USERI5
 70
     0
  9
$USERR1
 40
0.0
  9
$USERR2
 40
0.0
  9
$USERR3
 40
0.0
  9
$USERR4
 40
0.0
  9
$USERR5
 40
0.0
  9
$WORLDVIEW
 70
     1
  9
$SHADEDGE
 70
     3
  9
$SHADEDIF
 70
    70
  9
$TILEMODE
 70
     1
  9
$MAXACTVP
 70
    64
  9
$PINSBASE
 10
0.0
 20
0.0
 30
0.0
  9
$PLIMCHECK
 70
     0
  9
$PEXTMIN
 10
0.0
 20
0.0
 30
0.0
  9
$PEXTMAX
 10
0.0
 20
0.0
 30
0.0
  9
$PLIMMIN
 10
0.0
 20
0.0
  9
$PLIMMAX
 10
0.0
 20
0.0
  9
$UNITMODE
 70
     0
  9
$VISRETAIN
 70
     1
  9
$PLINEGEN
 70
     0
  9
$PSLTSCALE
 70
     1
  9
$TREEDEPTH
 70
  3020
  9
$CMLSTYLE
  2
Standard
  9
$CMLJUST
 70
     0
  9
$CMLSCALE
 40
1.0
  9
$PROXYGRAPHICS
 70
     1
  9
$MEASUREMENT
 70
     0
  9
$CELWEIGHT
370
    -1
  9
$ENDCAPS
280
     0
  9
$JOINSTYLE
280
     0
  9
$LWDISPLAY
290
     0
  9
$INSUNITS
 70
     1
  9
$HYPERLINKBASE
  1

  9
$STYLESHEET
  1

  9
$XEDIT
290
     1
  9
$CEPSNTYPE
380
     0
  9
$PSTYLEMODE
290
     1
  9
$FINGERPRINTGUID
  2
{FDEAD576-A652-11D2-9A35-0060089B3A3F}
  9
$VERSIONGUID
  2
{FBC2AE19-5C5C-49EC-81BC-71B1A3362A02}
  9
$EXTNAMES
290
     1
  9
$PSVPSCALE
 40
0.0
  9
$OLESTARTUP
290
     0
  9
$SORTENTS
280
   127
  9
$INDEXCTL
280
     0
  9
$HIDETEXT
280
     1
  9
$XCLIPFRAME
280
     0
  9
$HALOGAP
280
     0
  9
$OBSCOLOR
 70
   257
  9
$OBSLTYPE
280
     0
  9
$INTERSECTIONDISPLAY
280
     0
  9
$INTERSECTIONCOLOR
 70
   257
  9
$DIMASSOC
280
     2
  9
$PROJECTNAME
  1

  9
$CAMERADISPLAY
290
     0
  9
$LENSLENGTH
 40
50.0
  9
$CAMERAHEIGHT
 40
0.0
  9
$STEPSPERSEC
 40
2.0
  9
$STEPSIZE
 40
6.0
  9
$3DDWFPREC
 40
2.0
  9
$PSOLWIDTH
 40
0.25
  9
$PSOLHEIGHT
 40
4.0
  9
$LOFTANG1
 40
1.570796326794897
  9
$LOFTANG2
 40
1.570796326794897
  9
$LOFTMAG1
 40
0.0
  9
$LOFTMAG2
 40
0.0
  9
$LOFTPARAM
 70
     7
  9
$LOFTNORMALS
280
     1
  9
$LATITUDE
 40
37.795
  9
$LONGITUDE
 40
-122.394
  9
$NORTHDIRECTION
 40
0.0
  9
$TIMEZONE
 70
 -8000
  9
$LIGHTGLYPHDISPLAY
280
     1
  9
$TILEMODELIGHTSYNCH
280
     1
  9
$CMATERIAL
347
96
  9
$SOLIDHIST
280
     1
  9
$SHOWHIST
280
     1
  9
$DWFFRAME
280
     2
  9
$DGNFRAME
280
     0
  9
$REALWORLDSCALE
290
     1
  9
$INTERFERECOLOR
 62
     1
  9
$CSHADOW
280
     0
  9
$SHADOWPLANELOCATION
 40
0.0
  0
ENDSEC
  0
SECTION
  2
CLASSES
  0
CLASS
  1
ACDBDICTIONARYWDFLT
  2
AcDbDictionaryWithDefault
  3
ObjectDBX Classes
 90
        0
 91
        5
280
     0
281
     0
  0
CLASS
  1
ACDBPLACEHOLDER
  2
AcDbPlaceHolder
  3
ObjectDBX Classes
 90
        0
 91
        1
280
     0
281
     0
  0
CLASS
  1
LAYOUT
  2
AcDbLayout
  3
ObjectDBX Classes
 90
        0
 91
        1
280
     0
281
     0
  0
CLASS
  1
DICTIONARYVAR
  2
AcDbDictionaryVar
  3
ObjectDBX Classes
 90
        0
 91
        5
280
     0
281
     0
  0
CLASS
  1
TABLESTYLE
  2
AcDbTableStyle
  3
ObjectDBX Classes
 90
     4095
 91
        5
280
     0
281
     0
  0
CLASS
  1
MATERIAL
  2
AcDbMaterial
  3
ObjectDBX Classes
 90
     1153
 91
        5
280
     0
281
     0
  0
CLASS
  1
VISUALSTYLE
  2
AcDbVisualStyle
  3
ObjectDBX Classes
 90
     4095
 91
        5
280
     0
281
     0
  0
CLASS
  1
SCALE
  2
AcDbScale
  3
ObjectDBX Classes
 90
     1153
 91
        5
280
     0
281
     0
  0
CLASS
  1
CELLSTYLEMAP
  2
AcDbCellStyleMap
  3
ObjectDBX Classes
 90
     1152
 91
        5
280
     0
281
     0
  0
CLASS
  1
RASTERVARIABLES
  2
AcDbRasterVariables
  3
ISM
 90
        0
 91
        5
280
     0
281
     0
  0
CLASS
  1
SUN
  2
AcDbSun
  3
SCENEOE
 90
     1153
 91
        5
280
     0
281
     0
  0
CLASS
  1
MLEADERSTYLE
  2
AcDbMLeaderStyle
  3
ACDB_MLEADERSTYLE_CLASS
 90
     4095
 91
        5
280
     0
281
     0
  0
ENDSEC
  0
SECTION
  2
TABLES
  0
TABLE
  2
VPORT
  5
8
330
0
100
AcDbSymbolTable
 70
     1
  0
VPORT
  5
94
330
8
100
AcDbSymbolTableRecord
100
AcDbViewportTableRecord
  2
*Active
 70
     0
 10
0.0
 20
0.0
 11
1.0
 21
1.0
 12
369.9871707547173
 22
197.918229536515
 13
0.0
 23
0.0
 14
0.5
 24
0.5
 15
0.5
 25
0.5
 16
0.0
 26
0.0
 36
1.0
 17
-27.66959356597999
 27
-19.538702957862
 37
0.0
 40
763.6748376528732
 41
1.966130884041332
 42
50.0
 43
0.0
 44
0.0
 50
0.0
 51
0.0
 71
    16
 72
  1000
 73
     1
 74
     3
 75
     0
 76
     0
 77
     0
 78
     0
281
     0
 65
     1
110
0.0
120
0.0
130
0.0
111
1.0
121
0.0
131
0.0
112
0.0
122
1.0
132
0.0
 79
     0
146
0.0
348
9F
 60
     2
 61
     5
292
     1
282
     1
141
0.0
142
0.0
 63
   250
421
  3355443
361
ED
  0
ENDTAB
  0
TABLE
  2
LTYPE
  5
5
330
0
100
AcDbSymbolTable
 70
     1
  0
LTYPE
  5
14
330
5
100
AcDbSymbolTableRecord
100
AcDbLinetypeTableRecord
  2
ByBlock
 70
     0
  3

 72
    65
 73
     0
 40
0.0
  0
LTYPE
  5
15
330
5
100
AcDbSymbolTableRecord
100
AcDbLinetypeTableRecord
  2
ByLayer
 70
     0
  3

 72
    65
 73
     0
 40
0.0
  0
LTYPE
  5
16
330
5
100
AcDbSymbolTableRecord
100
AcDbLinetypeTableRecord
  2
Continuous
 70
     0
  3
Solid line
 72
    65
 73
     0
 40
0.0
  0
ENDTAB
  0
TABLE
  2
LAYER
  5
2
102
{ACAD_XDICTIONARY
360
178
102
}
330
0
100
AcDbSymbolTable
 70
    10
  0
LAYER
  5
10
330
2
100
AcDbSymbolTableRecord
100
AcDbLayerTableRecord
  2
0
 70
     0
 62
     7
  6
Continuous
370
    -3
390
F
347
98
348
0
  0
LAYER
  5
1BE
330
2
100
AcDbSymbolTableRecord
100
AcDbLayerTableRecord
  2
inside all
 70
     0
 62
     3
  6
Continuous
370
    -3
390
F
347
98
348
0
1001
AcAecLayerStandard
1000

1000

  0
LAYER
  5
1C0
330
2
100
AcDbSymbolTableRecord
100
AcDbLayerTableRecord
  2
direct half
 70
     0
 62
     5
  6
Continuous
370
    -3
390
F
347
98
348
0
1001
AcAecLayerStandard
1000

1000

  0
LAYER
  5
1C1
330
2
100
AcDbSymbolTableRecord
100
AcDbLayerTableRecord
  2
inside half
 70
     0
 62
     4
  6
Continuous
370
    -3
390
F
347
98
348
0
1001
AcAecLayerStandard
1000

1000

  0
LAYER
  5
7ED
330
2
100
AcDbSymbolTableRecord
100
AcDbLayerTableRecord
  2
points
 70
     0
 62
     1
  6
Continuous
370
    -3
390
F
347
98
348
0
1001
AcAecLayerStandard
1000

1000

  0
LAYER
  5
9CC
330
2
100
AcDbSymbolTableRecord
100
AcDbLayerTableRecord
  2
inside third
 70
     0
 62
     2
  6
Continuous
370
    -3
390
F
347
98
348
0
1001
AcAecLayerStandard
1000

1000

  0
LAYER
  5
9CD
330
2
100
AcDbSymbolTableRecord
100
AcDbLayerTableRecord
  2
direct third
 70
     0
 62
     1
  6
Continuous
370
    -3
390
F
347
98
348
0
1001
AcAecLayerStandard
1000

1000

  0
ENDTAB
  0
TABLE
  2
STYLE
  5
3
330
0
100
AcDbSymbolTable
 70
     1
  0
STYLE
  5
11
330
3
100
AcDbSymbolTableRecord
100
AcDbTextStyleTableRecord
  2
Standard
 70
     0
 40
0.0
 41
1.0
 50
0.0
 71
     0
 42
0.2
  3
arial.ttf
  4

1001
ACAD
1000
Arial
1071
        0
  0
ENDTAB
  0
TABLE
  2
VIEW
  5
6
330
0
100
AcDbSymbolTable
 70
     0
  0
ENDTAB
  0
TABLE
  2
UCS
  5
7
330
0
100
AcDbSymbolTable
 70
     0
  0
ENDTAB
  0
TABLE
  2
APPID
  5
9
330
0
100
AcDbSymbolTable
 70
     3
  0
APPID
  5
12
330
9
100
AcDbSymbolTableRecord
100
AcDbRegAppTableRecord
  2
ACAD
 70
     0
  0
APPID
  5
1BF
330
9
100
AcDbSymbolTableRecord
100
AcDbRegAppTableRecord
  2
AcAecLayerStandard
 70
     0
  0
APPID
  5
5F1
330
9
100
AcDbSymbolTableRecord
100
AcDbRegAppTableRecord
  2
PLOTTRANSPARENCY
 70
     0
  0
ENDTAB
  0
TABLE
  2
DIMSTYLE
  5
A
330
0
100
AcDbSymbolTable
 70
     1
100
AcDbDimStyleTable
  0
DIMSTYLE
105
27
330
A
100
AcDbSymbolTableRecord
100
AcDbDimStyleTableRecord
  2
Standard
 70
     0
178
     0
340
11
  0
ENDTAB
  0
TABLE
  2
BLOCK_RECORD
  5
1
330
0
100
AcDbSymbolTable
 70
     1
  0
BLOCK_RECORD
  5
1F
330
1
100
AcDbSymbolTableRecord
100
AcDbBlockTableRecord
  2
*Model_Space
340
22
 70
     0
280
     1
281
     0
  0
BLOCK_RECORD
  5
58
330
1
100
AcDbSymbolTableRecord
100
AcDbBlockTableRecord
  2
*Paper_Space
340
59
 70
     0
280
     1
281
     0
  0
BLOCK_RECORD
  5
5D
330
1
100
AcDbSymbolTableRecord
100
AcDbBlockTableRecord
  2
*Paper_Space0
340
5E
 70
     0
280
     1
281
     0
  0
ENDTAB
  0
ENDSEC
  0
SECTION
  2
BLOCKS
  0
BLOCK
  5
20
330
1F
100
AcDbEntity
  8
0
100
AcDbBlockBegin
  2
*Model_Space
 70
     0
 10
0.0
 20
0.0
 30
0.0
  3
*Model_Space
  1
*Model_Space
  0
ENDBLK
  5
21
330
1F
100
AcDbEntity
  8
0
100
AcDbBlockEnd
  0
BLOCK
  5
5A
330
58
100
AcDbEntity
 67
     1
  8
0
100
AcDbBlockBegin
  2
*Paper_Space
 70
     0
 10
0.0
 20
0.0
 30
0.0
  3
*Paper_Space
  1
*Paper_Space
  0
ENDBLK
  5
5B
330
58
100
AcDbEntity
 67
     1
  8
0
100
AcDbBlockEnd
  0
BLOCK
  5
5F
330
5D
100
AcDbEntity
  8
0
100
AcDbBlockBegin
  2
*Paper_Space0
 70
     0
 10
0.0
 20
0.0
 30
0.0
  3
*Paper_Space0
  1
*Paper_Space0
  0
ENDBLK
  5
60
330
5D
100
AcDbEntity
  8
0
100
AcDbBlockEnd
  0
ENDSEC
  0
SECTION
  2
ENTITIES
  0
LINE
  5
17D
330
1F
100
AcDbEntity
  8
0
100
AcDbLine
 10
100.2194191220099
 20
6.596263506607301
 30
0.0
 11
410.2194191220099
 21
6.596263506607301
 31
0.0
  0
LINE
  5
180
330
1F
100
AcDbEntity
  8
0
100
AcDbLine
 10
80.21941912200992
 20
26.5962635066073
 30
0.0
 11
80.21941912200992
 21
266.5962635066073
 31
0.0
  0
LINE
  5
181
330
1F
100
AcDbEntity
  8
0
100
AcDbLine
 10
430.2194191220099
 20
26.5962635066073
 30
0.0
 11
430.2194191220099
 21
266.5962635066073
 31
0.0
  0
LINE
  5
182
330
1F
100
AcDbEntity
  8
0
100
AcDbLine
 10
80.21941912200992
 20
266.5962635066073
 30
0.0
 11
430.2194191220099
 21
266.5962635066073
 31
0.0
  0
CIRCLE
  5
187
330
1F
100
AcDbEntity
  8
inside all
100
AcDbCircle
 10
332.7194191220099
 20
60.0962635066073
 30
0.0
 40
11.0
  0
CIRCLE
  5
188
330
1F
100
AcDbEntity
  8
inside all
100
AcDbCircle
 10
374.7194191220099
 20
40.0962635066073
 30
0.0
 40
2.0
  0
CIRCLE
  5
189
330
1F
100
AcDbEntity
  8
inside all
100
AcDbCircle
 10
374.7194191220099
 20
80.0962635066073
 30
0.0
 40
2.0
  0
CIRCLE
  5
18A
330
1F
100
AcDbEntity
  8
inside all
100
AcDbCircle
 10
290.7194191220099
 20
80.0962635066073
 30
0.0
 40
2.0
  0
CIRCLE
  5
18B
330
1F
100
AcDbEntity
  8
inside all
100
AcDbCircle
 10
290.7194191220099
 20
40.0962635066073
 30
0.0
 40
2.0
  0
CIRCLE
  5
18C
330
1F
100
AcDbEntity
  8
inside all
100
AcDbCircle
 10
220.2194191220099
 20
48.5962635066073
 30
0.0
 40
15.0
  0
CIRCLE
  5
18D
330
1F
100
AcDbEntity
  8
inside all
100
AcDbCircle
 10
160.2194191220099
 20
48.5962635066073
 30
0.0
 40
15.0
  0
CIRCLE
  5
18E
330
1F
100
AcDbEntity
  8
inside all
100
AcDbCircle
 10
190.2194191220099
 20
93.5962635066073
 30
0.0
 40
15.0
  0
CIRCLE
  5
18F
330
1F
100
AcDbEntity
  8
inside all
100
AcDbCircle
 10
130.2194191220099
 20
93.5962635066073
 30
0.0
 40
15.0
  0
ARC
  5
197
330
1F
100
AcDbEntity
  8
0
100
AcDbCircle
 10
410.2194191220099
 20
26.5962635066073
 30
0.0
 40
20.0
100
AcDbArc
 50
270.0
 51
0.0
  0
ARC
  5
198
330
1F
100
AcDbEntity
  8
0
100
AcDbCircle
 10
100.2194191220099
 20
26.5962635066073
 30
0.0
 40
20.0
100
AcDbArc
 50
180.0
 51
270.0
  0
LINE
  5
199
330
1F
100
AcDbEntity
  8
inside half
100
AcDbLine
 10
91.21941912200992
 20
226.5962635066073
 30
0.0
 11
100.2194191220099
 21
226.5962635066073
 31
0.0
  0
LINE
  5
19A
330
1F
100
AcDbEntity
  8
inside half
100
AcDbLine
 10
91.21941912200992
 20
206.5962635066073
 30
0.0
 11
100.2194191220099
 21
206.5962635066073
 31
0.0
  0
LINE
  5
19B
330
1F
100
AcDbEntity
  8
inside half
100
AcDbLine
 10
91.21941912200992
 20
106.5962635066073
 30
0.0
 11
100.2194191220099
 21
106.5962635066073
 31
0.0
  0
LINE
  5
19C
330
1F
100
AcDbEntity
  8
inside half
100
AcDbLine
 10
410.2194191220099
 20
86.5962635066073
 30
0.0
 11
419.2194191220099
 21
86.5962635066073
 31
0.0
  0
LINE
  5
19D
330
1F
100
AcDbEntity
  8
inside half
100
AcDbLine
 10
91.21941912200992
 20
86.5962635066073
 30
0.0
 11
100.2194191220099
 21
86.5962635066073
 31
0.0
  0
LINE
  5
19E
330
1F
100
AcDbEntity
  8
inside half
100
AcDbLine
 10
410.2194191220099
 20
206.5962635066073
 30
0.0
 11
419.2194191220099
 21
206.5962635066073
 31
0.0
  0
LINE
  5
19F
330
1F
100
AcDbEntity
  8
inside half
100
AcDbLine
 10
410.2194191220099
 20
106.5962635066073
 30
0.0
 11
419.2194191220099
 21
106.5962635066073
 31
0.0
  0
LINE
  5
1A0
330
1F
100
AcDbEntity
  8
inside half
100
AcDbLine
 10
410.2194191220099
 20
226.5962635066073
 30
0.0
 11
419.2194191220099
 21
226.5962635066073
 31
0.0
  0
LINE
  5
1A1
330
1F
100
AcDbEntity
  8
inside half
100
AcDbLine
 10
150.2194191220099
 20
17.5962635066073
 30
0.0
 11
150.2194191220099
 21
26.5962635066073
 31
0.0
  0
LINE
  5
1A2
330
1F
100
AcDbEntity
  8
inside half
100
AcDbLine
 10
130.2194191220099
 20
17.5962635066073
 30
0.0
 11
130.2194191220099
 21
26.5962635066073
 31
0.0
  0
LINE
  5
1A3
330
1F
100
AcDbEntity
  8
inside half
100
AcDbLine
 10
380.2194191220099
 20
17.5962635066073
 30
0.0
 11
380.2194191220099
 21
26.5962635066073
 31
0.0
  0
LINE
  5
1A4
330
1F
100
AcDbEntity
  8
inside half
100
AcDbLine
 10
130.2194191220099
 20
248.5962635066073
 30
0.0
 11
130.2194191220099
 21
257.5962635066074
 31
0.0
  0
LINE
  5
1A5
330
1F
100
AcDbEntity
  8
inside half
100
AcDbLine
 10
360.2194191220099
 20
17.5962635066073
 30
0.0
 11
360.2194191220099
 21
26.5962635066073
 31
0.0
  0
LINE
  5
1A6
330
1F
100
AcDbEntity
  8
inside half
100
AcDbLine
 10
150.2194191220099
 20
248.5962635066073
 30
0.0
 11
150.2194191220099
 21
257.5962635066073
 31
0.0
  0
LINE
  5
1A7
330
1F
100
AcDbEntity
  8
inside half
100
AcDbLine
 10
360.2194191220099
 20
248.5962635066073
 30
0.0
 11
360.2194191220099
 21
257.5962635066073
 31
0.0
  0
LINE
  5
1A8
330
1F
100
AcDbEntity
  8
inside half
100
AcDbLine
 10
380.2194191220099
 20
248.5962635066073
 30
0.0
 11
380.2194191220099
 21
257.5962635066073
 31
0.0
  0
CIRCLE
  5
1A9
330
1F
100
AcDbEntity
  8
inside all
100
AcDbCircle
 10
255.2194191220099
 20
217.1962635066073
 30
0.0
 40
22.0
  0
CIRCLE
  5
1AA
330
1F
100
AcDbEntity
  8
inside all
100
AcDbCircle
 10
230.2194191220099
 20
204.0962635066073
 30
0.0
 40
2.1
  0
CIRCLE
  5
1AB
330
1F
100
AcDbEntity
  8
inside all
100
AcDbCircle
 10
280.2194191220099
 20
204.0962635066073
 30
0.0
 40
2.1
  0
CIRCLE
  5
1AC
330
1F
100
AcDbEntity
  8
inside all
100
AcDbCircle
 10
235.2194191220099
 20
237.0962635066073
 30
0.0
 40
2.1
  0
CIRCLE
  5
1AD
330
1F
100
AcDbEntity
  8
inside all
100
AcDbCircle
 10
275.2194191220099
 20
237.0962635066073
 30
0.0
 40
2.1
  0
LINE
  5
1AE
330
1F
100
AcDbEntity
  8
inside half
100
AcDbLine
 10
91.21941912200992
 20
226.5962635066073
 30
0.0
 11
91.21941912200992
 21
206.5962635066073
 31
0.0
  0
LINE
  5
1AF
330
1F
100
AcDbEntity
  8
inside half
100
AcDbLine
 10
100.2194191220099
 20
226.5962635066073
 30
0.0
 11
100.2194191220099
 21
206.5962635066073
 31
0.0
  0
LINE
  5
1B0
330
1F
100
AcDbEntity
  8
inside half
100
AcDbLine
 10
91.21941912200992
 20
106.5962635066073
 30
0.0
 11
91.21941912200992
 21
86.5962635066073
 31
0.0
  0
LINE
  5
1B1
330
1F
100
AcDbEntity
  8
inside half
100
AcDbLine
 10
100.2194191220099
 20
106.5962635066073
 30
0.0
 11
100.2194191220099
 21
86.5962635066073
 31
0.0
  0
LINE
  5
1B2
330
1F
100
AcDbEntity
  8
inside half
100
AcDbLine
 10
130.2194191220099
 20
26.5962635066073
 30
0.0
 11
150.2194191220099
 21
26.5962635066073
 31
0.0
  0
LINE
  5
1B3
330
1F
100
AcDbEntity
  8
inside half
100
AcDbLine
 10
130.2194191220099
 20
17.5962635066073
 30
0.0
 11
150.2194191220099
 21
17.5962635066073
 31
0.0
  0
LINE
  5
1B4
330
1F
100
AcDbEntity
  8
inside half
100
AcDbLine
 10
360.2194191220099
 20
26.5962635066073
 30
0.0
 11
380.2194191220099
 21
26.5962635066073
 31
0.0
  0
LINE
  5
1B5
330
1F
100
AcDbEntity
  8
inside half
100
AcDbLine
 10
360.2194191220099
 20
17.5962635066073
 30
0.0
 11
380.2194191220099
 21
17.5962635066073
 31
0.0
  0
LINE
  5
1B6
330
1F
100
AcDbEntity
  8
inside half
100
AcDbLine
 10
410.2194191220099
 20
86.5962635066073
 30
0.0
 11
410.2194191220099
 21
106.5962635066073
 31
0.0
  0
LINE
  5
1B7
330
1F
100
AcDbEntity
  8
inside half
100
AcDbLine
 10
419.2194191220099
 20
86.5962635066073
 30
0.0
 11
419.2194191220099
 21
106.5962635066073
 31
0.0
  0
LINE
  5
1B8
330
1F
100
AcDbEntity
  8
inside half
100
AcDbLine
 10
410.2194191220099
 20
226.5962635066073
 30
0.0
 11
410.2194191220099
 21
206.5962635066073
 31
0.0
  0
LINE
  5
1B9
330
1F
100
AcDbEntity
  8
inside half
100
AcDbLine
 10
419.2194191220099
 20
226.5962635066073
 30
0.0
 11
419.2194191220099
 21
206.5962635066073
 31
0.0
  0
LINE
  5
1BA
330
1F
100
AcDbEntity
  8
inside half
100
AcDbLine
 10
130.2194191220099
 20
248.5962635066073
 30
0.0
 11
150.2194191220099
 21
248.5962635066073
 31
0.0
  0
LINE
  5
1BB
330
1F
100
AcDbEntity
  8
inside half
100
AcDbLine
 10
360.2194191220099
 20
248.5962635066073
 30
0.0
 11
380.2194191220099
 21
248.5962635066073
 31
0.0
  0
LINE
  5
1C3
330
1F
100
AcDbEntity
  8
inside half
100
AcDbLine
 10
130.2194191220099
 20
257.5962635066074
 30
0.0
 11
150.2194191220099
 21
257.5962635066073
 31
0.0
  0
LINE
  5
1C4
330
1F
100
AcDbEntity
  8
inside half
100
AcDbLine
 10
360.2194191220099
 20
257.5962635066073
 30
0.0
 11
380.2194191220099
 21
257.5962635066073
 31
0.0
  0
LINE
  5
1C6
330
1F
100
AcDbEntity
  8
direct half
100
AcDbLine
 10
132.2194191220099
 20
19.5962635066073
 30
0.0
 11
148.2194191220099
 21
19.5962635066073
 31
0.0
  0
LINE
  5
1C7
330
1F
100
AcDbEntity
  8
direct half
100
AcDbLine
 10
132.2194191220099
 20
24.5962635066073
 30
0.0
 11
148.2194191220099
 21
24.5962635066073
 31
0.0
  0
LINE
  5
1C8
330
1F
100
AcDbEntity
  8
direct half
100
AcDbLine
 10
132.2194191220099
 20
21.5962635066073
 30
0.0
 11
132.2194191220099
 21
22.5962635066073
 31
0.0
  0
LINE
  5
1C9
330
1F
100
AcDbEntity
  8
direct half
100
AcDbLine
 10
148.2194191220099
 20
19.5962635066073
 30
0.0
 11
148.2194191220099
 21
21.5962635066073
 31
0.0
  0
LINE
  5
1CA
330
1F
100
AcDbEntity
  8
direct half
100
AcDbLine
 10
132.2194191220099
 20
22.5962635066073
 30
0.0
 11
148.2194191220099
 21
22.5962635066073
 31
0.0
  0
LINE
  5
1CB
330
1F
100
AcDbEntity
  8
direct half
100
AcDbLine
 10
132.2194191220099
 20
21.5962635066073
 30
0.0
 11
148.2194191220099
 21
21.5962635066073
 31
0.0
  0
LINE
  5
1CC
330
1F
100
AcDbEntity
  8
direct half
100
AcDbLine
 10
148.2194191220099
 20
22.5962635066073
 30
0.0
 11
148.2194191220099
 21
24.5962635066073
 31
0.0
  0
LINE
  5
204
330
1F
100
AcDbEntity
  8
direct half
100
AcDbLine
 10
378.2194191220099
 20
19.5962635066073
 30
0.0
 11
378.2194191220099
 21
21.5962635066073
 31
0.0
  0
LINE
  5
205
330
1F
100
AcDbEntity
  8
direct half
100
AcDbLine
 10
362.2194191220099
 20
21.5962635066073
 30
0.0
 11
378.2194191220099
 21
21.5962635066073
 31
0.0
  0
LINE
  5
206
330
1F
100
AcDbEntity
  8
direct half
100
AcDbLine
 10
362.2194191220099
 20
21.5962635066073
 30
0.0
 11
362.2194191220099
 21
22.5962635066073
 31
0.0
  0
LINE
  5
207
330
1F
100
AcDbEntity
  8
direct half
100
AcDbLine
 10
362.2194191220099
 20
19.5962635066073
 30
0.0
 11
378.2194191220099
 21
19.5962635066073
 31
0.0
  0
LINE
  5
208
330
1F
100
AcDbEntity
  8
direct half
100
AcDbLine
 10
362.2194191220099
 20
24.5962635066073
 30
0.0
 11
378.2194191220099
 21
24.5962635066073
 31
0.0
  0
LINE
  5
209
330
1F
100
AcDbEntity
  8
direct half
100
AcDbLine
 10
362.2194191220099
 20
22.5962635066073
 30
0.0
 11
378.2194191220099
 21
22.5962635066073
 31
0.0
  0
LINE
  5
20A
330
1F
100
AcDbEntity
  8
direct half
100
AcDbLine
 10
378.2194191220099
 20
22.5962635066073
 30
0.0
 11
378.2194191220099
 21
24.5962635066073
 31
0.0
  0
LINE
  5
241
330
1F
100
AcDbEntity
  8
direct half
100
AcDbLine
 10
148.2194191220099
 20
250.5962635066073
 30
0.0
 11
148.2194191220099
 21
252.5962635066073
 31
0.0
  0
LINE
  5
242
330
1F
100
AcDbEntity
  8
direct half
100
AcDbLine
 10
132.2194191220099
 20
252.5962635066073
 30
0.0
 11
148.2194191220099
 21
252.5962635066073
 31
0.0
  0
LINE
  5
243
330
1F
100
AcDbEntity
  8
direct half
100
AcDbLine
 10
132.2194191220099
 20
252.5962635066073
 30
0.0
 11
132.2194191220099
 21
253.5962635066073
 31
0.0
  0
LINE
  5
244
330
1F
100
AcDbEntity
  8
direct half
100
AcDbLine
 10
132.2194191220099
 20
250.5962635066073
 30
0.0
 11
148.2194191220099
 21
250.5962635066073
 31
0.0
  0
LINE
  5
245
330
1F
100
AcDbEntity
  8
direct half
100
AcDbLine
 10
132.2194191220099
 20
255.5962635066073
 30
0.0
 11
148.2194191220099
 21
255.5962635066073
 31
0.0
  0
LINE
  5
246
330
1F
100
AcDbEntity
  8
direct half
100
AcDbLine
 10
132.2194191220099
 20
253.5962635066073
 30
0.0
 11
148.2194191220099
 21
253.5962635066073
 31
0.0
  0
LINE
  5
247
330
1F
100
AcDbEntity
  8
direct half
100
AcDbLine
 10
148.2194191220099
 20
253.5962635066073
 30
0.0
 11
148.2194191220099
 21
255.5962635066073
 31
0.0
  0
LINE
  5
27E
330
1F
100
AcDbEntity
  8
direct half
100
AcDbLine
 10
378.2194191220099
 20
250.5962635066073
 30
0.0
 11
378.2194191220099
 21
252.5962635066073
 31
0.0
  0
LINE
  5
27F
330
1F
100
AcDbEntity
  8
direct half
100
AcDbLine
 10
362.2194191220099
 20
252.5962635066073
 30
0.0
 11
378.2194191220099
 21
252.5962635066073
 31
0.0
  0
LINE
  5
280
330
1F
100
AcDbEntity
  8
direct half
100
AcDbLine
 10
362.2194191220099
 20
252.5962635066073
 30
0.0
 11
362.2194191220099
 21
253.5962635066073
 31
0.0
  0
LINE
  5
281
330
1F
100
AcDbEntity
  8
direct half
100
AcDbLine
 10
362.2194191220099
 20
250.5962635066073
 30
0.0
 11
378.2194191220099
 21
250.5962635066073
 31
0.0
  0
LINE
  5
282
330
1F
100
AcDbEntity
  8
direct half
100
AcDbLine
 10
362.2194191220099
 20
255.5962635066073
 30
0.0
 11
378.2194191220099
 21
255.5962635066073
 31
0.0
  0
LINE
  5
283
330
1F
100
AcDbEntity
  8
direct half
100
AcDbLine
 10
362.2194191220099
 20
253.5962635066073
 30
0.0
 11
378.2194191220099
 21
253.5962635066073
 31
0.0
  0
LINE
  5
284
330
1F
100
AcDbEntity
  8
direct half
100
AcDbLine
 10
378.2194191220099
 20
253.5962635066073
 30
0.0
 11
378.2194191220099
 21
255.5962635066073
 31
0.0
  0
LINE
  5
2BC
330
1F
100
AcDbEntity
  8
direct half
100
AcDbLine
 10
98.21941912200992
 20
104.5962635066073
 30
0.0
 11
96.21941912200992
 21
104.5962635066073
 31
0.0
  0
LINE
  5
2BD
330
1F
100
AcDbEntity
  8
direct half
100
AcDbLine
 10
96.21941912200992
 20
88.59626350660733
 30
0.0
 11
96.21941912200992
 21
104.5962635066073
 31
0.0
  0
LINE
  5
2BE
330
1F
100
AcDbEntity
  8
direct half
100
AcDbLine
 10
96.21941912200992
 20
88.59626350660733
 30
0.0
 11
95.21941912200992
 21
88.59626350660733
 31
0.0
  0
LINE
  5
2BF
330
1F
100
AcDbEntity
  8
direct half
100
AcDbLine
 10
98.21941912200992
 20
88.59626350660733
 30
0.0
 11
98.21941912200992
 21
104.5962635066073
 31
0.0
  0
LINE
  5
2C0
330
1F
100
AcDbEntity
  8
direct half
100
AcDbLine
 10
93.21941912200992
 20
88.59626350660733
 30
0.0
 11
93.21941912200992
 21
104.5962635066073
 31
0.0
  0
LINE
  5
2C1
330
1F
100
AcDbEntity
  8
direct half
100
AcDbLine
 10
95.21941912200992
 20
88.59626350660733
 30
0.0
 11
95.21941912200992
 21
104.5962635066073
 31
0.0
  0
LINE
  5
2C2
330
1F
100
AcDbEntity
  8
direct half
100
AcDbLine
 10
95.21941912200992
 20
104.5962635066073
 30
0.0
 11
93.21941912200992
 21
104.5962635066073
 31
0.0
  0
LINE
  5
2FA
330
1F
100
AcDbEntity
  8
direct half
100
AcDbLine
 10
98.21941912200992
 20
224.5962635066073
 30
0.0
 11
96.21941912200992
 21
224.5962635066073
 31
0.0
  0
LINE
  5
2FB
330
1F
100
AcDbEntity
  8
direct half
100
AcDbLine
 10
96.21941912200992
 20
208.5962635066073
 30
0.0
 11
96.21941912200992
 21
224.5962635066073
 31
0.0
  0
LINE
  5
2FC
330
1F
100
AcDbEntity
  8
direct half
100
AcDbLine
 10
96.21941912200992
 20
208.5962635066073
 30
0.0
 11
95.21941912200992
 21
208.5962635066073
 31
0.0
  0
LINE
  5
2FD
330
1F
100
AcDbEntity
  8
direct half
100
AcDbLine
 10
98.21941912200992
 20
208.5962635066073
 30
0.0
 11
98.21941912200992
 21
224.5962635066073
 31
0.0
  0
LINE
  5
2FE
330
1F
100
AcDbEntity
  8
direct half
100
AcDbLine
 10
93.21941912200992
 20
208.5962635066073
 30
0.0
 11
93.21941912200992
 21
224.5962635066073
 31
0.0
  0
LINE
  5
2FF
330
1F
100
AcDbEntity
  8
direct half
100
AcDbLine
 10
95.21941912200992
 20
208.5962635066073
 30
0.0
 11
95.21941912200992
 21
224.5962635066073
 31
0.0
  0
LINE
  5
300
330
1F
100
AcDbEntity
  8
direct half
100
AcDbLine
 10
95.21941912200992
 20
224.5962635066073
 30
0.0
 11
93.21941912200992
 21
224.5962635066073
 31
0.0
  0
LINE
  5
338
330
1F
100
AcDbEntity
  8
direct half
100
AcDbLine
 10
417.2194191220099
 20
224.5962635066073
 30
0.0
 11
415.2194191220099
 21
224.5962635066073
 31
0.0
  0
LINE
  5
339
330
1F
100
AcDbEntity
  8
direct half
100
AcDbLine
 10
415.2194191220099
 20
208.5962635066074
 30
0.0
 11
415.2194191220099
 21
224.5962635066073
 31
0.0
  0
LINE
  5
33A
330
1F
100
AcDbEntity
  8
direct half
100
AcDbLine
 10
415.2194191220099
 20
208.5962635066074
 30
0.0
 11
414.2194191220099
 21
208.5962635066074
 31
0.0
  0
LINE
  5
33B
330
1F
100
AcDbEntity
  8
direct half
100
AcDbLine
 10
417.2194191220099
 20
208.5962635066074
 30
0.0
 11
417.2194191220099
 21
224.5962635066073
 31
0.0
  0
LINE
  5
33C
330
1F
100
AcDbEntity
  8
direct half
100
AcDbLine
 10
412.2194191220099
 20
208.5962635066074
 30
0.0
 11
412.2194191220099
 21
224.5962635066073
 31
0.0
  0
LINE
  5
33D
330
1F
100
AcDbEntity
  8
direct half
100
AcDbLine
 10
414.2194191220099
 20
208.5962635066074
 30
0.0
 11
414.2194191220099
 21
224.5962635066073
 31
0.0
  0
LINE
  5
33E
330
1F
100
AcDbEntity
  8
direct half
100
AcDbLine
 10
414.2194191220099
 20
224.5962635066073
 30
0.0
 11
412.2194191220099
 21
224.5962635066073
 31
0.0
  0
LINE
  5
376
330
1F
100
AcDbEntity
  8
direct half
100
AcDbLine
 10
417.2194191220099
 20
104.5962635066073
 30
0.0
 11
415.2194191220099
 21
104.5962635066073
 31
0.0
  0
LINE
  5
377
330
1F
100
AcDbEntity
  8
direct half
100
AcDbLine
 10
415.2194191220099
 20
88.59626350660731
 30
0.0
 11
415.2194191220099
 21
104.5962635066073
 31
0.0
  0
LINE
  5
378
330
1F
100
AcDbEntity
  8
direct half
100
AcDbLine
 10
415.2194191220099
 20
88.59626350660731
 30
0.0
 11
414.2194191220099
 21
88.59626350660731
 31
0.0
  0
LINE
  5
379
330
1F
100
AcDbEntity
  8
direct half
100
AcDbLine
 10
417.2194191220099
 20
88.59626350660731
 30
0.0
 11
417.2194191220099
 21
104.5962635066073
 31
0.0
  0
LINE
  5
37A
330
1F
100
AcDbEntity
  8
direct half
100
AcDbLine
 10
412.2194191220099
 20
88.59626350660731
 30
0.0
 11
412.2194191220099
 21
104.5962635066073
 31
0.0
  0
LINE
  5
37B
330
1F
100
AcDbEntity
  8
direct half
100
AcDbLine
 10
414.2194191220099
 20
88.59626350660731
 30
0.0
 11
414.2194191220099
 21
104.5962635066073
 31
0.0
  0
LINE
  5
37C
330
1F
100
AcDbEntity
  8
direct half
100
AcDbLine
 10
414.2194191220099
 20
104.5962635066073
 30
0.0
 11
412.2194191220099
 21
104.5962635066073
 31
0.0
  0
LINE
  5
412
330
1F
100
AcDbEntity
  8
0
100
AcDbLine
 10
410.4166523972301
 20
281.9056164327311
 30
0.0
 11
100.4166523972301
 21
281.9056164327311
 31
0.0
  0
LINE
  5
413
330
1F
100
AcDbEntity
  8
0
100
AcDbLine
 10
430.4166523972301
 20
301.9056164327311
 30
0.0
 11
430.4166523972301
 21
541.9056164327311
 31
0.0
  0
LINE
  5
414
330
1F
100
AcDbEntity
  8
0
100
AcDbLine
 10
80.41665239723011
 20
301.9056164327311
 30
0.0
 11
80.41665239723011
 21
541.9056164327311
 31
0.0
  0
LINE
  5
415
330
1F
100
AcDbEntity
  8
0
100
AcDbLine
 10
430.4166523972301
 20
541.9056164327311
 30
0.0
 11
80.41665239723011
 21
541.9056164327311
 31
0.0
  0
ARC
  5
41F
330
1F
100
AcDbEntity
  8
0
100
AcDbCircle
 10
100.4166523972301
 20
301.9056164327311
 30
0.0
 40
20.0
100
AcDbArc
 50
180.0
 51
270.0
  0
ARC
  5
420
330
1F
100
AcDbEntity
  8
0
100
AcDbCircle
 10
410.4166523972301
 20
301.9056164327311
 30
0.0
 40
20.0
100
AcDbArc
 50
270.0
 51
0.0
  0
LINE
  5
421
330
1F
100
AcDbEntity
  8
inside half
100
AcDbLine
 10
419.4166523972301
 20
501.9056164327311
 30
0.0
 11
410.4166523972301
 21
501.9056164327311
 31
0.0
  0
LINE
  5
422
330
1F
100
AcDbEntity
  8
inside half
100
AcDbLine
 10
419.4166523972301
 20
481.9056164327311
 30
0.0
 11
410.4166523972301
 21
481.9056164327311
 31
0.0
  0
LINE
  5
423
330
1F
100
AcDbEntity
  8
inside half
100
AcDbLine
 10
419.4166523972301
 20
381.9056164327311
 30
0.0
 11
410.4166523972301
 21
381.9056164327311
 31
0.0
  0
LINE
  5
424
330
1F
100
AcDbEntity
  8
inside half
100
AcDbLine
 10
100.4166523972301
 20
361.9056164327311
 30
0.0
 11
91.41665239723011
 21
361.9056164327311
 31
0.0
  0
LINE
  5
425
330
1F
100
AcDbEntity
  8
inside half
100
AcDbLine
 10
419.4166523972301
 20
361.9056164327311
 30
0.0
 11
410.4166523972301
 21
361.9056164327311
 31
0.0
  0
LINE
  5
426
330
1F
100
AcDbEntity
  8
inside half
100
AcDbLine
 10
100.4166523972301
 20
481.9056164327311
 30
0.0
 11
91.41665239723011
 21
481.9056164327311
 31
0.0
  0
LINE
  5
427
330
1F
100
AcDbEntity
  8
inside half
100
AcDbLine
 10
100.4166523972301
 20
381.9056164327311
 30
0.0
 11
91.41665239723011
 21
381.9056164327311
 31
0.0
  0
LINE
  5
428
330
1F
100
AcDbEntity
  8
inside half
100
AcDbLine
 10
100.4166523972301
 20
501.9056164327311
 30
0.0
 11
91.41665239723011
 21
501.9056164327311
 31
0.0
  0
LINE
  5
429
330
1F
100
AcDbEntity
  8
inside half
100
AcDbLine
 10
360.4166523972301
 20
292.9056164327311
 30
0.0
 11
360.4166523972301
 21
301.9056164327311
 31
0.0
  0
LINE
  5
42A
330
1F
100
AcDbEntity
  8
inside half
100
AcDbLine
 10
380.4166523972301
 20
292.9056164327311
 30
0.0
 11
380.4166523972301
 21
301.9056164327311
 31
0.0
  0
LINE
  5
42B
330
1F
100
AcDbEntity
  8
inside half
100
AcDbLine
 10
130.4166523972301
 20
292.9056164327311
 30
0.0
 11
130.4166523972301
 21
301.9056164327311
 31
0.0
  0
LINE
  5
42C
330
1F
100
AcDbEntity
  8
inside half
100
AcDbLine
 10
380.4166523972301
 20
523.9056164327311
 30
0.0
 11
380.4166523972301
 21
532.9056164327311
 31
0.0
  0
LINE
  5
42D
330
1F
100
AcDbEntity
  8
inside half
100
AcDbLine
 10
150.4166523972301
 20
292.9056164327311
 30
0.0
 11
150.4166523972301
 21
301.9056164327311
 31
0.0
  0
LINE
  5
42E
330
1F
100
AcDbEntity
  8
inside half
100
AcDbLine
 10
360.4166523972301
 20
523.9056164327311
 30
0.0
 11
360.4166523972301
 21
532.9056164327311
 31
0.0
  0
LINE
  5
42F
330
1F
100
AcDbEntity
  8
inside half
100
AcDbLine
 10
150.4166523972301
 20
523.9056164327311
 30
0.0
 11
150.4166523972301
 21
532.9056164327311
 31
0.0
  0
LINE
  5
430
330
1F
100
AcDbEntity
  8
inside half
100
AcDbLine
 10
130.4166523972301
 20
523.9056164327311
 30
0.0
 11
130.4166523972301
 21
532.9056164327311
 31
0.0
  0
LINE
  5
436
330
1F
100
AcDbEntity
  8
inside half
100
AcDbLine
 10
419.4166523972301
 20
501.9056164327311
 30
0.0
 11
419.4166523972301
 21
481.9056164327311
 31
0.0
  0
LINE
  5
437
330
1F
100
AcDbEntity
  8
inside half
100
AcDbLine
 10
410.4166523972301
 20
501.9056164327311
 30
0.0
 11
410.4166523972301
 21
481.9056164327311
 31
0.0
  0
LINE
  5
438
330
1F
100
AcDbEntity
  8
inside half
100
AcDbLine
 10
419.4166523972301
 20
381.9056164327311
 30
0.0
 11
419.4166523972301
 21
361.9056164327311
 31
0.0
  0
LINE
  5
439
330
1F
100
AcDbEntity
  8
inside half
100
AcDbLine
 10
410.4166523972301
 20
381.9056164327311
 30
0.0
 11
410.4166523972301
 21
361.9056164327311
 31
0.0
  0
LINE
  5
43A
330
1F
100
AcDbEntity
  8
inside half
100
AcDbLine
 10
380.4166523972301
 20
301.9056164327311
 30
0.0
 11
360.4166523972301
 21
301.9056164327311
 31
0.0
  0
LINE
  5
43B
330
1F
100
AcDbEntity
  8
inside half
100
AcDbLine
 10
380.4166523972301
 20
292.9056164327311
 30
0.0
 11
360.4166523972301
 21
292.9056164327311
 31
0.0
  0
LINE
  5
43C
330
1F
100
AcDbEntity
  8
inside half
100
AcDbLine
 10
150.4166523972301
 20
301.9056164327311
 30
0.0
 11
130.4166523972301
 21
301.9056164327311
 31
0.0
  0
LINE
  5
43D
330
1F
100
AcDbEntity
  8
inside half
100
AcDbLine
 10
150.4166523972301
 20
292.9056164327311
 30
0.0
 11
130.4166523972301
 21
292.9056164327311
 31
0.0
  0
LINE
  5
43E
330
1F
100
AcDbEntity
  8
inside half
100
AcDbLine
 10
100.4166523972301
 20
361.9056164327311
 30
0.0
 11
100.4166523972301
 21
381.9056164327311
 31
0.0
  0
LINE
  5
43F
330
1F
100
AcDbEntity
  8
inside half
100
AcDbLine
 10
91.41665239723011
 20
361.9056164327311
 30
0.0
 11
91.41665239723011
 21
381.9056164327311
 31
0.0
  0
LINE
  5
440
330
1F
100
AcDbEntity
  8
inside half
100
AcDbLine
 10
100.4166523972301
 20
501.9056164327311
 30
0.0
 11
100.4166523972301
 21
481.9056164327311
 31
0.0
  0
LINE
  5
441
330
1F
100
AcDbEntity
  8
inside half
100
AcDbLine
 10
91.41665239723011
 20
501.9056164327311
 30
0.0
 11
91.41665239723011
 21
481.9056164327311
 31
0.0
  0
LINE
  5
442
330
1F
100
AcDbEntity
  8
inside half
100
AcDbLine
 10
380.4166523972301
 20
523.9056164327311
 30
0.0
 11
360.4166523972301
 21
523.9056164327311
 31
0.0
  0
LINE
  5
443
330
1F
100
AcDbEntity
  8
inside half
100
AcDbLine
 10
150.4166523972301
 20
523.9056164327311
 30
0.0
 11
130.4166523972301
 21
523.9056164327311
 31
0.0
  0
LINE
  5
444
330
1F
100
AcDbEntity
  8
inside half
100
AcDbLine
 10
380.4166523972301
 20
532.9056164327311
 30
0.0
 11
360.4166523972301
 21
532.9056164327311
 31
0.0
  0
LINE
  5
445
330
1F
100
AcDbEntity
  8
inside half
100
AcDbLine
 10
150.4166523972301
 20
532.9056164327311
 30
0.0
 11
130.4166523972301
 21
532.9056164327311
 31
0.0
  0
LINE
  5
446
330
1F
100
AcDbEntity
  8
direct half
100
AcDbLine
 10
362.4166523972301
 20
294.9056164327311
 30
0.0
 11
362.4166523972301
 21
296.9056164327311
 31
0.0
  0
LINE
  5
447
330
1F
100
AcDbEntity
  8
direct half
100
AcDbLine
 10
378.4166523972301
 20
296.9056164327311
 30
0.0
 11
362.4166523972301
 21
296.9056164327311
 31
0.0
  0
LINE
  5
448
330
1F
100
AcDbEntity
  8
direct half
100
AcDbLine
 10
362.4166523972301
 20
297.9056164327311
 30
0.0
 11
362.4166523972301
 21
299.9056164327311
 31
0.0
  0
LINE
  5
449
330
1F
100
AcDbEntity
  8
direct half
100
AcDbLine
 10
378.4166523972301
 20
299.9056164327311
 30
0.0
 11
362.4166523972301
 21
299.9056164327311
 31
0.0
  0
LINE
  5
44A
330
1F
100
AcDbEntity
  8
direct half
100
AcDbLine
 10
378.4166523972301
 20
294.9056164327311
 30
0.0
 11
362.4166523972301
 21
294.9056164327311
 31
0.0
  0
LINE
  5
44B
330
1F
100
AcDbEntity
  8
direct half
100
AcDbLine
 10
378.4166523972301
 20
296.9056164327311
 30
0.0
 11
378.4166523972301
 21
297.9056164327311
 31
0.0
  0
LINE
  5
44C
330
1F
100
AcDbEntity
  8
direct half
100
AcDbLine
 10
378.4166523972301
 20
297.9056164327311
 30
0.0
 11
362.4166523972301
 21
297.9056164327311
 31
0.0
  0
LINE
  5
44D
330
1F
100
AcDbEntity
  8
direct half
100
AcDbLine
 10
132.4166523972301
 20
294.9056164327311
 30
0.0
 11
132.4166523972301
 21
296.9056164327311
 31
0.0
  0
LINE
  5
44E
330
1F
100
AcDbEntity
  8
direct half
100
AcDbLine
 10
148.4166523972301
 20
296.9056164327311
 30
0.0
 11
132.4166523972301
 21
296.9056164327311
 31
0.0
  0
LINE
  5
44F
330
1F
100
AcDbEntity
  8
direct half
100
AcDbLine
 10
148.4166523972301
 20
296.9056164327311
 30
0.0
 11
148.4166523972301
 21
297.9056164327311
 31
0.0
  0
LINE
  5
450
330
1F
100
AcDbEntity
  8
direct half
100
AcDbLine
 10
148.4166523972301
 20
294.9056164327311
 30
0.0
 11
132.4166523972301
 21
294.9056164327311
 31
0.0
  0
LINE
  5
451
330
1F
100
AcDbEntity
  8
direct half
100
AcDbLine
 10
148.4166523972301
 20
299.9056164327311
 30
0.0
 11
132.4166523972301
 21
299.9056164327311
 31
0.0
  0
LINE
  5
452
330
1F
100
AcDbEntity
  8
direct half
100
AcDbLine
 10
148.4166523972301
 20
297.9056164327311
 30
0.0
 11
132.4166523972301
 21
297.9056164327311
 31
0.0
  0
LINE
  5
453
330
1F
100
AcDbEntity
  8
direct half
100
AcDbLine
 10
132.4166523972301
 20
297.9056164327311
 30
0.0
 11
132.4166523972301
 21
299.9056164327311
 31
0.0
  0
LINE
  5
454
330
1F
100
AcDbEntity
  8
direct half
100
AcDbLine
 10
362.4166523972301
 20
525.9056164327311
 30
0.0
 11
362.4166523972301
 21
527.9056164327311
 31
0.0
  0
LINE
  5
455
330
1F
100
AcDbEntity
  8
direct half
100
AcDbLine
 10
378.4166523972301
 20
527.9056164327311
 30
0.0
 11
362.4166523972301
 21
527.9056164327311
 31
0.0
  0
LINE
  5
456
330
1F
100
AcDbEntity
  8
direct half
100
AcDbLine
 10
378.4166523972301
 20
527.9056164327311
 30
0.0
 11
378.4166523972301
 21
528.9056164327311
 31
0.0
  0
LINE
  5
457
330
1F
100
AcDbEntity
  8
direct half
100
AcDbLine
 10
378.4166523972301
 20
525.9056164327311
 30
0.0
 11
362.4166523972301
 21
525.9056164327311
 31
0.0
  0
LINE
  5
458
330
1F
100
AcDbEntity
  8
direct half
100
AcDbLine
 10
378.4166523972301
 20
530.9056164327311
 30
0.0
 11
362.4166523972301
 21
530.9056164327311
 31
0.0
  0
LINE
  5
459
330
1F
100
AcDbEntity
  8
direct half
100
AcDbLine
 10
378.4166523972301
 20
528.9056164327311
 30
0.0
 11
362.4166523972301
 21
528.9056164327311
 31
0.0
  0
LINE
  5
45A
330
1F
100
AcDbEntity
  8
direct half
100
AcDbLine
 10
362.4166523972301
 20
528.9056164327311
 30
0.0
 11
362.4166523972301
 21
530.9056164327311
 31
0.0
  0
LINE
  5
45B
330
1F
100
AcDbEntity
  8
direct half
100
AcDbLine
 10
132.4166523972301
 20
525.9056164327311
 30
0.0
 11
132.4166523972301
 21
527.9056164327311
 31
0.0
  0
LINE
  5
45C
330
1F
100
AcDbEntity
  8
direct half
100
AcDbLine
 10
148.4166523972301
 20
527.9056164327311
 30
0.0
 11
132.4166523972301
 21
527.9056164327311
 31
0.0
  0
LINE
  5
45D
330
1F
100
AcDbEntity
  8
direct half
100
AcDbLine
 10
148.4166523972301
 20
527.9056164327311
 30
0.0
 11
148.4166523972301
 21
528.9056164327311
 31
0.0
  0
LINE
  5
45E
330
1F
100
AcDbEntity
  8
direct half
100
AcDbLine
 10
148.4166523972301
 20
525.9056164327311
 30
0.0
 11
132.4166523972301
 21
525.9056164327311
 31
0.0
  0
LINE
  5
45F
330
1F
100
AcDbEntity
  8
direct half
100
AcDbLine
 10
148.4166523972301
 20
530.9056164327311
 30
0.0
 11
132.4166523972301
 21
530.9056164327311
 31
0.0
  0
LINE
  5
460
330
1F
100
AcDbEntity
  8
direct half
100
AcDbLine
 10
148.4166523972301
 20
528.9056164327311
 30
0.0
 11
132.4166523972301
 21
528.9056164327311
 31
0.0
  0
LINE
  5
461
330
1F
100
AcDbEntity
  8
direct half
100
AcDbLine
 10
132.4166523972301
 20
528.9056164327311
 30
0.0
 11
132.4166523972301
 21
530.9056164327311
 31
0.0
  0
LINE
  5
462
330
1F
100
AcDbEntity
  8
direct half
100
AcDbLine
 10
412.4166523972301
 20
379.9056164327311
 30
0.0
 11
414.4166523972301
 21
379.9056164327311
 31
0.0
  0
LINE
  5
463
330
1F
100
AcDbEntity
  8
direct half
100
AcDbLine
 10
414.4166523972301
 20
363.9056164327311
 30
0.0
 11
414.4166523972301
 21
379.9056164327311
 31
0.0
  0
LINE
  5
464
330
1F
100
AcDbEntity
  8
direct half
100
AcDbLine
 10
414.4166523972301
 20
363.9056164327311
 30
0.0
 11
415.4166523972301
 21
363.9056164327311
 31
0.0
  0
LINE
  5
465
330
1F
100
AcDbEntity
  8
direct half
100
AcDbLine
 10
412.4166523972301
 20
363.9056164327311
 30
0.0
 11
412.4166523972301
 21
379.9056164327311
 31
0.0
  0
LINE
  5
466
330
1F
100
AcDbEntity
  8
direct half
100
AcDbLine
 10
417.4166523972301
 20
363.9056164327311
 30
0.0
 11
417.4166523972301
 21
379.9056164327311
 31
0.0
  0
LINE
  5
467
330
1F
100
AcDbEntity
  8
direct half
100
AcDbLine
 10
415.4166523972301
 20
363.9056164327311
 30
0.0
 11
415.4166523972301
 21
379.9056164327311
 31
0.0
  0
LINE
  5
468
330
1F
100
AcDbEntity
  8
direct half
100
AcDbLine
 10
415.4166523972301
 20
379.9056164327311
 30
0.0
 11
417.4166523972301
 21
379.9056164327311
 31
0.0
  0
LINE
  5
469
330
1F
100
AcDbEntity
  8
direct half
100
AcDbLine
 10
412.4166523972301
 20
499.9056164327311
 30
0.0
 11
414.4166523972301
 21
499.9056164327311
 31
0.0
  0
LINE
  5
46A
330
1F
100
AcDbEntity
  8
direct half
100
AcDbLine
 10
414.4166523972301
 20
483.9056164327311
 30
0.0
 11
414.4166523972301
 21
499.9056164327311
 31
0.0
  0
LINE
  5
46B
330
1F
100
AcDbEntity
  8
direct half
100
AcDbLine
 10
414.4166523972301
 20
483.9056164327311
 30
0.0
 11
415.4166523972301
 21
483.9056164327311
 31
0.0
  0
LINE
  5
46C
330
1F
100
AcDbEntity
  8
direct half
100
AcDbLine
 10
412.4166523972301
 20
483.9056164327311
 30
0.0
 11
412.4166523972301
 21
499.9056164327311
 31
0.0
  0
LINE
  5
46D
330
1F
100
AcDbEntity
  8
direct half
100
AcDbLine
 10
417.4166523972301
 20
483.9056164327311
 30
0.0
 11
417.4166523972301
 21
499.9056164327311
 31
0.0
  0
LINE
  5
46E
330
1F
100
AcDbEntity
  8
direct half
100
AcDbLine
 10
415.4166523972301
 20
483.9056164327311
 30
0.0
 11
415.4166523972301
 21
499.9056164327311
 31
0.0
  0
LINE
  5
46F
330
1F
100
AcDbEntity
  8
direct half
100
AcDbLine
 10
415.4166523972301
 20
499.9056164327311
 30
0.0
 11
417.4166523972301
 21
499.9056164327311
 31
0.0
  0
LINE
  5
470
330
1F
100
AcDbEntity
  8
direct half
100
AcDbLine
 10
93.41665239723011
 20
499.9056164327311
 30
0.0
 11
95.41665239723011
 21
499.9056164327311
 31
0.0
  0
LINE
  5
471
330
1F
100
AcDbEntity
  8
direct half
100
AcDbLine
 10
95.41665239723011
 20
483.9056164327311
 30
0.0
 11
95.41665239723011
 21
499.9056164327311
 31
0.0
  0
LINE
  5
472
330
1F
100
AcDbEntity
  8
direct half
100
AcDbLine
 10
95.41665239723011
 20
483.9056164327311
 30
0.0
 11
96.41665239723011
 21
483.9056164327311
 31
0.0
  0
LINE
  5
473
330
1F
100
AcDbEntity
  8
direct half
100
AcDbLine
 10
93.41665239723011
 20
483.9056164327311
 30
0.0
 11
93.41665239723011
 21
499.9056164327311
 31
0.0
  0
LINE
  5
474
330
1F
100
AcDbEntity
  8
direct half
100
AcDbLine
 10
98.41665239723011
 20
483.9056164327311
 30
0.0
 11
98.41665239723011
 21
499.9056164327311
 31
0.0
  0
LINE
  5
475
330
1F
100
AcDbEntity
  8
direct half
100
AcDbLine
 10
96.41665239723011
 20
483.9056164327311
 30
0.0
 11
96.41665239723011
 21
499.9056164327311
 31
0.0
  0
LINE
  5
476
330
1F
100
AcDbEntity
  8
direct half
100
AcDbLine
 10
96.41665239723011
 20
499.9056164327311
 30
0.0
 11
98.41665239723011
 21
499.9056164327311
 31
0.0
  0
LINE
  5
477
330
1F
100
AcDbEntity
  8
direct half
100
AcDbLine
 10
93.41665239723011
 20
379.905616432731
 30
0.0
 11
95.41665239723011
 21
379.905616432731
 31
0.0
  0
LINE
  5
478
330
1F
100
AcDbEntity
  8
direct half
100
AcDbLine
 10
95.41665239723011
 20
363.9056164327311
 30
0.0
 11
95.41665239723011
 21
379.905616432731
 31
0.0
  0
LINE
  5
479
330
1F
100
AcDbEntity
  8
direct half
100
AcDbLine
 10
95.41665239723011
 20
363.9056164327311
 30
0.0
 11
96.41665239723011
 21
363.9056164327311
 31
0.0
  0
LINE
  5
47A
330
1F
100
AcDbEntity
  8
direct half
100
AcDbLine
 10
93.41665239723011
 20
363.9056164327311
 30
0.0
 11
93.41665239723011
 21
379.905616432731
 31
0.0
  0
LINE
  5
47B
330
1F
100
AcDbEntity
  8
direct half
100
AcDbLine
 10
98.41665239723011
 20
363.9056164327311
 30
0.0
 11
98.41665239723011
 21
379.905616432731
 31
0.0
  0
LINE
  5
47C
330
1F
100
AcDbEntity
  8
direct half
100
AcDbLine
 10
96.41665239723011
 20
363.9056164327311
 30
0.0
 11
96.41665239723011
 21
379.905616432731
 31
0.0
  0
LINE
  5
47D
330
1F
100
AcDbEntity
  8
direct half
100
AcDbLine
 10
96.41665239723011
 20
379.905616432731
 30
0.0
 11
98.41665239723011
 21
379.905616432731
 31
0.0
  0
LINE
  5
4AA
330
1F
100
AcDbEntity
  8
0
100
AcDbLine
 10
500.0
 20
60.0
 30
0.0
 11
560.0
 21
59.99999999999997
 31
0.0
  0
LINE
  5
4AB
330
1F
100
AcDbEntity
  8
0
100
AcDbLine
 10
680.0
 20
64.0
 30
0.0
 11
680.0
 21
59.99999999999989
 31
0.0
  0
LINE
  5
4AC
330
1F
100
AcDbEntity
  8
0
100
AcDbLine
 10
700.0
 20
64.0
 30
0.0
 11
700.0
 21
59.99999999999989
 31
0.0
  0
LINE
  5
4AD
330
1F
100
AcDbEntity
  8
0
100
AcDbLine
 10
580.0
 20
64.0
 30
0.0
 11
580.0
 21
60.0
 31
0.0
  0
LINE
  5
4AE
330
1F
100
AcDbEntity
  8
0
100
AcDbLine
 10
560.0
 20
64.0
 30
0.0
 11
560.0
 21
60.0
 31
0.0
  0
LINE
  5
4D9
330
1F
100
AcDbEntity
  8
0
100
AcDbLine
 10
500.0
 20
-0.0000000000001137
 30
0.0
 11
560.0
 21
-0.0000000000000853
 31
0.0
  0
LINE
  5
4DA
330
1F
100
AcDbEntity
  8
0
100
AcDbLine
 10
680.0
 20
-4.000000000000114
 30
0.0
 11
680.0
 21
0.0
 31
0.0
  0
LINE
  5
4DB
330
1F
100
AcDbEntity
  8
0
100
AcDbLine
 10
700.0
 20
-4.000000000000114
 30
0.0
 11
700.0
 21
0.0
 31
0.0
  0
LINE
  5
4DC
330
1F
100
AcDbEntity
  8
0
100
AcDbLine
 10
580.0
 20
-4.000000000000114
 30
0.0
 11
580.0
 21
-0.0000000000001137
 31
0.0
  0
LINE
  5
4DD
330
1F
100
AcDbEntity
  8
0
100
AcDbLine
 10
560.0
 20
-4.000000000000114
 30
0.0
 11
560.0
 21
-0.0000000000001137
 31
0.0
  0
LINE
  5
4DE
330
1F
100
AcDbEntity
  8
0
100
AcDbLine
 10
500.0
 20
60.0
 30
0.0
 11
500.0
 21
-0.0000000000001137
 31
0.0
  0
LINE
  5
4DF
330
1F
100
AcDbEntity
  8
0
100
AcDbLine
 10
740.0
 20
59.99999999999989
 30
0.0
 11
740.0
 21
0.0
 31
0.0
  0
LINE
  5
4E0
330
1F
100
AcDbEntity
  8
0
100
AcDbLine
 10
560.0
 20
64.0
 30
0.0
 11
580.0
 21
64.0
 31
0.0
  0
LINE
  5
4E1
330
1F
100
AcDbEntity
  8
0
100
AcDbLine
 10
680.0
 20
64.0
 30
0.0
 11
700.0
 21
64.0
 31
0.0
  0
LINE
  5
4E2
330
1F
100
AcDbEntity
  8
0
100
AcDbLine
 10
560.0
 20
-4.000000000000114
 30
0.0
 11
580.0
 21
-4.000000000000114
 31
0.0
  0
LINE
  5
4E3
330
1F
100
AcDbEntity
  8
0
100
AcDbLine
 10
680.0
 20
-4.000000000000114
 30
0.0
 11
700.0
 21
-4.000000000000114
 31
0.0
  0
LINE
  5
4E4
330
1F
100
AcDbEntity
  8
0
100
AcDbLine
 10
580.0
 20
-0.0000000000000758
 30
0.0
 11
680.0
 21
-0.0000000000000284
 31
0.0
  0
LINE
  5
4E5
330
1F
100
AcDbEntity
  8
0
100
AcDbLine
 10
580.0
 20
59.99999999999996
 30
0.0
 11
680.0
 21
59.99999999999991
 31
0.0
  0
LINE
  5
4E6
330
1F
100
AcDbEntity
  8
0
100
AcDbLine
 10
700.0
 20
59.99999999999991
 30
0.0
 11
740.0
 21
59.99999999999989
 31
0.0
  0
LINE
  5
4E7
330
1F
100
AcDbEntity
  8
0
100
AcDbLine
 10
700.0
 20
-0.0000000000000189
 30
0.0
 11
740.0
 21
0.0
 31
0.0
  0
LINE
  5
521
330
1F
100
AcDbEntity
  8
0
100
AcDbLine
 10
680.9634582623044
 20
161.8648695549531
 30
0.0
 11
680.9634582623044
 21
157.864869554953
 31
0.0
  0
LINE
  5
522
330
1F
100
AcDbEntity
  8
0
100
AcDbLine
 10
700.9634582623044
 20
161.8648695549531
 30
0.0
 11
700.9634582623044
 21
157.864869554953
 31
0.0
  0
LINE
  5
523
330
1F
100
AcDbEntity
  8
0
100
AcDbLine
 10
580.9634582623044
 20
161.8648695549531
 30
0.0
 11
580.9634582623044
 21
157.8648695549531
 31
0.0
  0
LINE
  5
524
330
1F
100
AcDbEntity
  8
0
100
AcDbLine
 10
560.9634582623044
 20
161.8648695549531
 30
0.0
 11
560.9634582623044
 21
157.8648695549531
 31
0.0
  0
LINE
  5
525
330
1F
100
AcDbEntity
  8
0
100
AcDbLine
 10
680.9634582623044
 20
93.86486955495303
 30
0.0
 11
680.9634582623044
 21
97.86486955495315
 31
0.0
  0
LINE
  5
526
330
1F
100
AcDbEntity
  8
0
100
AcDbLine
 10
700.9634582623044
 20
93.86486955495303
 30
0.0
 11
700.9634582623044
 21
97.86486955495315
 31
0.0
  0
LINE
  5
527
330
1F
100
AcDbEntity
  8
0
100
AcDbLine
 10
580.9634582623044
 20
93.86486955495303
 30
0.0
 11
580.9634582623044
 21
97.86486955495303
 31
0.0
  0
LINE
  5
528
330
1F
100
AcDbEntity
  8
0
100
AcDbLine
 10
560.9634582623044
 20
93.86486955495303
 30
0.0
 11
560.9634582623044
 21
97.86486955495303
 31
0.0
  0
LINE
  5
529
330
1F
100
AcDbEntity
  8
0
100
AcDbLine
 10
500.9634582623044
 20
157.8648695549531
 30
0.0
 11
500.9634582623044
 21
97.86486955495303
 31
0.0
  0
LINE
  5
52A
330
1F
100
AcDbEntity
  8
0
100
AcDbLine
 10
740.9634582623044
 20
157.864869554953
 30
0.0
 11
740.9634582623044
 21
97.86486955495315
 31
0.0
  0
LINE
  5
52B
330
1F
100
AcDbEntity
  8
0
100
AcDbLine
 10
560.9634582623044
 20
161.8648695549531
 30
0.0
 11
580.9634582623044
 21
161.8648695549531
 31
0.0
  0
LINE
  5
52C
330
1F
100
AcDbEntity
  8
0
100
AcDbLine
 10
680.9634582623044
 20
161.8648695549531
 30
0.0
 11
700.9634582623044
 21
161.8648695549531
 31
0.0
  0
LINE
  5
52D
330
1F
100
AcDbEntity
  8
0
100
AcDbLine
 10
560.9634582623044
 20
93.86486955495303
 30
0.0
 11
580.9634582623044
 21
93.86486955495303
 31
0.0
  0
LINE
  5
52E
330
1F
100
AcDbEntity
  8
0
100
AcDbLine
 10
680.9634582623044
 20
93.86486955495303
 30
0.0
 11
700.9634582623044
 21
93.86486955495303
 31
0.0
  0
LINE
  5
52F
330
1F
100
AcDbEntity
  8
0
100
AcDbLine
 10
500.9634582623044
 20
97.86486955495303
 30
0.0
 11
560.9634582623044
 21
97.86486955495306
 31
0.0
  0
LINE
  5
530
330
1F
100
AcDbEntity
  8
0
100
AcDbLine
 10
700.9634582623044
 20
157.8648695549531
 30
0.0
 11
740.9634582623044
 21
157.864869554953
 31
0.0
  0
LINE
  5
531
330
1F
100
AcDbEntity
  8
0
100
AcDbLine
 10
500.9634582623044
 20
157.8648695549531
 30
0.0
 11
560.9634582623044
 21
157.8648695549531
 31
0.0
  0
LINE
  5
532
330
1F
100
AcDbEntity
  8
0
100
AcDbLine
 10
700.9634582623044
 20
97.86486955495313
 30
0.0
 11
740.9634582623044
 21
97.86486955495315
 31
0.0
  0
LINE
  5
533
330
1F
100
AcDbEntity
  8
0
100
AcDbLine
 10
580.9634582623044
 20
157.8648695549531
 30
0.0
 11
680.9634582623044
 21
157.8648695549531
 31
0.0
  0
LINE
  5
534
330
1F
100
AcDbEntity
  8
0
100
AcDbLine
 10
580.9634582623044
 20
97.86486955495307
 30
0.0
 11
680.9634582623044
 21
97.86486955495312
 31
0.0
  0
LINE
  5
564
330
1F
100
AcDbEntity
  8
0
100
AcDbLine
 10
469.7869401775913
 20
190.9448961418321
 30
0.0
 11
508.7869401775913
 21
190.9448961418321
 31
0.0
  0
LINE
  5
565
330
1F
100
AcDbEntity
  8
0
100
AcDbLine
 10
469.7869401775913
 20
250.9448961418321
 30
0.0
 11
508.7869401775913
 21
250.9448961418321
 31
0.0
  0
LINE
  5
567
330
1F
100
AcDbEntity
  8
0
100
AcDbLine
 10
508.7869401775913
 20
186.9448961418321
 30
0.0
 11
508.7869401775913
 21
190.9448961418321
 31
0.0
  0
LINE
  5
568
330
1F
100
AcDbEntity
  8
0
100
AcDbLine
 10
528.7869401775913
 20
186.9448961418321
 30
0.0
 11
528.7869401775913
 21
190.9448961418321
 31
0.0
  0
LINE
  5
56A
330
1F
100
AcDbEntity
  8
0
100
AcDbLine
 10
738.7869401775913
 20
186.9448961418321
 30
0.0
 11
738.7869401775913
 21
190.9448961418321
 31
0.0
  0
LINE
  5
56B
330
1F
100
AcDbEntity
  8
0
100
AcDbLine
 10
758.7869401775913
 20
186.9448961418321
 30
0.0
 11
758.7869401775913
 21
190.9448961418321
 31
0.0
  0
LINE
  5
56C
330
1F
100
AcDbEntity
  8
0
100
AcDbLine
 10
469.7869401775913
 20
190.9448961418321
 30
0.0
 11
469.7869401775913
 21
250.9448961418321
 31
0.0
  0
LINE
  5
56D
330
1F
100
AcDbEntity
  8
0
100
AcDbLine
 10
797.7869401775913
 20
190.9448961418321
 30
0.0
 11
797.7869401775913
 21
250.9448961418321
 31
0.0
  0
LINE
  5
56E
330
1F
100
AcDbEntity
  8
0
100
AcDbLine
 10
508.7869401775913
 20
254.9448961418321
 30
0.0
 11
528.7869401775913
 21
254.9448961418321
 31
0.0
  0
LINE
  5
56F
330
1F
100
AcDbEntity
  8
0
100
AcDbLine
 10
738.7869401775913
 20
254.9448961418321
 30
0.0
 11
758.7869401775913
 21
254.9448961418321
 31
0.0
  0
LINE
  5
570
330
1F
100
AcDbEntity
  8
0
100
AcDbLine
 10
508.7869401775913
 20
186.9448961418321
 30
0.0
 11
528.7869401775913
 21
186.9448961418321
 31
0.0
  0
LINE
  5
571
330
1F
100
AcDbEntity
  8
0
100
AcDbLine
 10
738.7869401775913
 20
186.9448961418321
 30
0.0
 11
758.7869401775913
 21
186.9448961418321
 31
0.0
  0
CIRCLE
  5
572
330
1F
100
AcDbEntity
  8
inside all
100
AcDbCircle
 10
493.7869401775913
 20
220.9448961418321
 30
0.0
 40
12.0
  0
CIRCLE
  5
573
330
1F
100
AcDbEntity
  8
inside all
100
AcDbCircle
 10
698.7869401775913
 20
220.9448961418321
 30
0.0
 40
12.0
  0
CIRCLE
  5
574
330
1F
100
AcDbEntity
  8
inside all
100
AcDbCircle
 10
758.7869401775913
 20
220.9448961418321
 30
0.0
 40
12.0
  0
LINE
  5
575
330
1F
100
AcDbEntity
  8
0
100
AcDbLine
 10
528.7869401775913
 20
250.9448961418321
 30
0.0
 11
738.7869401775913
 21
250.9448961418321
 31
0.0
  0
LINE
  5
576
330
1F
100
AcDbEntity
  8
0
100
AcDbLine
 10
508.7869401775913
 20
250.9448961418321
 30
0.0
 11
508.7869401775913
 21
254.9448961418321
 31
0.0
  0
LINE
  5
577
330
1F
100
AcDbEntity
  8
0
100
AcDbLine
 10
528.7869401775913
 20
250.9448961418321
 30
0.0
 11
528.7869401775913
 21
254.9448961418321
 31
0.0
  0
LINE
  5
578
330
1F
100
AcDbEntity
  8
0
100
AcDbLine
 10
528.7869401775913
 20
190.9448961418321
 30
0.0
 11
738.7869401775913
 21
190.9448961418321
 31
0.0
  0
LINE
  5
579
330
1F
100
AcDbEntity
  8
0
100
AcDbLine
 10
758.7869401775913
 20
250.9448961418321
 30
0.0
 11
797.7869401775913
 21
250.9448961418321
 31
0.0
  0
LINE
  5
57A
330
1F
100
AcDbEntity
  8
0
100
AcDbLine
 10
738.7869401775913
 20
250.9448961418321
 30
0.0
 11
738.7869401775913
 21
254.9448961418321
 31
0.0
  0
LINE
  5
57B
330
1F
100
AcDbEntity
  8
0
100
AcDbLine
 10
758.7869401775913
 20
250.9448961418321
 30
0.0
 11
758.7869401775913
 21
254.9448961418321
 31
0.0
  0
LINE
  5
57C
330
1F
100
AcDbEntity
  8
0
100
AcDbLine
 10
758.7869401775913
 20
190.9448961418321
 30
0.0
 11
797.7869401775913
 21
190.9448961418321
 31
0.0
  0
LINE
  5
5A8
330
1F
100
AcDbEntity
  8
0
100
AcDbLine
 10
476.7082828787265
 20
344.5748312463859
 30
0.0
 11
506.7082828787265
 21
344.5748312463859
 31
0.0
  0
LINE
  5
5A9
330
1F
100
AcDbEntity
  8
0
100
AcDbLine
 10
506.7082828787265
 20
344.574831246386
 30
0.0
 11
506.7082828787265
 21
348.5748312463859
 31
0.0
  0
LINE
  5
5AA
330
1F
100
AcDbEntity
  8
0
100
AcDbLine
 10
526.7082828787265
 20
344.5748312463859
 30
0.0
 11
526.7082828787265
 21
348.5748312463859
 31
0.0
  0
LINE
  5
5AB
330
1F
100
AcDbEntity
  8
0
100
AcDbLine
 10
756.7082828787265
 20
344.5748312463859
 30
0.0
 11
756.7082828787265
 21
348.5748312463859
 31
0.0
  0
LINE
  5
5AC
330
1F
100
AcDbEntity
  8
0
100
AcDbLine
 10
736.7082828787265
 20
344.5748312463859
 30
0.0
 11
736.7082828787265
 21
348.5748312463859
 31
0.0
  0
LINE
  5
5AD
330
1F
100
AcDbEntity
  8
0
100
AcDbLine
 10
506.7082828787265
 20
348.5748312463859
 30
0.0
 11
526.7082828787265
 21
348.5748312463859
 31
0.0
  0
LINE
  5
5AE
330
1F
100
AcDbEntity
  8
0
100
AcDbLine
 10
736.7082828787265
 20
348.5748312463859
 30
0.0
 11
756.7082828787265
 21
348.5748312463859
 31
0.0
  0
LINE
  5
5AF
330
1F
100
AcDbEntity
  8
0
100
AcDbLine
 10
756.7082828787265
 20
344.5748312463859
 30
0.0
 11
786.7082828787265
 21
344.5748312463859
 31
0.0
  0
LINE
  5
5B0
330
1F
100
AcDbEntity
  8
0
100
AcDbLine
 10
526.7082828787265
 20
344.5748312463859
 30
0.0
 11
736.7082828787265
 21
344.5748312463859
 31
0.0
  0
LINE
  5
5DF
330
1F
100
AcDbEntity
  8
0
100
AcDbLine
 10
506.7082828787265
 20
284.5748312463859
 30
0.0
 11
506.7082828787265
 21
280.5748312463859
 31
0.0
  0
LINE
  5
5E0
330
1F
100
AcDbEntity
  8
0
100
AcDbLine
 10
526.7082828787265
 20
284.5748312463859
 30
0.0
 11
526.7082828787265
 21
280.5748312463859
 31
0.0
  0
LINE
  5
5E1
330
1F
100
AcDbEntity
  8
0
100
AcDbLine
 10
756.7082828787265
 20
284.5748312463859
 30
0.0
 11
756.7082828787265
 21
280.5748312463859
 31
0.0
  0
LINE
  5
5E2
330
1F
100
AcDbEntity
  8
0
100
AcDbLine
 10
736.7082828787265
 20
284.5748312463859
 30
0.0
 11
736.7082828787265
 21
280.5748312463859
 31
0.0
  0
LINE
  5
5E3
330
1F
100
AcDbEntity
  8
0
100
AcDbLine
 10
506.7082828787265
 20
280.5748312463859
 30
0.0
 11
526.7082828787265
 21
280.5748312463859
 31
0.0
  0
LINE
  5
5E4
330
1F
100
AcDbEntity
  8
0
100
AcDbLine
 10
736.7082828787265
 20
280.5748312463859
 30
0.0
 11
756.7082828787265
 21
280.5748312463859
 31
0.0
  0
LINE
  5
5E5
330
1F
100
AcDbEntity
  8
0
100
AcDbLine
 10
756.7082828787265
 20
284.5748312463859
 30
0.0
 11
786.7082828787265
 21
284.5748312463859
 31
0.0
  0
LINE
  5
5E6
330
1F
100
AcDbEntity
  8
0
100
AcDbLine
 10
526.7082828787265
 20
284.5748312463859
 30
0.0
 11
736.7082828787265
 21
284.5748312463859
 31
0.0
  0
LINE
  5
5E7
330
1F
100
AcDbEntity
  8
0
100
AcDbLine
 10
476.7082828787265
 20
284.5748312463859
 30
0.0
 11
506.7082828787265
 21
284.5748312463859
 31
0.0
  0
LINE
  5
5E8
330
1F
100
AcDbEntity
  8
0
100
AcDbLine
 10
476.7082828787265
 20
344.5748312463859
 30
0.0
 11
476.7082828787265
 21
284.5748312463859
 31
0.0
  0
LINE
  5
5E9
330
1F
100
AcDbEntity
  8
0
100
AcDbLine
 10
786.7082828787265
 20
284.5748312463859
 30
0.0
 11
786.7082828787265
 21
344.5748312463859
 31
0.0
  0
LINE
  5
61B
330
1F
100
AcDbEntity
  8
inside all
100
AcDbLine
 10
548.0758101398428
 20
336.9999993490878
 30
0.0
 11
548.0758101398428
 21
295.0
 31
0.0
  0
LINE
  5
61C
330
1F
100
AcDbEntity
  8
inside all
100
AcDbLine
 10
553.0758101398428
 20
290.0
 30
0.0
 11
570.5758101398428
 21
290.0
 31
0.0
  0
LINE
  5
61D
330
1F
100
AcDbEntity
  8
inside all
100
AcDbLine
 10
575.5758101398428
 20
295.0
 30
0.0
 11
575.5758101398428
 21
337.0000006509122
 31
0.0
  0
ARC
  5
61E
330
1F
100
AcDbEntity
  8
inside all
100
AcDbCircle
 10
553.0758101398428
 20
295.0
 30
0.0
 40
5.0
100
AcDbArc
 50
180.0
 51
270.0
  0
ARC
  5
61F
330
1F
100
AcDbEntity
  8
inside all
100
AcDbCircle
 10
570.5758101398428
 20
295.0
 30
0.0
 40
5.0
100
AcDbArc
 50
270.0
 51
0.0
  0
CIRCLE
  5
620
330
1F
100
AcDbEntity
  8
inside all
100
AcDbCircle
 10
581.8258101398428
 20
313.5
 30
0.0
 40
1.6
  0
CIRCLE
  5
621
330
1F
100
AcDbEntity
  8
inside all
100
AcDbCircle
 10
541.8258101398428
 20
313.5
 30
0.0
 40
1.6
  0
LINE
  5
622
330
1F
100
AcDbEntity
  8
inside all
100
AcDbLine
 10
548.0758101398428
 20
336.9999993490878
 30
0.0
 11
575.5758101398428
 21
337.0000006509122
 31
0.0
  0
CIRCLE
  5
623
330
1F
100
AcDbEntity
  8
inside all
100
AcDbCircle
 10
631.7082828787265
 20
314.5748312463859
 30
0.0
 40
20.0
  0
CIRCLE
  5
649
330
1F
100
AcDbEntity
  8
inside third
100
AcDbCircle
 10
159.861514384181
 20
156.3995510361797
 30
0.0
 40
28.5
  0
ARC
  5
64A
330
1F
100
AcDbEntity
  8
direct third
100
AcDbCircle
 10
159.861514384181
 20
156.3995510361797
 30
0.0
 40
26.5
100
AcDbArc
 50
91.39556471281422
 51
90.0
  0
ARC
  5
64B
330
1F
100
AcDbEntity
  8
direct third
100
AcDbCircle
 10
159.861514384181
 20
156.3995510361797
 30
0.0
 40
24.5
100
AcDbArc
 50
91.50029310105481
 51
90.0
  0
ARC
  5
64C
330
1F
100
AcDbEntity
  8
direct third
100
AcDbCircle
 10
159.861514384181
 20
156.3995510361797
 30
0.0
 40
22.5
100
AcDbArc
 50
91.62364584227754
 51
90.0
  0
ARC
  5
64D
330
1F
100
AcDbEntity
  8
direct third
100
AcDbCircle
 10
159.861514384181
 20
156.3995510361797
 30
0.0
 40
20.5
100
AcDbArc
 50
91.77107664783414
 51
90.0
  0
ARC
  5
64E
330
1F
100
AcDbEntity
  8
direct third
100
AcDbCircle
 10
159.861514384181
 20
156.3995510361797
 30
0.0
 40
18.5
100
AcDbArc
 50
91.95039928119276
 51
90.0
  0
ARC
  5
64F
330
1F
100
AcDbEntity
  8
direct third
100
AcDbCircle
 10
159.861514384181
 20
156.3995510361797
 30
0.0
 40
16.5
100
AcDbArc
 50
92.17321935117356
 51
90.0
  0
ARC
  5
650
330
1F
100
AcDbEntity
  8
direct third
100
AcDbCircle
 10
159.861514384181
 20
156.3995510361797
 30
0.0
 40
14.5
100
AcDbArc
 50
92.45755274455702
 51
90.0
  0
ARC
  5
651
330
1F
100
AcDbEntity
  8
direct third
100
AcDbCircle
 10
159.861514384181
 20
156.3995510361797
 30
0.0
 40
12.5
100
AcDbArc
 50
92.83296245718823
 51
90.0
  0
ARC
  5
652
330
1F
100
AcDbEntity
  8
direct third
100
AcDbCircle
 10
159.861514384181
 20
156.3995510361797
 30
0.0
 40
10.5
100
AcDbArc
 50
93.35158096945919
 51
90.0
  0
ARC
  5
653
330
1F
100
AcDbEntity
  8
direct third
100
AcDbCircle
 10
159.861514384181
 20
156.3995510361797
 30
0.0
 40
8.5
100
AcDbArc
 50
94.1147503251672
 51
90.0
  0
ARC
  5
654
330
1F
100
AcDbEntity
  8
direct third
100
AcDbCircle
 10
159.861514384181
 20
156.3995510361797
 30
0.0
 40
6.5
100
AcDbArc
 50
95.34912597293147
 51
90.0
  0
ARC
  5
655
330
1F
100
AcDbEntity
  8
direct third
100
AcDbCircle
 10
159.861514384181
 20
156.3995510361797
 30
0.0
 40
4.5
100
AcDbArc
 50
97.68786893430524
 51
90.0
  0
ARC
  5
656
330
1F
100
AcDbEntity
  8
direct third
100
AcDbCircle
 10
159.861514384181
 20
156.3995510361797
 30
0.0
 40
2.5
100
AcDbArc
 50
103.8390919486467
 51
90.0
  0
LINE
  5
658
330
1F
100
AcDbEntity
  8
direct third
100
AcDbLine
 10
159.861514384181
 20
182.8995510361797
 30
0.0
 11
159.861514384181
 21
180.8995510361797
 31
0.0
  0
LINE
  5
65A
330
1F
100
AcDbEntity
  8
direct third
100
AcDbLine
 10
159.861514384181
 20
178.8995510361797
 30
0.0
 11
159.861514384181
 21
176.8995510361797
 31
0.0
  0
LINE
  5
65B
330
1F
100
AcDbEntity
  8
direct third
100
AcDbLine
 10
159.2200538619225
 20
180.8911522169597
 30
0.0
 11
159.2239954864712
 21
178.890517437272
 31
0.0
  0
LINE
  5
65C
330
1F
100
AcDbEntity
  8
direct third
100
AcDbLine
 10
159.2279373566798
 20
176.8897579690104
 30
0.0
 11
159.2318795522929
 21
174.8888333364334
 31
0.0
  0
LINE
  5
65D
330
1F
100
AcDbEntity
  8
direct third
100
AcDbLine
 10
159.2358221917708
 20
172.8876834131458
 30
0.0
 11
159.2397654590411
 21
170.886214843768
 31
0.0
  0
LINE
  5
65E
330
1F
100
AcDbEntity
  8
direct third
100
AcDbLine
 10
159.2437096560042
 20
168.8842743938614
 30
0.0
 11
159.2476553152736
 21
166.8815917269766
 31
0.0
  0
LINE
  5
65F
330
1F
100
AcDbEntity
  8
direct third
100
AcDbLine
 10
159.251603472946
 20
164.8776409555163
 30
0.0
 11
159.2555564492725
 21
162.8712443989034
 31
0.0
  0
LINE
  5
660
330
1F
100
AcDbEntity
  8
direct third
100
AcDbLine
 10
159.2595207440257
 20
160.8591029931831
 30
0.0
 11
159.2635244076163
 21
158.8269793024583
 31
0.0
  0
LINE
  5
661
330
1F
100
AcDbEntity
  8
direct third
100
AcDbLine
 10
159.861514384181
 20
174.8995510361797
 30
0.0
 11
159.861514384181
 21
172.8995510361797
 31
0.0
  0
LINE
  5
662
330
1F
100
AcDbEntity
  8
direct third
100
AcDbLine
 10
159.861514384181
 20
170.8995510361797
 30
0.0
 11
159.861514384181
 21
168.8995510361797
 31
0.0
  0
LINE
  5
663
330
1F
100
AcDbEntity
  8
direct third
100
AcDbLine
 10
159.861514384181
 20
166.8995510361797
 30
0.0
 11
159.861514384181
 21
164.8995510361797
 31
0.0
  0
LINE
  5
664
330
1F
100
AcDbEntity
  8
direct third
100
AcDbLine
 10
159.861514384181
 20
162.8995510361797
 30
0.0
 11
159.861514384181
 21
160.8995510361797
 31
0.0
  0
LINE
  5
665
330
1F
100
AcDbEntity
  8
direct third
100
AcDbLine
 10
159.861514384181
 20
158.8995510361797
 30
0.0
 11
159.861514384181
 21
156.3995510361797
 31
0.0
  0
CIRCLE
  5
819
330
1F
100
AcDbEntity
  8
inside half
100
AcDbCircle
 10
217.1980926696259
 20
185.7568873462531
 30
0.0
 40
2.9
  0
CIRCLE
  5
81A
330
1F
100
AcDbEntity
  8
inside half
100
AcDbCircle
 10
266.1980926696259
 20
185.7568873462531
 30
0.0
 40
2.9
  0
CIRCLE
  5
81B
330
1F
100
AcDbEntity
  8
inside half
100
AcDbCircle
 10
217.1980926696259
 20
127.7568873462531
 30
0.0
 40
2.9
  0
CIRCLE
  5
81C
330
1F
100
AcDbEntity
  8
inside half
100
AcDbCircle
 10
266.1980926696259
 20
127.7568873462531
 30
0.0
 40
2.9
  0
CIRCLE
  5
84B
330
1F
100
AcDbEntity
  8
inside half
100
AcDbCircle
 10
204.9184374733566
 20
196.5967600976527
 30
0.0
 40
2.9
  0
CIRCLE
  5
84C
330
1F
100
AcDbEntity
  8
inside half
100
AcDbCircle
 10
204.9184374733566
 20
236.5967600976527
 30
0.0
 40
2.9
  0
CIRCLE
  5
84D
330
1F
100
AcDbEntity
  8
inside half
100
AcDbCircle
 10
117.9184374733566
 20
196.5967600976527
 30
0.0
 40
2.9
  0
CIRCLE
  5
84E
330
1F
100
AcDbEntity
  8
inside half
100
AcDbCircle
 10
117.9184374733566
 20
236.5967600976527
 30
0.0
 40
2.9
  0
LINE
  5
852
330
1F
100
AcDbEntity
  8
0
100
AcDbLine
 10
580.9634582623044
 20
157.8648695549531
 30
0.0
 11
680.9634582623044
 21
157.8648695549531
 31
0.0
  0
CIRCLE
  5
87F
330
1F
100
AcDbEntity
  8
inside half
100
AcDbCircle
 10
316.5009194602357
 20
180.4857674203911
 30
0.0
 40
2.9
  0
CIRCLE
  5
880
330
1F
100
AcDbEntity
  8
inside half
100
AcDbCircle
 10
316.5009194602357
 20
132.4857674203911
 30
0.0
 40
2.9
  0
CIRCLE
  5
881
330
1F
100
AcDbEntity
  8
inside half
100
AcDbCircle
 10
281.5009194602357
 20
180.4857674203911
 30
0.0
 40
2.9
  0
CIRCLE
  5
882
330
1F
100
AcDbEntity
  8
inside half
100
AcDbCircle
 10
281.5009194602357
 20
132.4857674203911
 30
0.0
 40
2.9
  0
POINT
  5
896
330
1F
100
AcDbEntity
  8
points
100
AcDbPoint
 10
117.9184374733566
 20
236.5967600976527
 30
0.0
  0
POINT
  5
89A
330
1F
100
AcDbEntity
  8
points
100
AcDbPoint
 10
204.9184374733566
 20
236.5967600976527
 30
0.0
  0
POINT
  5
89B
330
1F
100
AcDbEntity
  8
points
100
AcDbPoint
 10
217.1980926696259
 20
185.7568873462531
 30
0.0
  0
POINT
  5
89C
330
1F
100
AcDbEntity
  8
points
100
AcDbPoint
 10
266.1980926696259
 20
185.7568873462531
 30
0.0
  0
POINT
  5
89D
330
1F
100
AcDbEntity
  8
points
100
AcDbPoint
 10
316.5009194602357
 20
180.4857674203911
 30
0.0
 50
180.0
  0
POINT
  5
89E
330
1F
100
AcDbEntity
  8
points
100
AcDbPoint
 10
217.1980926696259
 20
127.7568873462531
 30
0.0
  0
POINT
  5
89F
330
1F
100
AcDbEntity
  8
points
100
AcDbPoint
 10
266.1980926696259
 20
127.7568873462531
 30
0.0
  0
POINT
  5
8A0
330
1F
100
AcDbEntity
  8
points
100
AcDbPoint
 10
281.5009194602357
 20
180.4857674203911
 30
0.0
 50
180.0
  0
POINT
  5
8A1
330
1F
100
AcDbEntity
  8
points
100
AcDbPoint
 10
281.5009194602357
 20
132.4857674203911
 30
0.0
 50
180.0
  0
POINT
  5
8A2
330
1F
100
AcDbEntity
  8
points
100
AcDbPoint
 10
316.5009194602357
 20
132.4857674203911
 30
0.0
 50
180.0
  0
POINT
  5
8A4
330
1F
100
AcDbEntity
  8
points
100
AcDbPoint
 10
117.9184374733566
 20
196.5967600976527
 30
0.0
  0
POINT
  5
8A5
330
1F
100
AcDbEntity
  8
points
100
AcDbPoint
 10
204.9184374733566
 20
196.5967600976527
 30
0.0
  0
LINE
  5
A0F
330
1F
100
AcDbEntity
  8
inside all
100
AcDbLine
 10
172.2705681544584
 20
174.8777026631363
 30
0.0
 11
178.3976364911077
 21
168.7506343264871
 31
0.0
  0
LINE
  5
A10
330
1F
100
AcDbEntity
  8
inside all
100
AcDbLine
 10
182.6402771782269
 20
172.9932750136064
 30
0.0
 11
176.0412091039696
 21
179.5923430878638
 31
0.0
  0
ARC
  5
A11
330
1F
100
AcDbEntity
  8
inside all
100
AcDbCircle
 10
174.3918884980181
 20
176.9990230066959
 30
0.0
 40
3.0
100
AcDbArc
 50
45.00000000000115
 51
224.9999999999996
  0
LINE
  5
A12
330
1F
100
AcDbEntity
  8
inside all
100
AcDbLine
 10
154.4650805608008
 20
178.541054633063
 30
0.0
 11
182.0609884610344
 21
150.9451467328294
 31
0.0
  0
LINE
  5
A13
330
1F
100
AcDbEntity
  8
inside all
100
AcDbLine
 10
186.3036291481537
 20
155.1877874199487
 30
0.0
 11
158.7077212479201
 21
182.7836953201823
 31
0.0
  0
ARC
  5
A14
330
1F
100
AcDbEntity
  8
inside all
100
AcDbCircle
 10
184.182308804594
 20
153.066467076389
 30
0.0
 40
3.0
100
AcDbArc
 50
224.9999999999996
 51
44.99999999999885
  0
ARC
  5
A15
330
1F
100
AcDbEntity
  8
inside all
100
AcDbCircle
 10
156.5864009043605
 20
180.6623749766227
 30
0.0
 40
3.0
100
AcDbArc
 50
45.00000000000115
 51
225.0
  0
LINE
  5
A16
330
1F
100
AcDbEntity
  8
inside all
100
AcDbLine
 10
143.8584788430026
 20
175.0055207271303
 30
0.0
 11
178.5254545551017
 21
140.3385450150312
 31
0.0
  0
LINE
  5
A17
330
1F
100
AcDbEntity
  8
inside all
100
AcDbLine
 10
182.768095242221
 20
144.5811857021505
 30
0.0
 11
148.1011195301218
 21
179.2481614142496
 31
0.0
  0
ARC
  5
A18
330
1F
100
AcDbEntity
  8
inside all
100
AcDbCircle
 10
180.6467748986613
 20
142.4598653585909
 30
0.0
 40
3.0
100
AcDbArc
 50
225.0000000000004
 51
44.99999999999809
  0
ARC
  5
A19
330
1F
100
AcDbEntity
  8
inside all
100
AcDbCircle
 10
145.9797991865622
 20
177.1268410706899
 30
0.0
 40
3.0
100
AcDbArc
 50
45.00000000000115
 51
225.0000000000004
  0
LINE
  5
A1A
330
1F
100
AcDbEntity
  8
inside all
100
AcDbLine
 10
136.7874110311371
 20
167.9344529152648
 30
0.0
 11
171.4543867432362
 21
133.2674772031657
 31
0.0
  0
LINE
  5
A1B
330
1F
100
AcDbEntity
  8
inside all
100
AcDbLine
 10
175.6970274303555
 20
137.510117890285
 30
0.0
 11
141.0300517182563
 21
172.1770936023841
 31
0.0
  0
ARC
  5
A1C
330
1F
100
AcDbEntity
  8
inside all
100
AcDbCircle
 10
173.5757070867958
 20
135.3887975467254
 30
0.0
 40
3.0
100
AcDbArc
 50
224.9999999999996
 51
45.00000000000077
  0
ARC
  5
A1D
330
1F
100
AcDbEntity
  8
inside all
100
AcDbCircle
 10
138.9087313746967
 20
170.0557732588244
 30
0.0
 40
3.0
100
AcDbArc
 50
45.00000000000115
 51
225.0000000000004
  0
LINE
  5
A1E
330
1F
100
AcDbEntity
  8
inside all
100
AcDbLine
 10
133.2518771252044
 20
157.3278511974666
 30
0.0
 11
160.847785025438
 21
129.731943297233
 31
0.0
  0
LINE
  5
A1F
330
1F
100
AcDbEntity
  8
inside all
100
AcDbLine
 10
165.0904257125572
 20
133.9745839843523
 30
0.0
 11
137.4945178123236
 21
161.5704918845859
 31
0.0
  0
ARC
  5
A20
330
1F
100
AcDbEntity
  8
inside all
100
AcDbCircle
 10
162.9691053689976
 20
131.8532636407926
 30
0.0
 40
3.0
100
AcDbArc
 50
224.9999999999992
 51
45.00000000000115
  0
ARC
  5
A21
330
1F
100
AcDbEntity
  8
inside all
100
AcDbCircle
 10
135.373197468764
 20
159.4491715410262
 30
0.0
 40
3.0
100
AcDbArc
 50
45.00000000000039
 51
225.0000000000004
  0
LINE
  5
A22
330
1F
100
AcDbEntity
  8
inside all
100
AcDbLine
 10
136.443229357523
 20
139.994363341417
 30
0.0
 11
143.0422974317804
 21
133.3952952671597
 31
0.0
  0
LINE
  5
A23
330
1F
100
AcDbEntity
  8
inside all
100
AcDbLine
 10
147.2849381188996
 20
137.637935954279
 30
0.0
 11
140.6858700446422
 21
144.2370040285363
 31
0.0
  0
ARC
  5
A24
330
1F
100
AcDbEntity
  8
inside all
100
AcDbCircle
 10
139.0365494386907
 20
141.6436839473686
 30
0.0
 40
3.0
100
AcDbArc
 50
45.00000000000077
 51
225.0
  0
ARC
  5
A25
330
1F
100
AcDbEntity
  8
inside all
100
AcDbCircle
 10
145.16361777534
 20
135.5166156107193
 30
0.0
 40
3.0
100
AcDbArc
 50
225.0000000000004
 51
45.00000000000115
  0
ARC
  5
A26
330
1F
100
AcDbEntity
  8
inside all
100
AcDbCircle
 10
180.5189568346674
 20
170.8719546700467
 30
0.0
 40
3.0
100
AcDbArc
 50
225.0000000000004
 51
45.00000000000115
  0
CIRCLE
  5
A27
330
1F
100
AcDbEntity
  8
inside third
100
AcDbCircle
 10
350.5773238598389
 20
156.3995510361797
 30
0.0
 40
28.5
  0
ARC
  5
A28
330
1F
100
AcDbEntity
  8
direct third
100
AcDbCircle
 10
350.5773238598389
 20
156.3995510361797
 30
0.0
 40
4.5
100
AcDbArc
 50
90.0
 51
82.31213106569476
  0
ARC
  5
A29
330
1F
100
AcDbEntity
  8
direct third
100
AcDbCircle
 10
350.5773238598389
 20
156.3995510361797
 30
0.0
 40
6.5
100
AcDbArc
 50
90.0
 51
84.65087402706854
  0
ARC
  5
A2A
330
1F
100
AcDbEntity
  8
direct third
100
AcDbCircle
 10
350.5773238598389
 20
156.3995510361797
 30
0.0
 40
2.5
100
AcDbArc
 50
90.0
 51
76.16090805135327
  0
ARC
  5
A2B
330
1F
100
AcDbEntity
  8
direct third
100
AcDbCircle
 10
350.5773238598389
 20
156.3995510361797
 30
0.0
 40
8.5
100
AcDbArc
 50
90.0
 51
85.885249674833
  0
ARC
  5
A2C
330
1F
100
AcDbEntity
  8
direct third
100
AcDbCircle
 10
350.5773238598389
 20
156.3995510361797
 30
0.0
 40
14.5
100
AcDbArc
 50
90.0
 51
87.542447255443
  0
ARC
  5
A2D
330
1F
100
AcDbEntity
  8
direct third
100
AcDbCircle
 10
350.5773238598389
 20
156.3995510361797
 30
0.0
 40
22.5
100
AcDbArc
 50
90.0
 51
88.37635415772253
  0
ARC
  5
A2E
330
1F
100
AcDbEntity
  8
direct third
100
AcDbCircle
 10
350.5773238598389
 20
156.3995510361797
 30
0.0
 40
26.5
100
AcDbArc
 50
90.0
 51
88.6044352871858
  0
ARC
  5
A2F
330
1F
100
AcDbEntity
  8
direct third
100
AcDbCircle
 10
350.5773238598389
 20
156.3995510361797
 30
0.0
 40
20.5
100
AcDbArc
 50
90.0
 51
88.22892335216581
  0
ARC
  5
A30
330
1F
100
AcDbEntity
  8
direct third
100
AcDbCircle
 10
350.5773238598389
 20
156.3995510361797
 30
0.0
 40
12.5
100
AcDbArc
 50
90.0
 51
87.16703754281163
  0
ARC
  5
A31
330
1F
100
AcDbEntity
  8
direct third
100
AcDbCircle
 10
350.5773238598389
 20
156.3995510361797
 30
0.0
 40
18.5
100
AcDbArc
 50
90.0
 51
88.04960071880726
  0
ARC
  5
A32
330
1F
100
AcDbEntity
  8
direct third
100
AcDbCircle
 10
350.5773238598389
 20
156.3995510361797
 30
0.0
 40
10.5
100
AcDbArc
 50
90.0
 51
86.64841903054082
  0
ARC
  5
A33
330
1F
100
AcDbEntity
  8
direct third
100
AcDbCircle
 10
350.5773238598389
 20
156.3995510361797
 30
0.0
 40
16.5
100
AcDbArc
 50
90.0
 51
87.82678064882657
  0
ARC
  5
A34
330
1F
100
AcDbEntity
  8
direct third
100
AcDbCircle
 10
350.5773238598389
 20
156.3995510361797
 30
0.0
 40
24.5
100
AcDbArc
 50
90.0
 51
88.49970689894526
  0
LINE
  5
A35
330
1F
100
AcDbEntity
  8
direct third
100
AcDbLine
 10
350.5773238598389
 20
182.8995510361797
 30
0.0
 11
350.5773238598389
 21
180.8995510361797
 31
0.0
  0
LINE
  5
A36
330
1F
100
AcDbEntity
  8
direct third
100
AcDbLine
 10
351.2187843820973
 20
180.8911522169597
 30
0.0
 11
351.2148427575486
 21
178.890517437272
 31
0.0
  0
LINE
  5
A37
330
1F
100
AcDbEntity
  8
direct third
100
AcDbLine
 10
351.2109008873401
 20
176.8897579690104
 30
0.0
 11
351.206958691727
 21
174.8888333364334
 31
0.0
  0
LINE
  5
A38
330
1F
100
AcDbEntity
  8
direct third
100
AcDbLine
 10
351.203016052249
 20
172.8876834131458
 30
0.0
 11
351.1990727849788
 21
170.886214843768
 31
0.0
  0
LINE
  5
A39
330
1F
100
AcDbEntity
  8
direct third
100
AcDbLine
 10
351.1951285880156
 20
168.8842743938614
 30
0.0
 11
351.1911829287462
 21
166.8815917269766
 31
0.0
  0
LINE
  5
A3A
330
1F
100
AcDbEntity
  8
direct third
100
AcDbLine
 10
351.1872347710738
 20
164.8776409555163
 30
0.0
 11
351.1832817947474
 21
162.8712443989034
 31
0.0
  0
LINE
  5
A3B
330
1F
100
AcDbEntity
  8
direct third
100
AcDbLine
 10
350.5773238598389
 20
178.8995510361797
 30
0.0
 11
350.5773238598389
 21
176.8995510361797
 31
0.0
  0
LINE
  5
A3C
330
1F
100
AcDbEntity
  8
direct third
100
AcDbLine
 10
350.5773238598389
 20
174.8995510361797
 30
0.0
 11
350.5773238598389
 21
172.8995510361797
 31
0.0
  0
LINE
  5
A3D
330
1F
100
AcDbEntity
  8
direct third
100
AcDbLine
 10
350.5773238598389
 20
170.8995510361797
 30
0.0
 11
350.5773238598389
 21
168.8995510361797
 31
0.0
  0
LINE
  5
A3E
330
1F
100
AcDbEntity
  8
direct third
100
AcDbLine
 10
350.5773238598389
 20
166.8995510361797
 30
0.0
 11
350.5773238598389
 21
164.8995510361797
 31
0.0
  0
LINE
  5
A3F
330
1F
100
AcDbEntity
  8
direct third
100
AcDbLine
 10
350.5773238598389
 20
162.8995510361797
 30
0.0
 11
350.5773238598389
 21
160.8995510361797
 31
0.0
  0
LINE
  5
A40
330
1F
100
AcDbEntity
  8
direct third
100
AcDbLine
 10
351.1793174999941
 20
160.8591029931831
 30
0.0
 11
351.1753138364036
 21
158.8269793024583
 31
0.0
  0
LINE
  5
A41
330
1F
100
AcDbEntity
  8
direct third
100
AcDbLine
 10
350.5773238598389
 20
158.8995510361797
 30
0.0
 11
350.5773238598389
 21
156.3995510361797
 31
0.0
  0
LINE
  5
A42
330
1F
100
AcDbEntity
  8
inside all
100
AcDbLine
 10
338.1682700895614
 20
174.8777026631363
 30
0.0
 11
332.0412017529121
 21
168.7506343264871
 31
0.0
  0
LINE
  5
A43
330
1F
100
AcDbEntity
  8
inside all
100
AcDbLine
 10
327.7985610657929
 20
172.9932750136064
 30
0.0
 11
334.3976291400502
 21
179.5923430878638
 31
0.0
  0
ARC
  5
A44
330
1F
100
AcDbEntity
  8
inside all
100
AcDbCircle
 10
336.0469497460018
 20
176.9990230066959
 30
0.0
 40
3.0
100
AcDbArc
 50
315.0000000000003
 51
134.9999999999989
  0
LINE
  5
A45
330
1F
100
AcDbEntity
  8
inside all
100
AcDbLine
 10
355.973757683219
 20
178.541054633063
 30
0.0
 11
328.3778497829854
 21
150.9451467328294
 31
0.0
  0
LINE
  5
A46
330
1F
100
AcDbEntity
  8
inside all
100
AcDbLine
 10
324.1352090958661
 20
155.1877874199487
 30
0.0
 11
351.7311169960998
 21
182.7836953201823
 31
0.0
  0
ARC
  5
A47
330
1F
100
AcDbEntity
  8
inside all
100
AcDbCircle
 10
326.2565294394258
 20
153.066467076389
 30
0.0
 40
3.0
100
AcDbArc
 50
135.0000000000008
 51
315.0000000000003
  0
ARC
  5
A48
330
1F
100
AcDbEntity
  8
inside all
100
AcDbCircle
 10
353.8524373396594
 20
180.6623749766227
 30
0.0
 40
3.0
100
AcDbArc
 50
314.9999999999996
 51
134.9999999999989
  0
LINE
  5
A49
330
1F
100
AcDbEntity
  8
inside all
100
AcDbLine
 10
366.5803594010173
 20
175.0055207271303
 30
0.0
 11
331.9133836889182
 21
140.3385450150312
 31
0.0
  0
LINE
  5
A4A
330
1F
100
AcDbEntity
  8
inside all
100
AcDbLine
 10
327.6707430017989
 20
144.5811857021505
 30
0.0
 11
362.337718713898
 21
179.2481614142496
 31
0.0
  0
ARC
  5
A4B
330
1F
100
AcDbEntity
  8
inside all
100
AcDbCircle
 10
329.7920633453585
 20
142.4598653585909
 30
0.0
 40
3.0
100
AcDbArc
 50
135.0000000000019
 51
315.0
  0
ARC
  5
A4C
330
1F
100
AcDbEntity
  8
inside all
100
AcDbCircle
 10
364.4590390574576
 20
177.1268410706899
 30
0.0
 40
3.0
100
AcDbArc
 50
315.0
 51
134.9999999999989
  0
LINE
  5
A4D
330
1F
100
AcDbEntity
  8
inside all
100
AcDbLine
 10
373.6514272128827
 20
167.9344529152648
 30
0.0
 11
338.9844515007836
 21
133.2674772031657
 31
0.0
  0
LINE
  5
A4E
330
1F
100
AcDbEntity
  8
inside all
100
AcDbLine
 10
334.7418108136644
 20
137.510117890285
 30
0.0
 11
369.4087865257635
 21
172.1770936023841
 31
0.0
  0
ARC
  5
A4F
330
1F
100
AcDbEntity
  8
inside all
100
AcDbCircle
 10
336.863131157224
 20
135.3887975467254
 30
0.0
 40
3.0
100
AcDbArc
 50
134.9999999999992
 51
315.0000000000003
  0
ARC
  5
A50
330
1F
100
AcDbEntity
  8
inside all
100
AcDbCircle
 10
371.5301068693231
 20
170.0557732588244
 30
0.0
 40
3.0
100
AcDbArc
 50
314.9999999999993
 51
134.9999999999989
  0
LINE
  5
A51
330
1F
100
AcDbEntity
  8
inside all
100
AcDbLine
 10
377.1869611188155
 20
157.3278511974666
 30
0.0
 11
349.5910532185819
 21
129.731943297233
 31
0.0
  0
LINE
  5
A52
330
1F
100
AcDbEntity
  8
inside all
100
AcDbLine
 10
345.3484125314626
 20
133.9745839843523
 30
0.0
 11
372.9443204316962
 21
161.5704918845859
 31
0.0
  0
ARC
  5
A53
330
1F
100
AcDbEntity
  8
inside all
100
AcDbCircle
 10
347.4697328750222
 20
131.8532636407926
 30
0.0
 40
3.0
100
AcDbArc
 50
134.9999999999989
 51
315.0000000000007
  0
ARC
  5
A54
330
1F
100
AcDbEntity
  8
inside all
100
AcDbCircle
 10
375.0656407752558
 20
159.4491715410262
 30
0.0
 40
3.0
100
AcDbArc
 50
315.0
 51
134.9999999999992
  0
LINE
  5
A55
330
1F
100
AcDbEntity
  8
inside all
100
AcDbLine
 10
373.9956088864969
 20
139.994363341417
 30
0.0
 11
367.3965408122395
 21
133.3952952671597
 31
0.0
  0
LINE
  5
A56
330
1F
100
AcDbEntity
  8
inside all
100
AcDbLine
 10
363.1539001251203
 20
137.637935954279
 30
0.0
 11
369.7529681993776
 21
144.2370040285363
 31
0.0
  0
ARC
  5
A57
330
1F
100
AcDbEntity
  8
inside all
100
AcDbCircle
 10
371.4022888053291
 20
141.6436839473686
 30
0.0
 40
3.0
100
AcDbArc
 50
315.0000000000003
 51
134.9999999999992
  0
ARC
  5
A58
330
1F
100
AcDbEntity
  8
inside all
100
AcDbCircle
 10
365.2752204686799
 20
135.5166156107193
 30
0.0
 40
3.0
100
AcDbArc
 50
134.9999999999989
 51
315.0
  0
ARC
  5
A59
330
1F
100
AcDbEntity
  8
inside all
100
AcDbCircle
 10
329.9198814093525
 20
170.8719546700467
 30
0.0
 40
3.0
100
AcDbArc
 50
134.9999999999981
 51
315.0
  0
CIRCLE
  5
A5A
330
1F
100
AcDbEntity
  8
inside all
100
AcDbCircle
 10
705.9634582623044
 20
131.864869554953
 30
0.0
 40
1.6
  0
CIRCLE
  5
A5B
330
1F
100
AcDbEntity
  8
inside all
100
AcDbCircle
 10
650.9634582623044
 20
131.864869554953
 30
0.0
 40
1.6
  0
ENDSEC
  0
SECTION
  2
OBJECTS
  0
DICTIONARY
  5
C
330
0
100
AcDbDictionary
281
     1
  3
ACAD_COLOR
350
73
  3
ACAD_DETAILVIEWSTYLE
350
122
  3
ACAD_GROUP
350
D
  3
ACAD_IMAGE_VARS
350
DC
  3
ACAD_LAYOUT
350
1A
  3
ACAD_MATERIAL
350
72
  3
ACAD_MLEADERSTYLE
350
B5
  3
ACAD_MLINESTYLE
350
17
  3
ACAD_PLOTSETTINGS
350
19
  3
ACAD_PLOTSTYLENAME
350
E
  3
ACAD_SCALELIST
350
B6
  3
ACAD_SECTIONVIEWSTYLE
350
123
  3
ACAD_TABLESTYLE
350
86
  3
ACAD_VISUALSTYLE
350
99
  3
ACDB_RECOMPOSE_DATA
350
A60
  3
AcDbVariableDictionary
350
66
  3
APPDATA
350
E1
  0
SUN
  5
ED
330
94
100
AcDbSun
 90
        1
290
     0
 63
     7
421
 16777215
 40
1.0
291
     1
 91
  2455826
 92
 54000000
292
     0
 70
     2
 71
   256
280
     1
  0
DICTIONARY
  5
178
330
2
100
AcDbDictionary
280
     1
281
     1
  3
ACAD_LAYERSTATES
360
179
  3
ACLYDICTIONARY
360
9CE
  0
DICTIONARY
  5
73
102
{ACAD_REACTORS
330
C
102
}
330
C
100
AcDbDictionary
281
     1
  0
DICTIONARY
  5
122
102
{ACAD_REACTORS
330
C
102
}
330
C
100
AcDbDictionary
281
     1
  0
DICTIONARY
  5
D
102
{ACAD_REACTORS
330
C
102
}
330
C
100
AcDbDictionary
281
     1
  0
RASTERVARIABLES
  5
DC
102
{ACAD_REACTORS
330
C
102
}
330
C
100
AcDbRasterVariables
 90
        0
 70
     1
 71
     1
 72
     5
  0
DICTIONARY
  5
1A
102
{ACAD_REACTORS
330
C
102
}
330
C
100
AcDbDictionary
281
     1
  3
Model
350
22
  3
Sheet1
350
59
  3
Sheet2
350
5E
  0
DICTIONARY
  5
72
102
{ACAD_REACTORS
330
C
102
}
330
C
100
AcDbDictionary
281
     1
  3
ByBlock
350
E2
  3
ByLayer
350
96
  3
Global
350
98
  0
DICTIONARY
  5
B5
102
{ACAD_REACTORS
330
C
102
}
330
C
100
AcDbDictionary
281
     1
  3
Standard
350
124
  0
DICTIONARY
  5
17
102
{ACAD_REACTORS
330
C
102
}
330
C
100
AcDbDictionary
281
     1
  3
Standard
350
18
  0
DICTIONARY
  5
19
102
{ACAD_REACTORS
330
C
102
}
330
C
100
AcDbDictionary
281
     1
  0
ACDBDICTIONARYWDFLT
  5
E
102
{ACAD_REACTORS
330
C
102
}
330
C
100
AcDbDictionary
281
     1
  3
Normal
350
F
100
AcDbDictionaryWithDefault
340
F
  0
DICTIONARY
  5
B6
102
{ACAD_REACTORS
330
C
102
}
330
C
100
AcDbDictionary
281
     1
  3
A0
350
B7
  3
A1
350
B8
  3
A2
350
B9
  3
A3
350
BA
  3
A4
350
BB
  3
A5
350
BC
  3
A6
350
BD
  3
A7
350
BE
  3
A8
350
BF
  3
A9
350
C0
  3
B0
350
C1
  3
B1
350
C2
  3
B2
350
C3
  3
B3
350
C4
  3
B4
350
C5
  3
B5
350
C6
  3
B6
350
C7
  3
B7
350
C8
  3
B8
350
C9
  3
B9
350
CA
  3
C0
350
CB
  3
C1
350
CC
  3
C2
350
CD
  3
C3
350
CE
  3
C4
350
CF
  3
C5
350
D0
  3
C6
350
D1
  3
C7
350
D2
  3
C8
350
D3
  3
C9
350
D4
  3
D0
350
D5
  3
D1
350
D6
  3
D2
350
D7
  0
DICTIONARY
  5
123
102
{ACAD_REACTORS
330
C
102
}
330
C
100
AcDbDictionary
281
     1
  0
DICTIONARY
  5
86
102
{ACAD_REACTORS
330
C
102
}
330
C
100
AcDbDictionary
281
     1
  3
Standard
350
87
  0
DICTIONARY
  5
99
102
{ACAD_REACTORS
330
C
102
}
330
C
100
AcDbDictionary
281
     1
  3
2dWireframe
350
9F
  3
3D Hidden
350
A1
  3
3dWireframe
350
A0
  3
Basic
350
9E
  3
Brighten
350
A5
  3
ColorChange
350
A9
  3
Conceptual
350
A2
  3
Dim
350
A4
  3
EdgeColorOff
350
E7
  3
Facepattern
350
A8
  3
Flat
350
9A
  3
FlatWithEdges
350
9B
  3
Gouraud
350
9C
  3
GouraudWithEdges
350
9D
  3
Hidden
350
E4
  3
JitterOff
350
E5
  3
Linepattern
350
A7
  3
OverhangOff
350
E6
  3
Realistic
350
A3
  3
Shaded
350
EC
  3
Shaded with edges
350
EB
  3
Shades of Gray
350
E8
  3
Sketchy
350
E9
  3
Thicken
350
A6
  3
Wireframe
350
E3
  3
X-Ray
350
EA
  0
XRECORD
  5
A60
102
{ACAD_REACTORS
330
C
102
}
330
C
100
AcDbXrecord
280
     1
 90
        1
330
87
  0
DICTIONARY
  5
66
102
{ACAD_REACTORS
330
C
102
}
330
C
100
AcDbDictionary
281
     1
  3
CANNOSCALE
350
D8
  3
CMLEADERSTYLE
350
1C5
  3
CTABLESTYLE
350
89
  3
DIMASSOC
350
67
  3
HIDETEXT
350
6B
  3
LIGHTSINBLOCKS
350
DF
  3
XCLIPFRAME
350
E0
  0
DICTIONARY
  5
E1
102
{ACAD_REACTORS
330
C
102
}
330
C
100
AcDbDictionary
281
     1
  0
DICTIONARY
  5
179
102
{ACAD_REACTORS
330
178
102
}
330
178
100
AcDbDictionary
281
     1
  3
ARGON_LAYERP_1
350
1BD
  3
ARGON_LAYERP_10
350
88B
  3
ARGON_LAYERP_11
350
88E
  3
ARGON_LAYERP_12
350
891
  3
ARGON_LAYERP_13
350
895
  3
ARGON_LAYERP_14
350
9CB
  3
ARGON_LAYERP_2
350
628
  3
ARGON_LAYERP_3
350
62B
  3
ARGON_LAYERP_4
350
631
  3
ARGON_LAYERP_5
350
634
  3
ARGON_LAYERP_6
350
63C
  3
ARGON_LAYERP_7
350
643
  3
ARGON_LAYERP_8
350
884
  3
ARGON_LAYERP_9
350
888
  0
DICTIONARY
  5
9CE
102
{ACAD_REACTORS
330
178
102
}
330
178
100
AcDbDictionary
281
     1
1001
ACAD
1000
<All
  0
LAYOUT
  5
22
102
{ACAD_REACTORS
330
1A
102
}
330
1A
100
AcDbPlotSettings
  1

  2
none_device
  4
ANSI_A_(8.50_x_11.00_Inches)
  6

 40
6.35
 41
19.05
 42
6.35
 43
19.05
 44
215.9
 45
279.4
 46
11.11250000000003
 47
0.0000000000000142
 48
0.0
 49
0.0
140
0.0
141
0.0
142
1.0
143
1.263157894736842
 70
 11444
 72
     0
 73
     1
 74
     1
  7
monochrome.ctb
 75
     0
 76
     0
 77
     2
 78
   300
147
0.7916666666666665
148
-702.8076765758875
149
-496.2830551296954
100
AcDbLayout
  1
Model
 70
     1
 71
     0
 10
0.0
 20
0.0
 11
12.0
 21
9.0
 12
0.0
 22
0.0
 32
0.0
 14
80.2194191220099
 24
-4.000000000000114
 34
0.0
 15
797.7869401775913
 25
541.9056164327311
 35
0.0
146
0.0
 13
0.0
 23
0.0
 33
0.0
 16
1.0
 26
0.0
 36
0.0
 17
0.0
 27
1.0
 37
0.0
 76
     0
330
1F
331
94
  0
LAYOUT
  5
59
102
{ACAD_REACTORS
330
1A
102
}
330
1A
100
AcDbPlotSettings
  1

  2
None
  4

  6

 40
0.0
 41
0.0
 42
0.0
 43
0.0
 44
0.0
 45
0.0
 46
0.0
 47
0.0
 48
0.0
 49
0.0
140
0.0
141
0.0
142
1.0
143
1.0
 70
   688
 72
     0
 73
     0
 74
     5
  7

 75
    16
 76
     0
 77
     2
 78
   300
147
1.0
148
0.0
149
0.0
100
AcDbLayout
  1
Sheet1
 70
     1
 71
     1
 10
0.0
 20
0.0
 11
12.0
 21
9.0
 12
0.0
 22
0.0
 32
0.0
 14
0.0
 24
0.0
 34
0.0
 15
0.0
 25
0.0
 35
0.0
146
0.0
 13
0.0
 23
0.0
 33
0.0
 16
1.0
 26
0.0
 36
0.0
 17
0.0
 27
1.0
 37
0.0
 76
     0
330
58
  0
LAYOUT
  5
5E
102
{ACAD_REACTORS
330
1A
102
}
330
1A
100
AcDbPlotSettings
  1

  2
None
  4

  6

 40
0.0
 41
0.0
 42
0.0
 43
0.0
 44
0.0
 45
0.0
 46
0.0
 47
0.0
 48
0.0
 49
0.0
140
0.0
141
0.0
142
1.0
143
1.0
 70
   688
 72
     0
 73
     0
 74
     5
  7

 75
    16
 76
     0
 77
     2
 78
   300
147
1.0
148
0.0
149
0.0
100
AcDbLayout
  1
Sheet2
 70
     1
 71
     2
 10
0.0
 20
0.0
 11
12.0
 21
9.0
 12
0.0
 22
0.0
 32
0.0
 14
0.0
 24
0.0
 34
0.0
 15
0.0
 25
0.0
 35
0.0
146
0.0
 13
0.0
 23
0.0
 33
0.0
 16
1.0
 26
0.0
 36
0.0
 17
0.0
 27
1.0
 37
0.0
 76
     0
330
5D
  0
MATERIAL
  5
E2
102
{ACAD_REACTORS
330
72
102
}
330
72
100
AcDbMaterial
  1
ByBlock
 72
     1
 94
      127
  0
MATERIAL
  5
96
102
{ACAD_REACTORS
330
72
102
}
330
72
100
AcDbMaterial
  1
ByLayer
 72
     1
 94
       63
  0
MATERIAL
  5
98
102
{ACAD_REACTORS
330
72
102
}
330
72
100
AcDbMaterial
  1
Global
 72
     1
 94
       63
  0
MLEADERSTYLE
  5
124
102
{ACAD_REACTORS
330
B5
102
}
330
B5
100
AcDbMLeaderStyle
179
     2
170
     2
171
     1
172
     0
 90
        2
 40
0.0
 41
0.0
173
     1
 91
-1056964608
340
14
 92
       -2
290
     1
 42
0.09
291
     1
 43
0.36
  3
Standard
341
0
 44
0.18
300

342
11
174
     1
178
     6
175
     1
176
     0
 93
-1056964608
 45
0.18
292
     0
297
     0
 46
0.18
343
0
 94
-1056964608
 47
1.0
 49
1.0
140
1.0
293
     1
141
0.0
294
     1
177
     0
142
1.0
295
     0
296
     0
143
0.125
271
     0
272
     9
273
     9
298
     0
  0
MLINESTYLE
  5
18
102
{ACAD_REACTORS
330
17
102
}
330
17
100
AcDbMlineStyle
  2
STANDARD
 70
     0
  3

 62
   256
 51
90.0
 52
90.0
 71
     2
 49
0.5
 62
   256
  6
BYLAYER
 49
-0.5
 62
   256
  6
BYLAYER
  0
ACDBPLACEHOLDER
  5
F
102
{ACAD_REACTORS
330
E
102
}
330
E
  0
SCALE
  5
B7
102
{ACAD_REACTORS
330
B6
102
}
330
B6
100
AcDbScale
 70
     0
300
1:1
140
1.0
141
1.0
290
     1
  0
SCALE
  5
B8
102
{ACAD_REACTORS
330
B6
102
}
330
B6
100
AcDbScale
 70
     0
300
1:2
140
1.0
141
2.0
290
     0
  0
SCALE
  5
B9
102
{ACAD_REACTORS
330
B6
102
}
330
B6
100
AcDbScale
 70
     0
300
1:4
140
1.0
141
4.0
290
     0
  0
SCALE
  5
BA
102
{ACAD_REACTORS
330
B6
102
}
330
B6
100
AcDbScale
 70
     0
300
1:5
140
1.0
141
5.0
290
     0
  0
SCALE
  5
BB
102
{ACAD_REACTORS
330
B6
102
}
330
B6
100
AcDbScale
 70
     0
300
1:8
140
1.0
141
8.0
290
     0
  0
SCALE
  5
BC
102
{ACAD_REACTORS
330
B6
102
}
330
B6
100
AcDbScale
 70
     0
300
1:10
140
1.0
141
10.0
290
     0
  0
SCALE
  5
BD
102
{ACAD_REACTORS
330
B6
102
}
330
B6
100
AcDbScale
 70
     0
300
1:16
140
1.0
141
16.0
290
     0
  0
SCALE
  5
BE
102
{ACAD_REACTORS
330
B6
102
}
330
B6
100
AcDbScale
 70
     0
300
1:20
140
1.0
141
20.0
290
     0
  0
SCALE
  5
BF
102
{ACAD_REACTORS
330
B6
102
}
330
B6
100
AcDbScale
 70
     0
300
1:30
140
1.0
141
30.0
290
     0
  0
SCALE
  5
C0
102
{ACAD_REACTORS
330
B6
102
}
330
B6
100
AcDbScale
 70
     0
300
1:40
140
1.0
141
40.0
290
     0
  0
SCALE
  5
C1
102
{ACAD_REACTORS
330
B6
102
}
330
B6
100
AcDbScale
 70
     0
300
1:50
140
1.0
141
50.0
290
     0
  0
SCALE
  5
C2
102
{ACAD_REACTORS
330
B6
102
}
330
B6
100
AcDbScale
 70
     0
300
1:100
140
1.0
141
100.0
290
     0
  0
SCALE
  5
C3
102
{ACAD_REACTORS
330
B6
102
}
330
B6
100
AcDbScale
 70
     0
300
2:1
140
2.0
141
1.0
290
     0
  0
SCALE
  5
C4
102
{ACAD_REACTORS
330
B6
102
}
330
B6
100
AcDbScale
 70
     0
300
4:1
140
4.0
141
1.0
290
     0
  0
SCALE
  5
C5
102
{ACAD_REACTORS
330
B6
102
}
330
B6
100
AcDbScale
 70
     0
300
8:1
140
8.0
141
1.0
290
     0
  0
SCALE
  5
C6
102
{ACAD_REACTORS
330
B6
102
}
330
B6
100
AcDbScale
 70
     0
300
10:1
140
10.0
141
1.0
290
     0
  0
SCALE
  5
C7
102
{ACAD_REACTORS
330
B6
102
}
330
B6
100
AcDbScale
 70
     0
300
100:1
140
100.0
141
1.0
290
     0
  0
SCALE
  5
C8
102
{ACAD_REACTORS
330
B6
102
}
330
B6
100
AcDbScale
 70
     0
300
1/128" = 1'-0"
140
0.0078125
141
12.0
290
     0
  0
SCALE
  5
C9
102
{ACAD_REACTORS
330
B6
102
}
330
B6
100
AcDbScale
 70
     0
300
1/64" = 1'-0"
140
0.015625
141
12.0
290
     0
  0
SCALE
  5
CA
102
{ACAD_REACTORS
330
B6
102
}
330
B6
100
AcDbScale
 70
     0
300
1/32" = 1'-0"
140
0.03125
141
12.0
290
     0
  0
SCALE
  5
CB
102
{ACAD_REACTORS
330
B6
102
}
330
B6
100
AcDbScale
 70
     0
300
1/16" = 1'-0"
140
0.0625
141
12.0
290
     0
  0
SCALE
  5
CC
102
{ACAD_REACTORS
330
B6
102
}
330
B6
100
AcDbScale
 70
     0
300
3/32" = 1'-0"
140
0.09375
141
12.0
290
     0
  0
SCALE
  5
CD
102
{ACAD_REACTORS
330
B6
102
}
330
B6
100
AcDbScale
 70
     0
300
1/8" = 1'-0"
140
0.125
141
12.0
290
     0
  0
SCALE
  5
CE
102
{ACAD_REACTORS
330
B6
102
}
330
B6
100
AcDbScale
 70
     0
300
3/16" = 1'-0"
140
0.1875
141
12.0
290
     0
  0
SCALE
  5
CF
102
{ACAD_REACTORS
330
B6
102
}
330
B6
100
AcDbScale
 70
     0
300
1/4" = 1'-0"
140
0.25
141
12.0
290
     0
  0
SCALE
  5
D0
102
{ACAD_REACTORS
330
B6
102
}
330
B6
100
AcDbScale
 70
     0
300
3/8" = 1'-0"
140
0.375
141
12.0
290
     0
  0
SCALE
  5
D1
102
{ACAD_REACTORS
330
B6
102
}
330
B6
100
AcDbScale
 70
     0
300
1/2" = 1'-0"
140
0.5
141
12.0
290
     0
  0
SCALE
  5
D2
102
{ACAD_REACTORS
330
B6
102
}
330
B6
100
AcDbScale
 70
     0
300
3/4" = 1'-0"
140
0.75
141
12.0
290
     0
  0
SCALE
  5
D3
102
{ACAD_REACTORS
330
B6
102
}
330
B6
100
AcDbScale
 70
     0
300
1" = 1'-0"
140
1.0
141
12.0
290
     0
  0
SCALE
  5
D4
102
{ACAD_REACTORS
330
B6
102
}
330
B6
100
AcDbScale
 70
     0
300
1-1/2" = 1'-0"
140
1.5
141
12.0
290
     0
  0
SCALE
  5
D5
102
{ACAD_REACTORS
330
B6
102
}
330
B6
100
AcDbScale
 70
     0
300
3" = 1'-0"
140
3.0
141
12.0
290
     0
  0
SCALE
  5
D6
102
{ACAD_REACTORS
330
B6
102
}
330
B6
100
AcDbScale
 70
     0
300
6" = 1'-0"
140
6.0
141
12.0
290
     0
  0
SCALE
  5
D7
102
{ACAD_REACTORS
330
B6
102
}
330
B6
100
AcDbScale
 70
     0
300
1'-0" = 1'-0"
140
12.0
141
12.0
290
     0
  0
TABLESTYLE
  5
87
102
{ACAD_REACTORS
330
86
102
}
102
{ACAD_XDICTIONARY
360
A5E
102
}
330
86
100
AcDbTableStyle
  3
Standard
 70
     0
 71
     0
 40
0.06
 41
0.06
280
     0
281
     0
  7
Standard
140
0.18
170
     2
 62
     0
 63
   257
283
     0
 90
      512
 91
        0
  1

274
    -2
284
     1
 64
     0
275
    -2
285
     1
 65
     0
276
    -2
286
     1
 66
     0
277
    -2
287
     1
 67
     0
278
    -2
288
     1
 68
     0
279
    -2
289
     1
 69
     0
  7
Standard
140
0.25
170
     5
 62
     0
 63
   257
283
     0
 90
      512
 91
        0
  1

274
    -2
284
     1
 64
     0
275
    -2
285
     1
 65
     0
276
    -2
286
     1
 66
     0
277
    -2
287
     1
 67
     0
278
    -2
288
     1
 68
     0
279
    -2
289
     1
 69
     0
  7
Standard
140
0.18
170
     5
 62
     0
 63
   257
283
     0
 90
      512
 91
        0
  1

274
    -2
284
     1
 64
     0
275
    -2
285
     1
 65
     0
276
    -2
286
     1
 66
     0
277
    -2
287
     1
 67
     0
278
    -2
288
     1
 68
     0
279
    -2
289
     1
 69
     0
  0
VISUALSTYLE
  5
9F
102
{ACAD_REACTORS
330
99
102
}
330
99
100
AcDbVisualStyle
  2
2dWireframe
 70
     4
177
     3
291
     0
 70
    58
 90
        0
176
     1
 90
        2
176
     1
 90
        1
176
     1
 90
        0
176
     1
 40
-0.6
176
     1
 40
-30.0
176
     1
 62
     7
420
 16777215
176
     1
 90
        1
176
     1
 90
        4
176
     1
 62
     7
176
     1
 62
   257
176
     1
 90
        1
176
     1
 90
        1
176
     1
 40
1.0
176
     1
 90
        0
176
     1
 62
   257
176
     1
 40
1.0
176
     1
 90
        1
176
     1
 90
        6
176
     1
 90
        2
176
     1
 62
     7
176
     1
 90
        5
176
     1
 90
        0
176
     1
 90
        0
176
     1
290
     0
176
     1
 90
        1
176
     1
 40
0.0
176
     1
 90
        0
176
     1
290
     1
176
     1
290
     1
176
     1
290
     0
176
     1
290
     0
176
     1
290
     0
176
     1
290
     0
176
     1
290
     0
176
     1
290
     0
176
     1
290
     0
176
     1
 90
       50
176
     1
 40
0.0
176
     1
 40
1.0
176
     1
 90
        0
176
     1
 62
    18
420
        0
176
     1
 90
       50
176
     1
 90
        3
176
     1
 62
     5
420
      255
176
     1
290
     0
176
     1
 90
       50
176
     1
 90
       50
176
     1
 90
       50
176
     1
290
     0
176
     1
 90
       50
176
     1
 62
   256
176
     0
 40
1.0
176
     0
 90
        2
176
     1
  1
strokes_ogs.tif
176
     1
290
     0
176
     1
 40
1.0
176
     1
 40
1.0
176
     1
  0
VISUALSTYLE
  5
A1
102
{ACAD_REACTORS
330
99
102
}
330
99
100
AcDbVisualStyle
  2
3D Hidden
 70
     6
177
     3
291
     0
 70
    58
 90
        1
176
     1
 90
        2
176
     1
 90
        2
176
     1
 90
        0
176
     1
 40
-0.6
176
     1
 40
-30.0
176
     1
 62
     7
420
 16777215
176
     1
 90
        2
176
     1
 90
        2
176
     1
 62
     7
176
     1
 62
   257
176
     1
 90
        2
176
     1
 90
        1
176
     1
 40
40.0
176
     1
 90
        0
176
     1
 62
   257
176
     1
 40
1.0
176
     1
 90
        1
176
     1
 90
        6
176
     1
 90
        2
176
     1
 62
     7
176
     1
 90
        3
176
     1
 90
        0
176
     1
 90
        0
176
     1
290
     0
176
     1
 90
        1
176
     1
 40
0.0
176
     1
 90
        0
176
     1
290
     0
176
     1
290
     1
176
     1
290
     1
176
     1
290
     0
176
     1
290
     0
176
     1
290
     0
176
     1
290
     0
176
     1
290
     0
176
     1
290
     0
176
     1
 90
       50
176
     1
 40
0.0
176
     1
 40
1.0
176
     1
 90
        0
176
     1
 62
    18
420
        0
176
     1
 90
       50
176
     1
 90
        3
176
     1
 62
     5
420
      255
176
     1
290
     0
176
     1
 90
       50
176
     1
 90
       50
176
     1
 90
       50
176
     1
290
     0
176
     1
 90
       50
176
     1
 62
   256
176
     0
 40
1.0
176
     0
 90
        2
176
     1
  1
strokes_ogs.tif
176
     1
290
     0
176
     1
 40
1.0
176
     1
 40
1.0
176
     1
  0
VISUALSTYLE
  5
A0
102
{ACAD_REACTORS
330
99
102
}
330
99
100
AcDbVisualStyle
  2
3dWireframe
 70
     5
177
     3
291
     0
 70
    58
 90
        0
176
     1
 90
        2
176
     1
 90
        1
176
     1
 90
        0
176
     1
 40
-0.6
176
     1
 40
-30.0
176
     1
 62
     7
420
 16777215
176
     1
 90
        1
176
     1
 90
        4
176
     1
 62
     7
176
     1
 62
   257
176
     1
 90
        1
176
     1
 90
        1
176
     1
 40
1.0
176
     1
 90
        0
176
     1
 62
   257
176
     1
 40
1.0
176
     1
 90
        1
176
     1
 90
        6
176
     1
 90
        2
176
     1
 62
     7
176
     1
 90
        5
176
     1
 90
        0
176
     1
 90
        0
176
     1
290
     0
176
     1
 90
        1
176
     1
 40
0.0
176
     1
 90
        0
176
     1
290
     0
176
     1
290
     1
176
     1
290
     1
176
     1
290
     0
176
     1
290
     0
176
     1
290
     0
176
     1
290
     0
176
     1
290
     0
176
     1
290
     0
176
     1
 90
       50
176
     1
 40
0.0
176
     1
 40
1.0
176
     1
 90
        0
176
     1
 62
    18
420
        0
176
     1
 90
       50
176
     1
 90
        3
176
     1
 62
     5
420
      255
176
     1
290
     0
176
     1
 90
       50
176
     1
 90
       50
176
     1
 90
       50
176
     1
290
     0
176
     1
 90
       50
176
     1
 62
   256
176
     0
 40
1.0
176
     0
 90
        2
176
     1
  1
strokes_ogs.tif
176
     1
290
     0
176
     1
 40
1.0
176
     1
 40
1.0
176
     1
  0
VISUALSTYLE
  5
9E
102
{ACAD_REACTORS
330
99
102
}
330
99
100
AcDbVisualStyle
  2
Basic
 70
     7
177
     3
291
     1
 70
    58
 90
        1
176
     1
 90
        0
176
     1
 90
        1
176
     1
 90
        0
176
     1
 40
-0.6
176
     1
 40
-30.0
176
     1
 62
     7
420
 16777215
176
     1
 90
        0
176
     1
 90
        4
176
     1
 62
     7
176
     1
 62
   257
176
     1
 90
        1
176
     1
 90
        1
176
     1
 40
1.0
176
     1
 90
        8
176
     1
 62
     7
176
     1
 40
1.0
176
     1
 90
        1
176
     1
 90
        6
176
     1
 90
        2
176
     1
 62
     7
176
     1
 90
        5
176
     1
 90
        0
176
     1
 90
        0
176
     1
290
     0
176
     1
 90
        1
176
     1
 40
0.0
176
     1
 90
        0
176
     1
290
     0
176
     1
290
     1
176
     1
290
     1
176
     1
290
     0
176
     1
290
     0
176
     1
290
     0
176
     1
290
     0
176
     1
290
     0
176
     1
290
     0
176
     1
 90
       50
176
     1
 40
0.0
176
     1
 40
1.0
176
     1
 90
        0
176
     1
 62
    18
420
        0
176
     1
 90
       50
176
     1
 90
        3
176
     1
 62
     5
420
      255
176
     1
290
     0
176
     1
 90
       50
176
     1
 90
       50
176
     1
 90
       50
176
     1
290
     0
176
     1
 90
       50
176
     1
 62
   256
176
     0
 40
1.0
176
     0
 90
        2
176
     1
  1
strokes_ogs.tif
176
     1
290
     0
176
     1
 40
1.0
176
     1
 40
1.0
176
     1
  0
VISUALSTYLE
  5
A5
102
{ACAD_REACTORS
330
99
102
}
330
99
100
AcDbVisualStyle
  2
Brighten
 70
    12
177
     3
291
     1
 70
    58
 90
        2
176
     1
 90
        2
176
     1
 90
        1
176
     1
 90
        0
176
     1
 40
-0.6
176
     1
 40
-30.0
176
     1
 62
     7
420
 16777215
176
     1
 90
        1
176
     1
 90
        4
176
     1
 62
     7
176
     1
 62
   257
176
     1
 90
        1
176
     1
 90
        1
176
     1
 40
1.0
176
     1
 90
        8
176
     1
 62
     7
176
     1
 40
1.0
176
     1
 90
        1
176
     1
 90
        6
176
     1
 90
        2
176
     1
 62
     7
176
     1
 90
        5
176
     1
 90
        0
176
     1
 90
        0
176
     1
290
     0
176
     1
 90
        1
176
     1
 40
50.0
176
     1
 90
        0
176
     1
290
     0
176
     1
290
     1
176
     1
290
     1
176
     1
290
     0
176
     1
290
     0
176
     1
290
     0
176
     1
290
     0
176
     1
290
     0
176
     1
290
     0
176
     1
 90
       50
176
     1
 40
0.0
176
     1
 40
1.0
176
     1
 90
        0
176
     1
 62
    18
420
        0
176
     1
 90
       50
176
     1
 90
        3
176
     1
 62
     5
420
      255
176
     1
290
     0
176
     1
 90
       50
176
     1
 90
       50
176
     1
 90
       50
176
     1
290
     0
176
     1
 90
       50
176
     1
 62
   256
176
     0
 40
1.0
176
     0
 90
        2
176
     1
  1
strokes_ogs.tif
176
     1
290
     0
176
     1
 40
1.0
176
     1
 40
1.0
176
     1
  0
VISUALSTYLE
  5
A9
102
{ACAD_REACTORS
330
99
102
}
330
99
100
AcDbVisualStyle
  2
ColorChange
 70
    16
177
     3
291
     1
 70
    58
 90
        2
176
     1
 90
        2
176
     1
 90
        3
176
     1
 90
        0
176
     1
 40
-0.6
176
     1
 40
-30.0
176
     1
 62
     8
420
  8421504
176
     1
 90
        1
176
     1
 90
        4
176
     1
 62
     7
176
     1
 62
   257
176
     1
 90
        1
176
     1
 90
        1
176
     1
 40
1.0
176
     1
 90
        8
176
     1
 62
     8
420
  8421504
176
     1
 40
1.0
176
     1
 90
        1
176
     1
 90
        6
176
     1
 90
        2
176
     1
 62
     7
176
     1
 90
        5
176
     1
 90
        0
176
     1
 90
        0
176
     1
290
     0
176
     1
 90
        1
176
     1
 40
0.0
176
     1
 90
        0
176
     1
290
     0
176
     1
290
     1
176
     1
290
     1
176
     1
290
     0
176
     1
290
     0
176
     1
290
     0
176
     1
290
     0
176
     1
290
     0
176
     1
290
     0
176
     1
 90
       50
176
     1
 40
0.0
176
     1
 40
1.0
176
     1
 90
        0
176
     1
 62
    18
420
        0
176
     1
 90
       50
176
     1
 90
        3
176
     1
 62
     5
420
      255
176
     1
290
     0
176
     1
 90
       50
176
     1
 90
       50
176
     1
 90
       50
176
     1
290
     0
176
     1
 90
       50
176
     1
 62
   256
176
     0
 40
1.0
176
     0
 90
        2
176
     1
  1
strokes_ogs.tif
176
     1
290
     0
176
     1
 40
1.0
176
     1
 40
1.0
176
     1
  0
VISUALSTYLE
  5
A2
102
{ACAD_REACTORS
330
99
102
}
330
99
100
AcDbVisualStyle
  2
Conceptual
 70
     9
177
     3
291
     0
 70
    58
 90
        3
176
     1
 90
        2
176
     1
 90
        1
176
     1
 90
        0
176
     1
 40
-0.6
176
     1
 40
-30.0
176
     1
 62
     7
420
 16777215
176
     1
 90
        2
176
     1
 90
        2
176
     1
 62
     7
176
     1
 62
   257
176
     1
 90
        1
176
     1
 90
        1
176
     1
 40
40.0
176
     1
 90
        8
176
     1
 62
     7
176
     1
 40
1.0
176
     1
 90
        1
176
     1
 90
        6
176
     1
 90
        2
176
     1
 62
     7
176
     1
 90
        3
176
     1
 90
        0
176
     1
 90
        0
176
     1
290
     0
176
     1
 90
        1
176
     1
 40
0.0
176
     1
 90
        0
176
     1
290
     0
176
     1
290
     1
176
     1
290
     1
176
     1
290
     0
176
     1
290
     0
176
     1
290
     0
176
     1
290
     0
176
     1
290
     0
176
     1
290
     0
176
     1
 90
       50
176
     1
 40
0.0
176
     1
 40
1.0
176
     1
 90
        0
176
     1
 62
    18
420
        0
176
     1
 90
       50
176
     1
 90
        3
176
     1
 62
     5
420
      255
176
     1
290
     0
176
     1
 90
       50
176
     1
 90
       50
176
     1
 90
       50
176
     1
290
     0
176
     1
 90
       50
176
     1
 62
   256
176
     0
 40
1.0
176
     0
 90
        2
176
     1
  1
strokes_ogs.tif
176
     1
290
     0
176
     1
 40
1.0
176
     1
 40
1.0
176
     1
  0
VISUALSTYLE
  5
A4
102
{ACAD_REACTORS
330
99
102
}
330
99
100
AcDbVisualStyle
  2
Dim
 70
    11
177
     3
291
     1
 70
    58
 90
        2
176
     1
 90
        2
176
     1
 90
        1
176
     1
 90
        0
176
     1
 40
-0.6
176
     1
 40
-30.0
176
     1
 62
     7
420
 16777215
176
     1
 90
        1
176
     1
 90
        4
176
     1
 62
     7
176
     1
 62
   257
176
     1
 90
        1
176
     1
 90
        1
176
     1
 40
1.0
176
     1
 90
        8
176
     1
 62
     7
176
     1
 40
1.0
176
     1
 90
        1
176
     1
 90
        6
176
     1
 90
        2
176
     1
 62
     7
176
     1
 90
        5
176
     1
 90
        0
176
     1
 90
        0
176
     1
290
     0
176
     1
 90
        1
176
     1
 40
-50.0
176
     1
 90
        0
176
     1
290
     0
176
     1
290
     1
176
     1
290
     1
176
     1
290
     0
176
     1
290
     0
176
     1
290
     0
176
     1
290
     0
176
     1
290
     0
176
     1
290
     0
176
     1
 90
       50
176
     1
 40
0.0
176
     1
 40
1.0
176
     1
 90
        0
176
     1
 62
    18
420
        0
176
     1
 90
       50
176
     1
 90
        3
176
     1
 62
     5
420
      255
176
     1
290
     0
176
     1
 90
       50
176
     1
 90
       50
176
     1
 90
       50
176
     1
290
     0
176
     1
 90
       50
176
     1
 62
   256
176
     0
 40
1.0
176
     0
 90
        2
176
     1
  1
strokes_ogs.tif
176
     1
290
     0
176
     1
 40
1.0
176
     1
 40
1.0
176
     1
  0
VISUALSTYLE
  5
E7
102
{ACAD_REACTORS
330
99
102
}
330
99
100
AcDbVisualStyle
  2
EdgeColorOff
 70
    22
177
     3
291
     1
 70
    58
 90
        2
176
     0
 90
        2
176
     0
 90
        0
176
     0
 90
        0
176
     0
 40
0.6
176
     0
 40
30.0
176
     0
 62
     7
420
 16777215
176
     0
 90
        1
176
     0
 90
        4
176
     0
 62
     7
176
     0
 62
   257
176
     0
 90
        1
176
     0
 90
        1
176
     0
 40
1.0
176
     0
 90
        8
176
     2
 62
     7
176
     0
 40
1.0
176
     0
 90
        1
176
     0
 90
        6
176
     0
 90
        2
176
     0
 62
     7
176
     0
 90
        5
176
     0
 90
        0
176
     0
 90
        0
176
     0
290
     0
176
     0
 90
        1
176
     0
 40
0.0
176
     0
 90
        0
176
     0
290
     0
176
     0
290
     1
176
     0
290
     1
176
     0
290
     0
176
     0
290
     0
176
     0
290
     0
176
     0
290
     0
176
     0
290
     0
176
     0
290
     0
176
     0
 90
       50
176
     0
 40
0.0
176
     0
 40
1.0
176
     0
 90
        0
176
     0
 62
    18
420
        0
176
     0
 90
       50
176
     0
 90
        3
176
     0
 62
     5
420
      255
176
     0
290
     0
176
     0
 90
       50
176
     0
 90
       50
176
     0
 90
       50
176
     0
290
     0
176
     0
 90
       50
176
     0
 62
   256
176
     0
 40
1.0
176
     0
 90
        2
176
     0
  1
strokes_ogs.tif
176
     0
290
     0
176
     0
 40
1.0
176
     0
 40
1.0
176
     0
  0
VISUALSTYLE
  5
A8
102
{ACAD_REACTORS
330
99
102
}
330
99
100
AcDbVisualStyle
  2
Facepattern
 70
    15
177
     3
291
     1
 70
    58
 90
        2
176
     1
 90
        2
176
     1
 90
        1
176
     1
 90
        0
176
     1
 40
-0.6
176
     1
 40
-30.0
176
     1
 62
     7
420
 16777215
176
     1
 90
        1
176
     1
 90
        4
176
     1
 62
     7
176
     1
 62
   257
176
     1
 90
        1
176
     1
 90
        1
176
     1
 40
1.0
176
     1
 90
        8
176
     1
 62
     7
176
     1
 40
1.0
176
     1
 90
        1
176
     1
 90
        6
176
     1
 90
        2
176
     1
 62
     7
176
     1
 90
        5
176
     1
 90
        0
176
     1
 90
        0
176
     1
290
     0
176
     1
 90
        1
176
     1
 40
0.0
176
     1
 90
        0
176
     1
290
     0
176
     1
290
     1
176
     1
290
     1
176
     1
290
     0
176
     1
290
     0
176
     1
290
     0
176
     1
290
     0
176
     1
290
     0
176
     1
290
     0
176
     1
 90
       50
176
     1
 40
0.0
176
     1
 40
1.0
176
     1
 90
        0
176
     1
 62
    18
420
        0
176
     1
 90
       50
176
     1
 90
        3
176
     1
 62
     5
420
      255
176
     1
290
     0
176
     1
 90
       50
176
     1
 90
       50
176
     1
 90
       50
176
     1
290
     0
176
     1
 90
       50
176
     1
 62
   256
176
     0
 40
1.0
176
     0
 90
        2
176
     1
  1
strokes_ogs.tif
176
     1
290
     0
176
     1
 40
1.0
176
     1
 40
1.0
176
     1
  0
VISUALSTYLE
  5
9A
102
{ACAD_REACTORS
330
99
102
}
330
99
100
AcDbVisualStyle
  2
Flat
 70
     0
177
     3
291
     1
 70
    58
 90
        2
176
     1
 90
        1
176
     1
 90
        1
176
     1
 90
        2
176
     1
 40
-0.6
176
     1
 40
30.0
176
     1
 62
     7
420
 16777215
176
     1
 90
        0
176
     1
 90
        4
176
     1
 62
     7
176
     1
 62
   257
176
     1
 90
        1
176
     1
 90
        1
176
     1
 40
1.0
176
     1
 90
        8
176
     1
 62
     7
176
     1
 40
1.0
176
     1
 90
        1
176
     1
 90
        6
176
     1
 90
        2
176
     1
 62
     7
176
     1
 90
        5
176
     1
 90
        0
176
     1
 90
        0
176
     1
290
     0
176
     1
 90
        1
176
     1
 40
0.0
176
     1
 90
        0
176
     1
290
     0
176
     1
290
     1
176
     1
290
     1
176
     1
290
     0
176
     1
290
     0
176
     1
290
     0
176
     1
290
     0
176
     1
290
     0
176
     1
290
     0
176
     1
 90
       50
176
     1
 40
0.0
176
     1
 40
1.0
176
     1
 90
        0
176
     1
 62
    18
420
        0
176
     1
 90
       50
176
     1
 90
        3
176
     1
 62
     5
420
      255
176
     1
290
     0
176
     1
 90
       50
176
     1
 90
       50
176
     1
 90
       50
176
     1
290
     0
176
     1
 90
       50
176
     1
 62
   256
176
     0
 40
1.0
176
     0
 90
        2
176
     1
  1
strokes_ogs.tif
176
     1
290
     0
176
     1
 40
1.0
176
     1
 40
1.0
176
     1
  0
VISUALSTYLE
  5
9B
102
{ACAD_REACTORS
330
99
102
}
330
99
100
AcDbVisualStyle
  2
FlatWithEdges
 70
     1
177
     3
291
     1
 70
    58
 90
        2
176
     1
 90
        1
176
     1
 90
        1
176
     1
 90
        2
176
     1
 40
-0.6
176
     1
 40
30.0
176
     1
 62
     7
420
 16777215
176
     1
 90
        1
176
     1
 90
        4
176
     1
 62
     7
176
     1
 62
   257
176
     1
 90
        1
176
     1
 90
        1
176
     1
 40
1.0
176
     1
 90
        0
176
     1
 62
   257
176
     1
 40
1.0
176
     1
 90
        1
176
     1
 90
        6
176
     1
 90
        2
176
     1
 62
     7
176
     1
 90
        5
176
     1
 90
        0
176
     1
 90
        0
176
     1
290
     0
176
     1
 90
        1
176
     1
 40
0.0
176
     1
 90
        0
176
     1
290
     0
176
     1
290
     1
176
     1
290
     1
176
     1
290
     0
176
     1
290
     0
176
     1
290
     0
176
     1
290
     0
176
     1
290
     0
176
     1
290
     0
176
     1
 90
       50
176
     1
 40
0.0
176
     1
 40
1.0
176
     1
 90
        0
176
     1
 62
    18
420
        0
176
     1
 90
       50
176
     1
 90
        3
176
     1
 62
     5
420
      255
176
     1
290
     0
176
     1
 90
       50
176
     1
 90
       50
176
     1
 90
       50
176
     1
290
     0
176
     1
 90
       50
176
     1
 62
   256
176
     0
 40
1.0
176
     0
 90
        2
176
     1
  1
strokes_ogs.tif
176
     1
290
     0
176
     1
 40
1.0
176
     1
 40
1.0
176
     1
  0
VISUALSTYLE
  5
9C
102
{ACAD_REACTORS
330
99
102
}
330
99
100
AcDbVisualStyle
  2
Gouraud
 70
     2
177
     3
291
     1
 70
    58
 90
        2
176
     1
 90
        2
176
     1
 90
        1
176
     1
 90
        2
176
     1
 40
-0.6
176
     1
 40
30.0
176
     1
 62
     7
420
 16777215
176
     1
 90
        0
176
     1
 90
        4
176
     1
 62
     7
176
     1
 62
   257
176
     1
 90
        1
176
     1
 90
        1
176
     1
 40
1.0
176
     1
 90
        0
176
     1
 62
     7
176
     1
 40
1.0
176
     1
 90
        1
176
     1
 90
        6
176
     1
 90
        2
176
     1
 62
     7
176
     1
 90
        5
176
     1
 90
        0
176
     1
 90
        0
176
     1
290
     0
176
     1
 90
        1
176
     1
 40
0.0
176
     1
 90
        0
176
     1
290
     0
176
     1
290
     1
176
     1
290
     1
176
     1
290
     0
176
     1
290
     0
176
     1
290
     0
176
     1
290
     0
176
     1
290
     0
176
     1
290
     0
176
     1
 90
       50
176
     1
 40
0.0
176
     1
 40
1.0
176
     1
 90
        0
176
     1
 62
    18
420
        0
176
     1
 90
       50
176
     1
 90
        3
176
     1
 62
     5
420
      255
176
     1
290
     0
176
     1
 90
       50
176
     1
 90
       50
176
     1
 90
       50
176
     1
290
     0
176
     1
 90
       50
176
     1
 62
   256
176
     0
 40
1.0
176
     0
 90
        2
176
     1
  1
strokes_ogs.tif
176
     1
290
     0
176
     1
 40
1.0
176
     1
 40
1.0
176
     1
  0
VISUALSTYLE
  5
9D
102
{ACAD_REACTORS
330
99
102
}
330
99
100
AcDbVisualStyle
  2
GouraudWithEdges
 70
     3
177
     3
291
     1
 70
    58
 90
        2
176
     1
 90
        2
176
     1
 90
        1
176
     1
 90
        2
176
     1
 40
-0.6
176
     1
 40
30.0
176
     1
 62
     7
420
 16777215
176
     1
 90
        1
176
     1
 90
        4
176
     1
 62
     7
176
     1
 62
   257
176
     1
 90
        1
176
     1
 90
        1
176
     1
 40
1.0
176
     1
 90
        0
176
     1
 62
   257
176
     1
 40
1.0
176
     1
 90
        1
176
     1
 90
        6
176
     1
 90
        2
176
     1
 62
     7
176
     1
 90
        5
176
     1
 90
        0
176
     1
 90
        0
176
     1
290
     0
176
     1
 90
        1
176
     1
 40
0.0
176
     1
 90
        0
176
     1
290
     0
176
     1
290
     1
176
     1
290
     1
176
     1
290
     0
176
     1
290
     0
176
     1
290
     0
176
     1
290
     0
176
     1
290
     0
176
     1
290
     0
176
     1
 90
       50
176
     1
 40
0.0
176
     1
 40
1.0
176
     1
 90
        0
176
     1
 62
    18
420
        0
176
     1
 90
       50
176
     1
 90
        3
176
     1
 62
     5
420
      255
176
     1
290
     0
176
     1
 90
       50
176
     1
 90
       50
176
     1
 90
       50
176
     1
290
     0
176
     1
 90
       50
176
     1
 62
   256
176
     0
 40
1.0
176
     0
 90
        2
176
     1
  1
strokes_ogs.tif
176
     1
290
     0
176
     1
 40
1.0
176
     1
 40
1.0
176
     1
  0
VISUALSTYLE
  5
E4
102
{ACAD_REACTORS
330
99
102
}
330
99
100
AcDbVisualStyle
  2
Hidden
 70
     6
177
     3
291
     0
 70
    58
 90
        1
176
     1
 90
        2
176
     1
 90
        2
176
     1
 90
        0
176
     1
 40
0.6
176
     1
 40
30.0
176
     1
 62
     7
420
 16777215
176
     1
 90
        2
176
     1
 90
        2
176
     1
 62
     7
176
     1
 62
   257
176
     1
 90
        2
176
     1
 90
        1
176
     1
 40
40.0
176
     1
 90
        0
176
     1
 62
   257
176
     1
 40
1.0
176
     1
 90
        1
176
     1
 90
        6
176
     1
 90
        2
176
     1
 62
     7
176
     1
 90
        3
176
     1
 90
        0
176
     1
 90
        0
176
     1
290
     0
176
     1
 90
        1
176
     1
 40
0.0
176
     1
 90
        0
176
     1
290
     0
176
     1
290
     1
176
     1
290
     1
176
     1
290
     0
176
     1
290
     0
176
     1
290
     0
176
     1
290
     0
176
     1
290
     0
176
     1
290
     0
176
     1
 90
       50
176
     1
 40
0.0
176
     1
 40
1.0
176
     1
 90
        0
176
     1
 62
    18
420
        0
176
     1
 90
       50
176
     1
 90
        3
176
     1
 62
     5
420
      255
176
     1
290
     0
176
     1
 90
       50
176
     1
 90
       50
176
     1
 90
       50
176
     1
290
     0
176
     1
 90
       50
176
     1
 62
   256
176
     0
 40
1.0
176
     0
 90
        2
176
     1
  1
strokes_ogs.tif
176
     1
290
     0
176
     1
 40
1.0
176
     1
 40
1.0
176
     1
  0
VISUALSTYLE
  5
E5
102
{ACAD_REACTORS
330
99
102
}
330
99
100
AcDbVisualStyle
  2
JitterOff
 70
    20
177
     3
291
     1
 70
    58
 90
        2
176
     0
 90
        2
176
     0
 90
        0
176
     0
 90
        0
176
     0
 40
0.6
176
     0
 40
30.0
176
     0
 62
     7
420
 16777215
176
     0
 90
        1
176
     0
 90
        4
176
     0
 62
     7
176
     0
 62
   257
176
     0
 90
        1
176
     0
 90
        1
176
     0
 40
1.0
176
     0
 90
       10
176
     2
 62
     7
176
     0
 40
1.0
176
     0
 90
        1
176
     0
 90
        6
176
     0
 90
        2
176
     0
 62
     7
176
     0
 90
        5
176
     0
 90
        0
176
     0
 90
        0
176
     0
290
     0
176
     0
 90
        1
176
     0
 40
0.0
176
     0
 90
        0
176
     0
290
     0
176
     0
290
     1
176
     0
290
     1
176
     0
290
     0
176
     0
290
     0
176
     0
290
     0
176
     0
290
     0
176
     0
290
     0
176
     0
290
     0
176
     0
 90
       50
176
     0
 40
0.0
176
     0
 40
1.0
176
     0
 90
        0
176
     0
 62
    18
420
        0
176
     0
 90
       50
176
     0
 90
        3
176
     0
 62
     5
420
      255
176
     0
290
     0
176
     0
 90
       50
176
     0
 90
       50
176
     0
 90
       50
176
     0
290
     0
176
     0
 90
       50
176
     0
 62
   256
176
     0
 40
1.0
176
     0
 90
        2
176
     0
  1
strokes_ogs.tif
176
     0
290
     0
176
     0
 40
1.0
176
     0
 40
1.0
176
     0
  0
VISUALSTYLE
  5
A7
102
{ACAD_REACTORS
330
99
102
}
330
99
100
AcDbVisualStyle
  2
Linepattern
 70
    14
177
     3
291
     1
 70
    58
 90
        2
176
     1
 90
        2
176
     1
 90
        1
176
     1
 90
        0
176
     1
 40
-0.6
176
     1
 40
-30.0
176
     1
 62
     7
420
 16777215
176
     1
 90
        1
176
     1
 90
        4
176
     1
 62
     7
176
     1
 62
   257
176
     1
 90
        7
176
     1
 90
        7
176
     1
 40
1.0
176
     1
 90
        8
176
     1
 62
     7
176
     1
 40
1.0
176
     1
 90
        1
176
     1
 90
        6
176
     1
 90
        2
176
     1
 62
     7
176
     1
 90
        5
176
     1
 90
        0
176
     1
 90
        0
176
     1
290
     0
176
     1
 90
        1
176
     1
 40
0.0
176
     1
 90
        0
176
     1
290
     0
176
     1
290
     1
176
     1
290
     1
176
     1
290
     0
176
     1
290
     0
176
     1
290
     0
176
     1
290
     0
176
     1
290
     0
176
     1
290
     0
176
     1
 90
       50
176
     1
 40
0.0
176
     1
 40
1.0
176
     1
 90
        0
176
     1
 62
    18
420
        0
176
     1
 90
       50
176
     1
 90
        3
176
     1
 62
     5
420
      255
176
     1
290
     0
176
     1
 90
       50
176
     1
 90
       50
176
     1
 90
       50
176
     1
290
     0
176
     1
 90
       50
176
     1
 62
   256
176
     0
 40
1.0
176
     0
 90
        2
176
     1
  1
strokes_ogs.tif
176
     1
290
     0
176
     1
 40
1.0
176
     1
 40
1.0
176
     1
  0
VISUALSTYLE
  5
E6
102
{ACAD_REACTORS
330
99
102
}
330
99
100
AcDbVisualStyle
  2
OverhangOff
 70
    21
177
     3
291
     1
 70
    58
 90
        2
176
     0
 90
        2
176
     0
 90
        0
176
     0
 90
        0
176
     0
 40
0.6
176
     0
 40
30.0
176
     0
 62
     7
420
 16777215
176
     0
 90
        1
176
     0
 90
        4
176
     0
 62
     7
176
     0
 62
   257
176
     0
 90
        1
176
     0
 90
        1
176
     0
 40
1.0
176
     0
 90
        9
176
     2
 62
     7
176
     0
 40
1.0
176
     0
 90
        1
176
     0
 90
        6
176
     0
 90
        2
176
     0
 62
     7
176
     0
 90
        5
176
     0
 90
        0
176
     0
 90
        0
176
     0
290
     0
176
     0
 90
        1
176
     0
 40
0.0
176
     0
 90
        0
176
     0
290
     0
176
     0
290
     1
176
     0
290
     1
176
     0
290
     0
176
     0
290
     0
176
     0
290
     0
176
     0
290
     0
176
     0
290
     0
176
     0
290
     0
176
     0
 90
       50
176
     0
 40
0.0
176
     0
 40
1.0
176
     0
 90
        0
176
     0
 62
    18
420
        0
176
     0
 90
       50
176
     0
 90
        3
176
     0
 62
     5
420
      255
176
     0
290
     0
176
     0
 90
       50
176
     0
 90
       50
176
     0
 90
       50
176
     0
290
     0
176
     0
 90
       50
176
     0
 62
   256
176
     0
 40
1.0
176
     0
 90
        2
176
     0
  1
strokes_ogs.tif
176
     0
290
     0
176
     0
 40
1.0
176
     0
 40
1.0
176
     0
  0
VISUALSTYLE
  5
A3
102
{ACAD_REACTORS
330
99
102
}
330
99
100
AcDbVisualStyle
  2
Realistic
 70
     8
177
     3
291
     0
 70
    58
 90
        2
176
     1
 90
        2
176
     1
 90
        1
176
     1
 90
        0
176
     1
 40
-0.6
176
     1
 40
-30.0
176
     1
 62
     7
420
 16777215
176
     1
 90
        1
176
     1
 90
        0
176
     1
 62
     7
176
     1
 62
   257
176
     1
 90
        1
176
     1
 90
        1
176
     1
 40
1.0
176
     1
 90
        8
176
     1
 62
     8
420
  7895160
176
     1
 40
1.0
176
     1
 90
        1
176
     1
 90
        6
176
     1
 90
        2
176
     1
 62
     7
176
     1
 90
        5
176
     1
 90
        0
176
     1
 90
        0
176
     1
290
     0
176
     1
 90
       13
176
     1
 40
0.0
176
     1
 90
        0
176
     1
290
     0
176
     1
290
     1
176
     1
290
     1
176
     1
290
     0
176
     1
290
     0
176
     1
290
     0
176
     1
290
     0
176
     1
290
     0
176
     1
290
     0
176
     1
 90
       50
176
     1
 40
0.0
176
     1
 40
1.0
176
     1
 90
        0
176
     1
 62
    18
420
        0
176
     1
 90
       50
176
     1
 90
        3
176
     1
 62
     5
420
      255
176
     1
290
     0
176
     1
 90
       50
176
     1
 90
       50
176
     1
 90
       50
176
     1
290
     0
176
     1
 90
       50
176
     1
 62
   256
176
     0
 40
1.0
176
     0
 90
        2
176
     1
  1
strokes_ogs.tif
176
     1
290
     0
176
     1
 40
1.0
176
     1
 40
1.0
176
     1
  0
VISUALSTYLE
  5
EC
102
{ACAD_REACTORS
330
99
102
}
330
99
100
AcDbVisualStyle
  2
Shaded
 70
    27
177
     3
291
     0
 70
    58
 90
        2
176
     1
 90
        2
176
     1
 90
        1
176
     1
 90
        2
176
     1
 40
0.6
176
     1
 40
30.0
176
     1
 62
     7
420
 16777215
176
     1
 90
        0
176
     1
 90
        4
176
     1
 62
     7
176
     1
 62
   257
176
     1
 90
        1
176
     1
 90
        1
176
     1
 40
1.0
176
     1
 90
        8
176
     1
 62
   257
176
     1
 40
1.0
176
     1
 90
        1
176
     1
 90
        6
176
     1
 90
        2
176
     1
 62
     8
420
  7895160
176
     1
 90
        3
176
     1
 90
        0
176
     1
 90
        0
176
     1
290
     0
176
     1
 90
        5
176
     1
 40
0.0
176
     1
 90
        0
176
     1
290
     0
176
     1
290
     1
176
     1
290
     1
176
     1
290
     0
176
     1
290
     0
176
     1
290
     0
176
     1
290
     0
176
     1
290
     0
176
     1
290
     0
176
     1
 90
       50
176
     1
 40
0.0
176
     1
 40
1.0
176
     1
 90
        0
176
     1
 62
    18
420
        0
176
     1
 90
       50
176
     1
 90
        3
176
     1
 62
     5
420
      255
176
     1
290
     0
176
     1
 90
       50
176
     1
 90
       50
176
     1
 90
       50
176
     1
290
     0
176
     1
 90
       50
176
     1
 62
   256
176
     0
 40
1.0
176
     0
 90
        2
176
     1
  1
strokes_ogs.tif
176
     1
290
     0
176
     1
 40
1.0
176
     1
 40
1.0
176
     1
  0
VISUALSTYLE
  5
EB
102
{ACAD_REACTORS
330
99
102
}
330
99
100
AcDbVisualStyle
  2
Shaded with edges
 70
    26
177
     3
291
     0
 70
    58
 90
        2
176
     1
 90
        2
176
     1
 90
        1
176
     1
 90
        2
176
     1
 40
0.6
176
     1
 40
30.0
176
     1
 62
     7
420
 16777215
176
     1
 90
        1
176
     1
 90
       10
176
     1
 62
     7
176
     1
 62
   257
176
     1
 90
        2
176
     1
 90
        1
176
     1
 40
1.0
176
     1
 90
        8
176
     1
 62
   257
176
     1
 40
1.0
176
     1
 90
        1
176
     1
 90
        6
176
     1
 90
        2
176
     1
 62
     7
176
     1
 90
        3
176
     1
 90
        0
176
     1
 90
        0
176
     1
290
     0
176
     1
 90
        5
176
     1
 40
0.0
176
     1
 90
        0
176
     1
290
     0
176
     1
290
     1
176
     1
290
     1
176
     1
290
     0
176
     1
290
     0
176
     1
290
     0
176
     1
290
     0
176
     1
290
     0
176
     1
290
     0
176
     1
 90
       50
176
     1
 40
0.0
176
     1
 40
1.0
176
     1
 90
        0
176
     1
 62
    18
420
        0
176
     1
 90
       50
176
     1
 90
        3
176
     1
 62
     5
420
      255
176
     1
290
     0
176
     1
 90
       50
176
     1
 90
       50
176
     1
 90
       50
176
     1
290
     0
176
     1
 90
       50
176
     1
 62
   256
176
     0
 40
1.0
176
     0
 90
        2
176
     1
  1
strokes_ogs.tif
176
     1
290
     0
176
     1
 40
1.0
176
     1
 40
1.0
176
     1
  0
VISUALSTYLE
  5
E8
102
{ACAD_REACTORS
330
99
102
}
330
99
100
AcDbVisualStyle
  2
Shades of Gray
 70
    23
177
     3
291
     0
 70
    58
 90
        2
176
     1
 90
        2
176
     1
 90
        3
176
     1
 90
        0
176
     1
 40
0.6
176
     1
 40
30.0
176
     1
 62
     7
420
 16777215
176
     1
 90
        2
176
     1
 90
        2
176
     1
 62
     7
176
     1
 62
     7
176
     1
 90
        1
176
     1
 90
        1
176
     1
 40
40.0
176
     1
 90
        8
176
     1
 62
     7
176
     1
 40
1.0
176
     1
 90
        1
176
     1
 90
        6
176
     1
 90
        2
176
     1
 62
     7
176
     1
 90
        3
176
     1
 90
        0
176
     1
 90
        0
176
     1
290
     0
176
     1
 90
        1
176
     1
 40
0.0
176
     1
 90
        0
176
     1
290
     0
176
     1
290
     1
176
     1
290
     1
176
     1
290
     0
176
     1
290
     0
176
     1
290
     0
176
     1
290
     0
176
     1
290
     0
176
     1
290
     0
176
     1
 90
       50
176
     1
 40
0.0
176
     1
 40
1.0
176
     1
 90
        0
176
     1
 62
    18
420
        0
176
     1
 90
       50
176
     1
 90
        3
176
     1
 62
     5
420
      255
176
     1
290
     0
176
     1
 90
       50
176
     1
 90
       50
176
     1
 90
       50
176
     1
290
     0
176
     1
 90
       50
176
     1
 62
   256
176
     0
 40
1.0
176
     0
 90
        2
176
     1
  1
strokes_ogs.tif
176
     1
290
     0
176
     1
 40
1.0
176
     1
 40
1.0
176
     1
  0
VISUALSTYLE
  5
E9
102
{ACAD_REACTORS
330
99
102
}
330
99
100
AcDbVisualStyle
  2
Sketchy
 70
    24
177
     3
291
     0
 70
    58
 90
        1
176
     1
 90
        2
176
     1
 90
        2
176
     1
 90
        0
176
     1
 40
0.6
176
     1
 40
30.0
176
     1
 62
     7
420
 16777215
176
     1
 90
        2
176
     1
 90
        2
176
     1
 62
     7
176
     1
 62
     7
176
     1
 90
        1
176
     1
 90
        1
176
     1
 40
40.0
176
     1
 90
       11
176
     1
 62
     7
176
     1
 40
1.0
176
     1
 90
        1
176
     1
 90
        6
176
     1
 90
        2
176
     1
 62
     7
176
     1
 90
        6
176
     1
 90
        0
176
     1
 90
        0
176
     1
290
     0
176
     1
 90
        1
176
     1
 40
0.0
176
     1
 90
        0
176
     1
290
     0
176
     1
290
     1
176
     1
290
     1
176
     1
290
     0
176
     1
290
     0
176
     1
290
     0
176
     1
290
     0
176
     1
290
     0
176
     1
290
     0
176
     1
 90
       50
176
     1
 40
0.0
176
     1
 40
1.0
176
     1
 90
        0
176
     1
 62
    18
420
        0
176
     1
 90
       50
176
     1
 90
        3
176
     1
 62
     5
420
      255
176
     1
290
     0
176
     1
 90
       50
176
     1
 90
       50
176
     1
 90
       50
176
     1
290
     0
176
     1
 90
       50
176
     1
 62
   256
176
     0
 40
1.0
176
     0
 90
        2
176
     1
  1
strokes_ogs.tif
176
     1
290
     0
176
     1
 40
1.0
176
     1
 40
1.0
176
     1
  0
VISUALSTYLE
  5
A6
102
{ACAD_REACTORS
330
99
102
}
330
99
100
AcDbVisualStyle
  2
Thicken
 70
    13
177
     3
291
     1
 70
    58
 90
        2
176
     1
 90
        2
176
     1
 90
        1
176
     1
 90
        0
176
     1
 40
-0.6
176
     1
 40
-30.0
176
     1
 62
     7
420
 16777215
176
     1
 90
        1
176
     1
 90
        4
176
     1
 62
     7
176
     1
 62
   257
176
     1
 90
        1
176
     1
 90
        1
176
     1
 40
1.0
176
     1
 90
       12
176
     1
 62
     7
176
     1
 40
1.0
176
     1
 90
        1
176
     1
 90
        6
176
     1
 90
        2
176
     1
 62
     7
176
     1
 90
        5
176
     1
 90
        0
176
     1
 90
        0
176
     1
290
     0
176
     1
 90
        1
176
     1
 40
0.0
176
     1
 90
        0
176
     1
290
     0
176
     1
290
     1
176
     1
290
     1
176
     1
290
     0
176
     1
290
     0
176
     1
290
     0
176
     1
290
     0
176
     1
290
     0
176
     1
290
     0
176
     1
 90
       50
176
     1
 40
0.0
176
     1
 40
1.0
176
     1
 90
        0
176
     1
 62
    18
420
        0
176
     1
 90
       50
176
     1
 90
        3
176
     1
 62
     5
420
      255
176
     1
290
     0
176
     1
 90
       50
176
     1
 90
       50
176
     1
 90
       50
176
     1
290
     0
176
     1
 90
       50
176
     1
 62
   256
176
     0
 40
1.0
176
     0
 90
        2
176
     1
  1
strokes_ogs.tif
176
     1
290
     0
176
     1
 40
1.0
176
     1
 40
1.0
176
     1
  0
VISUALSTYLE
  5
E3
102
{ACAD_REACTORS
330
99
102
}
330
99
100
AcDbVisualStyle
  2
Wireframe
 70
     5
177
     3
291
     0
 70
    58
 90
        0
176
     1
 90
        2
176
     1
 90
        0
176
     1
 90
        0
176
     1
 40
0.6
176
     1
 40
30.0
176
     1
 62
     7
420
 16777215
176
     1
 90
        1
176
     1
 90
        4
176
     1
 62
     7
176
     1
 62
   257
176
     1
 90
        1
176
     1
 90
        1
176
     1
 40
1.0
176
     1
 90
        0
176
     1
 62
   257
176
     1
 40
1.0
176
     1
 90
        1
176
     1
 90
        6
176
     1
 90
        2
176
     1
 62
     7
176
     1
 90
        3
176
     1
 90
        0
176
     1
 90
        0
176
     1
290
     0
176
     1
 90
        1
176
     1
 40
0.0
176
     1
 90
        0
176
     1
290
     0
176
     1
290
     1
176
     1
290
     1
176
     1
290
     0
176
     1
290
     0
176
     1
290
     0
176
     1
290
     0
176
     1
290
     0
176
     1
290
     0
176
     1
 90
       50
176
     1
 40
0.0
176
     1
 40
1.0
176
     1
 90
        0
176
     1
 62
    18
420
        0
176
     1
 90
       50
176
     1
 90
        3
176
     1
 62
     5
420
      255
176
     1
290
     0
176
     1
 90
       50
176
     1
 90
       50
176
     1
 90
       50
176
     1
290
     0
176
     1
 90
       50
176
     1
 62
   256
176
     0
 40
1.0
176
     0
 90
        2
176
     1
  1
strokes_ogs.tif
176
     1
290
     0
176
     1
 40
1.0
176
     1
 40
1.0
176
     1
  0
VISUALSTYLE
  5
EA
102
{ACAD_REACTORS
330
99
102
}
330
99
100
AcDbVisualStyle
  2
X-Ray
 70
    25
177
     3
291
     0
 70
    58
 90
        2
176
     1
 90
        2
176
     1
 90
        1
176
     1
 90
        1
176
     1
 40
0.5
176
     1
 40
30.0
176
     1
 62
     7
420
 16777215
176
     1
 90
        1
176
     1
 90
        0
176
     1
 62
     7
176
     1
 62
   257
176
     1
 90
        1
176
     1
 90
        1
176
     1
 40
1.0
176
     1
 90
        8
176
     1
 62
     7
176
     1
 40
1.0
176
     1
 90
        1
176
     1
 90
        6
176
     1
 90
        2
176
     1
 62
     7
176
     1
 90
        3
176
     1
 90
        0
176
     1
 90
        0
176
     1
290
     0
176
     1
 90
       13
176
     1
 40
0.0
176
     1
 90
        0
176
     1
290
     0
176
     1
290
     1
176
     1
290
     1
176
     1
290
     0
176
     1
290
     0
176
     1
290
     0
176
     1
290
     0
176
     1
290
     0
176
     1
290
     0
176
     1
 90
       50
176
     1
 40
0.0
176
     1
 40
1.0
176
     1
 90
        0
176
     1
 62
    18
420
        0
176
     1
 90
       50
176
     1
 90
        3
176
     1
 62
     5
420
      255
176
     1
290
     0
176
     1
 90
       50
176
     1
 90
       50
176
     1
 90
       50
176
     1
290
     0
176
     1
 90
       50
176
     1
 62
   256
176
     0
 40
1.0
176
     0
 90
        2
176
     1
  1
strokes_ogs.tif
176
     1
290
     0
176
     1
 40
1.0
176
     1
 40
1.0
176
     1
  0
DICTIONARYVAR
  5
D8
102
{ACAD_REACTORS
330
66
102
}
330
66
100
DictionaryVariables
280
     0
  1
1:1
  0
DICTIONARYVAR
  5
1C5
102
{ACAD_REACTORS
330
66
102
}
330
66
100
DictionaryVariables
280
     0
  1
Standard
  0
DICTIONARYVAR
  5
89
102
{ACAD_REACTORS
330
66
102
}
330
66
100
DictionaryVariables
280
     0
  1
Standard
  0
DICTIONARYVAR
  5
67
102
{ACAD_REACTORS
330
66
102
}
330
66
100
DictionaryVariables
280
     0
  1
2
  0
DICTIONARYVAR
  5
6B
102
{ACAD_REACTORS
330
66
102
}
330
66
100
DictionaryVariables
280
     0
  1
1
  0
DICTIONARYVAR
  5
DF
102
{ACAD_REACTORS
330
66
102
}
330
66
100
DictionaryVariables
280
     0
  1
0
  0
DICTIONARYVAR
  5
E0
102
{ACAD_REACTORS
330
66
102
}
330
66
100
DictionaryVariables
280
     0
  1
0
  0
XRECORD
  5
1BD
102
{ACAD_REACTORS
330
179
102
}
330
179
100
AcDbXrecord
280
     1
 91
     1023
301

290
     0
302
0
330
10
 90
        8
 62
     7
370
    -3
331
16
  1
Color_7
  0
XRECORD
  5
88B
102
{ACAD_REACTORS
330
179
102
}
330
179
100
AcDbXrecord
280
     1
 91
     1023
301

290
     0
302
0
330
10
 90
        8
 62
     7
370
    -3
331
16
  1
Color_7
330
1BE
 90
        8
 62
     3
370
    -3
331
16
  1
Color_3
330
1C0
 90
        8
 62
     5
370
    -3
331
16
  1
Color_5
330
1C1
 90
        8
 62
     4
370
    -3
331
16
  1
Color_4
330
7ED
 90
        8
 62
     1
370
    -3
331
16
  1
Color_1
330
0
 90
        9
 62
     3
370
    -3
331
16
  1
Color_3
  0
XRECORD
  5
88E
102
{ACAD_REACTORS
330
179
102
}
330
179
100
AcDbXrecord
280
     1
 91
     1023
301

290
     0
302
0
330
10
 90
        8
 62
     7
370
    -3
331
16
  1
Color_7
330
1BE
 90
        9
 62
     3
370
    -3
331
16
  1
Color_3
330
1C0
 90
        8
 62
     5
370
    -3
331
16
  1
Color_5
330
1C1
 90
        8
 62
     4
370
    -3
331
16
  1
Color_4
330
7ED
 90
        8
 62
     1
370
    -3
331
16
  1
Color_1
330
0
 90
        8
 62
     3
370
    -3
331
16
  1
Color_3
  0
XRECORD
  5
891
102
{ACAD_REACTORS
330
179
102
}
330
179
100
AcDbXrecord
280
     1
 91
     1023
301

290
     0
302
0
330
10
 90
        8
 62
     7
370
    -3
331
16
  1
Color_7
330
1BE
 90
        8
 62
     3
370
    -3
331
16
  1
Color_3
330
1C0
 90
        8
 62
     5
370
    -3
331
16
  1
Color_5
330
1C1
 90
        8
 62
     4
370
    -3
331
16
  1
Color_4
330
7ED
 90
        8
 62
     1
370
    -3
331
16
  1
Color_1
330
0
 90
        8
 62
     3
370
    -3
331
16
  1
Color_3
  0
XRECORD
  5
895
102
{ACAD_REACTORS
330
179
102
}
330
179
100
AcDbXrecord
280
     1
 91
     1023
301

290
     0
302
0
330
10
 90
        8
 62
     7
370
    -3
331
16
  1
Color_7
330
1BE
 90
        8
 62
     3
370
    -3
331
16
  1
Color_3
330
1C0
 90
        8
 62
     5
370
    -3
331
16
  1
Color_5
330
1C1
 90
        8
 62
     4
370
    -3
331
16
  1
Color_4
330
7ED
 90
        8
 62
     1
370
    -3
331
16
  1
Color_1
  0
XRECORD
  5
9CB
102
{ACAD_REACTORS
330
179
102
}
330
179
100
AcDbXrecord
280
     1
 91
     1023
301

290
     0
302
points
330
10
 90
        8
 62
     7
370
    -3
331
16
  1
Color_7
330
1BE
 90
        8
 62
     3
370
    -3
331
16
  1
Color_3
330
1C0
 90
        8
 62
     5
370
    -3
331
16
  1
Color_5
330
1C1
 90
        8
 62
     4
370
    -3
331
16
  1
Color_4
330
7ED
 90
        8
 62
     1
370
    -3
331
16
  1
Color_1
  0
XRECORD
  5
628
102
{ACAD_REACTORS
330
179
102
}
330
179
100
AcDbXrecord
280
     1
 91
     1023
301

290
     0
302
0
330
10
 90
        8
 62
     7
370
    -3
331
16
  1
Color_7
330
1BE
 90
        8
 62
     3
370
    -3
331
16
  1
Color_3
330
1C0
 90
        8
 62
     5
370
    -3
331
16
  1
Color_5
330
1C1
 90
        8
 62
     4
370
    -3
331
16
  1
Color_4
330
0
 90
        8
 62
     5
370
    -3
331
16
  1
Color_5
330
0
 90
        8
 62
     3
370
    -3
331
16
  1
Color_3
  0
XRECORD
  5
62B
102
{ACAD_REACTORS
330
179
102
}
330
179
100
AcDbXrecord
280
     1
 91
     1023
301

290
     0
302
0
330
10
 90
        8
 62
     7
370
    -3
331
16
  1
Color_7
330
1BE
 90
        8
 62
     3
370
    -3
331
16
  1
Color_3
330
1C0
 90
        8
 62
     5
370
    -3
331
16
  1
Color_5
330
1C1
 90
        8
 62
     4
370
    -3
331
16
  1
Color_4
330
0
 90
        8
 62
     5
370
    -3
331
16
  1
Color_5
330
0
 90
        8
 62
     1
370
    -3
331
16
  1
Color_1
  0
XRECORD
  5
631
102
{ACAD_REACTORS
330
179
102
}
330
179
100
AcDbXrecord
280
     1
 91
     1023
301

290
     0
302
0
330
10
 90
        8
 62
     7
370
    -3
331
16
  1
Color_7
330
1BE
 90
        8
 62
     3
370
    -3
331
16
  1
Color_3
330
1C0
 90
        8
 62
     5
370
    -3
331
16
  1
Color_5
330
1C1
 90
        8
 62
     4
370
    -3
331
16
  1
Color_4
330
0
 90
        8
 62
     5
370
    -3
331
16
  1
Color_5
  0
XRECORD
  5
634
102
{ACAD_REACTORS
330
179
102
}
330
179
100
AcDbXrecord
280
     1
 91
     1023
301

290
     0
302
0
330
10
 90
        8
 62
     7
370
    -3
331
16
  1
Color_7
330
1BE
 90
        8
 62
     3
370
    -3
331
16
  1
Color_3
330
1C0
 90
        8
 62
     5
370
    -3
331
16
  1
Color_5
330
1C1
 90
        8
 62
     4
370
    -3
331
16
  1
Color_4
330
0
 90
        8
 62
     1
370
    -3
331
16
  1
Color_1
  0
XRECORD
  5
63C
102
{ACAD_REACTORS
330
179
102
}
330
179
100
AcDbXrecord
280
     1
 91
     1023
301

290
     0
302
0
330
10
 90
        8
 62
     7
370
    -3
331
16
  1
Color_7
330
1BE
 90
        8
 62
     3
370
    -3
331
16
  1
Color_3
330
1C0
 90
        8
 62
     5
370
    -3
331
16
  1
Color_5
330
1C1
 90
        8
 62
     4
370
    -3
331
16
  1
Color_4
  0
XRECORD
  5
643
102
{ACAD_REACTORS
330
179
102
}
330
179
100
AcDbXrecord
280
     1
 91
     1023
301

290
     0
302
0
330
10
 90
        8
 62
     7
370
    -3
331
16
  1
Color_7
330
1BE
 90
        8
 62
     3
370
    -3
331
16
  1
Color_3
330
1C0
 90
        8
 62
     5
370
    -3
331
16
  1
Color_5
330
1C1
 90
        8
 62
     4
370
    -3
331
16
  1
Color_4
330
0
 90
        8
 62
     1
370
    -3
331
16
  1
Color_1
  0
XRECORD
  5
884
102
{ACAD_REACTORS
330
179
102
}
330
179
100
AcDbXrecord
280
     1
 91
     1023
301

290
     0
302
0
330
10
 90
        8
 62
     7
370
    -3
331
16
  1
Color_7
330
1BE
 90
        8
 62
     3
370
    -3
331
16
  1
Color_3
330
1C0
 90
        8
 62
     5
370
    -3
331
16
  1
Color_5
330
1C1
 90
        8
 62
     4
370
    -3
331
16
  1
Color_4
330
7ED
 90
        8
 62
     5
370
    -3
331
16
  1
Color_5
330
0
 90
        8
 62
     3
370
    -3
331
16
  1
Color_3
  0
XRECORD
  5
888
102
{ACAD_REACTORS
330
179
102
}
330
179
100
AcDbXrecord
280
     1
 91
     1023
301

290
     0
302
0
330
10
 90
        8
 62
     7
370
    -3
331
16
  1
Color_7
330
1BE
 90
        8
 62
     3
370
    -3
331
16
  1
Color_3
330
1C0
 90
        8
 62
     5
370
    -3
331
16
  1
Color_5
330
1C1
 90
        8
 62
     4
370
    -3
331
16
  1
Color_4
330
7ED
 90
        8
 62
     5
370
    -3
331
16
  1
Color_5
330
0
 90
        8
 62
     3
370
    -3
331
16
  1
Color_3
  0
DICTIONARY
  5
A5E
330
87
100
AcDbDictionary
280
     1
281
     1
  3
ACAD_ROUNDTRIP_2008_TABLESTYLE_CELLSTYLEMAP
360
A5F
  0
CELLSTYLEMAP
  5
A5F
102
{ACAD_REACTORS
330
A5E
102
}
330
A5E
100
AcDbCellStyleMap
 90
        3
300
CELLSTYLE
  1
TABLEFORMAT_BEGIN
 90
        5
170
     1
 91
        0
 92
    32768
 62
   257
 93
        1
300
CONTENTFORMAT
  1
CONTENTFORMAT_BEGIN
 90
        0
 91
        0
 92
      512
 93
        0
300

 40
0.0
140
1.0
 94
        5
 62
     0
340
11
144
0.25
309
CONTENTFORMAT_END
171
     0
 94
        6
 95
        1
302
GRIDFORMAT
  1
GRIDFORMAT_BEGIN
 90
        0
 91
        1
 62
     0
 92
       -2
340
0
 93
        0
 40
0.045
309
GRIDFORMAT_END
 95
        2
302
GRIDFORMAT
  1
GRIDFORMAT_BEGIN
 90
        0
 91
        1
 62
     0
 92
       -2
340
0
 93
        0
 40
0.045
309
GRIDFORMAT_END
 95
        4
302
GRIDFORMAT
  1
GRIDFORMAT_BEGIN
 90
        0
 91
        1
 62
     0
 92
       -2
340
0
 93
        0
 40
0.045
309
GRIDFORMAT_END
 95
        8
302
GRIDFORMAT
  1
GRIDFORMAT_BEGIN
 90
        0
 91
        1
 62
     0
 92
       -2
340
0
 93
        0
 40
0.045
309
GRIDFORMAT_END
 95
       16
302
GRIDFORMAT
  1
GRIDFORMAT_BEGIN
 90
        0
 91
        1
 62
     0
 92
       -2
340
0
 93
        0
 40
0.045
309
GRIDFORMAT_END
 95
       32
302
GRIDFORMAT
  1
GRIDFORMAT_BEGIN
 90
        0
 91
        1
 62
     0
 92
       -2
340
0
 93
        0
 40
0.045
309
GRIDFORMAT_END
309
TABLEFORMAT_END
  1
CELLSTYLE_BEGIN
 90
        1
 91
        1
300
_TITLE
309
CELLSTYLE_END
300
CELLSTYLE
  1
TABLEFORMAT_BEGIN
 90
        5
170
     1
 91
        0
 92
        0
 62
   257
 93
        1
300
CONTENTFORMAT
  1
CONTENTFORMAT_BEGIN
 90
        0
 91
        0
 92
      512
 93
        0
300

 40
0.0
140
1.0
 94
        5
 62
     0
340
11
144
0.18
309
CONTENTFORMAT_END
171
     0
 94
        6
 95
        1
302
GRIDFORMAT
  1
GRIDFORMAT_BEGIN
 90
        0
 91
        1
 62
     0
 92
       -2
340
0
 93
        0
 40
0.045
309
GRIDFORMAT_END
 95
        2
302
GRIDFORMAT
  1
GRIDFORMAT_BEGIN
 90
        0
 91
        1
 62
     0
 92
       -2
340
0
 93
        0
 40
0.045
309
GRIDFORMAT_END
 95
        4
302
GRIDFORMAT
  1
GRIDFORMAT_BEGIN
 90
        0
 91
        1
 62
     0
 92
       -2
340
0
 93
        0
 40
0.045
309
GRIDFORMAT_END
 95
        8
302
GRIDFORMAT
  1
GRIDFORMAT_BEGIN
 90
        0
 91
        1
 62
     0
 92
       -2
340
0
 93
        0
 40
0.045
309
GRIDFORMAT_END
 95
       16
302
GRIDFORMAT
  1
GRIDFORMAT_BEGIN
 90
        0
 91
        1
 62
     0
 92
       -2
340
0
 93
        0
 40
0.045
309
GRIDFORMAT_END
 95
       32
302
GRIDFORMAT
  1
GRIDFORMAT_BEGIN
 90
        0
 91
        1
 62
     0
 92
       -2
340
0
 93
        0
 40
0.045
309
GRIDFORMAT_END
309
TABLEFORMAT_END
  1
CELLSTYLE_BEGIN
 90
        2
 91
        1
300
_HEADER
309
CELLSTYLE_END
300
CELLSTYLE
  1
TABLEFORMAT_BEGIN
 90
        5
170
     1
 91
        0
 92
        0
 62
   257
 93
        1
300
CONTENTFORMAT
  1
CONTENTFORMAT_BEGIN
 90
        0
 91
        0
 92
      512
 93
        0
300

 40
0.0
140
1.0
 94
        2
 62
     0
340
11
144
0.18
309
CONTENTFORMAT_END
171
     0
 94
        6
 95
        1
302
GRIDFORMAT
  1
GRIDFORMAT_BEGIN
 90
        0
 91
        1
 62
     0
 92
       -2
340
0
 93
        0
 40
0.045
309
GRIDFORMAT_END
 95
        2
302
GRIDFORMAT
  1
GRIDFORMAT_BEGIN
 90
        0
 91
        1
 62
     0
 92
       -2
340
0
 93
        0
 40
0.045
309
GRIDFORMAT_END
 95
        4
302
GRIDFORMAT
  1
GRIDFORMAT_BEGIN
 90
        0
 91
        1
 62
     0
 92
       -2
340
0
 93
        0
 40
0.045
309
GRIDFORMAT_END
 95
        8
302
GRIDFORMAT
  1
GRIDFORMAT_BEGIN
 90
        0
 91
        1
 62
     0
 92
       -2
340
0
 93
        0
 40
0.045
309
GRIDFORMAT_END
 95
       16
302
GRIDFORMAT
  1
GRIDFORMAT_BEGIN
 90
        0
 91
        1
 62
     0
 92
       -2
340
0
 93
        0
 40
0.045
309
GRIDFORMAT_END
 95
       32
302
GRIDFORMAT
  1
GRIDFORMAT_BEGIN
 90
        0
 91
        1
 62
     0
 92
       -2
340
0
 93
        0
 40
0.045
309
GRIDFORMAT_END
309
TABLEFORMAT_END
  1
CELLSTYLE_BEGIN
 90
        3
 91
        2
300
_DATA
309
CELLSTYLE_END
  0
ENDSEC
  0
EOF
