  0
SECTION
  2
HEADER
  9
$ACADVER
  1
AC1015
  9
$ACADMAINTVER
 70
     6
  9
$DWGCODEPAGE
  3
ANSI_1252
  9
$INSBASE
 10
0.0
 20
0.0
 30
0.0
  9
$EXTMIN
 10
25.59989836201498
 20
78.36068871923203
 30
0.0
  9
$EXTMAX
 10
317.2608324521397
 20
223.2563918887349
 30
0.0
  9
$LIMMIN
 10
0.0
 20
0.0
  9
$LIMMAX
 10
12.0
 20
9.0
  9
$ORTHOMODE
 70
     0
  9
$REGENMODE
 70
     1
  9
$FILLMODE
 70
     1
  9
$QTEXTMODE
 70
     0
  9
$MIRRTEXT
 70
     1
  9
$LTSCALE
 40
1.0
  9
$ATTMODE
 70
     1
  9
$TEXTSIZE
 40
2.5
  9
$TRACEWID
 40
0.05
  9
$TEXTSTYLE
  7
STANDARD
  9
$CLAYER
  8
Pjovimas
  9
$CELTYPE
  6
BYBLOCK
  9
$CECOLOR
 62
   256
  9
$CELTSCALE
 40
1.0
  9
$DISPSILH
 70
     0
  9
$DIMSCALE
 40
1.0
  9
$DIMASZ
 40
0.18
  9
$DIMEXO
 40
0.0625
  9
$DIMDLI
 40
0.38
  9
$DIMRND
 40
0.0
  9
$DIMDLE
 40
0.0
  9
$DIMEXE
 40
0.18
  9
$DIMTP
 40
0.0
  9
$DIMTM
 40
0.0
  9
$DIMTXT
 40
0.18
  9
$DIMCEN
 40
0.09
  9
$DIMTSZ
 40
0.0
  9
$DIMTOL
 70
     0
  9
$DIMLIM
 70
     0
  9
$DIMTIH
 70
     1
  9
$DIMTOH
 70
     1
  9
$DIMSE1
 70
     0
  9
$DIMSE2
 70
     0
  9
$DIMTAD
 70
     0
  9
$DIMZIN
 70
     0
  9
$DIMBLK
  1

  9
$DIMASO
 70
     1
  9
$DIMSHO
 70
     1
  9
$DIMPOST
  1

  9
$DIMAPOST
  1

  9
$DIMALT
 70
     0
  9
$DIMALTD
 70
     2
  9
$DIMALTF
 40
25.4
  9
$DIMLFAC
 40
1.0
  9
$DIMTOFL
 70
     0
  9
$DIMTVP
 40
0.0
  9
$DIMTIX
 70
     0
  9
$DIMSOXD
 70
     0
  9
$DIMSAH
 70
     0
  9
$DIMBLK1
  1

  9
$DIMBLK2
  1

  9
$DIMSTYLE
  2
ISO-25
  9
$DIMCLRD
 70
     0
  9
$DIMCLRE
 70
     0
  9
$DIMCLRT
 70
     0
  9
$DIMTFAC
 40
1.0
  9
$DIMGAP
 40
0.09
  9
$DIMJUST
 70
     0
  9
$DIMSD1
 70
     0
  9
$DIMSD2
 70
     0
  9
$DIMTOLJ
 70
     1
  9
$DIMTZIN
 70
     0
  9
$DIMALTZ
 70
     0
  9
$DIMALTTZ
 70
     0
  9
$DIMUPT
 70
     0
  9
$DIMDEC
 70
     4
  9
$DIMTDEC
 70
     4
  9
$DIMALTU
 70
     2
  9
$DIMALTTD
 70
     2
  9
$DIMTXSTY
  7
STANDARD
  9
$DIMAUNIT
 70
     0
  9
$DIMADEC
 70
     0
  9
$DIMALTRND
 40
0.0
  9
$DIMAZIN
 70
     0
  9
$DIMDSEP
 70
    46
  9
$DIMATFIT
 70
     3
  9
$DIMFRAC
 70
     0
  9
$DIMLDRBLK
  1

  9
$DIMLUNIT
 70
     2
  9
$DIMLWD
 70
    -2
  9
$DIMLWE
 70
    -2
  9
$DIMTMOVE
 70
     2
  9
$LUNITS
 70
     2
  9
$LUPREC
 70
     4
  9
$SKETCHINC
 40
0.1
  9
$FILLETRAD
 40
3.0
  9
$AUNITS
 70
     0
  9
$AUPREC
 70
     0
  9
$MENU
  1
.
  9
$ELEVATION
 40
0.0
  9
$PELEVATION
 40
0.0
  9
$THICKNESS
 40
0.0
  9
$LIMCHECK
 70
     0
  9
$CHAMFERA
 40
0.0
  9
$CHAMFERB
 40
0.0
  9
$CHAMFERC
 40
0.0
  9
$CHAMFERD
 40
0.0
  9
$SKPOLY
 70
     0
  9
$TDCREATE
 40
2447893.083333333
  9
$TDUCREATE
 40
0.0
  9
$TDUPDATE
 40
2457700.698975394
  9
$TDUUPDATE
 40
2457700.61564206
  9
$TDINDWG
 40
0.4808809838
  9
$TDUSRTIMER
 40
2457700.615392095
  9
$USRTIMER
 70
     1
  9
$ANGBASE
 50
0.0
  9
$ANGDIR
 70
     0
  9
$PDMODE
 70
     0
  9
$PDSIZE
 40
0.0
  9
$PLINEWID
 40
0.0
  9
$SPLFRAME
 70
     0
  9
$SPLINETYPE
 70
     6
  9
$SPLINESEGS
 70
     8
  9
$HANDSEED
  5
10CC8
  9
$SURFTAB1
 70
     6
  9
$SURFTAB2
 70
     6
  9
$SURFTYPE
 70
     6
  9
$SURFU
 70
     6
  9
$SURFV
 70
     6
  9
$UCSBASE
  2

  9
$UCSNAME
  2

  9
$UCSORG
 10
0.0
 20
0.0
 30
0.0
  9
$UCSXDIR
 10
1.0
 20
0.0
 30
0.0
  9
$UCSYDIR
 10
0.0
 20
1.0
 30
0.0
  9
$UCSORTHOREF
  2

  9
$UCSORTHOVIEW
 70
     0
  9
$UCSORGTOP
 10
0.0
 20
0.0
 30
0.0
  9
$UCSORGBOTTOM
 10
0.0
 20
0.0
 30
0.0
  9
$UCSORGLEFT
 10
0.0
 20
0.0
 30
0.0
  9
$UCSORGRIGHT
 10
0.0
 20
0.0
 30
0.0
  9
$UCSORGFRONT
 10
0.0
 20
0.0
 30
0.0
  9
$UCSORGBACK
 10
0.0
 20
0.0
 30
0.0
  9
$PUCSBASE
  2

  9
$PUCSNAME
  2

  9
$PUCSORG
 10
0.0
 20
0.0
 30
0.0
  9
$PUCSXDIR
 10
1.0
 20
0.0
 30
0.0
  9
$PUCSYDIR
 10
0.0
 20
1.0
 30
0.0
  9
$PUCSORTHOREF
  2

  9
$PUCSORTHOVIEW
 70
     0
  9
$PUCSORGTOP
 10
0.0
 20
0.0
 30
0.0
  9
$PUCSORGBOTTOM
 10
0.0
 20
0.0
 30
0.0
  9
$PUCSORGLEFT
 10
0.0
 20
0.0
 30
0.0
  9
$PUCSORGRIGHT
 10
0.0
 20
0.0
 30
0.0
  9
$PUCSORGFRONT
 10
0.0
 20
0.0
 30
0.0
  9
$PUCSORGBACK
 10
0.0
 20
0.0
 30
0.0
  9
$USERI1
 70
     0
  9
$USERI2
 70
     0
  9
$USERI3
 70
     0
  9
$USERI4
 70
     0
  9
$USERI5
 70
     0
  9
$USERR1
 40
0.0
  9
$USERR2
 40
0.0
  9
$USERR3
 40
0.0
  9
$USERR4
 40
0.0
  9
$USERR5
 40
0.0
  9
$WORLDVIEW
 70
     1
  9
$SHADEDGE
 70
     3
  9
$SHADEDIF
 70
    70
  9
$TILEMODE
 70
     1
  9
$MAXACTVP
 70
    64
  9
$PINSBASE
 10
0.0
 20
0.0
 30
0.0
  9
$PLIMCHECK
 70
     0
  9
$PEXTMIN
 10
1.000000000000000E+20
 20
1.000000000000000E+20
 30
1.000000000000000E+20
  9
$PEXTMAX
 10
-1.000000000000000E+20
 20
-1.000000000000000E+20
 30
-1.000000000000000E+20
  9
$PLIMMIN
 10
0.0
 20
0.0
  9
$PLIMMAX
 10
0.0
 20
0.0
  9
$UNITMODE
 70
     0
  9
$VISRETAIN
 70
     1
  9
$PLINEGEN
 70
     0
  9
$PSLTSCALE
 70
     1
  9
$TREEDEPTH
 70
  3020
  9
$CMLSTYLE
  2

  9
$CMLJUST
 70
     0
  9
$CMLSCALE
 40
1.0
  9
$PROXYGRAPHICS
 70
     1
  9
$MEASUREMENT
 70
     1
  9
$CELWEIGHT
370
    -1
  9
$ENDCAPS
280
     0
  9
$JOINSTYLE
280
     0
  9
$LWDISPLAY
290
     0
  9
$INSUNITS
 70
     0
  9
$HYPERLINKBASE
  1

  9
$STYLESHEET
  1

  9
$XEDIT
290
     1
  9
$CEPSNTYPE
380
     0
  9
$PSTYLEMODE
290
     1
  9
$FINGERPRINTGUID
  2
{881F6ABA-BC13-4736-B6D0-930960C2E9A9}
  9
$VERSIONGUID
  2
{FAEB1C32-E019-11D5-929B-00C0DF256EC4}
  9
$EXTNAMES
290
     1
  9
$PSVPSCALE
 40
0.0
  9
$OLESTARTUP
290
     0
  0
ENDSEC
  0
SECTION
  2
CLASSES
  0
CLASS
  1
SCALE
  2
AcDbScale
  3
ObjectDBX Classes
 90
     1153
280
     0
281
     0
  0
CLASS
  1
VISUALSTYLE
  2
AcDbVisualStyle
  3
ObjectDBX Classes
 90
     4095
280
     0
281
     0
  0
CLASS
  1
MATERIAL
  2
AcDbMaterial
  3
ObjectDBX Classes
 90
     1153
280
     0
281
     0
  0
CLASS
  1
TABLESTYLE
  2
AcDbTableStyle
  3
ObjectDBX Classes
 90
     4095
280
     0
281
     0
  0
CLASS
  1
MLEADERSTYLE
  2
AcDbMLeaderStyle
  3
ACDB_MLEADERSTYLE_CLASS
 90
     4095
280
     0
281
     0
  0
CLASS
  1
SUN
  2
AcDbSun
  3
SCENEOE
 90
     1153
280
     0
281
     0
  0
CLASS
  1
RASTERVARIABLES
  2
AcDbRasterVariables
  3
ISM
 90
        0
280
     0
281
     0
  0
CLASS
  1
DICTIONARYVAR
  2
AcDbDictionaryVar
  3
ObjectDBX Classes
 90
        0
280
     0
281
     0
  0
CLASS
  1
ACDBPLACEHOLDER
  2
AcDbPlaceHolder
  3
ObjectDBX Classes
 90
        0
280
     0
281
     0
  0
CLASS
  1
LAYOUT
  2
AcDbLayout
  3
ObjectDBX Classes
 90
        0
280
     0
281
     0
  0
ENDSEC
  0
SECTION
  2
TABLES
  0
TABLE
  2
VPORT
  5
8
330
0
100
AcDbSymbolTable
 70
     1
  0
VPORT
  5
2E
330
8
100
AcDbSymbolTableRecord
100
AcDbViewportTableRecord
  2
*ACTIVE
 70
     0
 10
0.0
 20
0.0
 11
1.0
 21
1.0
 12
284.3027617837238
 22
126.6047009562567
 13
0.0
 23
0.0
 14
10.0
 24
10.0
 15
10.0
 25
10.0
 16
0.0
 26
0.0
 36
1.0
 17
0.0
 27
0.0
 37
0.0
 40
340.9999999999981
 41
2.409867172675522
 42
50.0
 43
0.0
 44
0.0
 50
0.0
 51
0.0
 71
    16
 72
   100
 73
     1
 74
     3
 75
     0
 76
     0
 77
     0
 78
     0
281
     0
 65
     1
110
0.0
120
0.0
130
0.0
111
1.0
121
0.0
131
0.0
112
0.0
122
1.0
132
0.0
 79
     0
146
0.0
  0
ENDTAB
  0
TABLE
  2
LTYPE
  5
5
330
0
100
AcDbSymbolTable
 70
     1
  0
LTYPE
  5
14
330
5
100
AcDbSymbolTableRecord
100
AcDbLinetypeTableRecord
  2
BYBLOCK
 70
     0
  3

 72
    65
 73
     0
 40
0.0
  0
LTYPE
  5
15
330
5
100
AcDbSymbolTableRecord
100
AcDbLinetypeTableRecord
  2
BYLAYER
 70
     0
  3

 72
    65
 73
     0
 40
0.0
  0
LTYPE
  5
16
330
5
100
AcDbSymbolTableRecord
100
AcDbLinetypeTableRecord
  2
CONTINUOUS
 70
     0
  3
Solid line
 72
    65
 73
     0
 40
0.0
  0
ENDTAB
  0
TABLE
  2
LAYER
  5
2
102
{ACAD_XDICTIONARY
360
10048
102
}
330
0
100
AcDbSymbolTable
 70
     4
  0
LAYER
  5
50
330
2
100
AcDbSymbolTableRecord
100
AcDbLayerTableRecord
  2
0
 70
     0
 62
     7
  6
CONTINUOUS
370
    -3
390
0
  0
LAYER
  5
51
330
2
100
AcDbSymbolTableRecord
100
AcDbLayerTableRecord
  2
Pjovimas
 70
     0
 62
     6
  6
CONTINUOUS
370
    -3
390
0
  0
LAYER
  5
1004B
330
2
100
AcDbSymbolTableRecord
100
AcDbLayerTableRecord
  2
Graviravimas
 70
     0
 62
     3
  6
CONTINUOUS
370
    -3
390
0
1001
AcAecLayerStandard
1000

1000

  0
LAYER
  5
1024C
330
2
100
AcDbSymbolTableRecord
100
AcDbLayerTableRecord
  2
\U+012Eranga
 70
     0
 62
     4
  6
CONTINUOUS
370
    -3
390
0
1001
AcAecLayerStandard
1000

1000

  0
ENDTAB
  0
TABLE
  2
STYLE
  5
3
330
0
100
AcDbSymbolTable
 70
     1
  0
STYLE
  5
11
330
3
100
AcDbSymbolTableRecord
100
AcDbTextStyleTableRecord
  2
STANDARD
 70
     0
 40
0.0
 41
1.0
 50
0.0
 71
     0
 42
2.5
  3
txt
  4

  0
ENDTAB
  0
TABLE
  2
VIEW
  5
6
330
0
100
AcDbSymbolTable
 70
     0
  0
ENDTAB
  0
TABLE
  2
UCS
  5
7
330
0
100
AcDbSymbolTable
 70
     0
  0
ENDTAB
  0
TABLE
  2
APPID
  5
9
330
0
100
AcDbSymbolTable
 70
     2
  0
APPID
  5
12
330
9
100
AcDbSymbolTableRecord
100
AcDbRegAppTableRecord
  2
ACAD
 70
     0
  0
APPID
  5
1004C
330
9
100
AcDbSymbolTableRecord
100
AcDbRegAppTableRecord
  2
AcAecLayerStandard
 70
     0
  0
ENDTAB
  0
TABLE
  2
DIMSTYLE
  5
A
330
0
100
AcDbSymbolTable
 70
     1
100
AcDbDimStyleTable
  0
DIMSTYLE
105
27
330
A
100
AcDbSymbolTableRecord
100
AcDbDimStyleTableRecord
  2
ISO-25
 70
     0
 41
2.5
 42
0.625
 43
3.75
 44
1.25
 73
     0
 74
     0
 77
     1
 78
     8
140
2.5
141
2.5
143
0.03937007874016
147
0.625
171
     3
172
     1
178
     0
271
     2
272
     2
274
     3
283
     0
284
     8
340
11
  0
ENDTAB
  0
TABLE
  2
BLOCK_RECORD
  5
1
330
0
100
AcDbSymbolTable
 70
    11
  0
BLOCK_RECORD
  5
1F
330
1
100
AcDbSymbolTableRecord
100
AcDbBlockTableRecord
  2
*MODEL_SPACE
340
10022
  0
BLOCK_RECORD
  5
1B
330
1
100
AcDbSymbolTableRecord
100
AcDbBlockTableRecord
  2
*PAPER_SPACE
340
10023
  0
BLOCK_RECORD
  5
10081
330
1
100
AcDbSymbolTableRecord
100
AcDbBlockTableRecord
  2
Ratukas
340
0
102
{BLKREFS
331
0
331
0
331
0
331
0
331
0
331
0
331
0
331
0
331
0
331
0
331
0
331
0
331
0
331
0
331
0
331
0
331
0
331
0
331
0
331
0
331
0
331
0
331
0
331
0
331
0
331
0
331
0
331
0
331
0
331
0
331
0
331
0
331
0
331
0
331
0
331
0
331
0
331
0
331
10909
331
1090A
331
1090B
331
0
331
0
331
0
331
0
331
0
331
0
331
0
331
0
331
0
102
}
  0
BLOCK_RECORD
  5
1008C
330
1
100
AcDbSymbolTableRecord
100
AcDbBlockTableRecord
  2
Poveržl\U+0117
340
0
102
{BLKREFS
331
0
102
}
  0
BLOCK_RECORD
  5
10098
330
1
100
AcDbSymbolTableRecord
100
AcDbBlockTableRecord
  2
ratukai apa\U+010Dia
340
0
102
{BLKREFS
331
0
331
0
331
0
331
0
331
0
331
0
331
0
331
0
331
0
331
0
331
0
331
0
102
}
  0
BLOCK_RECORD
  5
10236
330
1
100
AcDbSymbolTableRecord
100
AcDbBlockTableRecord
  2
stikliukas
340
0
102
{BLKREFS
331
0
331
0
331
0
331
0
331
0
331
0
102
}
  0
BLOCK_RECORD
  5
1025C
330
1
100
AcDbSymbolTableRecord
100
AcDbBlockTableRecord
  2
kamera
340
0
102
{BLKREFS
331
0
331
0
331
0
331
0
331
0
102
}
  0
BLOCK_RECORD
  5
1027C
330
1
100
AcDbSymbolTableRecord
100
AcDbBlockTableRecord
  2
apacia
340
0
102
{BLKREFS
331
0
331
0
331
0
102
}
  0
BLOCK_RECORD
  5
1029F
330
1
100
AcDbSymbolTableRecord
100
AcDbBlockTableRecord
  2
apacia2
340
0
102
{BLKREFS
331
0
331
0
331
0
331
0
331
0
102
}
  0
BLOCK_RECORD
  5
10347
330
1
100
AcDbSymbolTableRecord
100
AcDbBlockTableRecord
  2
apacia3
340
0
102
{BLKREFS
331
0
331
0
331
0
102
}
  0
BLOCK_RECORD
  5
1038E
330
1
100
AcDbSymbolTableRecord
100
AcDbBlockTableRecord
  2
apacia4
340
0
102
{BLKREFS
331
0
331
0
331
0
102
}
  0
BLOCK_RECORD
  5
103B5
330
1
100
AcDbSymbolTableRecord
100
AcDbBlockTableRecord
  2
virsus
340
0
102
{BLKREFS
331
0
331
0
102
}
  0
BLOCK_RECORD
  5
103D6
330
1
100
AcDbSymbolTableRecord
100
AcDbBlockTableRecord
  2
Ratukas2
340
0
102
{BLKREFS
331
0
102
}
  0
ENDTAB
  0
ENDSEC
  0
SECTION
  2
BLOCKS
  0
BLOCK
  5
20
330
1F
100
AcDbEntity
  8
0
100
AcDbBlockBegin
  2
*MODEL_SPACE
 70
     0
 10
0.0
 20
0.0
 30
0.0
  3
*MODEL_SPACE
  1
*MODEL_SPACE
  0
ENDBLK
  5
21
330
1F
100
AcDbEntity
  8
0
100
AcDbBlockEnd
  0
BLOCK
  5
1C
330
1B
100
AcDbEntity
 67
     1
  8
0
100
AcDbBlockBegin
  2
*PAPER_SPACE
 70
     0
 10
0.0
 20
0.0
 30
0.0
  3
*PAPER_SPACE
  1
*PAPER_SPACE
  0
ENDBLK
  5
1D
330
1B
100
AcDbEntity
 67
     1
  8
0
100
AcDbBlockEnd
  0
BLOCK
  5
10085
330
10081
100
AcDbEntity
  8
0
100
AcDbBlockBegin
  2
Ratukas
 70
     0
 10
0.0
 20
0.0
 30
0.0
  3
Ratukas
  1
Ratukas
  0
LWPOLYLINE
  5
10083
330
10081
100
AcDbEntity
  8
Pjovimas
 62
     6
100
AcDbPolyline
 90
        2
 70
     1
 43
0.0
 10
34.249394
 20
132.727825
 10
34.249394
 20
132.727822
  0
SPLINE
  5
10084
330
10081
100
AcDbEntity
  8
Pjovimas
 62
     6
100
AcDbSpline
210
0.0
220
0.0
230
1.0
 70
  1064
 71
     3
 72
    55
 73
    51
 74
    49
 42
0.000000001
 43
0.0000000001
 44
0.0000000001
 40
0.0
 40
0.0
 40
0.0
 40
0.0
 40
2.06495851822671
 40
3.454784908076878
 40
5.303177682133576
 40
7.151570428921443
 40
8.541396743515454
 40
10.60635507770649
 40
12.67131241848426
 40
14.06113594945285
 40
15.90952983980333
 40
17.75792190881089
 40
19.1477478122121
 40
21.21270474512475
 40
23.27766467666555
 40
24.66749014171683
 40
26.51588201184935
 40
28.36427475863722
 40
29.7541003077307
 40
31.81905864192173
 40
33.88401598269951
 40
35.27383951366811
 40
37.12223434561282
 40
38.97062561983726
 40
40.36044953070258
 40
42.42540796586126
 40
44.49036575221575
 40
45.88019121726701
 40
47.72858399132371
 40
49.57697673811158
 40
50.96680228720506
 40
53.03175964089472
 40
55.09671691035383
 40
56.48654044132242
 40
58.33493459976915
 40
60.18332666877669
 40
61.57315257217792
 40
63.63811100733661
 40
65.70306879369107
 40
67.09289425874235
 40
68.94128703279904
 40
70.7896797795869
 40
72.17950468524516
 40
74.24446203893483
 40
76.30941930839394
 40
77.69924376231786
 40
79.54763731591895
 40
81.3960293849265
 40
82.78585429205977
 40
84.85081218793295
 40
84.85081218793295
 40
84.85081218793295
 40
84.85081218793295
 10
34.249394
 20
132.727822
 30
0.0
 10
33.69188332371544
 20
132.2857617564512
 30
0.0
 10
32.75913845086749
 20
131.5461715688551
 30
0.0
 10
32.46762264165838
 20
129.6155420059543
 30
0.0
 10
30.65860649678123
 20
129.032129580863
 30
0.0
 10
28.76187880096381
 20
129.0461703026473
 30
0.0
 10
27.88907743812257
 20
130.7638356882913
 30
0.0
 10
26.15342086367765
 20
131.613808017035
 30
0.0
 10
24.22103104755733
 20
131.6549567000792
 30
0.0
 10
22.65792876492686
 20
130.5296158936868
 30
0.0
 10
20.96372610878736
 20
131.3859592657994
 30
0.0
 10
19.63315698056163
 20
132.7399218501279
 30
0.0
 10
20.23041688511745
 20
134.5710311123534
 30
0.0
 10
19.60419205454229
 20
136.3995668378373
 30
0.0
 10
18.26686800863917
 20
137.7950093061432
 30
0.0
 10
16.36585384053213
 20
138.1045627630309
 30
0.0
 10
15.77338773086542
 20
139.9080640069725
 30
0.0
 10
15.78993161654091
 20
141.8063152758524
 30
0.0
 10
17.50704460768092
 20
142.678781916526
 30
0.0
 10
18.35721169772573
 20
144.4145564429191
 30
0.0
 10
18.39830570000398
 20
146.3469131216141
 30
0.0
 10
17.27297526919477
 20
147.9100220161051
 30
0.0
 10
18.1293152097216
 20
149.6042227033343
 30
0.0
 10
19.48327756279718
 20
150.934793041785
 30
0.0
 10
21.31438637598202
 20
150.3375325943186
 30
0.0
 10
23.14292044331795
 20
150.963760200397
 30
0.0
 10
24.53836365715425
 20
152.3010824444949
 30
0.0
 10
24.84791675667927
 20
154.2020966350254
 30
0.0
 10
26.65141876240666
 20
154.7945620071358
 30
0.0
 10
28.54967032251098
 20
154.7780185849412
 30
0.0
 10
29.42213654017439
 20
153.0609051734825
 30
0.0
 10
31.1579120225645
 20
152.2107415789429
 30
0.0
 10
33.09026818606355
 20
152.1696439064345
 30
0.0
 10
34.65337661319929
 20
153.2949743235524
 30
0.0
 10
36.34757862277837
 20
152.4386372642129
 30
0.0
 10
37.67814815034161
 20
151.0846729021912
 30
0.0
 10
37.08088761267948
 20
149.2535633604154
 30
0.0
 10
37.70711513463514
 20
147.4250285152315
 30
0.0
 10
39.04443742012219
 20
146.029585405217
 30
0.0
 10
40.94545173338855
 20
145.7200320828878
 30
0.0
 10
41.53791647494683
 20
143.9165310672353
 30
0.0
 10
41.52137535336516
 20
142.0182761711268
 30
0.0
 10
39.80425496463182
 20
141.1458215363381
 30
0.0
 10
38.95412501892495
 20
139.4099912353473
 30
0.0
 10
38.91290884615093
 20
137.4778296158993
 30
0.0
 10
40.03857500248829
 20
135.9141695365633
 30
0.0
 10
39.18071198994455
 20
134.2224710148309
 30
0.0
 10
37.83226224155184
 20
132.8828485479129
 30
0.0
 10
35.98311662772848
 20
133.5097230090568
 30
0.0
 10
34.89798682794002
 20
133.0203362891439
 30
0.0
 10
34.249394
 20
132.727825
 30
0.0
 11
34.249394
 21
132.727822
 31
0.0
 11
32.842245
 21
131.216536
 31
0.0
 11
32.313477
 21
129.931226
 31
0.0
 11
30.64267
 21
129.140682
 31
0.0
 11
28.810663
 21
129.386255
 31
0.0
 11
27.9164
 21
130.450168
 31
0.0
 11
26.116621
 21
131.462516
 31
0.0
 11
24.052977
 21
131.38888
 31
0.0
 11
22.770232
 21
130.853927
 31
0.0
 11
21.029795
 21
131.476373
 31
0.0
 11
19.908018
 21
132.945444
 31
0.0
 11
20.02798
 21
134.330083
 31
0.0
 11
19.47118
 21
136.318555
 31
0.0
 11
17.959893
 21
137.725705
 31
0.0
 11
16.674584
 21
138.254473
 31
0.0
 11
15.88404
 21
139.925279
 31
0.0
 11
16.129613
 21
141.757286
 31
0.0
 11
17.193525
 21
142.651549
 31
0.0
 11
18.205873
 21
144.451328
 31
0.0
 11
18.132237
 21
146.514972
 31
0.0
 11
17.597284
 21
147.797717
 31
0.0
 11
18.21973
 21
149.538155
 31
0.0
 11
19.6888
 21
150.659932
 31
0.0
 11
21.073437
 21
150.53997
 31
0.0
 11
23.06191
 21
151.096772
 31
0.0
 11
24.469059
 21
152.608057
 31
0.0
 11
24.997827
 21
153.893366
 31
0.0
 11
26.668634
 21
154.68391
 31
0.0
 11
28.500641
 21
154.438337
 31
0.0
 11
29.394904
 21
153.374425
 31
0.0
 11
31.194683
 21
152.362079
 31
0.0
 11
33.258327
 21
152.435713
 31
0.0
 11
34.541072
 21
152.970666
 31
0.0
 11
36.28151
 21
152.348222
 31
0.0
 11
37.403287
 21
150.879151
 31
0.0
 11
37.283325
 21
149.494512
 31
0.0
 11
37.840127
 21
147.506039
 31
0.0
 11
39.351412
 21
146.09889
 31
0.0
 11
40.636721
 21
145.570122
 31
0.0
 11
41.427265
 21
143.899315
 31
0.0
 11
41.181692
 21
142.067308
 31
0.0
 11
40.11778
 21
141.173046
 31
0.0
 11
39.105434
 21
139.373267
 31
0.0
 11
39.179068
 21
137.309623
 31
0.0
 11
39.714021
 21
136.026877
 31
0.0
 11
39.091576
 21
134.28644
 31
0.0
 11
37.622505
 21
133.164663
 31
0.0
 11
36.237867
 21
133.284625
 31
0.0
 11
34.249394
 21
132.727825
 31
0.0
  0
LWPOLYLINE
  5
10604
330
10081
100
AcDbEntity
  8
Pjovimas
 62
     6
100
AcDbPolyline
 90
        6
 70
     1
 43
0.0
 10
31.42692897630002
 20
137.1122905
 10
25.8843669944597
 20
137.1122905
 10
23.11308461243027
 20
141.912289783611
 10
25.88436701134151
 20
146.7122905
 10
31.42692895941798
 20
146.7122905
 10
34.19820995479154
 20
141.912289783611
  0
ENDBLK
  5
10086
330
10081
100
AcDbEntity
  8
0
100
AcDbBlockEnd
  0
BLOCK
  5
1008F
330
1008C
100
AcDbEntity
  8
0
100
AcDbBlockBegin
  2
Poveržl\U+0117
 70
     0
 10
0.0
 20
0.0
 30
0.0
  3
Poveržl\U+0117
  1
Poveržl\U+0117
  0
CIRCLE
  5
1008D
330
1008C
100
AcDbEntity
  8
Pjovimas
  6
ByBlock
100
AcDbCircle
 10
119.7943851066795
 20
146.6248970259683
 30
0.0
 40
3.5
  0
CIRCLE
  5
1008E
330
1008C
100
AcDbEntity
  8
Pjovimas
  6
ByBlock
100
AcDbCircle
 10
119.7943851066795
 20
146.6248970259683
 30
0.0
 40
7.0
  0
ENDBLK
  5
10090
330
1008C
100
AcDbEntity
  8
0
100
AcDbBlockEnd
  0
BLOCK
  5
1009C
330
10098
100
AcDbEntity
  8
0
100
AcDbBlockBegin
  2
ratukai apa\U+010Dia
 70
     0
 10
0.0
 20
0.0
 30
0.0
  3
ratukai apa\U+010Dia
  1
ratukai apa\U+010Dia
  0
CIRCLE
  5
10099
330
10098
100
AcDbEntity
  8
Pjovimas
  6
ByBlock
100
AcDbCircle
 10
28.65564726899078
 20
110.356323790862
 30
0.0
 40
3.0
  0
LWPOLYLINE
  5
1009A
330
10098
100
AcDbEntity
  8
Pjovimas
 62
     6
100
AcDbPolyline
 90
        2
 70
     1
 43
0.0
 10
34.249394
 20
101.1718590218713
 10
34.249394
 20
101.1718560218713
  0
SPLINE
  5
1009B
330
10098
100
AcDbEntity
  8
Pjovimas
 62
     6
100
AcDbSpline
210
0.0
220
0.0
230
1.0
 70
  1064
 71
     3
 72
    55
 73
    51
 74
    49
 42
0.000000001
 43
0.0000000001
 44
0.0000000001
 40
0.0
 40
0.0
 40
0.0
 40
0.0
 40
2.06495851822671
 40
3.454784908076878
 40
5.303177682133576
 40
7.151570428921443
 40
8.541396743515454
 40
10.60635507770649
 40
12.67131241848426
 40
14.06113594945285
 40
15.90952983980333
 40
17.75792190881089
 40
19.1477478122121
 40
21.21270474512475
 40
23.27766467666555
 40
24.66749014171683
 40
26.51588201184935
 40
28.36427475863722
 40
29.7541003077307
 40
31.81905864192173
 40
33.88401598269951
 40
35.27383951366811
 40
37.12223434561282
 40
38.97062561983726
 40
40.36044953070258
 40
42.42540796586126
 40
44.49036575221575
 40
45.88019121726701
 40
47.72858399132371
 40
49.57697673811158
 40
50.96680228720506
 40
53.03175964089472
 40
55.09671691035383
 40
56.48654044132242
 40
58.33493459976915
 40
60.18332666877669
 40
61.57315257217792
 40
63.63811100733661
 40
65.70306879369107
 40
67.09289425874235
 40
68.94128703279904
 40
70.7896797795869
 40
72.17950468524516
 40
74.24446203893483
 40
76.30941930839394
 40
77.69924376231786
 40
79.54763731591895
 40
81.3960293849265
 40
82.78585429205977
 40
84.85081218793295
 40
84.85081218793295
 40
84.85081218793295
 40
84.85081218793295
 10
34.249394
 20
101.1718560218713
 30
0.0
 10
33.69188332371543
 20
100.7297957783224
 30
0.0
 10
32.75913845086749
 20
99.99020559072639
 30
0.0
 10
32.46762264165837
 20
98.0595760278255
 30
0.0
 10
30.65860649678122
 20
97.47616360273429
 30
0.0
 10
28.76187880096381
 20
97.49020432451854
 30
0.0
 10
27.88907743812256
 20
99.20786971016258
 30
0.0
 10
26.15342086367765
 20
100.0578420389063
 30
0.0
 10
24.22103104755732
 20
100.0989907219505
 30
0.0
 10
22.65792876492685
 20
98.97364991555806
 30
0.0
 10
20.96372610878736
 20
99.82999328767065
 30
0.0
 10
19.63315698056162
 20
101.1839558719992
 30
0.0
 10
20.23041688511744
 20
103.0150651342247
 30
0.0
 10
19.60419205454229
 20
104.8436008597086
 30
0.0
 10
18.26686800863916
 20
106.2390433280145
 30
0.0
 10
16.36585384053213
 20
106.5485967849021
 30
0.0
 10
15.77338773086541
 20
108.3520980288438
 30
0.0
 10
15.7899316165409
 20
110.2503492977236
 30
0.0
 10
17.50704460768091
 20
111.1228159383973
 30
0.0
 10
18.35721169772572
 20
112.8585904647904
 30
0.0
 10
18.39830570000397
 20
114.7909471434853
 30
0.0
 10
17.27297526919477
 20
116.3540560379763
 30
0.0
 10
18.1293152097216
 20
118.0482567252056
 30
0.0
 10
19.48327756279717
 20
119.3788270636563
 30
0.0
 10
21.31438637598202
 20
118.7815666161898
 30
0.0
 10
23.14292044331794
 20
119.4077942222683
 30
0.0
 10
24.53836365715424
 20
120.7451164663661
 30
0.0
 10
24.84791675667926
 20
122.6461306568967
 30
0.0
 10
26.65141876240665
 20
123.2385960290071
 30
0.0
 10
28.54967032251096
 20
123.2220526068125
 30
0.0
 10
29.42213654017438
 20
121.5049391953538
 30
0.0
 10
31.1579120225645
 20
120.6547756008142
 30
0.0
 10
33.09026818606355
 20
120.6136779283058
 30
0.0
 10
34.65337661319928
 20
121.7390083454237
 30
0.0
 10
36.34757862277836
 20
120.8826712860842
 30
0.0
 10
37.67814815034161
 20
119.5287069240625
 30
0.0
 10
37.08088761267948
 20
117.6975973822866
 30
0.0
 10
37.70711513463513
 20
115.8690625371028
 30
0.0
 10
39.04443742012218
 20
114.4736194270883
 30
0.0
 10
40.94545173338854
 20
114.164066104759
 30
0.0
 10
41.53791647494681
 20
112.3605650891066
 30
0.0
 10
41.52137535336514
 20
110.462310192998
 30
0.0
 10
39.80425496463182
 20
109.5898555582094
 30
0.0
 10
38.95412501892494
 20
107.8540252572185
 30
0.0
 10
38.91290884615092
 20
105.9218636377706
 30
0.0
 10
40.03857500248827
 20
104.3582035584346
 30
0.0
 10
39.18071198994454
 20
102.6665050367022
 30
0.0
 10
37.83226224155183
 20
101.3268825697841
 30
0.0
 10
35.98311662772846
 20
101.953757030928
 30
0.0
 10
34.89798682794001
 20
101.4643703110152
 30
0.0
 10
34.249394
 20
101.1718590218713
 30
0.0
 11
34.249394
 21
101.1718560218713
 31
0.0
 11
32.84224499999999
 21
99.66057002187125
 31
0.0
 11
32.31347699999999
 21
98.37526002187127
 31
0.0
 11
30.64266999999999
 21
97.58471602187126
 31
0.0
 11
28.81066299999999
 21
97.83028902187127
 31
0.0
 11
27.91639999999999
 21
98.89420202187125
 31
0.0
 11
26.11662099999999
 21
99.90655002187125
 31
0.0
 11
24.05297699999999
 21
99.83291402187126
 31
0.0
 11
22.77023199999999
 21
99.29796102187126
 31
0.0
 11
21.02979499999999
 21
99.92040702187126
 31
0.0
 11
19.90801799999999
 21
101.3894780218713
 31
0.0
 11
20.02797999999999
 21
102.7741170218713
 31
0.0
 11
19.47117999999999
 21
104.7625890218713
 31
0.0
 11
17.95989299999999
 21
106.1697390218713
 31
0.0
 11
16.67458399999999
 21
106.6985070218713
 31
0.0
 11
15.88403999999999
 21
108.3693130218712
 31
0.0
 11
16.12961299999999
 21
110.2013200218713
 31
0.0
 11
17.19352499999999
 21
111.0955830218712
 31
0.0
 11
18.20587299999999
 21
112.8953620218713
 31
0.0
 11
18.13223699999999
 21
114.9590060218713
 31
0.0
 11
17.59728399999999
 21
116.2417510218713
 31
0.0
 11
18.21972999999999
 21
117.9821890218712
 31
0.0
 11
19.68879999999999
 21
119.1039660218713
 31
0.0
 11
21.07343699999999
 21
118.9840040218713
 31
0.0
 11
23.06190999999999
 21
119.5408060218712
 31
0.0
 11
24.46905899999999
 21
121.0520910218713
 31
0.0
 11
24.99782699999999
 21
122.3374000218712
 31
0.0
 11
26.66863399999999
 21
123.1279440218713
 31
0.0
 11
28.50064099999999
 21
122.8823710218713
 31
0.0
 11
29.39490399999999
 21
121.8184590218713
 31
0.0
 11
31.19468299999999
 21
120.8061130218713
 31
0.0
 11
33.25832699999999
 21
120.8797470218713
 31
0.0
 11
34.54107199999999
 21
121.4147000218713
 31
0.0
 11
36.28150999999999
 21
120.7922560218713
 31
0.0
 11
37.40328699999999
 21
119.3231850218713
 31
0.0
 11
37.28332499999999
 21
117.9385460218712
 31
0.0
 11
37.840127
 21
115.9500730218712
 31
0.0
 11
39.351412
 21
114.5429240218713
 31
0.0
 11
40.63672099999999
 21
114.0141560218713
 31
0.0
 11
41.42726499999999
 21
112.3433490218713
 31
0.0
 11
41.18169199999999
 21
110.5113420218713
 31
0.0
 11
40.11778
 21
109.6170800218713
 31
0.0
 11
39.105434
 21
107.8173010218713
 31
0.0
 11
39.17906799999999
 21
105.7536570218712
 31
0.0
 11
39.714021
 21
104.4709110218713
 31
0.0
 11
39.091576
 21
102.7304740218713
 31
0.0
 11
37.62250499999999
 21
101.6086970218713
 31
0.0
 11
36.23786699999999
 21
101.7286590218713
 31
0.0
 11
34.249394
 21
101.1718590218713
 31
0.0
  0
CIRCLE
  5
102F8
330
10098
100
AcDbEntity
  8
Pjovimas
  6
ByBlock
100
AcDbCircle
 10
37.38105795551846
 20
111.9259400610792
 30
0.0
 40
1.5
  0
ENDBLK
  5
1009D
330
10098
100
AcDbEntity
  8
0
100
AcDbBlockEnd
  0
BLOCK
  5
1023B
330
10236
100
AcDbEntity
  8
0
100
AcDbBlockBegin
  2
stikliukas
 70
     0
 10
0.0
 20
0.0
 30
0.0
  3
stikliukas
  1
stikliukas
  0
CIRCLE
  5
10237
330
10236
100
AcDbEntity
  8
Pjovimas
  6
ByBlock
100
AcDbCircle
 10
813.8591357146447
 20
402.1812061873971
 30
0.0
 40
3.1
  0
CIRCLE
  5
10238
330
10236
100
AcDbEntity
  8
Pjovimas
  6
ByBlock
100
AcDbCircle
 10
813.8591357146447
 20
345.3761061798368
 30
0.0
 40
3.1
  0
CIRCLE
  5
10239
330
10236
100
AcDbEntity
  8
Pjovimas
  6
ByBlock
100
AcDbCircle
 10
764.6644828857079
 20
373.7786601339203
 30
0.0
 40
3.1
  0
CIRCLE
  5
1023A
330
10236
100
AcDbEntity
  8
Pjovimas
  6
ByBlock
100
AcDbCircle
 10
797.4609148857078
 20
373.778654183617
 30
0.0
 40
39.0
  0
ENDBLK
  5
1023C
330
10236
100
AcDbEntity
  8
0
100
AcDbBlockEnd
  0
BLOCK
  5
10269
330
1025C
100
AcDbEntity
  8
0
100
AcDbBlockBegin
  2
kamera
 70
     0
 10
0.0
 20
0.0
 30
0.0
  3
kamera
  1
kamera
  0
LINE
  5
1025D
330
1025C
100
AcDbEntity
  8
\U+012Eranga
  6
ByBlock
100
AcDbLine
 10
419.8695801256708
 20
-192.5451388224727
 30
0.0
 11
419.8695801256708
 21
-220.5451388224727
 31
0.0
  0
LINE
  5
1025E
330
1025C
100
AcDbEntity
  8
\U+012Eranga
  6
ByBlock
100
AcDbLine
 10
419.8695801256708
 20
-220.5451388224727
 30
0.0
 11
465.8695801256708
 21
-220.5451388224727
 31
0.0
  0
LINE
  5
1025F
330
1025C
100
AcDbEntity
  8
\U+012Eranga
  6
ByBlock
100
AcDbLine
 10
465.8695801256708
 20
-220.5451388224727
 30
0.0
 11
465.8695801256708
 21
-192.5451388224727
 31
0.0
  0
LINE
  5
10260
330
1025C
100
AcDbEntity
  8
\U+012Eranga
  6
ByBlock
100
AcDbLine
 10
465.8695801256708
 20
-192.5451388224727
 30
0.0
 11
419.8695801256708
 21
-192.5451388224727
 31
0.0
  0
LINE
  5
10261
330
1025C
100
AcDbEntity
  8
\U+012Eranga
  6
ByBlock
100
AcDbLine
 10
477.8695801256708
 20
-206.5451388224727
 30
0.0
 11
407.8695801256708
 21
-206.5451388224727
 31
0.0
  0
LINE
  5
10262
330
1025C
100
AcDbEntity
  8
\U+012Eranga
  6
ByBlock
100
AcDbLine
 10
419.8695801256708
 20
-202.0451388224727
 30
0.0
 11
407.8695801256708
 21
-202.0451388224727
 31
0.0
  0
LINE
  5
10263
330
1025C
100
AcDbEntity
  8
\U+012Eranga
  6
ByBlock
100
AcDbLine
 10
419.8695801256708
 20
-211.0451388224727
 30
0.0
 11
407.8695801256708
 21
-211.0451388224727
 31
0.0
  0
LINE
  5
10264
330
1025C
100
AcDbEntity
  8
\U+012Eranga
  6
ByBlock
100
AcDbLine
 10
407.8695801256708
 20
-202.0451388224727
 30
0.0
 11
407.8695801256708
 21
-211.0451388224727
 31
0.0
  0
LINE
  5
10265
330
1025C
100
AcDbEntity
  8
\U+012Eranga
  6
ByBlock
100
AcDbLine
 10
465.8695801256708
 20
-211.0451388224727
 30
0.0
 11
477.8695801256708
 21
-211.0451388224727
 31
0.0
  0
LINE
  5
10266
330
1025C
100
AcDbEntity
  8
\U+012Eranga
  6
ByBlock
100
AcDbLine
 10
477.8695801256708
 20
-202.0451388224727
 30
0.0
 11
477.8695801256708
 21
-211.0451388224727
 31
0.0
  0
LINE
  5
10267
330
1025C
100
AcDbEntity
  8
\U+012Eranga
  6
ByBlock
100
AcDbLine
 10
465.8695801256708
 20
-202.0451388224727
 30
0.0
 11
477.8695801256708
 21
-202.0451388224727
 31
0.0
  0
LINE
  5
10268
330
1025C
100
AcDbEntity
  8
\U+012Eranga
  6
ByBlock
100
AcDbLine
 10
436.3695801256708
 20
-192.5451388224727
 30
0.0
 11
436.3695801256708
 21
-220.5451388224727
 31
0.0
  0
CIRCLE
  5
1027A
330
1025C
100
AcDbEntity
  8
\U+012Eranga
  6
ByBlock
100
AcDbCircle
 10
436.3695801256708
 20
-206.5451388224727
 30
0.0
 40
7.5
  0
CIRCLE
  5
1027B
330
1025C
100
AcDbEntity
  8
\U+012Eranga
  6
ByBlock
100
AcDbCircle
 10
453.8695801256708
 20
-206.5451388224727
 30
0.0
 40
8.0
  0
ENDBLK
  5
1026A
330
1025C
100
AcDbEntity
  8
0
100
AcDbBlockEnd
  0
BLOCK
  5
1028B
330
1027C
100
AcDbEntity
  8
0
100
AcDbBlockBegin
  2
apacia
 70
     0
 10
0.0
 20
0.0
 30
0.0
  3
apacia
  1
apacia
  0
LWPOLYLINE
  5
1027D
330
1027C
100
AcDbEntity
  8
Pjovimas
 62
     6
100
AcDbPolyline
 90
        2
 70
     1
 43
0.0
 10
-350.1929199475227
 20
-160.5331985802876
 10
-286.9613579475227
 20
-160.5331985802876
  0
SPLINE
  5
1027E
330
1027C
100
AcDbEntity
  8
Pjovimas
 62
     6
100
AcDbSpline
210
0.0
220
0.0
230
1.0
 70
  1064
 71
     3
 72
    10
 73
     6
 74
     4
 42
0.000000001
 43
0.0000000001
 44
0.0000000001
 40
0.0
 40
0.0
 40
0.0
 40
0.0
 40
4.329364163146487
 40
8.520751629445062
 40
12.8501138614147
 40
12.8501138614147
 40
12.8501138614147
 40
12.8501138614147
 10
-286.9613579475227
 20
-160.5331985802876
 30
0.0
 10
-285.5099347424965
 20
-160.7588822141864
 30
0.0
 10
-282.6533451433779
 20
-161.2030569518192
 30
0.0
 10
-279.3611144943588
 20
-164.4952859386608
 30
0.0
 10
-278.9169396076479
 20
-167.3518749781034
 30
0.0
 10
-278.6912559475227
 20
-168.8032975802876
 30
0.0
 11
-286.9613579475227
 21
-160.5331985802876
 31
0.0
 11
-282.7809739475227
 21
-161.6591575802876
 31
0.0
 11
-279.8172149475228
 21
-164.6229155802876
 31
0.0
 11
-278.6912559475227
 21
-168.8032975802876
 31
0.0
  0
SPLINE
  5
1027F
330
1027C
100
AcDbEntity
  8
Pjovimas
 62
     6
100
AcDbSpline
210
0.0
220
0.0
230
1.0
 70
  1064
 71
     3
 72
    10
 73
     6
 74
     4
 42
0.000000001
 43
0.0000000001
 44
0.0000000001
 40
0.0
 40
0.0
 40
0.0
 40
0.0
 40
4.32936223196961
 40
8.520749698268208
 40
12.85011386141469
 40
12.85011386141469
 40
12.85011386141469
 40
12.85011386141469
 10
-278.6912559475227
 20
-232.0348615802876
 30
0.0
 10
-278.9169396076479
 20
-233.4862841824719
 30
0.0
 10
-279.3611144943589
 20
-236.3428732219145
 30
0.0
 10
-282.6533451433778
 20
-239.635102208756
 30
0.0
 10
-285.5099347424966
 20
-240.0792769463888
 30
0.0
 10
-286.9613579475227
 20
-240.3049605802876
 30
0.0
 11
-278.6912559475227
 21
-232.0348615802876
 31
0.0
 11
-279.8172149475228
 21
-236.2152435802876
 31
0.0
 11
-282.7809739475227
 21
-239.1790015802876
 31
0.0
 11
-286.9613579475227
 21
-240.3049605802876
 31
0.0
  0
LWPOLYLINE
  5
10280
330
1027C
100
AcDbEntity
  8
Pjovimas
 62
     6
100
AcDbPolyline
 90
        2
 70
     1
 43
0.0
 10
-286.9613579475227
 20
-240.3049605802876
 10
-350.1929199475227
 20
-240.3049605802876
  0
SPLINE
  5
10281
330
1027C
100
AcDbEntity
  8
Pjovimas
 62
     6
100
AcDbSpline
210
0.0
220
0.0
230
1.0
 70
  1064
 71
     3
 72
    10
 73
     6
 74
     4
 42
0.000000001
 43
0.0000000001
 44
0.0000000001
 40
0.0
 40
0.0
 40
0.0
 40
0.0
 40
4.329362231969631
 40
8.520749698268228
 40
12.85011193023784
 40
12.85011193023784
 40
12.85011193023784
 40
12.85011193023784
 10
-350.1929199475227
 20
-240.3049605802876
 30
0.0
 10
-351.644342435962
 20
-240.0792768037213
 30
0.0
 10
-354.5009312515397
 20
-239.6351016878392
 30
0.0
 10
-357.7931613993806
 20
-236.3428732286108
 30
0.0
 10
-358.2373362869575
 20
-233.4862841847279
 30
0.0
 10
-358.4630199475228
 20
-232.0348615802876
 30
0.0
 11
-350.1929199475227
 21
-240.3049605802876
 31
0.0
 11
-354.3733019475227
 21
-239.1790015802876
 31
0.0
 11
-357.3370609475227
 21
-236.2152435802876
 31
0.0
 11
-358.4630199475228
 21
-232.0348615802876
 31
0.0
  0
LWPOLYLINE
  5
10282
330
1027C
100
AcDbEntity
  8
Pjovimas
 62
     6
100
AcDbPolyline
 90
        2
 70
     1
 43
0.0
 10
-358.4630199475228
 20
-232.0348615802877
 10
-358.4630199475228
 20
-168.8032975802876
  0
LWPOLYLINE
  5
10283
330
1027C
100
AcDbEntity
  8
Pjovimas
 62
     6
100
AcDbPolyline
 90
        2
 70
     1
 43
0.0
 10
-350.1929199475227
 20
-160.5331985802876
 10
-350.1929199475227
 20
-160.5331985802876
  0
LWPOLYLINE
  5
10284
330
1027C
100
AcDbEntity
  8
Graviravimas
100
AcDbPolyline
 90
        2
 70
     0
 43
0.0
 10
-339.9453879475228
 20
-200.4190775802876
 10
-297.2088829475227
 20
-200.4190775802876
  0
SPLINE
  5
10285
330
1027C
100
AcDbEntity
  8
Pjovimas
 62
     6
100
AcDbSpline
210
0.0
220
0.0
230
1.0
 70
  1064
 71
     3
 72
    10
 73
     6
 74
     4
 42
0.000000001
 43
0.0000000001
 44
0.0000000001
 40
0.0
 40
0.0
 40
0.0
 40
0.0
 40
4.329362231969638
 40
8.520749698268215
 40
12.85011193023785
 40
12.85011193023785
 40
12.85011193023785
 40
12.85011193023785
 10
-358.4630199475228
 20
-168.8032975802876
 30
0.0
 10
-358.2373362869574
 20
-167.3518749758473
 30
0.0
 10
-357.7931613993804
 20
-164.4952859319645
 30
0.0
 10
-354.5009312515396
 20
-161.2030574727361
 30
0.0
 10
-351.644342435962
 20
-160.7588823568539
 30
0.0
 10
-350.1929199475227
 20
-160.5331985802876
 30
0.0
 11
-358.4630199475228
 21
-168.8032975802876
 31
0.0
 11
-357.3370609475227
 21
-164.6229155802876
 31
0.0
 11
-354.3733019475227
 21
-161.6591575802876
 31
0.0
 11
-350.1929199475227
 21
-160.5331985802876
 31
0.0
  0
LWPOLYLINE
  5
10286
330
1027C
100
AcDbEntity
  8
Graviravimas
100
AcDbPolyline
 90
        2
 70
     0
 43
0.0
 10
-318.5771409475228
 20
-179.0508255802876
 10
-318.5771409475228
 20
-221.7873335802876
  0
CIRCLE
  5
10287
330
1027C
100
AcDbEntity
  8
Pjovimas
  6
ByBlock
100
AcDbCircle
 10
-351.3735729475226
 20
-200.4190736299843
 30
0.0
 40
3.0
  0
CIRCLE
  5
10288
330
1027C
100
AcDbEntity
  8
Pjovimas
  6
ByBlock
100
AcDbCircle
 10
-302.1789201185858
 20
-172.0165275765074
 30
0.0
 40
3.0
  0
CIRCLE
  5
10289
330
1027C
100
AcDbEntity
  8
Pjovimas
  6
ByBlock
100
AcDbCircle
 10
-302.1789201185858
 20
-228.8216275840678
 30
0.0
 40
3.0
  0
LINE
  5
1028A
330
1027C
100
AcDbEntity
  8
Pjovimas
  6
ByBlock
100
AcDbLine
 10
-278.6912559475227
 20
-168.8032975802876
 30
0.0
 11
-278.6912559475227
 21
-232.0348585802876
 31
0.0
  0
LINE
  5
10488
330
1027C
100
AcDbEntity
  8
Pjovimas
  6
ByBlock
100
AcDbLine
 10
-336.9121604907031
 20
-200.1418155564366
 30
0.0
 11
-295.2220022870172
 21
-180.7013755163645
 31
0.0
  0
LINE
  5
10489
330
1027C
100
AcDbEntity
  8
Pjovimas
  6
ByBlock
100
AcDbLine
 10
-330.1502683028519
 20
-214.642740149023
 30
0.0
 11
-288.460110099166
 21
-195.2023001089509
 31
0.0
  0
LINE
  5
104CB
330
1027C
100
AcDbEntity
  8
Pjovimas
  6
ByBlock
100
AcDbLine
 10
-295.2220022870172
 20
-180.7013755163645
 30
0.0
 11
-288.460110099166
 21
-195.2023001089509
 31
0.0
  0
LINE
  5
104CC
330
1027C
100
AcDbEntity
  8
Pjovimas
  6
ByBlock
100
AcDbLine
 10
-336.9121604907031
 20
-200.1418155564366
 30
0.0
 11
-330.1502683028519
 21
-214.642740149023
 31
0.0
  0
CIRCLE
  5
10541
330
1027C
100
AcDbEntity
  8
Pjovimas
  6
ByBlock
100
AcDbCircle
 10
-285.5239742571734
 20
-213.8856758533706
 30
0.0
 40
3.0
  0
CIRCLE
  5
10542
330
1027C
100
AcDbEntity
  8
Pjovimas
  6
ByBlock
100
AcDbCircle
 10
-350.1929214475228
 20
-168.8032975802876
 30
0.0
 40
3.0
  0
CIRCLE
  5
10543
330
1027C
100
AcDbEntity
  8
Pjovimas
  6
ByBlock
100
AcDbCircle
 10
-350.1929214475228
 20
-232.0348585802876
 30
0.0
 40
3.0
  0
CIRCLE
  5
10661
330
1027C
100
AcDbEntity
  8
Pjovimas
  6
ByBlock
100
AcDbCircle
 10
-286.9613564475227
 20
-168.8032975802876
 30
0.0
 40
3.0
  0
ENDBLK
  5
1028C
330
1027C
100
AcDbEntity
  8
0
100
AcDbBlockEnd
  0
BLOCK
  5
102B8
330
1029F
100
AcDbEntity
  8
0
100
AcDbBlockBegin
  2
apacia2
 70
     0
 10
0.0
 20
0.0
 30
0.0
  3
apacia2
  1
apacia2
  0
LWPOLYLINE
  5
102A0
330
1029F
100
AcDbEntity
  8
Pjovimas
 62
     6
100
AcDbPolyline
 90
        2
 70
     1
 43
0.0
 10
-251.6464769025654
 20
-160.5331985802876
 10
-188.4149119025654
 20
-160.5331985802876
  0
SPLINE
  5
102A1
330
1029F
100
AcDbEntity
  8
Pjovimas
 62
     6
100
AcDbSpline
210
0.0
220
0.0
230
1.0
 70
  1064
 71
     3
 72
    10
 73
     6
 74
     4
 42
0.000000001
 43
0.0000000001
 44
0.0000000001
 40
0.0
 40
0.0
 40
0.0
 40
0.0
 40
4.329363903071684
 40
8.520754197797896
 40
12.850116949918
 40
12.850116949918
 40
12.850116949918
 40
12.850116949918
 10
-188.4149119025654
 20
-160.5331985802876
 30
0.0
 10
-186.9634887836473
 20
-160.7588819654417
 30
0.0
 10
-184.1068983213563
 20
-161.2030563740797
 30
0.0
 10
-180.814665797018
 20
-164.4952850772273
 30
0.0
 10
-180.3704893128007
 20
-167.3518749504684
 30
0.0
 10
-180.1448049025654
 20
-168.8032975802876
 30
0.0
 11
-188.4149119025654
 21
-160.5331985802876
 31
0.0
 11
-184.2345279025654
 21
-161.6591565802876
 31
0.0
 11
-181.2707659025653
 21
-164.6229155802876
 31
0.0
 11
-180.1448049025654
 21
-168.8032975802876
 31
0.0
  0
SPLINE
  5
102A2
330
1029F
100
AcDbEntity
  8
Pjovimas
 62
     6
100
AcDbSpline
210
0.0
220
0.0
230
1.0
 70
  1064
 71
     3
 72
    10
 73
     6
 74
     4
 42
0.000000001
 43
0.0000000001
 44
0.0000000001
 40
0.0
 40
0.0
 40
0.0
 40
0.0
 40
4.329364683296724
 40
8.520754978022955
 40
12.85011888109463
 40
12.85011888109463
 40
12.85011888109463
 40
12.85011888109463
 10
-180.1448049025654
 20
-232.0348585802876
 30
0.0
 10
-180.3704891701331
 20
-233.4862819266939
 30
0.0
 10
-180.8146652761005
 20
-236.3428725834764
 30
0.0
 10
-184.1068983280526
 20
-239.6351017878018
 30
0.0
 10
-186.9634887859034
 20
-240.0792761955736
 30
0.0
 10
-188.4149119025654
 20
-240.3049595802876
 30
0.0
 11
-180.1448049025654
 21
-232.0348585802876
 31
0.0
 11
-181.2707659025653
 21
-236.2152425802876
 31
0.0
 11
-184.2345279025654
 21
-239.1790015802876
 31
0.0
 11
-188.4149119025654
 21
-240.3049595802876
 31
0.0
  0
SPLINE
  5
102A3
330
1029F
100
AcDbEntity
  8
Pjovimas
 62
     6
100
AcDbSpline
210
0.0
220
0.0
230
1.0
 70
  1064
 71
     3
 72
    10
 73
     6
 74
     4
 42
0.000000001
 43
0.0000000001
 44
0.0000000001
 40
0.0
 40
0.0
 40
0.0
 40
0.0
 40
4.329361971894684
 40
8.52074943819332
 40
12.85011334126499
 40
12.85011334126499
 40
12.85011334126499
 40
12.85011334126499
 10
-251.6464769025654
 20
-240.3049595802876
 30
0.0
 10
-253.097899500439
 20
-240.0792763183874
 30
0.0
 10
-255.9544886158095
 20
-239.63510220231
 30
0.0
 10
-259.246717699892
 20
-236.3428714560496
 30
0.0
 10
-259.6908916668915
 20
-233.4862817810032
 30
0.0
 10
-259.9165749025653
 20
-232.0348585802876
 30
0.0
 11
-251.6464769025654
 21
-240.3049595802876
 31
0.0
 11
-255.8268589025653
 21
-239.1790015802876
 31
0.0
 11
-258.7906169025654
 21
-236.2152425802876
 31
0.0
 11
-259.9165749025653
 21
-232.0348585802876
 31
0.0
  0
SPLINE
  5
102A5
330
1029F
100
AcDbEntity
  8
Pjovimas
 62
     6
100
AcDbSpline
210
0.0
220
0.0
230
1.0
 70
  1064
 71
     3
 72
    10
 73
     6
 74
     4
 42
0.000000001
 43
0.0000000001
 44
0.0000000001
 40
0.0
 40
0.0
 40
0.0
 40
0.0
 40
4.329361971894704
 40
8.52074943819332
 40
12.85011141008801
 40
12.85011141008801
 40
12.85011141008801
 40
12.85011141008801
 10
-259.9165749025653
 20
-168.8032975802876
 30
0.0
 10
-259.6908915242241
 20
-167.3518750961589
 30
0.0
 10
-259.2467171789753
 20
-164.4952862046535
 30
0.0
 10
-255.9544886225056
 20
-161.2030559595715
 30
0.0
 10
-253.097899502695
 20
-160.7588818426279
 30
0.0
 10
-251.6464769025654
 20
-160.5331985802876
 30
0.0
 11
-259.9165749025653
 21
-168.8032975802876
 31
0.0
 11
-258.7906169025654
 21
-164.6229155802876
 31
0.0
 11
-255.8268589025653
 21
-161.6591565802876
 31
0.0
 11
-251.6464769025654
 21
-160.5331985802876
 31
0.0
  0
LWPOLYLINE
  5
102A6
330
1029F
100
AcDbEntity
  8
Pjovimas
 62
     6
100
AcDbPolyline
 90
        2
 70
     1
 43
0.0
 10
-251.6464769025654
 20
-160.5331985802876
 10
-251.6464769025654
 20
-160.5331985802876
  0
CIRCLE
  5
102A7
330
1029F
100
AcDbEntity
  8
Pjovimas
  6
ByBlock
100
AcDbCircle
 10
-252.8271284025653
 20
-200.4190736299843
 30
0.0
 40
3.0
  0
CIRCLE
  5
102A9
330
1029F
100
AcDbEntity
  8
Pjovimas
  6
ByBlock
100
AcDbCircle
 10
-203.6324755736285
 20
-228.8216275840678
 30
0.0
 40
3.0
  0
LINE
  5
102B0
330
1029F
100
AcDbEntity
  8
Pjovimas
 62
     6
100
AcDbLine
 10
-226.0306964025654
 20
-240.3049595802876
 30
0.0
 11
-251.6464769025654
 21
-240.3049595802876
 31
0.0
  0
LINE
  5
102B1
330
1029F
100
AcDbEntity
  8
Pjovimas
 62
     6
100
AcDbLine
 10
-251.6464769025654
 20
-240.3049595802876
 30
0.0
 11
-188.4149119025654
 21
-240.3049595802876
 31
0.0
  0
LINE
  5
102B7
330
1029F
100
AcDbEntity
  8
Pjovimas
  6
ByBlock
100
AcDbLine
 10
-180.1448049025654
 20
-168.8032975802876
 30
0.0
 11
-180.1448049025654
 21
-232.0348585802876
 31
0.0
  0
LINE
  5
102E6
330
1029F
100
AcDbEntity
  8
Pjovimas
  6
ByBlock
100
AcDbLine
 10
-187.3779557158551
 20
-200.6401474057041
 30
0.0
 11
-199.2112670445948
 21
-175.2635293686779
 31
0.0
  0
LINE
  5
102E7
330
1029F
100
AcDbEntity
  8
Pjovimas
  6
ByBlock
100
AcDbLine
 10
-240.9014252482806
 20
-194.70396940875
 30
0.0
 11
-229.0681139195411
 21
-220.0805874457762
 31
0.0
  0
LINE
  5
102E8
330
1029F
100
AcDbEntity
  8
Pjovimas
  6
ByBlock
100
AcDbLine
 10
-199.2112670445948
 20
-175.2635293686779
 30
0.0
 11
-240.9014252482806
 21
-194.70396940875
 31
0.0
  0
CIRCLE
  5
10346
330
1029F
100
AcDbEntity
  8
Pjovimas
  6
ByBlock
100
AcDbCircle
 10
-203.6324740736285
 20
-172.0165275765074
 30
0.0
 40
3.0
  0
LINE
  5
1041C
330
1029F
100
AcDbEntity
  8
Pjovimas
  6
ByBlock
100
AcDbLine
 10
-187.3779557158551
 20
-200.6401474057041
 30
0.0
 11
-229.0681139195411
 21
-220.0805874457762
 31
0.0
  0
CIRCLE
  5
10555
330
1029F
100
AcDbEntity
  8
Pjovimas
  6
ByBlock
100
AcDbCircle
 10
-251.6464769025653
 20
-232.0348585802876
 30
0.0
 40
1.5
  0
CIRCLE
  5
10556
330
1029F
100
AcDbEntity
  8
Pjovimas
  6
ByBlock
100
AcDbCircle
 10
-186.977529712216
 20
-213.8856758533706
 30
0.0
 40
1.5
  0
CIRCLE
  5
10557
330
1029F
100
AcDbEntity
  8
Pjovimas
  6
ByBlock
100
AcDbCircle
 10
-251.6464769025653
 20
-168.8032975802876
 30
0.0
 40
1.5
  0
CIRCLE
  5
1064A
330
1029F
100
AcDbEntity
  8
Pjovimas
  6
ByBlock
100
AcDbCircle
 10
-188.4149119025654
 20
-168.8032975802876
 30
0.0
 40
1.5
  0
ENDBLK
  5
102B9
330
1029F
100
AcDbEntity
  8
0
100
AcDbBlockEnd
  0
BLOCK
  5
10355
330
10347
100
AcDbEntity
  8
0
100
AcDbBlockBegin
  2
apacia3
 70
     0
 10
0.0
 20
0.0
 30
0.0
  3
apacia3
  1
apacia3
  0
LWPOLYLINE
  5
10348
330
10347
100
AcDbEntity
  8
Pjovimas
 62
     6
100
AcDbPolyline
 90
        2
 70
     1
 43
0.0
 10
-165.4006789560285
 20
-160.5331985802876
 10
-102.1691139560285
 20
-160.5331985802876
  0
SPLINE
  5
10349
330
10347
100
AcDbEntity
  8
Pjovimas
 62
     6
100
AcDbSpline
210
0.0
220
0.0
230
1.0
 70
  1064
 71
     3
 72
    10
 73
     6
 74
     4
 42
0.000000001
 43
0.0000000001
 44
0.0000000001
 40
0.0
 40
0.0
 40
0.0
 40
0.0
 40
4.329363903071684
 40
8.520754197797896
 40
12.850116949918
 40
12.850116949918
 40
12.850116949918
 40
12.850116949918
 10
-102.1691139560285
 20
-160.5331985802876
 30
0.0
 10
-100.7176908371104
 20
-160.7588819654417
 30
0.0
 10
-97.86110037481937
 20
-161.2030563740797
 30
0.0
 10
-94.56886785048104
 20
-164.4952850772273
 30
0.0
 10
-94.12469136626379
 20
-167.3518749504684
 30
0.0
 10
-93.89900695602847
 20
-168.8032975802876
 30
0.0
 11
-102.1691139560285
 21
-160.5331985802876
 31
0.0
 11
-97.98872995602846
 21
-161.6591565802876
 31
0.0
 11
-95.02496795602843
 21
-164.6229155802876
 31
0.0
 11
-93.89900695602847
 21
-168.8032975802876
 31
0.0
  0
SPLINE
  5
1034A
330
10347
100
AcDbEntity
  8
Pjovimas
 62
     6
100
AcDbSpline
210
0.0
220
0.0
230
1.0
 70
  1064
 71
     3
 72
    10
 73
     6
 74
     4
 42
0.000000001
 43
0.0000000001
 44
0.0000000001
 40
0.0
 40
0.0
 40
0.0
 40
0.0
 40
4.329364683296724
 40
8.520754978022955
 40
12.85011888109463
 40
12.85011888109463
 40
12.85011888109463
 40
12.85011888109463
 10
-93.89900695602847
 20
-232.0348585802876
 30
0.0
 10
-94.12469122359624
 20
-233.4862819266939
 30
0.0
 10
-94.56886732956362
 20
-236.3428725834764
 30
0.0
 10
-97.86110038151571
 20
-239.6351017878018
 30
0.0
 10
-100.7176908393665
 20
-240.0792761955736
 30
0.0
 10
-102.1691139560285
 20
-240.3049595802876
 30
0.0
 11
-93.89900695602847
 21
-232.0348585802876
 31
0.0
 11
-95.02496795602843
 21
-236.2152425802876
 31
0.0
 11
-97.98872995602846
 21
-239.1790015802876
 31
0.0
 11
-102.1691139560285
 21
-240.3049595802876
 31
0.0
  0
LWPOLYLINE
  5
1034B
330
10347
100
AcDbEntity
  8
Pjovimas
 62
     6
100
AcDbPolyline
 90
        2
 70
     1
 43
0.0
 10
-102.1691139560285
 20
-240.3049595802876
 10
-165.4006789560285
 20
-240.3049595802876
  0
SPLINE
  5
1034C
330
10347
100
AcDbEntity
  8
Pjovimas
 62
     6
100
AcDbSpline
210
0.0
220
0.0
230
1.0
 70
  1064
 71
     3
 72
    10
 73
     6
 74
     4
 42
0.000000001
 43
0.0000000001
 44
0.0000000001
 40
0.0
 40
0.0
 40
0.0
 40
0.0
 40
4.329361971894684
 40
8.5207494381933
 40
12.85011334126498
 40
12.85011334126498
 40
12.85011334126498
 40
12.85011334126498
 10
-165.4006789560285
 20
-240.3049595802876
 30
0.0
 10
-166.8521015539021
 20
-240.0792763183874
 30
0.0
 10
-169.7086906692726
 20
-239.63510220231
 30
0.0
 10
-173.000919753355
 20
-236.3428714560495
 30
0.0
 10
-173.4450937203546
 20
-233.4862817810032
 30
0.0
 10
-173.6707769560284
 20
-232.0348585802876
 30
0.0
 11
-165.4006789560285
 21
-240.3049595802876
 31
0.0
 11
-169.5810609560284
 21
-239.1790015802876
 31
0.0
 11
-172.5448189560285
 21
-236.2152425802876
 31
0.0
 11
-173.6707769560284
 21
-232.0348585802876
 31
0.0
  0
SPLINE
  5
1034E
330
10347
100
AcDbEntity
  8
Pjovimas
 62
     6
100
AcDbSpline
210
0.0
220
0.0
230
1.0
 70
  1064
 71
     3
 72
    10
 73
     6
 74
     4
 42
0.000000001
 43
0.0000000001
 44
0.0000000001
 40
0.0
 40
0.0
 40
0.0
 40
0.0
 40
4.329361971894712
 40
8.52074943819331
 40
12.850111410088
 40
12.850111410088
 40
12.850111410088
 40
12.850111410088
 10
-173.6707769560284
 20
-168.8032975802876
 30
0.0
 10
-173.4450935776871
 20
-167.3518750961589
 30
0.0
 10
-173.0009192324384
 20
-164.4952862046536
 30
0.0
 10
-169.7086906759687
 20
-161.2030559595715
 30
0.0
 10
-166.8521015561581
 20
-160.7588818426279
 30
0.0
 10
-165.4006789560285
 20
-160.5331985802876
 30
0.0
 11
-173.6707769560284
 21
-168.8032975802876
 31
0.0
 11
-172.5448189560285
 21
-164.6229155802876
 31
0.0
 11
-169.5810609560284
 21
-161.6591565802876
 31
0.0
 11
-165.4006789560285
 21
-160.5331985802876
 31
0.0
  0
LWPOLYLINE
  5
1034F
330
10347
100
AcDbEntity
  8
Pjovimas
 62
     6
100
AcDbPolyline
 90
        2
 70
     1
 43
0.0
 10
-165.4006789560285
 20
-160.5331985802876
 10
-165.4006789560285
 20
-160.5331985802876
  0
CIRCLE
  5
10350
330
10347
100
AcDbEntity
  8
Pjovimas
  6
ByBlock
100
AcDbCircle
 10
-166.5813304560284
 20
-200.4190736299843
 30
0.0
 40
3.1
  0
CIRCLE
  5
10351
330
10347
100
AcDbEntity
  8
Pjovimas
  6
ByBlock
100
AcDbCircle
 10
-117.3866776270916
 20
-172.0165275765074
 30
0.0
 40
3.1
  0
CIRCLE
  5
10352
330
10347
100
AcDbEntity
  8
Pjovimas
  6
ByBlock
100
AcDbCircle
 10
-117.3866776270916
 20
-228.8216275840678
 30
0.0
 40
3.1
  0
LINE
  5
10354
330
10347
100
AcDbEntity
  8
Pjovimas
  6
ByBlock
100
AcDbLine
 10
-93.89900695602847
 20
-168.8032975802876
 30
0.0
 11
-93.89900695602847
 21
-232.0348585802876
 31
0.0
  0
LINE
  5
10375
330
10347
100
AcDbEntity
  8
Pjovimas
  6
ByBlock
100
AcDbLine
 10
-108.9505956115212
 20
-183.8734533455261
 30
0.0
 11
-98.52805606059972
 21
-179.013343335508
 31
0.0
  0
LINE
  5
10376
330
10347
100
AcDbEntity
  8
Pjovimas
  6
ByBlock
100
AcDbLine
 10
-146.8371894595408
 20
-211.4706634689281
 30
0.0
 11
-157.7128829039806
 21
-216.5420826098164
 31
0.0
  0
LINE
  5
10377
330
10347
100
AcDbEntity
  8
Pjovimas
  6
ByBlock
100
AcDbLine
 10
-157.7128829039806
 20
-216.5420826098164
 30
0.0
 11
-161.5164472596469
 21
-208.3853125264866
 31
0.0
  0
LINE
  5
10378
330
10347
100
AcDbEntity
  8
Pjovimas
  6
ByBlock
100
AcDbLine
 10
-154.6556273017438
 20
-194.70396940875
 30
0.0
 11
-112.9654690980579
 21
-175.2635293686779
 31
0.0
  0
LINE
  5
10379
330
10347
100
AcDbEntity
  8
Pjovimas
  6
ByBlock
100
AcDbLine
 10
-98.52805606059972
 20
-179.013343335508
 30
0.0
 11
-94.72449170493347
 21
-187.1701134188378
 31
0.0
  0
LINE
  5
1037A
330
10347
100
AcDbEntity
  8
Pjovimas
  6
ByBlock
100
AcDbLine
 10
-150.6407538152071
 20
-203.3138933855982
 30
0.0
 11
-154.6556273017438
 21
-194.70396940875
 31
0.0
  0
LINE
  5
1037B
330
10347
100
AcDbEntity
  8
Pjovimas
  6
ByBlock
100
AcDbLine
 10
-142.8223159730042
 20
-220.0805874457762
 30
0.0
 11
-146.8371894595408
 21
-211.4706634689281
 31
0.0
  0
LINE
  5
1037C
330
10347
100
AcDbEntity
  8
Pjovimas
  6
ByBlock
100
AcDbLine
 10
-105.1470312558549
 20
-192.0302234288559
 30
0.0
 11
-101.1321577693183
 21
-200.6401474057041
 31
0.0
  0
LINE
  5
1037D
330
10347
100
AcDbEntity
  8
Pjovimas
  6
ByBlock
100
AcDbLine
 10
-161.5164472596469
 20
-208.3853125264866
 30
0.0
 11
-150.6407538152071
 21
-203.3138933855982
 31
0.0
  0
LINE
  5
1037E
330
10347
100
AcDbEntity
  8
Pjovimas
  6
ByBlock
100
AcDbLine
 10
-94.72449170493347
 20
-187.1701134188378
 30
0.0
 11
-105.1470312558549
 21
-192.0302234288559
 31
0.0
  0
LINE
  5
1037F
330
10347
100
AcDbEntity
  8
Pjovimas
  6
ByBlock
100
AcDbLine
 10
-112.9654690980579
 20
-175.2635293686779
 30
0.0
 11
-108.9505956115212
 21
-183.8734533455261
 31
0.0
  0
LINE
  5
10380
330
10347
100
AcDbEntity
  8
Pjovimas
  6
ByBlock
100
AcDbLine
 10
-101.1321577693183
 20
-200.6401474057041
 30
0.0
 11
-142.8223159730042
 21
-220.0805874457762
 31
0.0
  0
CIRCLE
  5
10570
330
10347
100
AcDbEntity
  8
Pjovimas
  6
ByBlock
100
AcDbCircle
 10
-165.4006789560285
 20
-168.8032975802876
 30
0.0
 40
1.5
  0
CIRCLE
  5
10571
330
10347
100
AcDbEntity
  8
Pjovimas
  6
ByBlock
100
AcDbCircle
 10
-100.7317317656791
 20
-213.8856758533706
 30
0.0
 40
1.5
  0
CIRCLE
  5
10572
330
10347
100
AcDbEntity
  8
Pjovimas
  6
ByBlock
100
AcDbCircle
 10
-165.4006789560285
 20
-232.0348585802876
 30
0.0
 40
1.5
  0
CIRCLE
  5
10620
330
10347
100
AcDbEntity
  8
Pjovimas
  6
ByBlock
100
AcDbCircle
 10
-100.7317317656791
 20
-168.8032975802876
 30
0.0
 40
1.5
  0
ENDBLK
  5
10356
330
10347
100
AcDbEntity
  8
0
100
AcDbBlockEnd
  0
BLOCK
  5
1039C
330
1038E
100
AcDbEntity
  8
0
100
AcDbBlockBegin
  2
apacia4
 70
     0
 10
0.0
 20
0.0
 30
0.0
  3
apacia4
  1
apacia4
  0
LWPOLYLINE
  5
1038F
330
1038E
100
AcDbEntity
  8
Pjovimas
 62
     6
100
AcDbPolyline
 90
        2
 70
     1
 43
0.0
 10
-78.50747821483765
 20
-160.5331985802876
 10
-15.27591321483766
 20
-160.5331985802876
  0
SPLINE
  5
10390
330
1038E
100
AcDbEntity
  8
Pjovimas
 62
     6
100
AcDbSpline
210
0.0
220
0.0
230
1.0
 70
  1064
 71
     3
 72
    10
 73
     6
 74
     4
 42
0.000000001
 43
0.0000000001
 44
0.0000000001
 40
0.0
 40
0.0
 40
0.0
 40
0.0
 40
4.329363903071684
 40
8.520754197797896
 40
12.850116949918
 40
12.850116949918
 40
12.850116949918
 40
12.850116949918
 10
-15.27591321483766
 20
-160.5331985802876
 30
0.0
 10
-13.82449009591962
 20
-160.7588819654417
 30
0.0
 10
-10.96789963362856
 20
-161.2030563740797
 30
0.0
 10
-7.675667109290249
 20
-164.4952850772273
 30
0.0
 10
-7.231490625072951
 20
-167.3518749504684
 30
0.0
 10
-7.005806214837662
 20
-168.8032975802876
 30
0.0
 11
-15.27591321483766
 21
-160.5331985802876
 31
0.0
 11
-11.09552921483765
 21
-161.6591565802876
 31
0.0
 11
-8.131767214837623
 21
-164.6229155802876
 31
0.0
 11
-7.005806214837662
 21
-168.8032975802876
 31
0.0
  0
LWPOLYLINE
  5
10391
330
1038E
100
AcDbEntity
  8
Pjovimas
 62
     6
100
AcDbPolyline
 90
        2
 70
     1
 43
0.0
 10
-7.005806214837662
 20
-168.8032975802876
 10
-7.005806214837662
 20
-232.0348585802876
  0
SPLINE
  5
10392
330
1038E
100
AcDbEntity
  8
Pjovimas
 62
     6
100
AcDbSpline
210
0.0
220
0.0
230
1.0
 70
  1064
 71
     3
 72
    10
 73
     6
 74
     4
 42
0.000000001
 43
0.0000000001
 44
0.0000000001
 40
0.0
 40
0.0
 40
0.0
 40
0.0
 40
4.329364683296724
 40
8.520754978022955
 40
12.85011888109463
 40
12.85011888109463
 40
12.85011888109463
 40
12.85011888109463
 10
-7.005806214837662
 20
-232.0348585802876
 30
0.0
 10
-7.231490482405431
 20
-233.4862819266939
 30
0.0
 10
-7.675666588372832
 20
-236.3428725834764
 30
0.0
 10
-10.96789964032487
 20
-239.6351017878018
 30
0.0
 10
-13.82449009817569
 20
-240.0792761955736
 30
0.0
 10
-15.27591321483766
 20
-240.3049595802876
 30
0.0
 11
-7.005806214837662
 21
-232.0348585802876
 31
0.0
 11
-8.131767214837623
 21
-236.2152425802876
 31
0.0
 11
-11.09552921483765
 21
-239.1790015802876
 31
0.0
 11
-15.27591321483766
 21
-240.3049595802876
 31
0.0
  0
LWPOLYLINE
  5
10393
330
1038E
100
AcDbEntity
  8
Pjovimas
 62
     6
100
AcDbPolyline
 90
        2
 70
     1
 43
0.0
 10
-15.27591321483766
 20
-240.3049595802876
 10
-78.50747821483765
 20
-240.3049595802876
  0
SPLINE
  5
10394
330
1038E
100
AcDbEntity
  8
Pjovimas
 62
     6
100
AcDbSpline
210
0.0
220
0.0
230
1.0
 70
  1064
 71
     3
 72
    10
 73
     6
 74
     4
 42
0.000000001
 43
0.0000000001
 44
0.0000000001
 40
0.0
 40
0.0
 40
0.0
 40
0.0
 40
4.329361971894657
 40
8.520749438193294
 40
12.85011334126498
 40
12.85011334126498
 40
12.85011334126498
 40
12.85011334126498
 10
-78.50747821483765
 20
-240.3049595802876
 30
0.0
 10
-79.95890081271128
 20
-240.0792763183874
 30
0.0
 10
-82.81548992808169
 20
-239.6351022023099
 30
0.0
 10
-86.10771901216428
 20
-236.3428714560496
 30
0.0
 10
-86.55189297916381
 20
-233.4862817810032
 30
0.0
 10
-86.77757621483767
 20
-232.0348585802876
 30
0.0
 11
-78.50747821483765
 21
-240.3049595802876
 31
0.0
 11
-82.6878602148376
 21
-239.1790015802876
 31
0.0
 11
-85.65161821483764
 21
-236.2152425802876
 31
0.0
 11
-86.77757621483767
 21
-232.0348585802876
 31
0.0
  0
SPLINE
  5
10396
330
1038E
100
AcDbEntity
  8
Pjovimas
 62
     6
100
AcDbSpline
210
0.0
220
0.0
230
1.0
 70
  1064
 71
     3
 72
    10
 73
     6
 74
     4
 42
0.000000001
 43
0.0000000001
 44
0.0000000001
 40
0.0
 40
0.0
 40
0.0
 40
0.0
 40
4.329361971894719
 40
8.520749438193334
 40
12.850111410088
 40
12.850111410088
 40
12.850111410088
 40
12.850111410088
 10
-86.77757621483767
 20
-168.8032975802876
 30
0.0
 10
-86.55189283649634
 20
-167.3518750961589
 30
0.0
 10
-86.10771849124755
 20
-164.4952862046534
 30
0.0
 10
-82.81548993477791
 20
-161.2030559595716
 30
0.0
 10
-79.95890081496732
 20
-160.7588818426279
 30
0.0
 10
-78.50747821483765
 20
-160.5331985802876
 30
0.0
 11
-86.77757621483767
 21
-168.8032975802876
 31
0.0
 11
-85.65161821483764
 21
-164.6229155802876
 31
0.0
 11
-82.6878602148376
 21
-161.6591565802876
 31
0.0
 11
-78.50747821483765
 21
-160.5331985802876
 31
0.0
  0
LWPOLYLINE
  5
10397
330
1038E
100
AcDbEntity
  8
Pjovimas
 62
     6
100
AcDbPolyline
 90
        2
 70
     1
 43
0.0
 10
-78.50747821483765
 20
-160.5331985802876
 10
-78.50747821483765
 20
-160.5331985802876
  0
CIRCLE
  5
10398
330
1038E
100
AcDbEntity
  8
Pjovimas
  6
ByBlock
100
AcDbCircle
 10
-79.68812971483754
 20
-200.4190736299843
 30
0.0
 40
6.0
  0
CIRCLE
  5
10399
330
1038E
100
AcDbEntity
  8
Pjovimas
  6
ByBlock
100
AcDbCircle
 10
-30.49347688590075
 20
-172.0165275765074
 30
0.0
 40
6.0
  0
CIRCLE
  5
1039A
330
1038E
100
AcDbEntity
  8
Pjovimas
  6
ByBlock
100
AcDbCircle
 10
-30.49347688590075
 20
-228.8216275840678
 30
0.0
 40
6.0
  0
ARC
  5
104E1
330
1038E
100
AcDbEntity
  8
Pjovimas
  6
ByBlock
100
AcDbCircle
 10
-46.89169241007853
 20
-200.4190771085416
 30
0.0
 40
12.0
100
AcDbArc
 50
114.9999999999998
 51
295.0000000000001
  0
ARC
  5
104E2
330
1038E
100
AcDbEntity
  8
Pjovimas
  6
ByBlock
100
AcDbCircle
 10
-30.57815224341881
 20
-192.8119483972091
 30
0.0
 40
12.0
100
AcDbArc
 50
295.0000000000001
 51
115.0000000000001
  0
LINE
  5
104E3
330
1038E
100
AcDbEntity
  8
Pjovimas
  6
ByBlock
100
AcDbLine
 10
-51.96311155096689
 20
-189.5433836641018
 30
0.0
 11
-35.64957138430719
 21
-181.9362549527693
 31
0.0
  0
LINE
  5
104E4
330
1038E
100
AcDbEntity
  8
Pjovimas
  6
ByBlock
100
AcDbLine
 10
-41.82027326919015
 20
-211.2947705529814
 30
0.0
 11
-25.50673310253043
 21
-203.6876418416488
 31
0.0
  0
CIRCLE
  5
105A9
330
1038E
100
AcDbEntity
  8
Pjovimas
  6
ByBlock
100
AcDbCircle
 10
-78.50747821483765
 20
-168.8032975802876
 30
0.0
 40
1.5
  0
CIRCLE
  5
105AA
330
1038E
100
AcDbEntity
  8
Pjovimas
  6
ByBlock
100
AcDbCircle
 10
-13.83853102448825
 20
-213.8856758533706
 30
0.0
 40
1.5
  0
CIRCLE
  5
105AB
330
1038E
100
AcDbEntity
  8
Pjovimas
  6
ByBlock
100
AcDbCircle
 10
-78.50747821483765
 20
-232.0348585802876
 30
0.0
 40
1.5
  0
CIRCLE
  5
10635
330
1038E
100
AcDbEntity
  8
Pjovimas
  6
ByBlock
100
AcDbCircle
 10
-15.27591321483766
 20
-168.8032975802876
 30
0.0
 40
1.5
  0
ENDBLK
  5
1039D
330
1038E
100
AcDbEntity
  8
0
100
AcDbBlockEnd
  0
BLOCK
  5
103C3
330
103B5
100
AcDbEntity
  8
0
100
AcDbBlockBegin
  2
virsus
 70
     0
 10
0.0
 20
0.0
 30
0.0
  3
virsus
  1
virsus
  0
LWPOLYLINE
  5
103B6
330
103B5
100
AcDbEntity
  8
Pjovimas
 62
     6
100
AcDbPolyline
 90
        2
 70
     1
 43
0.0
 10
11.09306856523483
 20
-160.5331985802876
 10
74.32463356523482
 20
-160.5331985802876
  0
SPLINE
  5
103B7
330
103B5
100
AcDbEntity
  8
Pjovimas
 62
     6
100
AcDbSpline
210
0.0
220
0.0
230
1.0
 70
  1064
 71
     3
 72
    10
 73
     6
 74
     4
 42
0.000000001
 43
0.0000000001
 44
0.0000000001
 40
0.0
 40
0.0
 40
0.0
 40
0.0
 40
4.329363903071684
 40
8.520754197797896
 40
12.850116949918
 40
12.850116949918
 40
12.850116949918
 40
12.850116949918
 10
74.32463356523482
 20
-160.5331985802876
 30
0.0
 10
75.77605668415286
 20
-160.7588819654417
 30
0.0
 10
78.63264714644392
 20
-161.2030563740797
 30
0.0
 10
81.92487967078222
 20
-164.4952850772273
 30
0.0
 10
82.36905615499954
 20
-167.3518749504684
 30
0.0
 10
82.59474056523482
 20
-168.8032975802876
 30
0.0
 11
74.32463356523482
 21
-160.5331985802876
 31
0.0
 11
78.50501756523482
 21
-161.6591565802876
 31
0.0
 11
81.46877956523485
 21
-164.6229155802876
 31
0.0
 11
82.59474056523482
 21
-168.8032975802876
 31
0.0
  0
LWPOLYLINE
  5
103B8
330
103B5
100
AcDbEntity
  8
Pjovimas
 62
     6
100
AcDbPolyline
 90
        2
 70
     1
 43
0.0
 10
82.59474056523482
 20
-168.8032975802876
 10
82.59474056523482
 20
-232.0348585802876
  0
SPLINE
  5
103B9
330
103B5
100
AcDbEntity
  8
Pjovimas
 62
     6
100
AcDbSpline
210
0.0
220
0.0
230
1.0
 70
  1064
 71
     3
 72
    10
 73
     6
 74
     4
 42
0.000000001
 43
0.0000000001
 44
0.0000000001
 40
0.0
 40
0.0
 40
0.0
 40
0.0
 40
4.329364683296724
 40
8.520754978022955
 40
12.85011888109463
 40
12.85011888109463
 40
12.85011888109463
 40
12.85011888109463
 10
82.59474056523482
 20
-232.0348585802876
 30
0.0
 10
82.36905629766704
 20
-233.4862819266939
 30
0.0
 10
81.92488019169963
 20
-236.3428725834764
 30
0.0
 10
78.6326471397476
 20
-239.6351017878018
 30
0.0
 10
75.77605668189678
 20
-240.0792761955736
 30
0.0
 10
74.32463356523482
 20
-240.3049595802876
 30
0.0
 11
82.59474056523482
 21
-232.0348585802876
 31
0.0
 11
81.46877956523485
 21
-236.2152425802876
 31
0.0
 11
78.50501756523482
 21
-239.1790015802876
 31
0.0
 11
74.32463356523482
 21
-240.3049595802876
 31
0.0
  0
LWPOLYLINE
  5
103BA
330
103B5
100
AcDbEntity
  8
Pjovimas
 62
     6
100
AcDbPolyline
 90
        2
 70
     1
 43
0.0
 10
74.32463356523482
 20
-240.3049595802876
 10
11.09306856523483
 20
-240.3049595802876
  0
SPLINE
  5
103BB
330
103B5
100
AcDbEntity
  8
Pjovimas
 62
     6
100
AcDbSpline
210
0.0
220
0.0
230
1.0
 70
  1064
 71
     3
 72
    10
 73
     6
 74
     4
 42
0.000000001
 43
0.0000000001
 44
0.0000000001
 40
0.0
 40
0.0
 40
0.0
 40
0.0
 40
4.329361971894657
 40
8.520749438193294
 40
12.85011334126498
 40
12.85011334126498
 40
12.85011334126498
 40
12.85011334126498
 10
11.09306856523483
 20
-240.3049595802876
 30
0.0
 10
9.641645967361194
 20
-240.0792763183874
 30
0.0
 10
6.785056851990794
 20
-239.6351022023099
 30
0.0
 10
3.492827767908176
 20
-236.3428714560496
 30
0.0
 10
3.048653800908659
 20
-233.4862817810032
 30
0.0
 10
2.822970565234812
 20
-232.0348585802876
 30
0.0
 11
11.09306856523483
 21
-240.3049595802876
 31
0.0
 11
6.912686565234878
 21
-239.1790015802876
 31
0.0
 11
3.948928565234837
 21
-236.2152425802876
 31
0.0
 11
2.822970565234812
 21
-232.0348585802876
 31
0.0
  0
LWPOLYLINE
  5
103BC
330
103B5
100
AcDbEntity
  8
Pjovimas
 62
     6
100
AcDbPolyline
 90
        2
 70
     1
 43
0.0
 10
2.822970565234812
 20
-232.0348585802876
 10
2.822970565234812
 20
-168.8032975802876
  0
SPLINE
  5
103BD
330
103B5
100
AcDbEntity
  8
Pjovimas
 62
     6
100
AcDbSpline
210
0.0
220
0.0
230
1.0
 70
  1064
 71
     3
 72
    10
 73
     6
 74
     4
 42
0.000000001
 43
0.0000000001
 44
0.0000000001
 40
0.0
 40
0.0
 40
0.0
 40
0.0
 40
4.329361971894719
 40
8.520749438193334
 40
12.850111410088
 40
12.850111410088
 40
12.850111410088
 40
12.850111410088
 10
2.822970565234812
 20
-168.8032975802876
 30
0.0
 10
3.048653943576131
 20
-167.3518750961589
 30
0.0
 10
3.492828288824928
 20
-164.4952862046534
 30
0.0
 10
6.78505684529458
 20
-161.2030559595716
 30
0.0
 10
9.641645965105155
 20
-160.7588818426279
 30
0.0
 10
11.09306856523483
 20
-160.5331985802876
 30
0.0
 11
2.822970565234812
 21
-168.8032975802876
 31
0.0
 11
3.948928565234837
 21
-164.6229155802876
 31
0.0
 11
6.912686565234878
 21
-161.6591565802876
 31
0.0
 11
11.09306856523483
 21
-160.5331985802876
 31
0.0
  0
LWPOLYLINE
  5
103BE
330
103B5
100
AcDbEntity
  8
Pjovimas
 62
     6
100
AcDbPolyline
 90
        2
 70
     1
 43
0.0
 10
11.09306856523483
 20
-160.5331985802876
 10
11.09306856523483
 20
-160.5331985802876
  0
CIRCLE
  5
103BF
330
103B5
100
AcDbEntity
  8
Pjovimas
  6
ByBlock
100
AcDbCircle
 10
9.912417065234933
 20
-200.4190736299843
 30
0.0
 40
3.1
  0
CIRCLE
  5
103C0
330
103B5
100
AcDbEntity
  8
Pjovimas
  6
ByBlock
100
AcDbCircle
 10
59.10706989417173
 20
-172.0165275765074
 30
0.0
 40
3.1
  0
CIRCLE
  5
103C1
330
103B5
100
AcDbEntity
  8
Pjovimas
  6
ByBlock
100
AcDbCircle
 10
59.10706989417173
 20
-228.8216275840678
 30
0.0
 40
3.1
  0
CIRCLE
  5
103C2
330
103B5
100
AcDbEntity
  8
Pjovimas
  6
ByBlock
100
AcDbCircle
 10
42.7088490652348
 20
-200.4190795802876
 30
0.0
 40
25.0
  0
ENDBLK
  5
103C4
330
103B5
100
AcDbEntity
  8
0
100
AcDbBlockEnd
  0
BLOCK
  5
103DC
330
103D6
100
AcDbEntity
  8
0
100
AcDbBlockBegin
  2
Ratukas2
 70
     0
 10
0.0
 20
0.0
 30
0.0
  3
Ratukas2
  1
Ratukas2
  0
CIRCLE
  5
103D7
330
103D6
100
AcDbEntity
  8
Pjovimas
  6
ByBlock
100
AcDbCircle
 10
-186.723976505013
 20
-549.0734334258902
 30
0.0
 40
3.0
  0
LWPOLYLINE
  5
103D8
330
103D6
100
AcDbEntity
  8
Pjovimas
 62
     6
100
AcDbPolyline
 90
        2
 70
     1
 43
0.0
 10
-181.1302297740037
 20
-558.257898194881
 10
-181.1302297740037
 20
-558.257901194881
  0
SPLINE
  5
103D9
330
103D6
100
AcDbEntity
  8
Pjovimas
 62
     6
100
AcDbSpline
210
0.0
220
0.0
230
1.0
 70
  1064
 71
     3
 72
    55
 73
    51
 74
    49
 42
0.000000001
 43
0.0000000001
 44
0.0000000001
 40
0.0
 40
0.0
 40
0.0
 40
0.0
 40
2.064958518226647
 40
3.454784908076821
 40
5.303177682133541
 40
7.151570428921389
 40
8.541396743515394
 40
10.60635507770641
 40
12.67131241848417
 40
14.06113594945275
 40
15.90952983980324
 40
17.75792190881076
 40
19.14774781221197
 40
21.21270474512461
 40
23.27766467666542
 40
24.66749014171672
 40
26.51588201184921
 40
28.36427475863705
 40
29.75410030773054
 40
31.81905864192162
 40
33.88401598269935
 40
35.27383951366802
 40
37.12223434561268
 40
38.97062561983707
 40
40.3604495307024
 40
42.4254079658611
 40
44.49036575221562
 40
45.88019121726678
 40
47.7285839913235
 40
49.57697673811138
 40
50.96680228720483
 40
53.03175964089448
 40
55.09671691035359
 40
56.48654044132215
 40
58.33493459976888
 40
60.1833266687764
 40
61.57315257217761
 40
63.63811100733629
 40
65.70306879369076
 40
67.09289425874205
 40
68.94128703279871
 40
70.78967977958655
 40
72.17950468524484
 40
74.24446203893453
 40
76.30941930839359
 40
77.69924376231751
 40
79.54763731591862
 40
81.39602938492622
 40
82.7858542920595
 40
84.85081218793269
 40
84.85081218793269
 40
84.85081218793269
 40
84.85081218793269
 10
-181.1302297740037
 20
-558.257901194881
 30
0.0
 10
-181.6877404502882
 20
-558.6999614384297
 30
0.0
 10
-182.6204853231363
 20
-559.4395516260258
 30
0.0
 10
-182.9120011323454
 20
-561.3701811889267
 30
0.0
 10
-184.7210172772225
 20
-561.953593614018
 30
0.0
 10
-186.6177449730399
 20
-561.9395528922337
 30
0.0
 10
-187.4905463358812
 20
-560.2218875065896
 30
0.0
 10
-189.2262029103261
 20
-559.3719151778462
 30
0.0
 10
-191.1585927264464
 20
-559.3307664948019
 30
0.0
 10
-192.7216950090769
 20
-560.456107301194
 30
0.0
 10
-194.4158976652164
 20
-559.5997639290816
 30
0.0
 10
-195.7464667934421
 20
-558.2458013447531
 30
0.0
 10
-195.1492068888863
 20
-556.4146920825275
 30
0.0
 10
-195.7754317194614
 20
-554.5861563570436
 30
0.0
 10
-197.1127557653646
 20
-553.190713888738
 30
0.0
 10
-199.0137699334716
 20
-552.88116043185
 30
0.0
 10
-199.6062360431383
 20
-551.0776591879085
 30
0.0
 10
-199.5896921574628
 20
-549.1794079190286
 30
0.0
 10
-197.8725791663228
 20
-548.3069412783551
 30
0.0
 10
-197.022412076278
 20
-546.5711667519618
 30
0.0
 10
-196.9813180739998
 20
-544.6388100732669
 30
0.0
 10
-198.1066485048089
 20
-543.075701178776
 30
0.0
 10
-197.2503085642822
 20
-541.3815004915467
 30
0.0
 10
-195.8963462112065
 20
-540.0509301530961
 30
0.0
 10
-194.0652373980217
 20
-540.6481906005624
 30
0.0
 10
-192.2367033306858
 20
-540.021962994484
 30
0.0
 10
-190.8412601168495
 20
-538.6846407503858
 30
0.0
 10
-190.5317070173244
 20
-536.7836265598557
 30
0.0
 10
-188.7282050115971
 20
-536.1911611877451
 30
0.0
 10
-186.8299534514927
 20
-536.2077046099398
 30
0.0
 10
-185.9574872338294
 20
-537.9248180213986
 30
0.0
 10
-184.2217117514392
 20
-538.7749816159379
 30
0.0
 10
-182.2893555879402
 20
-538.8160792884466
 30
0.0
 10
-180.7262471608044
 20
-537.6907488713284
 30
0.0
 10
-179.0320451512254
 20
-538.547085930668
 30
0.0
 10
-177.7014756236622
 20
-539.9010502926899
 30
0.0
 10
-178.2987361613243
 20
-541.7321598344655
 30
0.0
 10
-177.6725086393686
 20
-543.5606946796496
 30
0.0
 10
-176.3351863538816
 20
-544.9561377896639
 30
0.0
 10
-174.4341720406152
 20
-545.2656911119932
 30
0.0
 10
-173.8417072990569
 20
-547.0691921276456
 30
0.0
 10
-173.8582484206386
 20
-548.9674470237542
 30
0.0
 10
-175.5753688093719
 20
-549.8399016585429
 30
0.0
 10
-176.4254987550788
 20
-551.5757319595339
 30
0.0
 10
-176.4667149278528
 20
-553.5078935789816
 30
0.0
 10
-175.3410487715154
 20
-555.0715536583176
 30
0.0
 10
-176.1989117840592
 20
-556.76325218005
 30
0.0
 10
-177.5473615324519
 20
-558.1028746469681
 30
0.0
 10
-179.3965071462753
 20
-557.4760001858242
 30
0.0
 10
-180.4816369460637
 20
-557.965386905737
 30
0.0
 10
-181.1302297740037
 20
-558.257898194881
 30
0.0
 11
-181.1302297740037
 21
-558.257901194881
 31
0.0
 11
-182.5373787740037
 21
-559.7691871948809
 31
0.0
 11
-183.0661467740038
 21
-561.0544971948809
 31
0.0
 11
-184.7369537740038
 21
-561.845041194881
 31
0.0
 11
-186.5689607740037
 21
-561.599468194881
 31
0.0
 11
-187.4632237740038
 21
-560.535555194881
 31
0.0
 11
-189.2630027740038
 21
-559.523207194881
 31
0.0
 11
-191.3266467740037
 21
-559.596843194881
 31
0.0
 11
-192.6093917740037
 21
-560.131796194881
 31
0.0
 11
-194.3498287740038
 21
-559.509350194881
 31
0.0
 11
-195.4716057740037
 21
-558.040279194881
 31
0.0
 11
-195.3516437740037
 21
-556.655640194881
 31
0.0
 11
-195.9084437740037
 21
-554.667168194881
 31
0.0
 11
-197.4197307740037
 21
-553.260018194881
 31
0.0
 11
-198.7050397740038
 21
-552.731250194881
 31
0.0
 11
-199.4955837740037
 21
-551.060444194881
 31
0.0
 11
-199.2500107740037
 21
-549.228437194881
 31
0.0
 11
-198.1860987740037
 21
-548.334174194881
 31
0.0
 11
-197.1737507740037
 21
-546.534395194881
 31
0.0
 11
-197.2473867740037
 21
-544.470751194881
 31
0.0
 11
-197.7823397740037
 21
-543.1880061948809
 31
0.0
 11
-197.1598937740037
 21
-541.447568194881
 31
0.0
 11
-195.6908237740037
 21
-540.325791194881
 31
0.0
 11
-194.3061867740037
 21
-540.445753194881
 31
0.0
 11
-192.3177137740037
 21
-539.888951194881
 31
0.0
 11
-190.9105647740037
 21
-538.3776661948809
 31
0.0
 11
-190.3817967740037
 21
-537.0923571948811
 31
0.0
 11
-188.7109897740037
 21
-536.301813194881
 31
0.0
 11
-186.8789827740037
 21
-536.547386194881
 31
0.0
 11
-185.9847197740037
 21
-537.611298194881
 31
0.0
 11
-184.1849407740037
 21
-538.623644194881
 31
0.0
 11
-182.1212967740037
 21
-538.550010194881
 31
0.0
 11
-180.8385517740037
 21
-538.015057194881
 31
0.0
 11
-179.0981137740037
 21
-538.637501194881
 31
0.0
 11
-177.9763367740038
 21
-540.106572194881
 31
0.0
 11
-178.0962987740037
 21
-541.491211194881
 31
0.0
 11
-177.5394967740037
 21
-543.479684194881
 31
0.0
 11
-176.0282117740038
 21
-544.886833194881
 31
0.0
 11
-174.7429027740037
 21
-545.415601194881
 31
0.0
 11
-173.9523587740038
 21
-547.086408194881
 31
0.0
 11
-174.1979317740037
 21
-548.9184151948809
 31
0.0
 11
-175.2618437740038
 21
-549.812677194881
 31
0.0
 11
-176.2741897740037
 21
-551.612456194881
 31
0.0
 11
-176.2005557740037
 21
-553.676100194881
 31
0.0
 11
-175.6656027740037
 21
-554.958846194881
 31
0.0
 11
-176.2880477740037
 21
-556.699283194881
 31
0.0
 11
-177.7571187740037
 21
-557.821060194881
 31
0.0
 11
-179.1417567740037
 21
-557.701098194881
 31
0.0
 11
-181.1302297740037
 21
-558.257898194881
 31
0.0
  0
CIRCLE
  5
103DA
330
103D6
100
AcDbEntity
  8
Pjovimas
  6
ByBlock
100
AcDbCircle
 10
-177.9985658184853
 20
-547.503817155673
 30
0.0
 40
2.0
  0
CIRCLE
  5
103DB
330
103D6
100
AcDbEntity
  8
Pjovimas
  6
ByBlock
 62
     3
100
AcDbCircle
 10
-186.723976505013
 20
-549.0734334258902
 30
0.0
 40
8.736018647154618
  0
ENDBLK
  5
103DD
330
103D6
100
AcDbEntity
  8
0
100
AcDbBlockEnd
  0
ENDSEC
  0
SECTION
  2
ENTITIES
  0
LWPOLYLINE
  5
10802
330
1F
100
AcDbEntity
  8
Pjovimas
 62
     6
100
AcDbPolyline
 90
        2
 70
     1
 43
0.0
 10
113.6417753620149
 20
223.2563828887337
 10
176.8733403620149
 20
223.2563828887337
  0
SPLINE
  5
10803
330
1F
100
AcDbEntity
  8
Pjovimas
 62
     6
100
AcDbSpline
210
0.0
220
0.0
230
1.0
 70
  1064
 71
     3
 72
    10
 73
     6
 74
     4
 42
0.000000001
 43
0.0000000001
 44
0.0000000001
 40
0.0
 40
0.0
 40
0.0
 40
0.0
 40
4.329363903071699
 40
8.52075419779787
 40
12.85011694991798
 40
12.85011694991798
 40
12.85011694991798
 40
12.85011694991798
 10
176.8733403620149
 20
223.2563828887337
 30
0.0
 10
178.3247634809329
 20
223.0306995035795
 30
0.0
 10
181.181353943224
 20
222.5865250949416
 30
0.0
 10
184.4735864675623
 20
219.294296391794
 30
0.0
 10
184.9177629517796
 20
216.4377065185529
 30
0.0
 10
185.1434473620149
 20
214.9862838887336
 30
0.0
 11
176.8733403620149
 21
223.2563828887337
 31
0.0
 11
181.0537243620149
 21
222.1304248887336
 31
0.0
 11
184.0174863620149
 21
219.1666658887336
 31
0.0
 11
185.1434473620149
 21
214.9862838887336
 31
0.0
  0
SPLINE
  5
10804
330
1F
100
AcDbEntity
  8
Pjovimas
 62
     6
100
AcDbSpline
210
0.0
220
0.0
230
1.0
 70
  1064
 71
     3
 72
    10
 73
     6
 74
     4
 42
0.000000001
 43
0.0000000001
 44
0.0000000001
 40
0.0
 40
0.0
 40
0.0
 40
0.0
 40
4.329364683296724
 40
8.520754978022895
 40
12.85011888109459
 40
12.85011888109459
 40
12.85011888109459
 40
12.85011888109459
 10
185.1434473620149
 20
151.7547228887336
 30
0.0
 10
184.9177630944471
 20
150.3032995423273
 30
0.0
 10
184.4735869884797
 20
147.4467088855448
 30
0.0
 10
181.1813539365277
 20
144.1544796812195
 30
0.0
 10
178.3247634786769
 20
143.7103052734476
 30
0.0
 10
176.8733403620149
 20
143.4846218887335
 30
0.0
 11
185.1434473620149
 21
151.7547228887336
 31
0.0
 11
184.0174863620149
 21
147.5743388887336
 31
0.0
 11
181.0537243620149
 21
144.6105798887336
 31
0.0
 11
176.8733403620149
 21
143.4846218887335
 31
0.0
  0
SPLINE
  5
10805
330
1F
100
AcDbEntity
  8
Pjovimas
 62
     6
100
AcDbSpline
210
0.0
220
0.0
230
1.0
 70
  1064
 71
     3
 72
    10
 73
     6
 74
     4
 42
0.000000001
 43
0.0000000001
 44
0.0000000001
 40
0.0
 40
0.0
 40
0.0
 40
0.0
 40
4.329361971894734
 40
8.52074943819331
 40
12.85011334126498
 40
12.85011334126498
 40
12.85011334126498
 40
12.85011334126498
 10
113.6417753620149
 20
143.4846218887335
 30
0.0
 10
112.1903527641412
 20
143.7103051506337
 30
0.0
 10
109.3337636487708
 20
144.1544792667113
 30
0.0
 10
106.0415345646882
 20
147.4467100129716
 30
0.0
 10
105.5973605976887
 20
150.303299688018
 30
0.0
 10
105.3716773620149
 20
151.7547228887336
 30
0.0
 11
113.6417753620149
 21
143.4846218887335
 31
0.0
 11
109.4613933620149
 21
144.6105798887336
 31
0.0
 11
106.4976353620149
 21
147.5743388887336
 31
0.0
 11
105.3716773620149
 21
151.7547228887336
 31
0.0
  0
SPLINE
  5
10806
330
1F
100
AcDbEntity
  8
Pjovimas
 62
     6
100
AcDbSpline
210
0.0
220
0.0
230
1.0
 70
  1064
 71
     3
 72
    10
 73
     6
 74
     4
 42
0.000000001
 43
0.0000000001
 44
0.0000000001
 40
0.0
 40
0.0
 40
0.0
 40
0.0
 40
4.329361971894704
 40
8.520749438193281
 40
12.85011141008802
 40
12.85011141008802
 40
12.85011141008802
 40
12.85011141008802
 10
105.3716773620149
 20
214.9862838887336
 30
0.0
 10
105.5973607403562
 20
216.4377063728623
 30
0.0
 10
106.041535085605
 20
219.2942952643677
 30
0.0
 10
109.3337636420746
 20
222.5865255094497
 30
0.0
 10
112.1903527618852
 20
223.0306996263934
 30
0.0
 10
113.6417753620149
 20
223.2563828887337
 30
0.0
 11
105.3716773620149
 21
214.9862838887336
 31
0.0
 11
106.4976353620149
 21
219.1666658887336
 31
0.0
 11
109.4613933620149
 21
222.1304248887336
 31
0.0
 11
113.6417753620149
 21
223.2563828887337
 31
0.0
  0
LWPOLYLINE
  5
10807
330
1F
100
AcDbEntity
  8
Pjovimas
 62
     6
100
AcDbPolyline
 90
        2
 70
     1
 43
0.0
 10
113.6417753620149
 20
223.2563828887337
 10
113.6417753620149
 20
223.2563828887337
  0
CIRCLE
  5
10808
330
1F
100
AcDbEntity
  8
Pjovimas
  6
ByBlock
100
AcDbCircle
 10
112.461123862015
 20
183.3705078390369
 30
0.0
 40
3.0
  0
CIRCLE
  5
10809
330
1F
100
AcDbEntity
  8
Pjovimas
  6
ByBlock
100
AcDbCircle
 10
161.6557766909518
 20
154.9679538849534
 30
0.0
 40
3.0
  0
LINE
  5
1080A
330
1F
100
AcDbEntity
  8
Pjovimas
 62
     6
100
AcDbLine
 10
139.2575558620149
 20
143.4846218887335
 30
0.0
 11
113.6417753620149
 21
143.4846218887335
 31
0.0
  0
LINE
  5
1080B
330
1F
100
AcDbEntity
  8
Pjovimas
 62
     6
100
AcDbLine
 10
113.6417753620149
 20
143.4846218887335
 30
0.0
 11
176.8733403620149
 21
143.4846218887335
 31
0.0
  0
LINE
  5
1080C
330
1F
100
AcDbEntity
  8
Pjovimas
  6
ByBlock
100
AcDbLine
 10
185.1434473620149
 20
214.9862838887336
 30
0.0
 11
185.1434473620149
 21
151.7547228887336
 31
0.0
  0
CIRCLE
  5
10810
330
1F
100
AcDbEntity
  8
Pjovimas
  6
ByBlock
100
AcDbCircle
 10
161.6557781909518
 20
211.7730538925139
 30
0.0
 40
3.0
  0
CIRCLE
  5
10812
330
1F
100
AcDbEntity
  8
Pjovimas
  6
ByBlock
100
AcDbCircle
 10
113.6417753620149
 20
151.7547228887336
 30
0.0
 40
3.0
  0
CIRCLE
  5
10814
330
1F
100
AcDbEntity
  8
Pjovimas
  6
ByBlock
100
AcDbCircle
 10
113.6417753620149
 20
214.9862838887336
 30
0.0
 40
3.0
  0
CIRCLE
  5
10815
330
1F
100
AcDbEntity
  8
Pjovimas
  6
ByBlock
100
AcDbCircle
 10
176.8733403620149
 20
183.3705033887336
 30
0.0
 40
3.0
  0
LWPOLYLINE
  5
10822
330
1F
100
AcDbEntity
  8
Pjovimas
 62
     6
100
AcDbPolyline
 90
        2
 70
     1
 43
0.0
 10
193.4135453620148
 20
223.2563828887337
 10
256.6451103620149
 20
223.2563828887337
  0
SPLINE
  5
10823
330
1F
100
AcDbEntity
  8
Pjovimas
 62
     6
100
AcDbSpline
210
0.0
220
0.0
230
1.0
 70
  1064
 71
     3
 72
    10
 73
     6
 74
     4
 42
0.000000001
 43
0.0000000001
 44
0.0000000001
 40
0.0
 40
0.0
 40
0.0
 40
0.0
 40
4.329363903071699
 40
8.52075419779787
 40
12.85011694991798
 40
12.85011694991798
 40
12.85011694991798
 40
12.85011694991798
 10
256.6451103620149
 20
223.2563828887337
 30
0.0
 10
258.0965334809329
 20
223.0306995035795
 30
0.0
 10
260.953123943224
 20
222.5865250949416
 30
0.0
 10
264.2453564675623
 20
219.294296391794
 30
0.0
 10
264.6895329517796
 20
216.4377065185529
 30
0.0
 10
264.9152173620148
 20
214.9862838887336
 30
0.0
 11
256.6451103620149
 21
223.2563828887337
 31
0.0
 11
260.8254943620149
 21
222.1304248887336
 31
0.0
 11
263.7892563620148
 21
219.1666658887336
 31
0.0
 11
264.9152173620148
 21
214.9862838887336
 31
0.0
  0
SPLINE
  5
10824
330
1F
100
AcDbEntity
  8
Pjovimas
 62
     6
100
AcDbSpline
210
0.0
220
0.0
230
1.0
 70
  1064
 71
     3
 72
    10
 73
     6
 74
     4
 42
0.000000001
 43
0.0000000001
 44
0.0000000001
 40
0.0
 40
0.0
 40
0.0
 40
0.0
 40
4.329364683296724
 40
8.520754978022895
 40
12.85011888109459
 40
12.85011888109459
 40
12.85011888109459
 40
12.85011888109459
 10
264.9152173620148
 20
151.7547228887336
 30
0.0
 10
264.689533094447
 20
150.3032995423273
 30
0.0
 10
264.2453569884797
 20
147.4467088855448
 30
0.0
 10
260.9531239365276
 20
144.1544796812195
 30
0.0
 10
258.0965334786769
 20
143.7103052734476
 30
0.0
 10
256.6451103620149
 20
143.4846218887335
 30
0.0
 11
264.9152173620148
 21
151.7547228887336
 31
0.0
 11
263.7892563620148
 21
147.5743388887336
 31
0.0
 11
260.8254943620149
 21
144.6105798887336
 31
0.0
 11
256.6451103620149
 21
143.4846218887335
 31
0.0
  0
SPLINE
  5
10825
330
1F
100
AcDbEntity
  8
Pjovimas
 62
     6
100
AcDbSpline
210
0.0
220
0.0
230
1.0
 70
  1064
 71
     3
 72
    10
 73
     6
 74
     4
 42
0.000000001
 43
0.0000000001
 44
0.0000000001
 40
0.0
 40
0.0
 40
0.0
 40
0.0
 40
4.329361971894734
 40
8.52074943819331
 40
12.85011334126498
 40
12.85011334126498
 40
12.85011334126498
 40
12.85011334126498
 10
193.4135453620148
 20
143.4846218887335
 30
0.0
 10
191.9621227641412
 20
143.7103051506337
 30
0.0
 10
189.1055336487708
 20
144.1544792667113
 30
0.0
 10
185.8133045646882
 20
147.4467100129716
 30
0.0
 10
185.3691305976887
 20
150.303299688018
 30
0.0
 10
185.1434473620149
 20
151.7547228887336
 30
0.0
 11
193.4135453620148
 21
143.4846218887335
 31
0.0
 11
189.2331633620148
 21
144.6105798887336
 31
0.0
 11
186.2694053620148
 21
147.5743388887336
 31
0.0
 11
185.1434473620149
 21
151.7547228887336
 31
0.0
  0
SPLINE
  5
10826
330
1F
100
AcDbEntity
  8
Pjovimas
 62
     6
100
AcDbSpline
210
0.0
220
0.0
230
1.0
 70
  1064
 71
     3
 72
    10
 73
     6
 74
     4
 42
0.000000001
 43
0.0000000001
 44
0.0000000001
 40
0.0
 40
0.0
 40
0.0
 40
0.0
 40
4.329361971894704
 40
8.520749438193281
 40
12.85011141008802
 40
12.85011141008802
 40
12.85011141008802
 40
12.85011141008802
 10
185.1434473620149
 20
214.9862838887336
 30
0.0
 10
185.3691307403562
 20
216.4377063728623
 30
0.0
 10
185.8133050856049
 20
219.2942952643677
 30
0.0
 10
189.1055336420745
 20
222.5865255094497
 30
0.0
 10
191.9621227618851
 20
223.0306996263934
 30
0.0
 10
193.4135453620148
 20
223.2563828887337
 30
0.0
 11
185.1434473620149
 21
214.9862838887336
 31
0.0
 11
186.2694053620148
 21
219.1666658887336
 31
0.0
 11
189.2331633620148
 21
222.1304248887336
 31
0.0
 11
193.4135453620148
 21
223.2563828887337
 31
0.0
  0
LWPOLYLINE
  5
10827
330
1F
100
AcDbEntity
  8
Pjovimas
 62
     6
100
AcDbPolyline
 90
        2
 70
     1
 43
0.0
 10
193.4135453620148
 20
223.2563828887337
 10
193.4135453620148
 20
223.2563828887337
  0
CIRCLE
  5
10828
330
1F
100
AcDbEntity
  8
Pjovimas
  6
ByBlock
100
AcDbCircle
 10
192.232893862015
 20
183.3705078390369
 30
0.0
 40
3.25
  0
CIRCLE
  5
10829
330
1F
100
AcDbEntity
  8
Pjovimas
  6
ByBlock
100
AcDbCircle
 10
241.4275466909518
 20
154.9679538849534
 30
0.0
 40
3.25
  0
LINE
  5
1082A
330
1F
100
AcDbEntity
  8
Pjovimas
 62
     6
100
AcDbLine
 10
219.0293258620148
 20
143.4846218887335
 30
0.0
 11
193.4135453620148
 21
143.4846218887335
 31
0.0
  0
LINE
  5
1082B
330
1F
100
AcDbEntity
  8
Pjovimas
 62
     6
100
AcDbLine
 10
193.4135453620148
 20
143.4846218887335
 30
0.0
 11
256.6451103620149
 21
143.4846218887335
 31
0.0
  0
LINE
  5
1082C
330
1F
100
AcDbEntity
  8
Pjovimas
  6
ByBlock
100
AcDbLine
 10
264.9152173620148
 20
214.9862838887336
 30
0.0
 11
264.9152173620148
 21
151.7547228887336
 31
0.0
  0
CIRCLE
  5
1082D
330
1F
100
AcDbEntity
  8
Pjovimas
  6
ByBlock
100
AcDbCircle
 10
241.4275481909517
 20
211.7730538925139
 30
0.0
 40
3.25
  0
CIRCLE
  5
10835
330
1F
100
AcDbEntity
  8
Pjovimas
  6
ByBlock
100
AcDbCircle
 10
225.0293278620148
 20
183.3705023887337
 30
0.0
 40
25.0
  0
CIRCLE
  5
1083A
330
1F
100
AcDbEntity
  8
Pjovimas
  6
ByBlock
100
AcDbCircle
 10
208.631107533078
 20
211.7730538925139
 30
0.0
 40
1.5
  0
CIRCLE
  5
1083B
330
1F
100
AcDbEntity
  8
Pjovimas
  6
ByBlock
100
AcDbCircle
 10
208.6311090330779
 20
154.9679538849534
 30
0.0
 40
1.5
  0
CIRCLE
  5
1083C
330
1F
100
AcDbEntity
  8
Pjovimas
  6
ByBlock
100
AcDbCircle
 10
257.8257618620147
 20
183.3705078390369
 30
0.0
 40
1.5
  0
CIRCLE
  5
10874
330
1F
100
AcDbEntity
  8
Pjovimas
  6
ByBlock
100
AcDbCircle
 10
304.8010924117116
 20
216.1669363887336
 30
0.0
 40
1.5
  0
CIRCLE
  5
10881
330
1F
100
AcDbEntity
  8
Pjovimas
  6
ByBlock
100
AcDbCircle
 10
304.8010978620148
 20
190.3705023887337
 30
0.0
 40
2.35
  0
CIRCLE
  5
10882
330
1F
100
AcDbEntity
  8
Pjovimas
  6
ByBlock
100
AcDbCircle
 10
304.8010978620148
 20
183.3705023887337
 30
0.0
 40
2.35
  0
CIRCLE
  5
10883
330
1F
100
AcDbEntity
  8
Pjovimas
  6
ByBlock
100
AcDbCircle
 10
304.8010978620148
 20
176.3705023887337
 30
0.0
 40
2.35
  0
CIRCLE
  5
10885
330
1F
100
AcDbEntity
  8
Pjovimas
  6
ByBlock
100
AcDbCircle
 10
297.8010978620148
 20
183.3705023887337
 30
0.0
 40
2.35
  0
CIRCLE
  5
10888
330
1F
100
AcDbEntity
  8
Pjovimas
  6
ByBlock
100
AcDbCircle
 10
311.8010978620148
 20
183.3705023887337
 30
0.0
 40
2.35
  0
CIRCLE
  5
1089A
330
1F
100
AcDbEntity
  8
Pjovimas
  6
ByBlock
100
AcDbCircle
 10
173.8733403620149
 20
214.9983508777714
 30
0.0
 40
1.0
  0
CIRCLE
  5
1089B
330
1F
100
AcDbEntity
  8
Pjovimas
  6
ByBlock
100
AcDbCircle
 10
179.8733403620149
 20
214.9983508777714
 30
0.0
 40
1.0
  0
CIRCLE
  5
1089C
330
1F
100
AcDbEntity
  8
Pjovimas
  6
ByBlock
100
AcDbCircle
 10
253.6451103620149
 20
214.9983508777714
 30
0.0
 40
1.0
  0
CIRCLE
  5
1089D
330
1F
100
AcDbEntity
  8
Pjovimas
  6
ByBlock
100
AcDbCircle
 10
259.6451103620149
 20
214.9983508777714
 30
0.0
 40
1.0
  0
LWPOLYLINE
  5
108A0
330
1F
100
AcDbEntity
  8
Pjovimas
 62
     6
100
AcDbPolyline
 90
        2
 70
     1
 43
0.0
 10
33.87000536201492
 20
223.2563828887337
 10
97.10157036201497
 20
223.2563828887337
  0
SPLINE
  5
108A1
330
1F
100
AcDbEntity
  8
Pjovimas
 62
     6
100
AcDbSpline
210
0.0
220
0.0
230
1.0
 70
  1064
 71
     3
 72
    10
 73
     6
 74
     4
 42
0.000000001
 43
0.0000000001
 44
0.0000000001
 40
0.0
 40
0.0
 40
0.0
 40
0.0
 40
4.329363903071699
 40
8.52075419779787
 40
12.85011694991798
 40
12.85011694991798
 40
12.85011694991798
 40
12.85011694991798
 10
97.10157036201497
 20
223.2563828887337
 30
0.0
 10
98.552993480933
 20
223.0306995035795
 30
0.0
 10
101.409583943224
 20
222.5865250949416
 30
0.0
 10
104.7018164675624
 20
219.294296391794
 30
0.0
 10
105.1459929517797
 20
216.4377065185529
 30
0.0
 10
105.3716773620149
 20
214.9862838887336
 30
0.0
 11
97.10157036201497
 21
223.2563828887337
 31
0.0
 11
101.281954362015
 21
222.1304248887336
 31
0.0
 11
104.2457163620149
 21
219.1666658887336
 31
0.0
 11
105.3716773620149
 21
214.9862838887336
 31
0.0
  0
SPLINE
  5
108A2
330
1F
100
AcDbEntity
  8
Pjovimas
 62
     6
100
AcDbSpline
210
0.0
220
0.0
230
1.0
 70
  1064
 71
     3
 72
    10
 73
     6
 74
     4
 42
0.000000001
 43
0.0000000001
 44
0.0000000001
 40
0.0
 40
0.0
 40
0.0
 40
0.0
 40
4.329364683296724
 40
8.520754978022895
 40
12.85011888109459
 40
12.85011888109459
 40
12.85011888109459
 40
12.85011888109459
 10
105.3716773620149
 20
151.7547228887336
 30
0.0
 10
105.1459930944471
 20
150.3032995423273
 30
0.0
 10
104.7018169884798
 20
147.4467088855448
 30
0.0
 10
101.4095839365277
 20
144.1544796812195
 30
0.0
 10
98.55299347867692
 20
143.7103052734476
 30
0.0
 10
97.10157036201497
 20
143.4846218887335
 30
0.0
 11
105.3716773620149
 21
151.7547228887336
 31
0.0
 11
104.2457163620149
 21
147.5743388887336
 31
0.0
 11
101.281954362015
 21
144.6105798887336
 31
0.0
 11
97.10157036201497
 21
143.4846218887335
 31
0.0
  0
SPLINE
  5
108A3
330
1F
100
AcDbEntity
  8
Pjovimas
 62
     6
100
AcDbSpline
210
0.0
220
0.0
230
1.0
 70
  1064
 71
     3
 72
    10
 73
     6
 74
     4
 42
0.000000001
 43
0.0000000001
 44
0.0000000001
 40
0.0
 40
0.0
 40
0.0
 40
0.0
 40
4.329361971894734
 40
8.52074943819331
 40
12.85011334126498
 40
12.85011334126498
 40
12.85011334126498
 40
12.85011334126498
 10
33.87000536201492
 20
143.4846218887335
 30
0.0
 10
32.41858276414126
 20
143.7103051506337
 30
0.0
 10
29.56199364877088
 20
144.1544792667113
 30
0.0
 10
26.26976456468826
 20
147.4467100129716
 30
0.0
 10
25.82559059768879
 20
150.303299688018
 30
0.0
 10
25.59990736201496
 20
151.7547228887336
 30
0.0
 11
33.87000536201492
 21
143.4846218887335
 31
0.0
 11
29.68962336201491
 21
144.6105798887336
 31
0.0
 11
26.72586536201493
 21
147.5743388887336
 31
0.0
 11
25.59990736201496
 21
151.7547228887336
 31
0.0
  0
SPLINE
  5
108A4
330
1F
100
AcDbEntity
  8
Pjovimas
 62
     6
100
AcDbSpline
210
0.0
220
0.0
230
1.0
 70
  1064
 71
     3
 72
    10
 73
     6
 74
     4
 42
0.000000001
 43
0.0000000001
 44
0.0000000001
 40
0.0
 40
0.0
 40
0.0
 40
0.0
 40
4.329361971894704
 40
8.520749438193281
 40
12.85011141008802
 40
12.85011141008802
 40
12.85011141008802
 40
12.85011141008802
 10
25.59990736201496
 20
214.9862838887336
 30
0.0
 10
25.82559074035626
 20
216.4377063728623
 30
0.0
 10
26.26976508560502
 20
219.2942952643677
 30
0.0
 10
29.56199364207464
 20
222.5865255094497
 30
0.0
 10
32.41858276188522
 20
223.0306996263934
 30
0.0
 10
33.87000536201492
 20
223.2563828887337
 30
0.0
 11
25.59990736201496
 21
214.9862838887336
 31
0.0
 11
26.72586536201493
 21
219.1666658887336
 31
0.0
 11
29.68962336201491
 21
222.1304248887336
 31
0.0
 11
33.87000536201492
 21
223.2563828887337
 31
0.0
  0
LWPOLYLINE
  5
108A5
330
1F
100
AcDbEntity
  8
Pjovimas
 62
     6
100
AcDbPolyline
 90
        2
 70
     1
 43
0.0
 10
33.87000536201492
 20
223.2563828887337
 10
33.87000536201492
 20
223.2563828887337
  0
CIRCLE
  5
108A6
330
1F
100
AcDbEntity
  8
Pjovimas
  6
ByBlock
100
AcDbCircle
 10
32.68935386201508
 20
183.3705078390369
 30
0.0
 40
6.0
  0
CIRCLE
  5
108A7
330
1F
100
AcDbEntity
  8
Pjovimas
  6
ByBlock
100
AcDbCircle
 10
81.88400669095188
 20
154.9679538849534
 30
0.0
 40
6.0
  0
LINE
  5
108A8
330
1F
100
AcDbEntity
  8
Pjovimas
 62
     6
100
AcDbLine
 10
59.48578586201495
 20
143.4846218887335
 30
0.0
 11
33.87000536201492
 21
143.4846218887335
 31
0.0
  0
LINE
  5
108A9
330
1F
100
AcDbEntity
  8
Pjovimas
 62
     6
100
AcDbLine
 10
33.87000536201492
 20
143.4846218887335
 30
0.0
 11
97.10157036201497
 21
143.4846218887335
 31
0.0
  0
LINE
  5
108AA
330
1F
100
AcDbEntity
  8
Pjovimas
  6
ByBlock
100
AcDbLine
 10
105.3716773620149
 20
214.9862838887336
 30
0.0
 11
105.3716773620149
 21
151.7547228887336
 31
0.0
  0
CIRCLE
  5
108AB
330
1F
100
AcDbEntity
  8
Pjovimas
  6
ByBlock
100
AcDbCircle
 10
81.88400819095182
 20
211.7730538925139
 30
0.0
 40
6.0
  0
CIRCLE
  5
108AC
330
1F
100
AcDbEntity
  8
Pjovimas
  6
ByBlock
100
AcDbCircle
 10
33.87000536201492
 20
151.7547228887336
 30
0.0
 40
6.0
  0
CIRCLE
  5
108AD
330
1F
100
AcDbEntity
  8
Pjovimas
  6
ByBlock
100
AcDbCircle
 10
33.87000536201492
 20
214.9862838887336
 30
0.0
 40
6.0
  0
CIRCLE
  5
108AE
330
1F
100
AcDbEntity
  8
Pjovimas
  6
ByBlock
100
AcDbCircle
 10
97.10157036201497
 20
183.3705033887336
 30
0.0
 40
6.0
  0
LINE
  5
108AF
330
1F
100
AcDbEntity
  8
Pjovimas
  6
ByBlock
100
AcDbLine
 10
25.59990736201496
 20
214.9862838887336
 30
0.0
 11
25.59990736201496
 21
151.7547228887336
 31
0.0
  0
CIRCLE
  5
108B0
330
1F
100
AcDbEntity
  8
Pjovimas
  6
ByBlock
100
AcDbCircle
 10
65.48578786201517
 20
164.8705023887337
 30
0.0
 40
1.5
  0
CIRCLE
  5
108B1
330
1F
100
AcDbEntity
  8
Pjovimas
  6
ByBlock
100
AcDbCircle
 10
65.48578786201517
 20
201.8705023887337
 30
0.0
 40
1.5
  0
ARC
  5
108CA
330
1F
100
AcDbEntity
  8
Pjovimas
  6
ByBlock
100
AcDbCircle
 10
65.48578786201517
 20
160.3705023887337
 30
0.0
 40
10.0
100
AcDbArc
 50
30.86676779358035
 51
149.1332322064196
  0
ARC
  5
108CB
330
1F
100
AcDbEntity
  8
Pjovimas
  6
ByBlock
100
AcDbCircle
 10
65.48578786201517
 20
206.3705023887337
 30
0.0
 40
10.0
100
AcDbArc
 50
210.8667677935804
 51
329.1332322064196
  0
ARC
  5
108CC
330
1F
100
AcDbEntity
  8
Pjovimas
  6
ByBlock
100
AcDbCircle
 10
65.48578786201517
 20
183.3705023887337
 30
0.0
 40
25.0
100
AcDbArc
 50
130.0736640149274
 51
229.926335985072
  0
ARC
  5
108CD
330
1F
100
AcDbEntity
  8
Pjovimas
  6
ByBlock
100
AcDbCircle
 10
65.48578786201517
 20
183.3705023887337
 30
0.0
 40
25.0
100
AcDbArc
 50
310.0736640149273
 51
49.92633598507202
  0
ARC
  5
108CE
330
1F
100
AcDbEntity
  8
Pjovimas
  6
ByBlock
100
AcDbCircle
 10
-52.61034854453362
 20
168.0661545626472
 30
0.0
 40
5.000000000000279
210
0.0
220
0.0
230
-1.0
100
AcDbArc
 50
210.8667677935874
 51
310.0736640149237
  0
ARC
  5
108CF
330
1F
100
AcDbEntity
  8
Pjovimas
  6
ByBlock
100
AcDbCircle
 10
52.61034854453362
 20
198.6748502148203
 30
0.0
 40
5.000000000000279
100
AcDbArc
 50
30.8667677935874
 51
130.0736640149237
  0
ARC
  5
108D0
330
1F
100
AcDbEntity
  8
Pjovimas
  6
ByBlock
100
AcDbCircle
 10
-78.36122717949672
 20
198.6748502148203
 30
0.0
 40
5.000000000000279
210
0.0
220
0.0
230
-1.0
100
AcDbArc
 50
30.8667677935874
 51
130.0736640149237
  0
ARC
  5
108D1
330
1F
100
AcDbEntity
  8
Pjovimas
  6
ByBlock
100
AcDbCircle
 10
78.36122717949672
 20
168.0661545626472
 30
0.0
 40
5.000000000000279
100
AcDbArc
 50
210.8667677935874
 51
310.0736640149237
  0
CIRCLE
  5
108D2
330
1F
100
AcDbEntity
  8
Pjovimas
  6
ByBlock
100
AcDbCircle
 10
94.10157036201497
 20
214.9983508777714
 30
0.0
 40
1.0
  0
CIRCLE
  5
108D3
330
1F
100
AcDbEntity
  8
Pjovimas
  6
ByBlock
100
AcDbCircle
 10
100.101570362015
 20
214.9983508777714
 30
0.0
 40
1.0
  0
CIRCLE
  5
108D4
330
1F
100
AcDbEntity
  8
Pjovimas
  6
ByBlock
100
AcDbCircle
 10
49.08756753307807
 20
211.7730538925139
 30
0.0
 40
1.5
  0
CIRCLE
  5
108D6
330
1F
100
AcDbEntity
  8
Pjovimas
  6
ByBlock
100
AcDbCircle
 10
49.08756903307801
 20
154.9679538849534
 30
0.0
 40
1.5
  0
CIRCLE
  5
108D7
330
1F
100
AcDbEntity
  8
Pjovimas
  6
ByBlock
100
AcDbCircle
 10
128.859337533078
 20
211.7730538925139
 30
0.0
 40
1.5
  0
CIRCLE
  5
108D9
330
1F
100
AcDbEntity
  8
Pjovimas
  6
ByBlock
100
AcDbCircle
 10
128.859339033078
 20
154.9679538849534
 30
0.0
 40
1.5
  0
CIRCLE
  5
108DA
330
1F
100
AcDbEntity
  8
Pjovimas
  6
ByBlock
100
AcDbCircle
 10
98.53895255236444
 20
169.9039056156505
 30
0.0
 40
1.5
  0
CIRCLE
  5
108DB
330
1F
100
AcDbEntity
  8
Pjovimas
  6
ByBlock
100
AcDbCircle
 10
178.3107225523644
 20
169.9039056156505
 30
0.0
 40
1.5
  0
CIRCLE
  5
108DC
330
1F
100
AcDbEntity
  8
Pjovimas
  6
ByBlock
100
AcDbCircle
 10
145.2575578620149
 20
183.3705023887337
 30
0.0
 40
28.5
  0
LINE
  5
108DF
330
1F
100
AcDbEntity
  8
Pjovimas
  6
ByBlock
100
AcDbLine
 10
102.8716773620149
 20
165.8705033887336
 30
0.0
 11
98.3716773620149
 21
165.8705033887336
 31
0.0
  0
LINE
  5
108E0
330
1F
100
AcDbEntity
  8
Pjovimas
  6
ByBlock
100
AcDbLine
 10
98.3716773620149
 20
165.8705033887336
 30
0.0
 11
98.3716773620149
 21
161.8705033887336
 31
0.0
  0
LINE
  5
108E1
330
1F
100
AcDbEntity
  8
Pjovimas
  6
ByBlock
100
AcDbLine
 10
98.3716773620149
 20
161.8705033887336
 30
0.0
 11
105.3716773620149
 21
161.8705033887336
 31
0.0
  0
LINE
  5
108E2
330
1F
100
AcDbEntity
  8
Pjovimas
  6
ByBlock
100
AcDbLine
 10
105.3716773620149
 20
163.8705033887336
 30
0.0
 11
103.3716773620149
 21
163.8705033887336
 31
0.0
  0
LINE
  5
108E3
330
1F
100
AcDbEntity
  8
Pjovimas
  6
ByBlock
100
AcDbLine
 10
103.3716773620149
 20
163.8705033887336
 30
0.0
 11
102.8716773620149
 21
165.8705033887336
 31
0.0
  0
LINE
  5
108EA
330
1F
100
AcDbEntity
  8
Pjovimas
  6
ByBlock
100
AcDbLine
 10
105.3716773620149
 20
200.8705033887336
 30
0.0
 11
105.3716773620149
 21
165.8705033887336
 31
0.0
  0
LINE
  5
108F0
330
1F
100
AcDbEntity
  8
Pjovimas
  6
ByBlock
100
AcDbLine
 10
102.8716773620149
 20
200.8705033887336
 30
0.0
 11
98.3716773620149
 21
200.8705033887336
 31
0.0
  0
LINE
  5
108F1
330
1F
100
AcDbEntity
  8
Pjovimas
  6
ByBlock
100
AcDbLine
 10
98.3716773620149
 20
200.8705033887336
 30
0.0
 11
98.3716773620149
 21
204.8705033887336
 31
0.0
  0
LINE
  5
108F2
330
1F
100
AcDbEntity
  8
Pjovimas
  6
ByBlock
100
AcDbLine
 10
98.3716773620149
 20
204.8705033887336
 30
0.0
 11
105.3716773620149
 21
204.8705033887336
 31
0.0
  0
LINE
  5
108F3
330
1F
100
AcDbEntity
  8
Pjovimas
  6
ByBlock
100
AcDbLine
 10
105.3716773620149
 20
202.8705033887336
 30
0.0
 11
103.3716773620149
 21
202.8705033887336
 31
0.0
  0
LINE
  5
108F4
330
1F
100
AcDbEntity
  8
Pjovimas
  6
ByBlock
100
AcDbLine
 10
103.3716773620149
 20
202.8705033887336
 30
0.0
 11
102.8716773620149
 21
200.8705033887336
 31
0.0
  0
LINE
  5
108F5
330
1F
100
AcDbEntity
  8
Pjovimas
  6
ByBlock
100
AcDbLine
 10
182.6434473620149
 20
200.8705033887336
 30
0.0
 11
178.1434473620149
 21
200.8705033887336
 31
0.0
  0
LINE
  5
108F6
330
1F
100
AcDbEntity
  8
Pjovimas
  6
ByBlock
100
AcDbLine
 10
178.1434473620149
 20
200.8705033887336
 30
0.0
 11
178.1434473620149
 21
204.8705033887336
 31
0.0
  0
LINE
  5
108F7
330
1F
100
AcDbEntity
  8
Pjovimas
  6
ByBlock
100
AcDbLine
 10
178.1434473620149
 20
204.8705033887336
 30
0.0
 11
185.1434473620149
 21
204.8705033887336
 31
0.0
  0
LINE
  5
108F8
330
1F
100
AcDbEntity
  8
Pjovimas
  6
ByBlock
100
AcDbLine
 10
185.1434473620149
 20
202.8705033887336
 30
0.0
 11
183.1434473620149
 21
202.8705033887336
 31
0.0
  0
LINE
  5
108F9
330
1F
100
AcDbEntity
  8
Pjovimas
  6
ByBlock
100
AcDbLine
 10
183.1434473620149
 20
202.8705033887336
 30
0.0
 11
182.6434473620149
 21
200.8705033887336
 31
0.0
  0
LINE
  5
108FA
330
1F
100
AcDbEntity
  8
Pjovimas
  6
ByBlock
100
AcDbLine
 10
182.6434473620149
 20
165.8705033887336
 30
0.0
 11
178.1434473620149
 21
165.8705033887336
 31
0.0
  0
LINE
  5
108FB
330
1F
100
AcDbEntity
  8
Pjovimas
  6
ByBlock
100
AcDbLine
 10
178.1434473620149
 20
165.8705033887336
 30
0.0
 11
178.1434473620149
 21
161.8705033887336
 31
0.0
  0
LINE
  5
108FC
330
1F
100
AcDbEntity
  8
Pjovimas
  6
ByBlock
100
AcDbLine
 10
178.1434473620149
 20
161.8705033887336
 30
0.0
 11
185.1434473620149
 21
161.8705033887336
 31
0.0
  0
LINE
  5
108FD
330
1F
100
AcDbEntity
  8
Pjovimas
  6
ByBlock
100
AcDbLine
 10
183.1434473620149
 20
163.8705033887336
 30
0.0
 11
182.6434473620149
 21
165.8705033887336
 31
0.0
  0
LINE
  5
108FE
330
1F
100
AcDbEntity
  8
Pjovimas
  6
ByBlock
100
AcDbLine
 10
185.1434473620149
 20
163.8705033887336
 30
0.0
 11
183.1434473620149
 21
163.8705033887336
 31
0.0
  0
INSERT
  5
10909
330
1F
100
AcDbEntity
  8
0
  6
ByBlock
100
AcDbBlockReference
  2
Ratukas
 10
420.8231401205087
 20
154.7287202181235
 30
0.0
 50
89.99999999999999
  0
INSERT
  5
1090A
330
1F
100
AcDbEntity
  8
0
  6
ByBlock
100
AcDbBlockReference
  2
Ratukas
 10
421.446148984171
 20
180.0198032069384
 30
0.0
 50
89.99999999999999
  0
INSERT
  5
1090B
330
1F
100
AcDbEntity
  8
0
  6
ByBlock
100
AcDbBlockReference
  2
Ratukas
 10
420.1451480076488
 20
129.6923457543012
 30
0.0
 50
89.99999999999999
  0
LINE
  5
1090C
330
1F
100
AcDbEntity
  8
Pjovimas
  6
ByBlock
100
AcDbLine
 10
262.4152173620148
 20
200.8705033887336
 30
0.0
 11
257.9152173620148
 21
200.8705033887336
 31
0.0
  0
LINE
  5
1090D
330
1F
100
AcDbEntity
  8
Pjovimas
  6
ByBlock
100
AcDbLine
 10
257.9152173620148
 20
200.8705033887336
 30
0.0
 11
257.9152173620148
 21
204.8705033887336
 31
0.0
  0
LINE
  5
1090E
330
1F
100
AcDbEntity
  8
Pjovimas
  6
ByBlock
100
AcDbLine
 10
257.9152173620148
 20
204.8705033887336
 30
0.0
 11
264.9152173620148
 21
204.8705033887336
 31
0.0
  0
LINE
  5
1090F
330
1F
100
AcDbEntity
  8
Pjovimas
  6
ByBlock
100
AcDbLine
 10
264.9152173620148
 20
202.8705033887336
 30
0.0
 11
262.9152173620148
 21
202.8705033887336
 31
0.0
  0
LINE
  5
10910
330
1F
100
AcDbEntity
  8
Pjovimas
  6
ByBlock
100
AcDbLine
 10
262.9152173620148
 20
202.8705033887336
 30
0.0
 11
262.4152173620148
 21
200.8705033887336
 31
0.0
  0
LINE
  5
10911
330
1F
100
AcDbEntity
  8
Pjovimas
  6
ByBlock
100
AcDbLine
 10
262.4152173620148
 20
165.8705033887336
 30
0.0
 11
257.9152173620148
 21
165.8705033887336
 31
0.0
  0
LINE
  5
10912
330
1F
100
AcDbEntity
  8
Pjovimas
  6
ByBlock
100
AcDbLine
 10
257.9152173620148
 20
165.8705033887336
 30
0.0
 11
257.9152173620148
 21
161.8705033887336
 31
0.0
  0
LINE
  5
10913
330
1F
100
AcDbEntity
  8
Pjovimas
  6
ByBlock
100
AcDbLine
 10
257.9152173620148
 20
161.8705033887336
 30
0.0
 11
264.9152173620148
 21
161.8705033887336
 31
0.0
  0
LINE
  5
10914
330
1F
100
AcDbEntity
  8
Pjovimas
  6
ByBlock
100
AcDbLine
 10
262.9152173620148
 20
163.8705033887336
 30
0.0
 11
262.4152173620148
 21
165.8705033887336
 31
0.0
  0
LINE
  5
10915
330
1F
100
AcDbEntity
  8
Pjovimas
  6
ByBlock
100
AcDbLine
 10
264.9152173620148
 20
163.8705033887336
 30
0.0
 11
262.9152173620148
 21
163.8705033887336
 31
0.0
  0
LINE
  5
1092D
330
1F
100
AcDbEntity
  8
Pjovimas
  6
ByBlock
100
AcDbLine
 10
187.6434383620149
 20
200.8705033887336
 30
0.0
 11
192.1434383620149
 21
200.8705033887336
 31
0.0
  0
LINE
  5
1092E
330
1F
100
AcDbEntity
  8
Pjovimas
  6
ByBlock
100
AcDbLine
 10
192.1434383620149
 20
200.8705033887336
 30
0.0
 11
192.1434383620149
 21
204.8705033887336
 31
0.0
  0
LINE
  5
1092F
330
1F
100
AcDbEntity
  8
Pjovimas
  6
ByBlock
100
AcDbLine
 10
192.1434383620149
 20
204.8705033887336
 30
0.0
 11
185.1434383620149
 21
204.8705033887336
 31
0.0
  0
LINE
  5
10930
330
1F
100
AcDbEntity
  8
Pjovimas
  6
ByBlock
100
AcDbLine
 10
185.1434383620149
 20
202.8705033887336
 30
0.0
 11
187.1434383620149
 21
202.8705033887336
 31
0.0
  0
LINE
  5
10931
330
1F
100
AcDbEntity
  8
Pjovimas
  6
ByBlock
100
AcDbLine
 10
187.1434383620149
 20
202.8705033887336
 30
0.0
 11
187.6434383620149
 21
200.8705033887336
 31
0.0
  0
LINE
  5
10932
330
1F
100
AcDbEntity
  8
Pjovimas
  6
ByBlock
100
AcDbLine
 10
187.6434383620149
 20
165.8705033887336
 30
0.0
 11
192.1434383620149
 21
165.8705033887336
 31
0.0
  0
LINE
  5
10933
330
1F
100
AcDbEntity
  8
Pjovimas
  6
ByBlock
100
AcDbLine
 10
192.1434383620149
 20
165.8705033887336
 30
0.0
 11
192.1434383620149
 21
161.8705033887336
 31
0.0
  0
LINE
  5
10934
330
1F
100
AcDbEntity
  8
Pjovimas
  6
ByBlock
100
AcDbLine
 10
192.1434383620149
 20
161.8705033887336
 30
0.0
 11
185.1434383620149
 21
161.8705033887336
 31
0.0
  0
LINE
  5
10935
330
1F
100
AcDbEntity
  8
Pjovimas
  6
ByBlock
100
AcDbLine
 10
187.1434383620149
 20
163.8705033887336
 30
0.0
 11
187.6434383620149
 21
165.8705033887336
 31
0.0
  0
LINE
  5
10936
330
1F
100
AcDbEntity
  8
Pjovimas
  6
ByBlock
100
AcDbLine
 10
185.1434383620149
 20
163.8705033887336
 30
0.0
 11
187.1434383620149
 21
163.8705033887336
 31
0.0
  0
CIRCLE
  5
10937
330
1F
100
AcDbEntity
  8
Pjovimas
  6
ByBlock
100
AcDbCircle
 10
98.53895255236444
 20
196.8371011618167
 30
0.0
 40
1.5
  0
CIRCLE
  5
10938
330
1F
100
AcDbEntity
  8
Pjovimas
  6
ByBlock
100
AcDbCircle
 10
178.3107225523644
 20
196.8371011618167
 30
0.0
 40
1.5
  0
LINE
  5
10939
330
1F
100
AcDbEntity
  8
Pjovimas
  6
ByBlock
100
AcDbLine
 10
107.8716773620149
 20
200.8705033887336
 30
0.0
 11
112.3716773620149
 21
200.8705033887336
 31
0.0
  0
LINE
  5
1093A
330
1F
100
AcDbEntity
  8
Pjovimas
  6
ByBlock
100
AcDbLine
 10
112.3716773620149
 20
200.8705033887336
 30
0.0
 11
112.3716773620149
 21
204.8705033887336
 31
0.0
  0
LINE
  5
1093B
330
1F
100
AcDbEntity
  8
Pjovimas
  6
ByBlock
100
AcDbLine
 10
112.3716773620149
 20
204.8705033887336
 30
0.0
 11
105.3716773620149
 21
204.8705033887336
 31
0.0
  0
LINE
  5
1093C
330
1F
100
AcDbEntity
  8
Pjovimas
  6
ByBlock
100
AcDbLine
 10
105.3716773620149
 20
202.8705033887336
 30
0.0
 11
107.3716773620149
 21
202.8705033887336
 31
0.0
  0
LINE
  5
1093D
330
1F
100
AcDbEntity
  8
Pjovimas
  6
ByBlock
100
AcDbLine
 10
107.3716773620149
 20
202.8705033887336
 30
0.0
 11
107.8716773620149
 21
200.8705033887336
 31
0.0
  0
LINE
  5
1093E
330
1F
100
AcDbEntity
  8
Pjovimas
  6
ByBlock
100
AcDbLine
 10
107.8716773620149
 20
165.8705033887336
 30
0.0
 11
112.3716773620149
 21
165.8705033887336
 31
0.0
  0
LINE
  5
1093F
330
1F
100
AcDbEntity
  8
Pjovimas
  6
ByBlock
100
AcDbLine
 10
112.3716773620149
 20
165.8705033887336
 30
0.0
 11
112.3716773620149
 21
161.8705033887336
 31
0.0
  0
LINE
  5
10940
330
1F
100
AcDbEntity
  8
Pjovimas
  6
ByBlock
100
AcDbLine
 10
112.3716773620149
 20
161.8705033887336
 30
0.0
 11
105.3716773620149
 21
161.8705033887336
 31
0.0
  0
LINE
  5
10941
330
1F
100
AcDbEntity
  8
Pjovimas
  6
ByBlock
100
AcDbLine
 10
105.3716773620149
 20
163.8705033887336
 30
0.0
 11
107.3716773620149
 21
163.8705033887336
 31
0.0
  0
LINE
  5
10942
330
1F
100
AcDbEntity
  8
Pjovimas
  6
ByBlock
100
AcDbLine
 10
107.3716773620149
 20
163.8705033887336
 30
0.0
 11
107.8716773620149
 21
165.8705033887336
 31
0.0
  0
LINE
  5
10943
330
1F
100
AcDbEntity
  8
Pjovimas
  6
ByBlock
100
AcDbLine
 10
28.09989836201498
 20
165.8705033887336
 30
0.0
 11
32.59989836201498
 21
165.8705033887336
 31
0.0
  0
LINE
  5
10944
330
1F
100
AcDbEntity
  8
Pjovimas
  6
ByBlock
100
AcDbLine
 10
32.59989836201498
 20
165.8705033887336
 30
0.0
 11
32.59989836201498
 21
161.8705033887336
 31
0.0
  0
LINE
  5
10945
330
1F
100
AcDbEntity
  8
Pjovimas
  6
ByBlock
100
AcDbLine
 10
32.59989836201498
 20
161.8705033887336
 30
0.0
 11
25.59989836201498
 21
161.8705033887336
 31
0.0
  0
LINE
  5
10946
330
1F
100
AcDbEntity
  8
Pjovimas
  6
ByBlock
100
AcDbLine
 10
25.59989836201498
 20
163.8705033887336
 30
0.0
 11
27.59989836201498
 21
163.8705033887336
 31
0.0
  0
LINE
  5
10947
330
1F
100
AcDbEntity
  8
Pjovimas
  6
ByBlock
100
AcDbLine
 10
27.59989836201498
 20
163.8705033887336
 30
0.0
 11
28.09989836201498
 21
165.8705033887336
 31
0.0
  0
LINE
  5
10948
330
1F
100
AcDbEntity
  8
Pjovimas
  6
ByBlock
100
AcDbLine
 10
28.09989836201498
 20
200.8705033887336
 30
0.0
 11
32.59989836201498
 21
200.8705033887336
 31
0.0
  0
LINE
  5
10949
330
1F
100
AcDbEntity
  8
Pjovimas
  6
ByBlock
100
AcDbLine
 10
32.59989836201498
 20
200.8705033887336
 30
0.0
 11
32.59989836201498
 21
204.8705033887336
 31
0.0
  0
LINE
  5
1094A
330
1F
100
AcDbEntity
  8
Pjovimas
  6
ByBlock
100
AcDbLine
 10
32.59989836201498
 20
204.8705033887336
 30
0.0
 11
25.59989836201498
 21
204.8705033887336
 31
0.0
  0
LINE
  5
1094B
330
1F
100
AcDbEntity
  8
Pjovimas
  6
ByBlock
100
AcDbLine
 10
25.59989836201498
 20
202.8705033887336
 30
0.0
 11
27.59989836201498
 21
202.8705033887336
 31
0.0
  0
LINE
  5
1094C
330
1F
100
AcDbEntity
  8
Pjovimas
  6
ByBlock
100
AcDbLine
 10
27.59989836201498
 20
202.8705033887336
 30
0.0
 11
28.09989836201498
 21
200.8705033887336
 31
0.0
  0
SPLINE
  5
1094F
330
1F
100
AcDbEntity
  8
Graviravimas
100
AcDbSpline
210
0.0
220
0.0
230
1.0
 70
  1067
 71
     3
 72
    55
 73
    51
 74
    49
 42
0.000000001
 43
0.0000000001
 44
0.0000000001
 40
0.0
 40
0.0
 40
0.0
 40
0.0
 40
0.5784250462456084
 40
0.9677357208797404
 40
1.485497538551541
 40
2.003259348584904
 40
2.392570002138611
 40
2.970994996833045
 40
3.549419713258061
 40
3.938729587077853
 40
4.456491717439676
 40
4.974253337616747
 40
5.363563875989325
 40
5.941988478165299
 40
6.520413920300727
 40
6.909724335885086
 40
7.427485900354482
 40
7.945247710387845
 40
8.334558149513756
 40
8.912983144208289
 40
9.491407860633196
 40
9.880717734452796
 40
10.39848012856898
 40
10.91624152611577
 40
11.30555150634999
 40
11.88397652932703
 40
12.46240137056447
 40
12.85171178614893
 40
13.36947360382073
 40
13.88723541385387
 40
14.27654585297986
 40
14.85497057302149
 40
15.43339526946911
 40
15.82270514328869
 40
16.3404673487484
 40
16.85822896892547
 40
17.24753950729807
 40
17.82596453027514
 40
18.40438937151258
 40
18.79369978709714
 40
19.31146160476879
 40
19.82922341480204
 40
20.21853367369243
 40
20.79695839373411
 40
21.3753830901816
 40
21.76469322253455
 40
22.28245525856791
 40
22.80021687874505
 40
23.18952713804847
 40
23.76795200996377
 40
23.76795200996377
 40
23.76795200996377
 40
23.76795200996377
 10
91.69713787657042
 20
205.2292579780685
 30
0.0
 10
91.82096540848501
 20
205.0730910934236
 30
0.0
 10
92.02813542409882
 20
204.8118156288318
 30
0.0
 10
92.56893296765597
 20
204.7301577921565
 30
0.0
 10
92.73235531051881
 20
204.2234259435388
 30
0.0
 10
92.72842229923785
 20
203.6921248081965
 30
0.0
 10
92.24727913274982
 20
203.4476403964236
 30
0.0
 10
92.0091894669181
 20
202.9614576351341
 30
0.0
 10
91.99766311969003
 20
202.4201670189362
 30
0.0
 10
92.3128875187441
 20
201.9823192354884
 30
0.0
 10
92.07301323059538
 20
201.5077483222826
 30
0.0
 10
91.69374853179282
 20
201.1350364722708
 30
0.0
 10
91.18082807826575
 20
201.3023376964177
 30
0.0
 10
90.66862850997472
 20
201.1269229733674
 30
0.0
 10
90.27774468972433
 20
200.7523189722369
 30
0.0
 10
90.19103424443689
 20
200.2198171333886
 30
0.0
 10
89.68584720013413
 20
200.0538587212182
 30
0.0
 10
89.15411928972034
 20
200.0584929052719
 30
0.0
 10
88.90972863851619
 20
200.5394813379897
 30
0.0
 10
88.42351283716283
 20
200.7776255593071
 30
0.0
 10
87.88223150324202
 20
200.7891365896535
 30
0.0
 10
87.44438186771549
 20
200.4739150969524
 30
0.0
 10
86.96981150603023
 20
200.7137884238634
 30
0.0
 10
86.59709931701636
 20
201.0930530578888
 30
0.0
 10
86.76440069324109
 20
201.605973385633
 30
0.0
 10
86.58898519273151
 20
202.1181724894526
 30
0.0
 10
86.21438169631281
 20
202.509056518537
 30
0.0
 10
85.68187985118342
 20
202.5957668637218
 30
0.0
 10
85.51592164561339
 20
203.100954121412
 30
0.0
 10
85.5205556998393
 20
203.6326821134019
 30
0.0
 10
86.0015442502945
 20
203.8770726461148
 30
0.0
 10
86.23968749246966
 20
204.3632887152568
 30
0.0
 10
86.25119955090167
 20
204.9045699048639
 30
0.0
 10
85.93597806203503
 20
205.3424194094772
 30
0.0
 10
86.17585058188382
 20
205.816990141572
 30
0.0
 10
86.5551157786443
 20
206.1897021034443
 30
0.0
 10
87.06803631047748
 20
206.0224007019546
 30
0.0
 10
87.58023563218353
 20
206.1978161789002
 30
0.0
 10
87.97111963218606
 20
206.5724196869126
 30
0.0
 10
88.05783003978146
 20
207.1049215664222
 30
0.0
 10
88.5630170201373
 20
207.2708795953652
 30
0.0
 10
89.09474594659066
 20
207.2662461855747
 30
0.0
 10
89.33913323477118
 20
206.7852556806829
 30
0.0
 10
89.82536465940412
 20
206.5471218640375
 30
0.0
 10
90.36659135438043
 20
206.5355766119497
 30
0.0
 10
90.80459538483373
 20
206.8508921462763
 30
0.0
 10
91.27846485341121
 20
206.6105921846436
 30
0.0
 10
91.65371267584388
 20
206.2328717117192
 30
0.0
 10
91.47811598178123
 20
205.7148990126313
 30
0.0
 10
91.61520035107921
 20
205.4109383039367
 30
0.0
 10
91.69713703622665
 20
205.2292579780685
 30
0.0
 11
91.69713787657042
 21
205.2292579780685
 31
0.0
 11
92.12047116231167
 21
204.8350949872795
 31
0.0
 11
92.48050526935435
 21
204.6869793461403
 31
0.0
 11
92.7019481921651
 21
204.2189618979871
 31
0.0
 11
92.63315960749003
 21
203.705789974995
 31
0.0
 11
92.33514203435504
 21
203.4552938451384
 31
0.0
 11
92.05156857099098
 21
202.9511494557389
 31
0.0
 11
92.07219509027914
 21
202.3730926252513
 31
0.0
 11
92.22204324027007
 21
202.0137770121785
 31
0.0
 11
92.04768702286549
 21
201.5262551838578
 31
0.0
 11
91.63617877530862
 21
201.2120290590351
 31
0.0
 11
91.24832116434993
 21
201.2456321676616
 31
0.0
 11
90.6913211091886
 21
201.0896643538258
 31
0.0
 11
90.29715783828499
 21
200.6663307879701
 31
0.0
 11
90.14904219714583
 21
200.3062969610421
 31
0.0
 11
89.68102502910733
 21
200.0848540382312
 31
0.0
 11
89.16785310611522
 21
200.1536426229063
 31
0.0
 11
88.91735697625847
 21
200.4516599159267
 31
0.0
 11
88.41321258685889
 21
200.7352333792908
 31
0.0
 11
87.83515575637136
 21
200.7146068600025
 31
0.0
 11
87.47584014329868
 21
200.5647587100118
 31
0.0
 11
86.98831803486325
 21
200.7391149274163
 31
0.0
 11
86.67409191004049
 21
201.1506228948585
 31
0.0
 11
86.70769501866721
 21
201.5384799455881
 31
0.0
 11
86.55172664460213
 21
202.095480280864
 31
0.0
 11
86.12839363897558
 21
202.489643271653
 31
0.0
 11
85.76835981204749
 21
202.6377589127922
 31
0.0
 11
85.54691688923674
 21
203.1057763609454
 31
0.0
 11
85.61570547391182
 21
203.6189482839372
 31
0.0
 11
85.91372276693221
 21
203.8694444137941
 31
0.0
 11
86.19729567006698
 21
204.3735888031936
 31
0.0
 11
86.17666971100812
 21
204.9516456336812
 31
0.0
 11
86.02682156101719
 21
205.3109612467538
 31
0.0
 11
86.20117721819258
 21
205.7984833551893
 31
0.0
 11
86.61268546574945
 21
206.112709480012
 31
0.0
 11
87.00054307670814
 21
206.0791063713853
 31
0.0
 11
87.55754341198406
 21
206.2350747454504
 31
0.0
 11
87.95170640277308
 21
206.658407751077
 31
0.0
 11
88.09982204391224
 21
207.0184415780052
 31
0.0
 11
88.56783949206533
 21
207.2398845008158
 31
0.0
 11
89.08101141505733
 21
207.1710959161408
 31
0.0
 11
89.3315072647996
 21
206.8730786231204
 31
0.0
 11
89.83565165419918
 21
206.5895057199857
 31
0.0
 11
90.41370848468671
 21
206.6101316790443
 31
0.0
 11
90.77302437787398
 21
206.7599798290353
 31
0.0
 11
91.2605462061947
 21
206.5856238917454
 31
0.0
 11
91.57477233101747
 21
206.1741156441885
 31
0.0
 11
91.54116922239075
 21
205.7862583133444
 31
0.0
 11
91.69713703622665
 21
205.2292579780685
 31
0.0
  0
SPLINE
  5
10952
330
1F
100
AcDbEntity
  8
Graviravimas
100
AcDbSpline
210
0.0
220
0.0
230
1.0
 70
  1067
 71
     3
 72
    55
 73
    51
 74
    49
 42
0.000000001
 43
0.0000000001
 44
0.0000000001
 40
0.0
 40
0.0
 40
0.0
 40
0.0
 40
0.5784250462456084
 40
0.9677357208797404
 40
1.485497538551541
 40
2.003259348584904
 40
2.392570002138611
 40
2.970994996833045
 40
3.549419713258061
 40
3.938729587077853
 40
4.456491717439676
 40
4.974253337616747
 40
5.363563875989325
 40
5.941988478165299
 40
6.520413920300727
 40
6.909724335885086
 40
7.427485900354482
 40
7.945247710387845
 40
8.334558149513756
 40
8.912983144208289
 40
9.491407860633196
 40
9.880717734452796
 40
10.39848012856898
 40
10.91624152611577
 40
11.30555150634999
 40
11.88397652932703
 40
12.46240137056447
 40
12.85171178614893
 40
13.36947360382073
 40
13.88723541385387
 40
14.27654585297986
 40
14.85497057302149
 40
15.43339526946911
 40
15.82270514328869
 40
16.3404673487484
 40
16.85822896892547
 40
17.24753950729807
 40
17.82596453027514
 40
18.40438937151258
 40
18.79369978709714
 40
19.31146160476879
 40
19.82922341480204
 40
20.21853367369243
 40
20.79695839373411
 40
21.3753830901816
 40
21.76469322253455
 40
22.28245525856791
 40
22.80021687874505
 40
23.18952713804847
 40
23.76795200996377
 40
23.76795200996377
 40
23.76795200996377
 40
23.76795200996377
 10
39.24302811761788
 20
171.3203629683071
 30
0.0
 10
39.36685564953248
 20
171.476529852952
 30
0.0
 10
39.57402566514629
 20
171.7378053175438
 30
0.0
 10
40.11482320870343
 20
171.8194631542191
 30
0.0
 10
40.27824555156627
 20
172.3261950028368
 30
0.0
 10
40.27431254028532
 20
172.8574961381791
 30
0.0
 10
39.7931693737973
 20
173.1019805499521
 30
0.0
 10
39.55507970796555
 20
173.5881633112415
 30
0.0
 10
39.54355336073749
 20
174.1294539274394
 30
0.0
 10
39.85877775979157
 20
174.5673017108872
 30
0.0
 10
39.61890347164285
 20
175.041872624093
 30
0.0
 10
39.23963877284028
 20
175.4145844741049
 30
0.0
 10
38.7267183193132
 20
175.2472832499579
 30
0.0
 10
38.21451875102221
 20
175.4226979730081
 30
0.0
 10
37.82363493077179
 20
175.7973019741389
 30
0.0
 10
37.73692448548438
 20
176.3298038129869
 30
0.0
 10
37.23173744118156
 20
176.4957622251575
 30
0.0
 10
36.70000953076781
 20
176.4911280411038
 30
0.0
 10
36.45561887956363
 20
176.0101396083859
 30
0.0
 10
35.96940307821029
 20
175.7719953870685
 30
0.0
 10
35.42812174428948
 20
175.760484356722
 30
0.0
 10
34.99027210876294
 20
176.0757058494233
 30
0.0
 10
34.51570174707769
 20
175.8358325225121
 30
0.0
 10
34.14298955806381
 20
175.4565678884868
 30
0.0
 10
34.31029093428855
 20
174.9436475607426
 30
0.0
 10
34.13487543377897
 20
174.4314484569231
 30
0.0
 10
33.76027193736029
 20
174.0405644278385
 30
0.0
 10
33.22777009223088
 20
173.9538540826538
 30
0.0
 10
33.06181188666084
 20
173.4486668249635
 30
0.0
 10
33.06644594088677
 20
172.9169388329737
 30
0.0
 10
33.54743449134196
 20
172.6725483002608
 30
0.0
 10
33.78557773351712
 20
172.1863322311188
 30
0.0
 10
33.79708979194913
 20
171.6450510415119
 30
0.0
 10
33.4818683030825
 20
171.2072015368984
 30
0.0
 10
33.72174082293128
 20
170.7326308048036
 30
0.0
 10
34.10100601969176
 20
170.3599188429312
 30
0.0
 10
34.61392655152494
 20
170.5272202444211
 30
0.0
 10
35.12612587323099
 20
170.3518047674754
 30
0.0
 10
35.51700987323355
 20
169.977201259463
 30
0.0
 10
35.6037202808289
 20
169.4446993799535
 30
0.0
 10
36.10890726118477
 20
169.2787413510103
 30
0.0
 10
36.64063618763812
 20
169.283374760801
 30
0.0
 10
36.88502347581863
 20
169.7643652656928
 30
0.0
 10
37.37125490045158
 20
170.002499082338
 30
0.0
 10
37.9124815954279
 20
170.0140443344259
 30
0.0
 10
38.35048562588118
 20
169.6987288000994
 30
0.0
 10
38.82435509445867
 20
169.939028761732
 30
0.0
 10
39.19960291689134
 20
170.3167492346564
 30
0.0
 10
39.0240062228287
 20
170.8347219337443
 30
0.0
 10
39.16109059212668
 20
171.1386826424389
 30
0.0
 10
39.24302727727411
 20
171.3203629683071
 30
0.0
 11
39.24302811761788
 21
171.3203629683071
 31
0.0
 11
39.66636140335913
 21
171.7145259590961
 31
0.0
 11
40.02639551040181
 21
171.8626416002353
 31
0.0
 11
40.24783843321256
 21
172.3306590483885
 31
0.0
 11
40.17904984853749
 21
172.8438309713806
 31
0.0
 11
39.8810322754025
 21
173.0943271012372
 31
0.0
 11
39.59745881203844
 21
173.5984714906367
 31
0.0
 11
39.6180853313266
 21
174.1765283211244
 31
0.0
 11
39.76793348131753
 21
174.5358439341971
 31
0.0
 11
39.59357726391295
 21
175.0233657625179
 31
0.0
 11
39.18206901635608
 21
175.3375918873405
 31
0.0
 11
38.79421140539739
 21
175.303988778714
 31
0.0
 11
38.23721135023607
 21
175.4599565925498
 31
0.0
 11
37.84304807933245
 21
175.8832901584055
 31
0.0
 11
37.69493243819329
 21
176.2433239853335
 31
0.0
 11
37.22691527015479
 21
176.4647669081444
 31
0.0
 11
36.71374334716268
 21
176.3959783234693
 31
0.0
 11
36.46324721730593
 21
176.0979610304489
 31
0.0
 11
35.95910282790635
 21
175.8143875670849
 31
0.0
 11
35.38104599741882
 21
175.8350140863731
 31
0.0
 11
35.02173038434614
 21
175.9848622363638
 31
0.0
 11
34.53420827591071
 21
175.8105060189594
 31
0.0
 11
34.21998215108795
 21
175.3989980515171
 31
0.0
 11
34.25358525971467
 21
175.0111410007876
 31
0.0
 11
34.09761688564959
 21
174.4541406655117
 31
0.0
 11
33.67428388002304
 21
174.0599776747226
 31
0.0
 11
33.31425005309495
 21
173.9118620335835
 31
0.0
 11
33.0928071302842
 21
173.4438445854303
 31
0.0
 11
33.16159571495928
 21
172.9306726624384
 31
0.0
 11
33.45961300797967
 21
172.6801765325815
 31
0.0
 11
33.74318591111444
 21
172.1760321431821
 31
0.0
 11
33.72255995205558
 21
171.5979753126944
 31
0.0
 11
33.57271180206465
 21
171.2386596996218
 31
0.0
 11
33.74706745924004
 21
170.7511375911863
 31
0.0
 11
34.15857570679691
 21
170.4369114663637
 31
0.0
 11
34.5464333177556
 21
170.4705145749904
 31
0.0
 11
35.10343365303152
 21
170.3145462009252
 31
0.0
 11
35.49759664382054
 21
169.8912131952986
 31
0.0
 11
35.6457122849597
 21
169.5311793683704
 31
0.0
 11
36.11372973311279
 21
169.3097364455598
 31
0.0
 11
36.62690165610479
 21
169.3785250302349
 31
0.0
 11
36.87739750584706
 21
169.6765423232553
 31
0.0
 11
37.38154189524664
 21
169.9601152263899
 31
0.0
 11
37.95959872573417
 21
169.9394892673313
 31
0.0
 11
38.31891461892144
 21
169.7896411173404
 31
0.0
 11
38.80643644724216
 21
169.9639970546302
 31
0.0
 11
39.12066257206493
 21
170.3755053021871
 31
0.0
 11
39.08705946343821
 21
170.7633626330312
 31
0.0
 11
39.24302727727411
 21
171.3203629683071
 31
0.0
  0
SPLINE
  5
10953
330
1F
100
AcDbEntity
  8
Graviravimas
100
AcDbSpline
210
0.0
220
0.0
230
1.0
 70
  1067
 71
     3
 72
    55
 73
    51
 74
    49
 42
0.000000001
 43
0.0000000001
 44
0.0000000001
 40
0.0
 40
0.0
 40
0.0
 40
0.0
 40
0.5784250462456084
 40
0.9677357208797404
 40
1.485497538551541
 40
2.003259348584904
 40
2.392570002138611
 40
2.970994996833045
 40
3.549419713258061
 40
3.938729587077853
 40
4.456491717439676
 40
4.974253337616747
 40
5.363563875989325
 40
5.941988478165299
 40
6.520413920300727
 40
6.909724335885086
 40
7.427485900354482
 40
7.945247710387845
 40
8.334558149513756
 40
8.912983144208289
 40
9.491407860633196
 40
9.880717734452796
 40
10.39848012856898
 40
10.91624152611577
 40
11.30555150634999
 40
11.88397652932703
 40
12.46240137056447
 40
12.85171178614893
 40
13.36947360382073
 40
13.88723541385387
 40
14.27654585297986
 40
14.85497057302149
 40
15.43339526946911
 40
15.82270514328869
 40
16.3404673487484
 40
16.85822896892547
 40
17.24753950729807
 40
17.82596453027514
 40
18.40438937151258
 40
18.79369978709714
 40
19.31146160476879
 40
19.82922341480204
 40
20.21853367369243
 40
20.79695839373411
 40
21.3753830901816
 40
21.76469322253455
 40
22.28245525856791
 40
22.80021687874505
 40
23.18952713804847
 40
23.76795200996377
 40
23.76795200996377
 40
23.76795200996377
 40
23.76795200996377
 10
91.69713787657042
 20
161.5117487993987
 30
0.0
 10
91.82096540848501
 20
161.6679156840436
 30
0.0
 10
92.02813542409882
 20
161.9291911486354
 30
0.0
 10
92.56893296765597
 20
162.0108489853107
 30
0.0
 10
92.73235531051881
 20
162.5175808339283
 30
0.0
 10
92.72842229923785
 20
163.0488819692707
 30
0.0
 10
92.24727913274982
 20
163.2933663810436
 30
0.0
 10
92.0091894669181
 20
163.7795491423331
 30
0.0
 10
91.99766311969003
 20
164.320839758531
 30
0.0
 10
92.3128875187441
 20
164.7586875419787
 30
0.0
 10
92.07301323059538
 20
165.2332584551845
 30
0.0
 10
91.69374853179282
 20
165.6059703051965
 30
0.0
 10
91.18082807826575
 20
165.4386690810494
 30
0.0
 10
90.66862850997472
 20
165.6140838040997
 30
0.0
 10
90.27774468972433
 20
165.9886878052304
 30
0.0
 10
90.19103424443689
 20
166.5211896440784
 30
0.0
 10
89.68584720013413
 20
166.687148056249
 30
0.0
 10
89.15411928972034
 20
166.6825138721954
 30
0.0
 10
88.90972863851619
 20
166.2015254394775
 30
0.0
 10
88.42351283716283
 20
165.9633812181601
 30
0.0
 10
87.88223150324202
 20
165.9518701878136
 30
0.0
 10
87.44438186771549
 20
166.2670916805149
 30
0.0
 10
86.96981150603023
 20
166.0272183536036
 30
0.0
 10
86.59709931701636
 20
165.6479537195784
 30
0.0
 10
86.76440069324109
 20
165.1350333918342
 30
0.0
 10
86.58898519273151
 20
164.6228342880146
 30
0.0
 10
86.21438169631281
 20
164.2319502589301
 30
0.0
 10
85.68187985118342
 20
164.1452399137454
 30
0.0
 10
85.51592164561339
 20
163.640052656055
 30
0.0
 10
85.5205556998393
 20
163.1083246640653
 30
0.0
 10
86.0015442502945
 20
162.8639341313524
 30
0.0
 10
86.23968749246966
 20
162.3777180622104
 30
0.0
 10
86.25119955090167
 20
161.8364368726034
 30
0.0
 10
85.93597806203503
 20
161.39858736799
 30
0.0
 10
86.17585058188382
 20
160.9240166358952
 30
0.0
 10
86.5551157786443
 20
160.5513046740228
 30
0.0
 10
87.06803631047748
 20
160.7186060755127
 30
0.0
 10
87.58023563218353
 20
160.5431905985669
 30
0.0
 10
87.97111963218606
 20
160.1685870905546
 30
0.0
 10
88.05783003978146
 20
159.6360852110451
 30
0.0
 10
88.5630170201373
 20
159.4701271821019
 30
0.0
 10
89.09474594659066
 20
159.4747605918926
 30
0.0
 10
89.33913323477118
 20
159.9557510967843
 30
0.0
 10
89.82536465940412
 20
160.1938849134296
 30
0.0
 10
90.36659135438043
 20
160.2054301655175
 30
0.0
 10
90.80459538483373
 20
159.890114631191
 30
0.0
 10
91.27846485341121
 20
160.1304145928235
 30
0.0
 10
91.65371267584388
 20
160.508135065748
 30
0.0
 10
91.47811598178123
 20
161.0261077648359
 30
0.0
 10
91.61520035107921
 20
161.3300684735304
 30
0.0
 10
91.69713703622665
 20
161.5117487993987
 30
0.0
 11
91.69713787657042
 21
161.5117487993987
 31
0.0
 11
92.12047116231167
 21
161.9059117901877
 31
0.0
 11
92.48050526935435
 21
162.0540274313269
 31
0.0
 11
92.7019481921651
 21
162.5220448794801
 31
0.0
 11
92.63315960749003
 21
163.0352168024722
 31
0.0
 11
92.33514203435504
 21
163.2857129323288
 31
0.0
 11
92.05156857099098
 21
163.7898573217283
 31
0.0
 11
92.07219509027914
 21
164.3679141522159
 31
0.0
 11
92.22204324027007
 21
164.7272297652887
 31
0.0
 11
92.04768702286549
 21
165.2147515936094
 31
0.0
 11
91.63617877530862
 21
165.5289777184321
 31
0.0
 11
91.24832116434993
 21
165.4953746098056
 31
0.0
 11
90.6913211091886
 21
165.6513424236414
 31
0.0
 11
90.29715783828499
 21
166.0746759894971
 31
0.0
 11
90.14904219714583
 21
166.4347098164251
 31
0.0
 11
89.68102502910733
 21
166.6561527392359
 31
0.0
 11
89.16785310611522
 21
166.5873641545609
 31
0.0
 11
88.91735697625847
 21
166.2893468615405
 31
0.0
 11
88.41321258685889
 21
166.0057733981764
 31
0.0
 11
87.83515575637136
 21
166.0263999174647
 31
0.0
 11
87.47584014329868
 21
166.1762480674554
 31
0.0
 11
86.98831803486325
 21
166.0018918500509
 31
0.0
 11
86.67409191004049
 21
165.5903838826086
 31
0.0
 11
86.70769501866721
 21
165.2025268318791
 31
0.0
 11
86.55172664460213
 21
164.6455264966032
 31
0.0
 11
86.12839363897558
 21
164.2513635058142
 31
0.0
 11
85.76835981204749
 21
164.103247864675
 31
0.0
 11
85.54691688923674
 21
163.6352304165218
 31
0.0
 11
85.61570547391182
 21
163.1220584935299
 31
0.0
 11
85.91372276693221
 21
162.8715623636731
 31
0.0
 11
86.19729567006698
 21
162.3674179742736
 31
0.0
 11
86.17666971100812
 21
161.789361143786
 31
0.0
 11
86.02682156101719
 21
161.4300455307134
 31
0.0
 11
86.20117721819258
 21
160.9425234222779
 31
0.0
 11
86.61268546574945
 21
160.6282972974552
 31
0.0
 11
87.00054307670814
 21
160.6619004060819
 31
0.0
 11
87.55754341198406
 21
160.5059320320167
 31
0.0
 11
87.95170640277308
 21
160.0825990263902
 31
0.0
 11
88.09982204391224
 21
159.722565199462
 31
0.0
 11
88.56783949206533
 21
159.5011222766514
 31
0.0
 11
89.08101141505733
 21
159.5699108613264
 31
0.0
 11
89.3315072647996
 21
159.8679281543468
 31
0.0
 11
89.83565165419918
 21
160.1515010574815
 31
0.0
 11
90.41370848468671
 21
160.1308750984228
 31
0.0
 11
90.77302437787398
 21
159.9810269484319
 31
0.0
 11
91.2605462061947
 21
160.1553828857218
 31
0.0
 11
91.57477233101747
 21
160.5668911332787
 31
0.0
 11
91.54116922239075
 21
160.9547484641228
 31
0.0
 11
91.69713703622665
 21
161.5117487993987
 31
0.0
  0
ARC
  5
10955
330
1F
100
AcDbEntity
  8
Pjovimas
  6
ByBlock
100
AcDbCircle
 10
304.8010924117116
 20
216.1669363887336
 30
0.0
 40
7.089455500001495
100
AcDbArc
 50
347.560309688525
 51
192.4396955239309
  0
ARC
  5
1095D
330
1F
100
AcDbEntity
  8
Pjovimas
  6
ByBlock
100
AcDbCircle
 10
345.902426018507
 20
207.1003692307888
 30
0.0
 40
35.0
100
AcDbArc
 50
167.5603096885252
 51
210.018379684922
  0
ARC
  5
1095E
330
1F
100
AcDbEntity
  8
Pjovimas
  6
ByBlock
100
AcDbCircle
 10
263.6997596297431
 20
207.1003654916142
 30
0.0
 40
35.0
100
AcDbArc
 50
330.0000058439539
 51
12.43969552393185
  0
ARC
  5
1098A
330
1F
100
AcDbEntity
  8
Pjovimas
  6
ByBlock
100
AcDbCircle
 10
304.8010978620148
 20
183.3705023887337
 30
0.0
 40
12.45973459012491
100
AcDbArc
 50
150.0000058439543
 51
30.0516219314675
  0
ARC
  5
1098C
330
1F
100
AcDbEntity
  8
Pjovimas
  6
ByBlock
100
AcDbCircle
 10
65.49957339664536
 20
106.860688719232
 30
0.0
 40
28.5
100
AcDbArc
 50
171.4238935445455
 51
188.5760842933107
  0
LINE
  5
10990
330
1F
100
AcDbEntity
  8
Pjovimas
  6
ByBlock
100
AcDbLine
 10
25.61369289664538
 20
116.1106941695352
 30
0.0
 11
25.61369289664538
 21
114.1106941695352
 31
0.0
  0
LINE
  5
10992
330
1F
100
AcDbEntity
  8
Pjovimas
  6
ByBlock
100
AcDbLine
 10
28.61369289664538
 20
111.1106941695352
 30
0.0
 11
37.31824174478061
 21
111.1106941695352
 31
0.0
  0
LINE
  5
10993
330
1F
100
AcDbEntity
  8
Pjovimas
  6
ByBlock
100
AcDbLine
 10
28.61369289664538
 20
119.1106941695352
 30
0.0
 11
39.76657189142759
 21
119.1106941695352
 31
0.0
  0
ARC
  5
10994
330
1F
100
AcDbEntity
  8
Pjovimas
  6
ByBlock
100
AcDbCircle
 10
28.61369289664538
 20
116.1106941695352
 30
0.0
 40
3.000000000000001
100
AcDbArc
 50
90.0
 51
180.0
  0
ARC
  5
10995
330
1F
100
AcDbEntity
  8
Pjovimas
  6
ByBlock
100
AcDbCircle
 10
28.61369289664538
 20
114.1106941695352
 30
0.0
 40
3.000000000000001
100
AcDbArc
 50
180.0
 51
270.0
  0
LINE
  5
10998
330
1F
100
AcDbEntity
  8
Pjovimas
  6
ByBlock
100
AcDbLine
 10
25.61369289664538
 20
97.61069416953524
 30
0.0
 11
25.61369289664538
 21
99.61069416953524
 31
0.0
  0
ARC
  5
10999
330
1F
100
AcDbEntity
  8
Pjovimas
  6
ByBlock
100
AcDbCircle
 10
28.61369289664538
 20
97.61069416953524
 30
0.0
 40
3.000000000000001
100
AcDbArc
 50
180.0
 51
270.0
  0
ARC
  5
1099A
330
1F
100
AcDbEntity
  8
Pjovimas
  6
ByBlock
100
AcDbCircle
 10
28.61369289664538
 20
99.61069416953524
 30
0.0
 40
3.000000000000001
100
AcDbArc
 50
90.0
 51
180.0
  0
LINE
  5
1099B
330
1F
100
AcDbEntity
  8
Pjovimas
  6
ByBlock
100
AcDbLine
 10
28.61369289664538
 20
94.61069416953524
 30
0.0
 11
39.76657189142759
 21
94.61069416953524
 31
0.0
  0
LINE
  5
1099C
330
1F
100
AcDbEntity
  8
Pjovimas
  6
ByBlock
100
AcDbLine
 10
28.61369289664538
 20
102.6106941695352
 30
0.0
 11
37.31824174478061
 21
102.6106941695352
 31
0.0
  0
LINE
  5
1099D
330
1F
100
AcDbEntity
  8
Pjovimas
  6
ByBlock
100
AcDbLine
 10
105.3854538966453
 20
97.61069416953524
 30
0.0
 11
105.3854538966453
 21
99.61069416953524
 31
0.0
  0
ARC
  5
1099E
330
1F
100
AcDbEntity
  8
Pjovimas
  6
ByBlock
100
AcDbCircle
 10
102.3854538966453
 20
97.61069416953524
 30
0.0
 40
3.000000000000001
100
AcDbArc
 50
270.0
 51
0.0
  0
ARC
  5
1099F
330
1F
100
AcDbEntity
  8
Pjovimas
  6
ByBlock
100
AcDbCircle
 10
102.3854538966453
 20
99.61069416953524
 30
0.0
 40
3.000000000000001
100
AcDbArc
 50
0.0
 51
90.0
  0
LINE
  5
109A0
330
1F
100
AcDbEntity
  8
Pjovimas
  6
ByBlock
100
AcDbLine
 10
102.3854538966453
 20
94.61069416953524
 30
0.0
 11
91.23257490186313
 21
94.61069416953524
 31
0.0
  0
LINE
  5
109A1
330
1F
100
AcDbEntity
  8
Pjovimas
  6
ByBlock
100
AcDbLine
 10
102.3854538966453
 20
102.6106941695352
 30
0.0
 11
93.68090504851011
 21
102.6106941695352
 31
0.0
  0
LINE
  5
109A2
330
1F
100
AcDbEntity
  8
Pjovimas
  6
ByBlock
100
AcDbLine
 10
102.3854538966453
 20
111.1106941695352
 30
0.0
 11
93.68090504851011
 21
111.1106941695352
 31
0.0
  0
LINE
  5
109A3
330
1F
100
AcDbEntity
  8
Pjovimas
  6
ByBlock
100
AcDbLine
 10
105.3854538966453
 20
116.1106941695352
 30
0.0
 11
105.3854538966453
 21
114.1106941695352
 31
0.0
  0
ARC
  5
109A4
330
1F
100
AcDbEntity
  8
Pjovimas
  6
ByBlock
100
AcDbCircle
 10
102.3854538966453
 20
116.1106941695352
 30
0.0
 40
3.000000000000001
100
AcDbArc
 50
0.0
 51
90.0
  0
ARC
  5
109A5
330
1F
100
AcDbEntity
  8
Pjovimas
  6
ByBlock
100
AcDbCircle
 10
102.3854538966453
 20
114.1106941695352
 30
0.0
 40
3.000000000000001
100
AcDbArc
 50
270.0
 51
0.0
  0
LINE
  5
109A6
330
1F
100
AcDbEntity
  8
Pjovimas
  6
ByBlock
100
AcDbLine
 10
102.3854538966453
 20
119.1106941695352
 30
0.0
 11
91.23257490186313
 21
119.1106941695352
 31
0.0
  0
ARC
  5
109A7
330
1F
100
AcDbEntity
  8
Pjovimas
  6
ByBlock
100
AcDbCircle
 10
65.49957339664536
 20
106.860688719232
 30
0.0
 40
28.5
100
AcDbArc
 50
205.4564147500425
 51
334.5435852499575
  0
ARC
  5
109A8
330
1F
100
AcDbEntity
  8
Pjovimas
  6
ByBlock
100
AcDbCircle
 10
65.49957339664536
 20
106.860688719232
 30
0.0
 40
28.5
100
AcDbArc
 50
25.45643902077049
 51
154.5435609792295
  0
ARC
  5
109A9
330
1F
100
AcDbEntity
  8
Pjovimas
  6
ByBlock
100
AcDbCircle
 10
65.49957339664536
 20
106.860688719232
 30
0.0
 40
28.5
100
AcDbArc
 50
351.4239157066893
 51
8.57610645545446
  0
LINE
  5
109AA
330
1F
100
AcDbEntity
  8
Pjovimas
  6
ByBlock
100
AcDbLine
 10
111.0254576025273
 20
116.6542864788769
 30
0.0
 11
111.0254576025273
 21
114.6542864788769
 31
0.0
  0
ARC
  5
109AB
330
1F
100
AcDbEntity
  8
Pjovimas
  6
ByBlock
100
AcDbCircle
 10
114.0254576025273
 20
116.6542864788769
 30
0.0
 40
3.000000000000001
100
AcDbArc
 50
90.0
 51
180.0
  0
ARC
  5
109AC
330
1F
100
AcDbEntity
  8
Pjovimas
  6
ByBlock
100
AcDbCircle
 10
114.0254576025273
 20
114.6542864788769
 30
0.0
 40
3.000000000000001
100
AcDbArc
 50
180.0
 51
270.0
  0
LINE
  5
109AD
330
1F
100
AcDbEntity
  8
Pjovimas
  6
ByBlock
100
AcDbLine
 10
114.0254576025273
 20
119.6542864788769
 30
0.0
 11
125.1783365973095
 21
119.6542864788769
 31
0.0
  0
LINE
  5
109AE
330
1F
100
AcDbEntity
  8
Pjovimas
  6
ByBlock
100
AcDbLine
 10
114.0254576025273
 20
111.6542864788769
 30
0.0
 11
122.7300064506625
 21
111.6542864788769
 31
0.0
  0
LINE
  5
109AF
330
1F
100
AcDbEntity
  8
Pjovimas
  6
ByBlock
100
AcDbLine
 10
111.0254576025273
 20
98.15428647887691
 30
0.0
 11
111.0254576025273
 21
100.1542864788769
 31
0.0
  0
ARC
  5
109B0
330
1F
100
AcDbEntity
  8
Pjovimas
  6
ByBlock
100
AcDbCircle
 10
114.0254576025273
 20
98.15428647887691
 30
0.0
 40
3.000000000000001
100
AcDbArc
 50
180.0
 51
270.0
  0
ARC
  5
109B1
330
1F
100
AcDbEntity
  8
Pjovimas
  6
ByBlock
100
AcDbCircle
 10
114.0254576025273
 20
100.1542864788769
 30
0.0
 40
3.000000000000001
100
AcDbArc
 50
90.0
 51
180.0
  0
LINE
  5
109B2
330
1F
100
AcDbEntity
  8
Pjovimas
  6
ByBlock
100
AcDbLine
 10
114.0254576025273
 20
95.15428647887691
 30
0.0
 11
125.1783365973095
 21
95.15428647887691
 31
0.0
  0
LINE
  5
109B3
330
1F
100
AcDbEntity
  8
Pjovimas
  6
ByBlock
100
AcDbLine
 10
114.0254576025273
 20
103.1542864788769
 30
0.0
 11
122.7300064506625
 21
103.1542864788769
 31
0.0
  0
ARC
  5
109BE
330
1F
100
AcDbEntity
  8
Pjovimas
  6
ByBlock
100
AcDbCircle
 10
150.9113381025273
 20
107.4042810285737
 30
0.0
 40
28.5
100
AcDbArc
 50
171.4238935445455
 51
188.5760842933107
  0
ARC
  5
109BF
330
1F
100
AcDbEntity
  8
Pjovimas
  6
ByBlock
100
AcDbCircle
 10
150.9113381025273
 20
107.4042810285737
 30
0.0
 40
28.5
100
AcDbArc
 50
25.45643902077049
 51
154.5435609792295
  0
ARC
  5
109C0
330
1F
100
AcDbEntity
  8
Pjovimas
  6
ByBlock
100
AcDbCircle
 10
150.9113381025262
 20
107.4042810285737
 30
0.0
 40
28.50000000000093
100
AcDbArc
 50
334.5435852499584
 51
25.45643902076961
  0
ARC
  5
109C1
330
1F
100
AcDbEntity
  8
Pjovimas
  6
ByBlock
100
AcDbCircle
 10
150.9113381025273
 20
107.4042810285737
 30
0.0
 40
28.5
100
AcDbArc
 50
205.4564147500425
 51
334.5435852499575
  0
ENDSEC
  0
SECTION
  2
OBJECTS
  0
DICTIONARY
  5
C
330
0
100
AcDbDictionary
281
     1
  3
ACAD_DETAILVIEWSTYLE
350
10053
  3
ACAD_GROUP
350
D
  3
ACAD_IMAGE_VARS
350
10047
  3
ACAD_LAYOUT
350
10021
  3
ACAD_MLINESTYLE
350
17
  3
ACAD_PLOTSETTINGS
350
100A6
  3
ACAD_SCALELIST
350
FFFF
  3
ACAD_SECTIONVIEWSTYLE
350
10054
  3
AcDbVariableDictionary
350
1004E
  3
APPDATA
350
10045
  3
DWGPROPS
350
10CC7
  0
DICTIONARY
  5
10048
330
2
100
AcDbDictionary
280
     1
281
     1
  3
ACAD_LAYERSTATES
360
10049
  3
ACLYDICTIONARY
360
1024D
  0
DICTIONARY
  5
10053
102
{ACAD_REACTORS
330
C
102
}
330
C
100
AcDbDictionary
281
     1
  0
DICTIONARY
  5
D
330
C
100
AcDbDictionary
281
     1
  0
RASTERVARIABLES
  5
10047
102
{ACAD_REACTORS
330
C
102
}
330
C
100
AcDbRasterVariables
 90
        0
 70
     1
 71
     1
 72
     0
  0
DICTIONARY
  5
10021
102
{ACAD_REACTORS
330
C
102
}
330
C
100
AcDbDictionary
281
     1
  3
Model
350
10022
  3
Sheet 1
350
10023
  0
DICTIONARY
  5
17
330
C
100
AcDbDictionary
281
     1
  3
Standard
350
10248
  0
DICTIONARY
  5
100A6
102
{ACAD_REACTORS
330
C
102
}
330
C
100
AcDbDictionary
281
     1
  0
DICTIONARY
  5
FFFF
102
{ACAD_REACTORS
330
C
102
}
330
C
100
AcDbDictionary
281
     1
  3
A0
350
10000
  3
A1
350
10001
  3
A2
350
10002
  3
A3
350
10003
  3
A4
350
10004
  3
A5
350
10005
  3
A6
350
10006
  3
A7
350
10007
  3
A8
350
10008
  3
A9
350
10009
  3
B0
350
1000A
  3
B1
350
1000B
  3
B2
350
1000C
  3
B3
350
1000D
  3
B4
350
1000E
  3
B5
350
1000F
  3
B6
350
10010
  3
B7
350
10011
  3
B8
350
10012
  3
B9
350
10013
  3
C0
350
10014
  3
C1
350
10015
  3
C2
350
10016
  3
C3
350
10017
  3
C4
350
10018
  3
C5
350
10019
  3
C6
350
1001A
  3
C7
350
1001B
  3
C8
350
1001C
  3
C9
350
1001D
  3
D0
350
1001E
  3
D1
350
1001F
  3
D2
350
10020
  0
DICTIONARY
  5
10054
102
{ACAD_REACTORS
330
C
102
}
330
C
100
AcDbDictionary
281
     1
  0
DICTIONARY
  5
1004E
102
{ACAD_REACTORS
330
C
102
}
330
C
100
AcDbDictionary
281
     1
  0
DICTIONARY
  5
10045
102
{ACAD_REACTORS
330
C
102
}
330
C
100
AcDbDictionary
281
     1
  0
XRECORD
  5
10CC7
102
{ACAD_REACTORS
330
C
102
}
330
C
100
AcDbXrecord
280
     1
  1
DWGPROPS COOKIE
  2

  3

  4

  6

  7

  8
Justas
  9

300
=
301
=
302
=
303
=
304
=
305
=
306
=
307
=
308
=
309
=
 40
0.0
 41
0.0
 42
2457700.61564206
  1

 90
        0
  0
DICTIONARY
  5
10049
102
{ACAD_REACTORS
330
10048
102
}
330
10048
100
AcDbDictionary
281
     1
  0
DICTIONARY
  5
1024D
102
{ACAD_REACTORS
330
10048
102
}
330
10048
100
AcDbDictionary
281
     1
1001
ACAD
1000
<All
  0
LAYOUT
  5
10022
102
{ACAD_REACTORS
330
10021
102
}
330
10021
100
AcDbPlotSettings
  1

  2
none_device
  4
Letter_(8.50_x_11.00_Inches)
  6

 40
6.35
 41
6.35
 42
6.35
 43
6.35
 44
215.9
 45
279.4
 46
0.0
 47
0.0
 48
0.0
 49
0.0
140
0.0
141
0.0
142
1.0
143
52.855
 70
  1712
 72
     0
 73
     0
 74
     0
  7

 75
     0
147
0.0189196859332135
148
36.06799999999968
149
558.8
100
AcDbLayout
  1
Model
 70
     1
 71
     0
 10
0.0
 20
0.0
 11
12.0
 21
9.0
 12
0.0
 22
0.0
 32
0.0
 14
25.59989836201498
 24
78.36068871923203
 34
0.0
 15
317.2608324521397
 25
223.2563918887349
 35
0.0
146
0.0
 13
0.0
 23
0.0
 33
0.0
 16
1.0
 26
0.0
 36
0.0
 17
0.0
 27
1.0
 37
0.0
 76
     0
330
1F
331
2E
  0
LAYOUT
  5
10023
102
{ACAD_REACTORS
330
10021
102
}
330
10021
100
AcDbPlotSettings
  1

  2
none_device
  4

  6

 40
0.0
 41
0.0
 42
0.0
 43
0.0
 44
0.0
 45
0.0
 46
0.0
 47
0.0
 48
0.0
 49
0.0
140
0.0
141
0.0
142
1.0
143
1.0
 70
   688
 72
     1
 73
     0
 74
     5
  7

 75
    16
147
1.0
148
0.0
149
0.0
100
AcDbLayout
  1
Sheet 1
 70
     1
 71
     1
 10
0.0
 20
0.0
 11
0.0
 21
0.0
 12
0.0
 22
0.0
 32
0.0
 14
1.000000000000000E+20
 24
1.000000000000000E+20
 34
1.000000000000000E+20
 15
-1.000000000000000E+20
 25
-1.000000000000000E+20
 35
-1.000000000000000E+20
146
0.0
 13
0.0
 23
0.0
 33
0.0
 16
1.0
 26
0.0
 36
0.0
 17
0.0
 27
1.0
 37
0.0
 76
     0
330
1B
  0
MLINESTYLE
  5
10248
102
{ACAD_REACTORS
330
17
102
}
330
17
100
AcDbMlineStyle
  2
Standard
 70
     0
  3

 62
   256
 51
90.0
 52
90.0
 71
     2
 49
0.5
 62
   256
  6
BYLAYER
 49
-0.5
 62
   256
  6
BYLAYER
  0
SCALE
  5
10000
102
{ACAD_REACTORS
330
FFFF
102
}
330
FFFF
100
AcDbScale
 70
     0
300
1:1
140
1.0
141
1.0
290
     1
  0
SCALE
  5
10001
102
{ACAD_REACTORS
330
FFFF
102
}
330
FFFF
100
AcDbScale
 70
     0
300
1:2
140
1.0
141
2.0
290
     0
  0
SCALE
  5
10002
102
{ACAD_REACTORS
330
FFFF
102
}
330
FFFF
100
AcDbScale
 70
     0
300
1:4
140
1.0
141
4.0
290
     0
  0
SCALE
  5
10003
102
{ACAD_REACTORS
330
FFFF
102
}
330
FFFF
100
AcDbScale
 70
     0
300
1:5
140
1.0
141
5.0
290
     0
  0
SCALE
  5
10004
102
{ACAD_REACTORS
330
FFFF
102
}
330
FFFF
100
AcDbScale
 70
     0
300
1:8
140
1.0
141
8.0
290
     0
  0
SCALE
  5
10005
102
{ACAD_REACTORS
330
FFFF
102
}
330
FFFF
100
AcDbScale
 70
     0
300
1:10
140
1.0
141
10.0
290
     0
  0
SCALE
  5
10006
102
{ACAD_REACTORS
330
FFFF
102
}
330
FFFF
100
AcDbScale
 70
     0
300
1:16
140
1.0
141
16.0
290
     0
  0
SCALE
  5
10007
102
{ACAD_REACTORS
330
FFFF
102
}
330
FFFF
100
AcDbScale
 70
     0
300
1:20
140
1.0
141
20.0
290
     0
  0
SCALE
  5
10008
102
{ACAD_REACTORS
330
FFFF
102
}
330
FFFF
100
AcDbScale
 70
     0
300
1:30
140
1.0
141
30.0
290
     0
  0
SCALE
  5
10009
102
{ACAD_REACTORS
330
FFFF
102
}
330
FFFF
100
AcDbScale
 70
     0
300
1:40
140
1.0
141
40.0
290
     0
  0
SCALE
  5
1000A
102
{ACAD_REACTORS
330
FFFF
102
}
330
FFFF
100
AcDbScale
 70
     0
300
1:50
140
1.0
141
50.0
290
     0
  0
SCALE
  5
1000B
102
{ACAD_REACTORS
330
FFFF
102
}
330
FFFF
100
AcDbScale
 70
     0
300
1:100
140
1.0
141
100.0
290
     0
  0
SCALE
  5
1000C
102
{ACAD_REACTORS
330
FFFF
102
}
330
FFFF
100
AcDbScale
 70
     0
300
2:1
140
2.0
141
1.0
290
     0
  0
SCALE
  5
1000D
102
{ACAD_REACTORS
330
FFFF
102
}
330
FFFF
100
AcDbScale
 70
     0
300
4:1
140
4.0
141
1.0
290
     0
  0
SCALE
  5
1000E
102
{ACAD_REACTORS
330
FFFF
102
}
330
FFFF
100
AcDbScale
 70
     0
300
8:1
140
8.0
141
1.0
290
     0
  0
SCALE
  5
1000F
102
{ACAD_REACTORS
330
FFFF
102
}
330
FFFF
100
AcDbScale
 70
     0
300
10:1
140
10.0
141
1.0
290
     0
  0
SCALE
  5
10010
102
{ACAD_REACTORS
330
FFFF
102
}
330
FFFF
100
AcDbScale
 70
     0
300
100:1
140
100.0
141
1.0
290
     0
  0
SCALE
  5
10011
102
{ACAD_REACTORS
330
FFFF
102
}
330
FFFF
100
AcDbScale
 70
     0
300
1/128" = 1'-0"
140
0.0078125
141
12.0
290
     0
  0
SCALE
  5
10012
102
{ACAD_REACTORS
330
FFFF
102
}
330
FFFF
100
AcDbScale
 70
     0
300
1/64" = 1'-0"
140
0.015625
141
12.0
290
     0
  0
SCALE
  5
10013
102
{ACAD_REACTORS
330
FFFF
102
}
330
FFFF
100
AcDbScale
 70
     0
300
1/32" = 1'-0"
140
0.03125
141
12.0
290
     0
  0
SCALE
  5
10014
102
{ACAD_REACTORS
330
FFFF
102
}
330
FFFF
100
AcDbScale
 70
     0
300
1/16" = 1'-0"
140
0.0625
141
12.0
290
     0
  0
SCALE
  5
10015
102
{ACAD_REACTORS
330
FFFF
102
}
330
FFFF
100
AcDbScale
 70
     0
300
3/32" = 1'-0"
140
0.09375
141
12.0
290
     0
  0
SCALE
  5
10016
102
{ACAD_REACTORS
330
FFFF
102
}
330
FFFF
100
AcDbScale
 70
     0
300
1/8" = 1'-0"
140
0.125
141
12.0
290
     0
  0
SCALE
  5
10017
102
{ACAD_REACTORS
330
FFFF
102
}
330
FFFF
100
AcDbScale
 70
     0
300
3/16" = 1'-0"
140
0.1875
141
12.0
290
     0
  0
SCALE
  5
10018
102
{ACAD_REACTORS
330
FFFF
102
}
330
FFFF
100
AcDbScale
 70
     0
300
1/4" = 1'-0"
140
0.25
141
12.0
290
     0
  0
SCALE
  5
10019
102
{ACAD_REACTORS
330
FFFF
102
}
330
FFFF
100
AcDbScale
 70
     0
300
3/8" = 1'-0"
140
0.375
141
12.0
290
     0
  0
SCALE
  5
1001A
102
{ACAD_REACTORS
330
FFFF
102
}
330
FFFF
100
AcDbScale
 70
     0
300
1/2" = 1'-0"
140
0.5
141
12.0
290
     0
  0
SCALE
  5
1001B
102
{ACAD_REACTORS
330
FFFF
102
}
330
FFFF
100
AcDbScale
 70
     0
300
3/4" = 1'-0"
140
0.75
141
12.0
290
     0
  0
SCALE
  5
1001C
102
{ACAD_REACTORS
330
FFFF
102
}
330
FFFF
100
AcDbScale
 70
     0
300
1" = 1'-0"
140
1.0
141
12.0
290
     0
  0
SCALE
  5
1001D
102
{ACAD_REACTORS
330
FFFF
102
}
330
FFFF
100
AcDbScale
 70
     0
300
1-1/2" = 1'-0"
140
1.5
141
12.0
290
     0
  0
SCALE
  5
1001E
102
{ACAD_REACTORS
330
FFFF
102
}
330
FFFF
100
AcDbScale
 70
     0
300
3" = 1'-0"
140
3.0
141
12.0
290
     0
  0
SCALE
  5
1001F
102
{ACAD_REACTORS
330
FFFF
102
}
330
FFFF
100
AcDbScale
 70
     0
300
6" = 1'-0"
140
6.0
141
12.0
290
     0
  0
SCALE
  5
10020
102
{ACAD_REACTORS
330
FFFF
102
}
330
FFFF
100
AcDbScale
 70
     0
300
1'-0" = 1'-0"
140
12.0
141
12.0
290
     0
  0
ENDSEC
  0
EOF
