  0
SECTION
  2
HEADER
  9
$ACADVER
  1
AC1009
  0
ENDSEC
  0
SECTION
  2
TABLES
  0
TABLE
  2
LAYER
  70
2
  0
LAYER
  2
Layer_2
  70
0
  62
1
  6
CONTINUOUS
  0
LAYER
  2
Layer_0
  70
0
  62
7
  6
CONTINUOUS
  0
ENDTAB
  0
ENDSEC
  0
SECTION
  2
ENTITIES
  0
POLYLINE
  5
90
  8
Layer_2
  62
1
  70
1
  66
1
  10
0
  20
0
  30
0
  0
VERTEX
  5
90
  8
Layer_2
  10
225
  20
145
  0
VERTEX
  5
91
  8
Layer_2
  10
75
  20
145
  0
VERTEX
  5
92
  8
Layer_2
  10
75
  20
345
  0
VERTEX
  5
93
  8
Layer_2
  10
225
  20
345
  0
SEQEND
  0
POLYLINE
  5
95
  8
Layer_0
  62
7
  70
1
  66
1
  10
0
  20
0
  30
0
  0
VERTEX
  5
95
  8
Layer_0
  10
170.78888
  20
254.52985
  0
VERTEX
  5
96
  8
Layer_0
  10
170.30859
  20
253.78802
  0
VERTEX
  5
97
  8
Layer_0
  10
169.72162
  20
253.50113
  0
VERTEX
  5
98
  8
Layer_0
  10
169.53638
  20
253.72626
  0
VERTEX
  5
99
  8
Layer_0
  10
169.48627
  20
254.34073
  0
VERTEX
  5
9a
  8
Layer_0
  10
169.71362
  20
256.30911
  0
VERTEX
  5
9b
  8
Layer_0
  10
170.24847
  20
258.54889
  0
VERTEX
  5
9c
  8
Layer_0
  10
170.93549
  20
260.20258
  0
VERTEX
  5
9d
  8
Layer_0
  10
171.39587
  20
261.14502
  0
VERTEX
  5
9e
  8
Layer_0
  10
171.5802
  20
262.03983
  0
VERTEX
  5
9f
  8
Layer_0
  10
171.7168
  20
262.79651
  0
VERTEX
  5
a0
  8
Layer_0
  10
172.0929
  20
263.36682
  0
VERTEX
  5
a1
  8
Layer_0
  10
172.49377
  20
264.01511
  0
VERTEX
  5
a2
  8
Layer_0
  10
172.60706
  20
265.13693
  0
VERTEX
  5
a3
  8
Layer_0
  10
172.89075
  20
267.40115
  0
VERTEX
  5
a4
  8
Layer_0
  10
173.2085
  20
268.17841
  0
VERTEX
  5
a5
  8
Layer_0
  10
173.61243
  20
268.61209
  0
VERTEX
  5
a6
  8
Layer_0
  10
173.99591
  20
269.05902
  0
VERTEX
  5
a7
  8
Layer_0
  10
174.25568
  20
269.77911
  0
VERTEX
  5
a8
  8
Layer_0
  10
174.95013
  20
271.90097
  0
VERTEX
  5
a9
  8
Layer_0
  10
175.95819
  20
274.32593
  0
VERTEX
  5
aa
  8
Layer_0
  10
176.44342
  20
275.54361
  0
VERTEX
  5
ab
  8
Layer_0
  10
175.77844
  20
275.54358
  0
VERTEX
  5
ac
  8
Layer_0
  10
175.25958
  20
275.43622
  0
VERTEX
  5
ad
  8
Layer_0
  10
175.26404
  20
274.94397
  0
VERTEX
  5
ae
  8
Layer_0
  10
175.15259
  20
273.97073
  0
VERTEX
  5
af
  8
Layer_0
  10
174.5636
  20
272.31635
  0
VERTEX
  5
b0
  8
Layer_0
  10
172.99786
  20
268.89352
  0
VERTEX
  5
b1
  8
Layer_0
  10
172.47729
  20
268.21747
  0
VERTEX
  5
b2
  8
Layer_0
  10
171.90619
  20
267.853
  0
VERTEX
  5
b3
  8
Layer_0
  10
171.09186
  20
267.26498
  0
VERTEX
  5
b4
  8
Layer_0
  10
171.08716
  20
267.1059
  0
VERTEX
  5
b5
  8
Layer_0
  10
171.44379
  20
267.17349
  0
VERTEX
  5
b6
  8
Layer_0
  10
171.95966
  20
267.09201
  0
VERTEX
  5
b7
  8
Layer_0
  10
170.84619
  20
264.57129
  0
VERTEX
  5
b8
  8
Layer_0
  10
169.14264
  20
261.69812
  0
VERTEX
  5
b9
  8
Layer_0
  10
168.90405
  20
261.28827
  0
VERTEX
  5
ba
  8
Layer_0
  10
169.17542
  20
260.88248
  0
VERTEX
  5
bb
  8
Layer_0
  10
169.39343
  20
260.46939
  0
VERTEX
  5
bc
  8
Layer_0
  10
168.80573
  20
260.02032
  0
VERTEX
  5
bd
  8
Layer_0
  10
167.71161
  20
258.96536
  0
VERTEX
  5
be
  8
Layer_0
  10
167.24292
  20
258.36395
  0
VERTEX
  5
bf
  8
Layer_0
  10
166.72308
  20
258.12543
  0
VERTEX
  5
c0
  8
Layer_0
  10
166.54254
  20
257.83755
  0
VERTEX
  5
c1
  8
Layer_0
  10
166.97949
  20
257.37686
  0
VERTEX
  5
c2
  8
Layer_0
  10
167.44904
  20
256.87466
  0
VERTEX
  5
c3
  8
Layer_0
  10
167.17902
  20
256.42783
  0
VERTEX
  5
c4
  8
Layer_0
  10
166.54468
  20
256.10257
  0
VERTEX
  5
c5
  8
Layer_0
  10
165.44934
  20
256.02213
  0
VERTEX
  5
c6
  8
Layer_0
  10
164.38391
  20
255.9743
  0
VERTEX
  5
c7
  8
Layer_0
  10
164.45734
  20
255.55505
  0
VERTEX
  5
c8
  8
Layer_0
  10
164.64929
  20
255.12552
  0
VERTEX
  5
c9
  8
Layer_0
  10
164.54077
  20
254.90417
  0
VERTEX
  5
ca
  8
Layer_0
  10
163.33862
  20
255.048
  0
VERTEX
  5
cb
  8
Layer_0
  10
162.44312
  20
255.3616
  0
VERTEX
  5
cc
  8
Layer_0
  10
162.79999
  20
255.73703
  0
VERTEX
  5
cd
  8
Layer_0
  10
163.25629
  20
256.27112
  0
VERTEX
  5
ce
  8
Layer_0
  10
163.37683
  20
257.21716
  0
VERTEX
  5
cf
  8
Layer_0
  10
163.50641
  20
258.18759
  0
VERTEX
  5
d0
  8
Layer_0
  10
163.88953
  20
258.91629
  0
VERTEX
  5
d1
  8
Layer_0
  10
164.40222
  20
259.52148
  0
VERTEX
  5
d2
  8
Layer_0
  10
164.8678
  20
258.97452
  0
VERTEX
  5
d3
  8
Layer_0
  10
165.35944
  20
258.57462
  0
VERTEX
  5
d4
  8
Layer_0
  10
165.95728
  20
258.77319
  0
VERTEX
  5
d5
  8
Layer_0
  10
166.58124
  20
259.1188
  0
VERTEX
  5
d6
  8
Layer_0
  10
165.87079
  20
259.1279
  0
VERTEX
  5
d7
  8
Layer_0
  10
165.16333
  20
259.31613
  0
VERTEX
  5
d8
  8
Layer_0
  10
164.80109
  20
259.83923
  0
VERTEX
  5
d9
  8
Layer_0
  10
164.79181
  20
260.66864
  0
VERTEX
  5
da
  8
Layer_0
  10
165.14349
  20
261.7757
  0
VERTEX
  5
db
  8
Layer_0
  10
169.47552
  20
272.67621
  0
VERTEX
  5
dc
  8
Layer_0
  10
172.41345
  20
281.82431
  0
VERTEX
  5
dd
  8
Layer_0
  10
173.07281
  20
284.94608
  0
VERTEX
  5
de
  8
Layer_0
  10
173.229
  20
288.23312
  0
VERTEX
  5
df
  8
Layer_0
  10
173.14191
  20
291.27701
  0
VERTEX
  5
e0
  8
Layer_0
  10
172.54144
  20
292.90308
  0
VERTEX
  5
e1
  8
Layer_0
  10
171.83649
  20
294.6391
  0
VERTEX
  5
e2
  8
Layer_0
  10
172.56805
  20
296.65125
  0
VERTEX
  5
e3
  8
Layer_0
  10
173.09601
  20
298.08508
  0
VERTEX
  5
e4
  8
Layer_0
  10
173.17383
  20
299.12189
  0
VERTEX
  5
e5
  8
Layer_0
  10
173.14966
  20
299.80225
  0
VERTEX
  5
e6
  8
Layer_0
  10
173.5318
  20
299.77551
  0
VERTEX
  5
e7
  8
Layer_0
  10
175.04095
  20
299.39944
  0
VERTEX
  5
e8
  8
Layer_0
  10
176.73047
  20
298.79025
  0
VERTEX
  5
e9
  8
Layer_0
  10
178.75317
  20
297.87924
  0
VERTEX
  5
ea
  8
Layer_0
  10
182.07001
  20
296.69308
  0
VERTEX
  5
eb
  8
Layer_0
  10
185.46704
  20
295.63724
  0
VERTEX
  5
ec
  8
Layer_0
  10
187.73041
  20
295.117
  0
VERTEX
  5
ed
  8
Layer_0
  10
189.41956
  20
294.82578
  0
VERTEX
  5
ee
  8
Layer_0
  10
190.32324
  20
294.28638
  0
VERTEX
  5
ef
  8
Layer_0
  10
190.49591
  20
293.42813
  0
VERTEX
  5
f0
  8
Layer_0
  10
189.992
  20
292.1803
  0
VERTEX
  5
f1
  8
Layer_0
  10
189.5434
  20
291.09424
  0
VERTEX
  5
f2
  8
Layer_0
  10
191.31744
  20
290.16647
  0
VERTEX
  5
f3
  8
Layer_0
  10
193.50281
  20
288.90601
  0
VERTEX
  5
f4
  8
Layer_0
  10
194.92902
  20
287.61395
  0
VERTEX
  5
f5
  8
Layer_0
  10
195.76581
  20
286.07819
  0
VERTEX
  5
f6
  8
Layer_0
  10
196.18292
  20
284.08661
  0
VERTEX
  5
f7
  8
Layer_0
  10
196.59631
  20
282.02979
  0
VERTEX
  5
f8
  8
Layer_0
  10
197.46393
  20
279.84622
  0
VERTEX
  5
f9
  8
Layer_0
  10
198.52594
  20
277.33957
  0
VERTEX
  5
fa
  8
Layer_0
  10
199.15704
  20
275.0737
  0
VERTEX
  5
fb
  8
Layer_0
  10
199.44788
  20
272.58032
  0
VERTEX
  5
fc
  8
Layer_0
  10
199.48926
  20
269.39114
  0
VERTEX
  5
fd
  8
Layer_0
  10
199.54956
  20
265.37082
  0
VERTEX
  5
fe
  8
Layer_0
  10
200.10883
  20
262.21326
  0
VERTEX
  5
ff
  8
Layer_0
  10
200.94666
  20
257.62717
  0
VERTEX
  5
100
  8
Layer_0
  10
201.25464
  20
253.24094
  0
VERTEX
  5
101
  8
Layer_0
  10
201.03552
  20
248.76508
  0
VERTEX
  5
102
  8
Layer_0
  10
200.2923
  20
243.91019
  0
VERTEX
  5
103
  8
Layer_0
  10
199.46747
  20
239.20865
  0
VERTEX
  5
104
  8
Layer_0
  10
199.08081
  20
235.54214
  0
VERTEX
  5
105
  8
Layer_0
  10
199.10492
  20
232.3978
  0
VERTEX
  5
106
  8
Layer_0
  10
199.51257
  20
229.26276
  0
VERTEX
  5
107
  8
Layer_0
  10
200.27008
  20
223.63206
  0
VERTEX
  5
108
  8
Layer_0
  10
200.66382
  20
220.88388
  0
VERTEX
  5
109
  8
Layer_0
  10
201.27594
  20
218.24864
  0
VERTEX
  5
10a
  8
Layer_0
  10
202.14209
  20
215.01724
  0
VERTEX
  5
10b
  8
Layer_0
  10
202.25732
  20
214.34937
  0
VERTEX
  5
10c
  8
Layer_0
  10
199.18347
  20
214.18408
  0
VERTEX
  5
10d
  8
Layer_0
  10
199.18329
  20
214.18402
  0
VERTEX
  5
10e
  8
Layer_0
  10
194.80383
  20
214.06262
  0
VERTEX
  5
10f
  8
Layer_0
  10
188.44452
  20
214.26698
  0
VERTEX
  5
110
  8
Layer_0
  10
183.22321
  20
214.595
  0
VERTEX
  5
111
  8
Layer_0
  10
183.34241
  20
215.32562
  0
VERTEX
  5
112
  8
Layer_0
  10
184.10693
  20
216.88118
  0
VERTEX
  5
113
  8
Layer_0
  10
187.08264
  20
221.58118
  0
VERTEX
  5
114
  8
Layer_0
  10
189.83594
  20
225.75491
  0
VERTEX
  5
115
  8
Layer_0
  10
190.39099
  20
226.84639
  0
VERTEX
  5
116
  8
Layer_0
  10
190.48364
  20
227.42052
  0
VERTEX
  5
117
  8
Layer_0
  10
190.11102
  20
227.21277
  0
VERTEX
  5
118
  8
Layer_0
  10
189.35059
  20
226.30682
  0
VERTEX
  5
119
  8
Layer_0
  10
186.12207
  20
222.58688
  0
VERTEX
  5
11a
  8
Layer_0
  10
183.12982
  20
219.87115
  0
VERTEX
  5
11b
  8
Layer_0
  10
181.96338
  20
219.32823
  0
VERTEX
  5
11c
  8
Layer_0
  10
180.66357
  20
219.14899
  0
VERTEX
  5
11d
  8
Layer_0
  10
179.11359
  20
219.33362
  0
VERTEX
  5
11e
  8
Layer_0
  10
177.19672
  20
219.88235
  0
VERTEX
  5
11f
  8
Layer_0
  10
173.25598
  20
220.79231
  0
VERTEX
  5
120
  8
Layer_0
  10
170.89648
  20
221.36783
  0
VERTEX
  5
121
  8
Layer_0
  10
170.09369
  20
221.79335
  0
VERTEX
  5
122
  8
Layer_0
  10
169.78552
  20
222.21121
  0
VERTEX
  5
123
  8
Layer_0
  10
168.33252
  20
222.5354
  0
VERTEX
  5
124
  8
Layer_0
  10
167.138
  20
222.77946
  0
VERTEX
  5
125
  8
Layer_0
  10
166.23444
  20
223.38878
  0
VERTEX
  5
126
  8
Layer_0
  10
165.46692
  20
224.5253
  0
VERTEX
  5
127
  8
Layer_0
  10
164.68042
  20
226.35101
  0
VERTEX
  5
128
  8
Layer_0
  10
163.47589
  20
229.09259
  0
VERTEX
  5
129
  8
Layer_0
  10
162.64642
  20
229.7634
  0
VERTEX
  5
12a
  8
Layer_0
  10
161.1922
  20
230.54794
  0
VERTEX
  5
12b
  8
Layer_0
  10
159.72699
  20
231.34421
  0
VERTEX
  5
12c
  8
Layer_0
  10
158.31329
  20
232.37375
  0
VERTEX
  5
12d
  8
Layer_0
  10
155.64728
  20
235.12683
  0
VERTEX
  5
12e
  8
Layer_0
  10
154.85297
  20
236.22009
  0
VERTEX
  5
12f
  8
Layer_0
  10
154.68201
  20
236.82544
  0
VERTEX
  5
130
  8
Layer_0
  10
155.17657
  20
237.05087
  0
VERTEX
  5
131
  8
Layer_0
  10
156.3786
  20
237.00427
  0
VERTEX
  5
132
  8
Layer_0
  10
158.13312
  20
236.69788
  0
VERTEX
  5
133
  8
Layer_0
  10
159.61322
  20
236.08569
  0
VERTEX
  5
134
  8
Layer_0
  10
160.96442
  20
235.08478
  0
VERTEX
  5
135
  8
Layer_0
  10
162.33246
  20
233.61212
  0
VERTEX
  5
136
  8
Layer_0
  10
163.79675
  20
232.02744
  0
VERTEX
  5
137
  8
Layer_0
  10
165.08472
  20
230.93781
  0
VERTEX
  5
138
  8
Layer_0
  10
167.21069
  20
230.02287
  0
VERTEX
  5
139
  8
Layer_0
  10
169.49426
  20
229.65631
  0
VERTEX
  5
13a
  8
Layer_0
  10
170.26215
  20
229.36884
  0
VERTEX
  5
13b
  8
Layer_0
  10
171.21204
  20
228.1942
  0
VERTEX
  5
13c
  8
Layer_0
  10
172.16351
  20
226.99094
  0
VERTEX
  5
13d
  8
Layer_0
  10
173.15692
  20
226.23747
  0
VERTEX
  5
13e
  8
Layer_0
  10
174.44904
  20
225.7999
  0
VERTEX
  5
13f
  8
Layer_0
  10
176.29694
  20
225.54431
  0
VERTEX
  5
140
  8
Layer_0
  10
180.21503
  20
224.77011
  0
VERTEX
  5
141
  8
Layer_0
  10
182.97278
  20
223.83597
  0
VERTEX
  5
142
  8
Layer_0
  10
183.43396
  20
223.82294
  0
VERTEX
  5
143
  8
Layer_0
  10
183.66034
  20
224.03183
  0
VERTEX
  5
144
  8
Layer_0
  10
183.82397
  20
224.73521
  0
VERTEX
  5
145
  8
Layer_0
  10
183.76624
  20
225.8248
  0
VERTEX
  5
146
  8
Layer_0
  10
183.12671
  20
228.09702
  0
VERTEX
  5
147
  8
Layer_0
  10
181.85571
  20
229.93784
  0
VERTEX
  5
148
  8
Layer_0
  10
179.86761
  20
231.89716
  0
VERTEX
  5
149
  8
Layer_0
  10
177.1814
  20
233.95865
  0
VERTEX
  5
14a
  8
Layer_0
  10
173.81616
  20
236.10596
  0
VERTEX
  5
14b
  8
Layer_0
  10
171.42444
  20
237.53638
  0
VERTEX
  5
14c
  8
Layer_0
  10
170.23468
  20
238.40759
  0
VERTEX
  5
14d
  8
Layer_0
  10
169.828
  20
239.14056
  0
VERTEX
  5
14e
  8
Layer_0
  10
169.78552
  20
240.15619
  0
VERTEX
  5
14f
  8
Layer_0
  10
169.93372
  20
241.50809
  0
VERTEX
  5
150
  8
Layer_0
  10
170.38904
  20
242.83383
  0
VERTEX
  5
151
  8
Layer_0
  10
171.16785
  20
244.15018
  0
VERTEX
  5
152
  8
Layer_0
  10
172.28644
  20
245.47397
  0
VERTEX
  5
153
  8
Layer_0
  10
175.60822
  20
248.21103
  0
VERTEX
  5
154
  8
Layer_0
  10
180.48486
  20
251.17938
  0
VERTEX
  5
155
  8
Layer_0
  10
184.95807
  20
253.40842
  0
VERTEX
  5
156
  8
Layer_0
  10
189.22223
  20
255.44919
  0
VERTEX
  5
157
  8
Layer_0
  10
190.7193
  20
256.48291
  0
VERTEX
  5
158
  8
Layer_0
  10
191.97552
  20
257.63544
  0
VERTEX
  5
159
  8
Layer_0
  10
193.82819
  20
259.73611
  0
VERTEX
  5
15a
  8
Layer_0
  10
195.2702
  20
261.67587
  0
VERTEX
  5
15b
  8
Layer_0
  10
196.15436
  20
263.23352
  0
VERTEX
  5
15c
  8
Layer_0
  10
196.33368
  20
264.18787
  0
VERTEX
  5
15d
  8
Layer_0
  10
196.08154
  20
264.41647
  0
VERTEX
  5
15e
  8
Layer_0
  10
195.67194
  20
264.09991
  0
VERTEX
  5
15f
  8
Layer_0
  10
194.22351
  20
261.64261
  0
VERTEX
  5
160
  8
Layer_0
  10
192.44598
  20
258.78482
  0
VERTEX
  5
161
  8
Layer_0
  10
191.6709
  20
257.91721
  0
VERTEX
  5
162
  8
Layer_0
  10
191.10669
  20
257.59885
  0
VERTEX
  5
163
  8
Layer_0
  10
190.67108
  20
257.79163
  0
VERTEX
  5
164
  8
Layer_0
  10
190.21936
  20
258.28836
  0
VERTEX
  5
165
  8
Layer_0
  10
189.6145
  20
259.7041
  0
VERTEX
  5
166
  8
Layer_0
  10
189.29395
  20
260.67508
  0
VERTEX
  5
167
  8
Layer_0
  10
188.63605
  20
259.76016
  0
VERTEX
  5
168
  8
Layer_0
  10
188.05035
  20
258.88824
  0
VERTEX
  5
169
  8
Layer_0
  10
187.34351
  20
258.48816
  0
VERTEX
  5
16a
  8
Layer_0
  10
186.27295
  20
258.50812
  0
VERTEX
  5
16b
  8
Layer_0
  10
184.59625
  20
258.89618
  0
VERTEX
  5
16c
  8
Layer_0
  10
183.9483
  20
259.15799
  0
VERTEX
  5
16d
  8
Layer_0
  10
183.77075
  20
259.41571
  0
VERTEX
  5
16e
  8
Layer_0
  10
184.42511
  20
259.51282
  0
VERTEX
  5
16f
  8
Layer_0
  10
185.66736
  20
259.52621
  0
VERTEX
  5
170
  8
Layer_0
  10
186.44861
  20
259.92639
  0
VERTEX
  5
171
  8
Layer_0
  10
185.4873
  20
260.16629
  0
VERTEX
  5
172
  8
Layer_0
  10
184.57794
  20
260.23267
  0
VERTEX
  5
173
  8
Layer_0
  10
184.1153
  20
260.43228
  0
VERTEX
  5
174
  8
Layer_0
  10
184.08594
  20
260.77988
  0
VERTEX
  5
175
  8
Layer_0
  10
184.47687
  20
261.29016
  0
VERTEX
  5
176
  8
Layer_0
  10
185.5675
  20
261.95685
  0
VERTEX
  5
177
  8
Layer_0
  10
185.86749
  20
262.0957
  0
VERTEX
  5
178
  8
Layer_0
  10
185.82568
  20
262.61734
  0
VERTEX
  5
179
  8
Layer_0
  10
185.8725
  20
263.51019
  0
VERTEX
  5
17a
  8
Layer_0
  10
186.38116
  20
264.78223
  0
VERTEX
  5
17b
  8
Layer_0
  10
188.84515
  20
268.58466
  0
VERTEX
  5
17c
  8
Layer_0
  10
191.4281
  20
272.56989
  0
VERTEX
  5
17d
  8
Layer_0
  10
192.27856
  20
274.21231
  0
VERTEX
  5
17e
  8
Layer_0
  10
192.60107
  20
275.20865
  0
VERTEX
  5
17f
  8
Layer_0
  10
192.51233
  20
275.44977
  0
VERTEX
  5
180
  8
Layer_0
  10
192.20599
  20
275.26425
  0
VERTEX
  5
181
  8
Layer_0
  10
190.69983
  20
273.38232
  0
VERTEX
  5
182
  8
Layer_0
  10
188.7356
  20
271.14758
  0
VERTEX
  5
183
  8
Layer_0
  10
187.87909
  20
270.56247
  0
VERTEX
  5
184
  8
Layer_0
  10
187.02393
  20
270.26242
  0
VERTEX
  5
185
  8
Layer_0
  10
186.27429
  20
270.11249
  0
VERTEX
  5
186
  8
Layer_0
  10
186.39081
  20
271.51755
  0
VERTEX
  5
187
  8
Layer_0
  10
186.19714
  20
273.86258
  0
VERTEX
  5
188
  8
Layer_0
  10
185.79333
  20
274.65048
  0
VERTEX
  5
189
  8
Layer_0
  10
184.95007
  20
274.72449
  0
VERTEX
  5
18a
  8
Layer_0
  10
184.06934
  20
274.45593
  0
VERTEX
  5
18b
  8
Layer_0
  10
183.41962
  20
273.4032
  0
VERTEX
  5
18c
  8
Layer_0
  10
182.85199
  20
272.45032
  0
VERTEX
  5
18d
  8
Layer_0
  10
182.35468
  20
272.28326
  0
VERTEX
  5
18e
  8
Layer_0
  10
181.92407
  20
272.05353
  0
VERTEX
  5
18f
  8
Layer_0
  10
181.68005
  20
271.31363
  0
VERTEX
  5
190
  8
Layer_0
  10
181.67145
  20
270.38565
  0
VERTEX
  5
191
  8
Layer_0
  10
181.9469
  20
269.5918
  0
VERTEX
  5
192
  8
Layer_0
  10
182.29761
  20
268.80228
  0
VERTEX
  5
193
  8
Layer_0
  10
182.18311
  20
268.16953
  0
VERTEX
  5
194
  8
Layer_0
  10
181.63812
  20
267.74911
  0
VERTEX
  5
195
  8
Layer_0
  10
180.69751
  20
267.59665
  0
VERTEX
  5
196
  8
Layer_0
  10
180.17188
  20
267.4722
  0
VERTEX
  5
197
  8
Layer_0
  10
180.03979
  20
266.97711
  0
VERTEX
  5
198
  8
Layer_0
  10
180.36023
  20
266.24811
  0
VERTEX
  5
199
  8
Layer_0
  10
180.54572
  20
265.98349
  0
VERTEX
  5
19a
  8
Layer_0
  10
180.33667
  20
265.26544
  0
VERTEX
  5
19b
  8
Layer_0
  10
179.49146
  20
262.79001
  0
VERTEX
  5
19c
  8
Layer_0
  10
178.79059
  20
261.18781
  0
VERTEX
  5
19d
  8
Layer_0
  10
178.30804
  20
261.42084
  0
VERTEX
  5
19e
  8
Layer_0
  10
177.84314
  20
262.03592
  0
VERTEX
  5
19f
  8
Layer_0
  10
177.25146
  20
263.90747
  0
VERTEX
  5
1a0
  8
Layer_0
  10
177.05817
  20
265.0578
  0
VERTEX
  5
1a1
  8
Layer_0
  10
176.927
  20
265.12161
  0
VERTEX
  5
1a2
  8
Layer_0
  10
176.72827
  20
264.93185
  0
VERTEX
  5
1a3
  8
Layer_0
  10
176.39771
  20
264.01038
  0
VERTEX
  5
1a4
  8
Layer_0
  10
176.19958
  20
262.55637
  0
VERTEX
  5
1a5
  8
Layer_0
  10
176.17841
  20
261.15021
  0
VERTEX
  5
1a6
  8
Layer_0
  10
176.37866
  20
260.37225
  0
VERTEX
  5
1a7
  8
Layer_0
  10
176.61719
  20
259.93713
  0
VERTEX
  5
1a8
  8
Layer_0
  10
176.69647
  20
259.27951
  0
VERTEX
  5
1a9
  8
Layer_0
  10
176.37787
  20
258.01538
  0
VERTEX
  5
1aa
  8
Layer_0
  10
175.82153
  20
257.65201
  0
VERTEX
  5
1ab
  8
Layer_0
  10
174.935
  20
257.41553
  0
VERTEX
  5
1ac
  8
Layer_0
  10
173.82153
  20
257.26617
  0
VERTEX
  5
1ad
  8
Layer_0
  10
174.43127
  20
256.7973
  0
VERTEX
  5
1ae
  8
Layer_0
  10
174.79114
  20
256.32813
  0
VERTEX
  5
1af
  8
Layer_0
  10
173.53412
  20
256.21283
  0
VERTEX
  5
1b0
  8
Layer_0
  10
172.64233
  20
256.03986
  0
VERTEX
  5
1b1
  8
Layer_0
  10
172.23303
  20
255.16348
  0
VERTEX
  5
1b2
  8
Layer_0
  10
171.69727
  20
253.75403
  0
VERTEX
  5
1b3
  8
Layer_0
  10
171.2066
  20
253.02969
  0
VERTEX
  5
1b4
  8
Layer_0
  10
171.02008
  20
252.95865
  0
VERTEX
  5
1b5
  8
Layer_0
  10
170.89514
  20
253.09988
  0
VERTEX
  5
1b6
  8
Layer_0
  10
170.89703
  20
254.07397
  0
VERTEX
  5
1b7
  8
Layer_0
  10
170.96899
  20
254.83023
  0
SEQEND
  0
POLYLINE
  5
1b9
  8
Layer_0
  62
7
  70
1
  66
1
  10
0
  20
0
  30
0
  0
VERTEX
  5
1b9
  8
Layer_0
  10
163.84741
  20
221.96576
  0
VERTEX
  5
1ba
  8
Layer_0
  10
162.79535
  20
222.10736
  0
VERTEX
  5
1bb
  8
Layer_0
  10
162.21631
  20
222.53412
  0
VERTEX
  5
1bc
  8
Layer_0
  10
162.1084
  20
223.2489
  0
VERTEX
  5
1bd
  8
Layer_0
  10
162.47003
  20
224.25461
  0
VERTEX
  5
1be
  8
Layer_0
  10
163.14465
  20
225.05652
  0
VERTEX
  5
1bf
  8
Layer_0
  10
163.84552
  20
225.10596
  0
VERTEX
  5
1c0
  8
Layer_0
  10
164.44562
  20
224.46098
  0
VERTEX
  5
1c1
  8
Layer_0
  10
164.81824
  20
223.17969
  0
VERTEX
  5
1c2
  8
Layer_0
  10
164.98468
  20
221.96576
  0
SEQEND
  0
POLYLINE
  5
1c4
  8
Layer_0
  62
7
  70
1
  66
1
  10
0
  20
0
  30
0
  0
VERTEX
  5
1c4
  8
Layer_0
  10
159.01062
  20
223.4343
  0
VERTEX
  5
1c5
  8
Layer_0
  10
157.737
  20
224.29428
  0
VERTEX
  5
1c6
  8
Layer_0
  10
154.32587
  20
226.60628
  0
VERTEX
  5
1c7
  8
Layer_0
  10
152.97339
  20
227.54958
  0
VERTEX
  5
1c8
  8
Layer_0
  10
152.28894
  20
228.33029
  0
VERTEX
  5
1c9
  8
Layer_0
  10
150.3808
  20
230.55765
  0
VERTEX
  5
1ca
  8
Layer_0
  10
148.76465
  20
232.41623
  0
VERTEX
  5
1cb
  8
Layer_0
  10
149.30621
  20
233.27417
  0
VERTEX
  5
1cc
  8
Layer_0
  10
149.92401
  20
233.67348
  0
VERTEX
  5
1cd
  8
Layer_0
  10
150.75891
  20
233.66789
  0
VERTEX
  5
1ce
  8
Layer_0
  10
152.07678
  20
233.28223
  0
VERTEX
  5
1cf
  8
Layer_0
  10
153.44934
  20
232.57663
  0
VERTEX
  5
1d0
  8
Layer_0
  10
156.12451
  20
230.43875
  0
VERTEX
  5
1d1
  8
Layer_0
  10
158.31708
  20
227.72046
  0
VERTEX
  5
1d2
  8
Layer_0
  10
159.0863
  20
226.28937
  0
VERTEX
  5
1d3
  8
Layer_0
  10
159.55969
  20
224.88797
  0
VERTEX
  5
1d4
  8
Layer_0
  10
159.72363
  20
223.80557
  0
VERTEX
  5
1d5
  8
Layer_0
  10
159.63831
  20
223.25394
  0
SEQEND
  0
POLYLINE
  5
1d7
  8
Layer_0
  62
7
  70
1
  66
1
  10
0
  20
0
  30
0
  0
VERTEX
  5
1d7
  8
Layer_0
  10
128.97705
  20
224.79562
  0
VERTEX
  5
1d8
  8
Layer_0
  10
129.41095
  20
225.27435
  0
VERTEX
  5
1d9
  8
Layer_0
  10
129.48395
  20
225.58783
  0
VERTEX
  5
1da
  8
Layer_0
  10
128.50464
  20
225.81107
  0
VERTEX
  5
1db
  8
Layer_0
  10
127.40424
  20
225.51892
  0
VERTEX
  5
1dc
  8
Layer_0
  10
127.23505
  20
225.15796
  0
VERTEX
  5
1dd
  8
Layer_0
  10
127.32361
  20
224.65747
  0
VERTEX
  5
1de
  8
Layer_0
  10
127.57697
  20
224.36356
  0
VERTEX
  5
1df
  8
Layer_0
  10
127.98077
  20
224.29227
  0
SEQEND
  0
POLYLINE
  5
1e1
  8
Layer_0
  62
7
  70
1
  66
1
  10
0
  20
0
  30
0
  0
VERTEX
  5
1e1
  8
Layer_0
  10
126.04987
  20
229.25073
  0
VERTEX
  5
1e2
  8
Layer_0
  10
127.44476
  20
229.91142
  0
VERTEX
  5
1e3
  8
Layer_0
  10
129.10272
  20
230.98953
  0
VERTEX
  5
1e4
  8
Layer_0
  10
134.08173
  20
234.22229
  0
VERTEX
  5
1e5
  8
Layer_0
  10
136.01575
  20
235.18542
  0
VERTEX
  5
1e6
  8
Layer_0
  10
137.01447
  20
235.39835
  0
VERTEX
  5
1e7
  8
Layer_0
  10
137.22876
  20
234.63373
  0
VERTEX
  5
1e8
  8
Layer_0
  10
137.07111
  20
234.09962
  0
VERTEX
  5
1e9
  8
Layer_0
  10
136.45972
  20
233.84775
  0
VERTEX
  5
1ea
  8
Layer_0
  10
135.72504
  20
233.49069
  0
VERTEX
  5
1eb
  8
Layer_0
  10
136.26343
  20
232.95682
  0
VERTEX
  5
1ec
  8
Layer_0
  10
136.60736
  20
232.62872
  0
VERTEX
  5
1ed
  8
Layer_0
  10
135.74591
  20
232.18719
  0
VERTEX
  5
1ee
  8
Layer_0
  10
134.98578
  20
231.7905
  0
VERTEX
  5
1ef
  8
Layer_0
  10
134.56519
  20
231.36703
  0
VERTEX
  5
1f0
  8
Layer_0
  10
134.45782
  20
230.87091
  0
VERTEX
  5
1f1
  8
Layer_0
  10
134.63727
  20
230.25626
  0
VERTEX
  5
1f2
  8
Layer_0
  10
134.93304
  20
229.60709
  0
VERTEX
  5
1f3
  8
Layer_0
  10
135.95343
  20
230.52896
  0
VERTEX
  5
1f4
  8
Layer_0
  10
137.19495
  20
231.45085
  0
VERTEX
  5
1f5
  8
Layer_0
  10
138.08868
  20
230.92169
  0
VERTEX
  5
1f6
  8
Layer_0
  10
138.53448
  20
230.5773
  0
VERTEX
  5
1f7
  8
Layer_0
  10
139.08289
  20
230.68741
  0
VERTEX
  5
1f8
  8
Layer_0
  10
142.81067
  20
233.57846
  0
VERTEX
  5
1f9
  8
Layer_0
  10
145.94476
  20
236.41776
  0
VERTEX
  5
1fa
  8
Layer_0
  10
145.49066
  20
237.19345
  0
VERTEX
  5
1fb
  8
Layer_0
  10
144.33362
  20
238.0015
  0
VERTEX
  5
1fc
  8
Layer_0
  10
142.78125
  20
238.67377
  0
VERTEX
  5
1fd
  8
Layer_0
  10
141.1413
  20
239.04211
  0
VERTEX
  5
1fe
  8
Layer_0
  10
139.42615
  20
239.03564
  0
VERTEX
  5
1ff
  8
Layer_0
  10
137.48389
  20
238.64517
  0
VERTEX
  5
200
  8
Layer_0
  10
135.13409
  20
237.81955
  0
VERTEX
  5
201
  8
Layer_0
  10
132.19635
  20
236.50763
  0
VERTEX
  5
202
  8
Layer_0
  10
128.98126
  20
234.853
  0
VERTEX
  5
203
  8
Layer_0
  10
127.71082
  20
233.77777
  0
VERTEX
  5
204
  8
Layer_0
  10
126.9057
  20
232.81926
  0
VERTEX
  5
205
  8
Layer_0
  10
126.02478
  20
232.11156
  0
VERTEX
  5
206
  8
Layer_0
  10
125.12451
  20
231.65894
  0
VERTEX
  5
207
  8
Layer_0
  10
124.26141
  20
231.46561
  0
VERTEX
  5
208
  8
Layer_0
  10
123.49188
  20
231.53587
  0
VERTEX
  5
209
  8
Layer_0
  10
122.87231
  20
231.87396
  0
VERTEX
  5
20a
  8
Layer_0
  10
122.45923
  20
232.48413
  0
VERTEX
  5
20b
  8
Layer_0
  10
122.30896
  20
233.37065
  0
VERTEX
  5
20c
  8
Layer_0
  10
122.58997
  20
234.6864
  0
VERTEX
  5
20d
  8
Layer_0
  10
123.50055
  20
235.95407
  0
VERTEX
  5
20e
  8
Layer_0
  10
125.14197
  20
237.27646
  0
VERTEX
  5
20f
  8
Layer_0
  10
127.61548
  20
238.75635
  0
VERTEX
  5
210
  8
Layer_0
  10
130.19531
  20
240.32953
  0
VERTEX
  5
211
  8
Layer_0
  10
131.36365
  20
241.50665
  0
VERTEX
  5
212
  8
Layer_0
  10
131.4884
  20
242.05792
  0
VERTEX
  5
213
  8
Layer_0
  10
131.01001
  20
242.61395
  0
VERTEX
  5
214
  8
Layer_0
  10
128.60425
  20
243.61728
  0
VERTEX
  5
215
  8
Layer_0
  10
124.09351
  20
244.81732
  0
VERTEX
  5
216
  8
Layer_0
  10
121.82678
  20
245.35117
  0
VERTEX
  5
217
  8
Layer_0
  10
120.84186
  20
245.30447
  0
VERTEX
  5
218
  8
Layer_0
  10
119.18781
  20
245.03757
  0
VERTEX
  5
219
  8
Layer_0
  10
117.9032
  20
244.85715
  0
VERTEX
  5
21a
  8
Layer_0
  10
117.89557
  20
244.65646
  0
VERTEX
  5
21b
  8
Layer_0
  10
118.26672
  20
244.40408
  0
VERTEX
  5
21c
  8
Layer_0
  10
120.01208
  20
243.81052
  0
VERTEX
  5
21d
  8
Layer_0
  10
122.87292
  20
243.20865
  0
VERTEX
  5
21e
  8
Layer_0
  10
124.92267
  20
242.79681
  0
VERTEX
  5
21f
  8
Layer_0
  10
126.22064
  20
242.34467
  0
VERTEX
  5
220
  8
Layer_0
  10
126.92181
  20
241.7728
  0
VERTEX
  5
221
  8
Layer_0
  10
127.18109
  20
241.00186
  0
VERTEX
  5
222
  8
Layer_0
  10
127.00702
  20
240.20074
  0
VERTEX
  5
223
  8
Layer_0
  10
125.77112
  20
239.31339
  0
VERTEX
  5
224
  8
Layer_0
  10
124.37714
  20
238.33304
  0
VERTEX
  5
225
  8
Layer_0
  10
123.18695
  20
237.23553
  0
VERTEX
  5
226
  8
Layer_0
  10
122.21997
  20
236.06033
  0
VERTEX
  5
227
  8
Layer_0
  10
121.49536
  20
234.84689
  0
VERTEX
  5
228
  8
Layer_0
  10
121.03259
  20
233.63458
  0
VERTEX
  5
229
  8
Layer_0
  10
120.85083
  20
232.46292
  0
VERTEX
  5
22a
  8
Layer_0
  10
120.96948
  20
231.37132
  0
VERTEX
  5
22b
  8
Layer_0
  10
121.40778
  20
230.39923
  0
VERTEX
  5
22c
  8
Layer_0
  10
122.6474
  20
229.34457
  0
VERTEX
  5
22d
  8
Layer_0
  10
124.30621
  20
228.90175
  0
SEQEND
  0
POLYLINE
  5
22f
  8
Layer_0
  62
7
  70
1
  66
1
  10
0
  20
0
  30
0
  0
VERTEX
  5
22f
  8
Layer_0
  10
163.50775
  20
235.80887
  0
VERTEX
  5
230
  8
Layer_0
  10
164.49457
  20
235.71805
  0
VERTEX
  5
231
  8
Layer_0
  10
164.61237
  20
235.23206
  0
VERTEX
  5
232
  8
Layer_0
  10
164.3714
  20
234.81149
  0
VERTEX
  5
233
  8
Layer_0
  10
163.9021
  20
234.57852
  0
VERTEX
  5
234
  8
Layer_0
  10
163.3714
  20
234.57294
  0
VERTEX
  5
235
  8
Layer_0
  10
162.94623
  20
234.83456
  0
VERTEX
  5
236
  8
Layer_0
  10
162.51764
  20
235.65512
  0
SEQEND
  0
POLYLINE
  5
238
  8
Layer_0
  62
7
  70
1
  66
1
  10
0
  20
0
  30
0
  0
VERTEX
  5
238
  8
Layer_0
  10
148.23059
  20
238.33243
  0
VERTEX
  5
239
  8
Layer_0
  10
148.23297
  20
238.90811
  0
VERTEX
  5
23a
  8
Layer_0
  10
147.44946
  20
239.80646
  0
VERTEX
  5
23b
  8
Layer_0
  10
146.22919
  20
241.24023
  0
VERTEX
  5
23c
  8
Layer_0
  10
145.68842
  20
242.33313
  0
VERTEX
  5
23d
  8
Layer_0
  10
146.58569
  20
242.47403
  0
VERTEX
  5
23e
  8
Layer_0
  10
147.32452
  20
242.36642
  0
VERTEX
  5
23f
  8
Layer_0
  10
147.48297
  20
241.86453
  0
VERTEX
  5
240
  8
Layer_0
  10
147.59271
  20
241.31348
  0
VERTEX
  5
241
  8
Layer_0
  10
147.90247
  20
240.9325
  0
VERTEX
  5
242
  8
Layer_0
  10
148.38269
  20
240.74289
  0
VERTEX
  5
243
  8
Layer_0
  10
149.00397
  20
240.76587
  0
VERTEX
  5
244
  8
Layer_0
  10
149.63379
  20
240.77945
  0
VERTEX
  5
245
  8
Layer_0
  10
149.61597
  20
240.06131
  0
VERTEX
  5
246
  8
Layer_0
  10
149.74475
  20
239.06674
  0
VERTEX
  5
247
  8
Layer_0
  10
149.99951
  20
239.03711
  0
VERTEX
  5
248
  8
Layer_0
  10
150.30194
  20
239.39615
  0
VERTEX
  5
249
  8
Layer_0
  10
150.4234
  20
240.72501
  0
VERTEX
  5
24a
  8
Layer_0
  10
149.94189
  20
242.65317
  0
VERTEX
  5
24b
  8
Layer_0
  10
149.00964
  20
244.74768
  0
VERTEX
  5
24c
  8
Layer_0
  10
147.77881
  20
246.57571
  0
VERTEX
  5
24d
  8
Layer_0
  10
147.07062
  20
247.24799
  0
VERTEX
  5
24e
  8
Layer_0
  10
146.55835
  20
247.19946
  0
VERTEX
  5
24f
  8
Layer_0
  10
146.04156
  20
246.80267
  0
VERTEX
  5
250
  8
Layer_0
  10
145.81305
  20
246.39075
  0
VERTEX
  5
251
  8
Layer_0
  10
145.86487
  20
245.92453
  0
VERTEX
  5
252
  8
Layer_0
  10
146.18921
  20
245.3649
  0
VERTEX
  5
253
  8
Layer_0
  10
146.59888
  20
244.63205
  0
VERTEX
  5
254
  8
Layer_0
  10
146.47559
  20
244.04593
  0
VERTEX
  5
255
  8
Layer_0
  10
145.66101
  20
243.39523
  0
VERTEX
  5
256
  8
Layer_0
  10
144.25879
  20
243.29053
  0
VERTEX
  5
257
  8
Layer_0
  10
143.65009
  20
243.25275
  0
VERTEX
  5
258
  8
Layer_0
  10
143.57593
  20
242.76419
  0
VERTEX
  5
259
  8
Layer_0
  10
144.22369
  20
241.00299
  0
VERTEX
  5
25a
  8
Layer_0
  10
145.69965
  20
239.08008
  0
VERTEX
  5
25b
  8
Layer_0
  10
146.56165
  20
238.30426
  0
VERTEX
  5
25c
  8
Layer_0
  10
147.27283
  20
237.92044
  0
VERTEX
  5
25d
  8
Layer_0
  10
147.83014
  20
237.92957
  0
SEQEND
  0
POLYLINE
  5
25f
  8
Layer_0
  62
7
  70
1
  66
1
  10
0
  20
0
  30
0
  0
VERTEX
  5
25f
  8
Layer_0
  10
133.43286
  20
241.44595
  0
VERTEX
  5
260
  8
Layer_0
  10
132.97388
  20
241.02237
  0
VERTEX
  5
261
  8
Layer_0
  10
132.53564
  20
241.30771
  0
VERTEX
  5
262
  8
Layer_0
  10
132.11444
  20
242.20892
  0
VERTEX
  5
263
  8
Layer_0
  10
132.17218
  20
242.57843
  0
VERTEX
  5
264
  8
Layer_0
  10
132.42218
  20
242.7269
  0
VERTEX
  5
265
  8
Layer_0
  10
133.38214
  20
242.54391
  0
VERTEX
  5
266
  8
Layer_0
  10
133.89618
  20
242.21622
  0
SEQEND
  0
POLYLINE
  5
268
  8
Layer_0
  62
7
  70
1
  66
1
  10
0
  20
0
  30
0
  0
VERTEX
  5
268
  8
Layer_0
  10
115.98932
  20
244.52487
  0
VERTEX
  5
269
  8
Layer_0
  10
115.07141
  20
244.66342
  0
VERTEX
  5
26a
  8
Layer_0
  10
114.6413
  20
245.40396
  0
VERTEX
  5
26b
  8
Layer_0
  10
113.97644
  20
246.31305
  0
VERTEX
  5
26c
  8
Layer_0
  10
112.67255
  20
246.5722
  0
VERTEX
  5
26d
  8
Layer_0
  10
111.97314
  20
246.85239
  0
VERTEX
  5
26e
  8
Layer_0
  10
111.10925
  20
247.53705
  0
VERTEX
  5
26f
  8
Layer_0
  10
109.77371
  20
248.79196
  0
VERTEX
  5
270
  8
Layer_0
  10
108.58911
  20
250.01984
  0
VERTEX
  5
271
  8
Layer_0
  10
107.9993
  20
251.07712
  0
VERTEX
  5
272
  8
Layer_0
  10
108.01639
  20
252.34482
  0
VERTEX
  5
273
  8
Layer_0
  10
108.19128
  20
252.63602
  0
VERTEX
  5
274
  8
Layer_0
  10
108.48572
  20
252.72821
  0
VERTEX
  5
275
  8
Layer_0
  10
109.19308
  20
252.41281
  0
VERTEX
  5
276
  8
Layer_0
  10
109.71936
  20
251.32532
  0
VERTEX
  5
277
  8
Layer_0
  10
110.0636
  20
250.72278
  0
VERTEX
  5
278
  8
Layer_0
  10
110.58698
  20
250.41013
  0
VERTEX
  5
279
  8
Layer_0
  10
111.08691
  20
250.11676
  0
VERTEX
  5
27a
  8
Layer_0
  10
111.15375
  20
249.32529
  0
VERTEX
  5
27b
  8
Layer_0
  10
111.09869
  20
248.39362
  0
VERTEX
  5
27c
  8
Layer_0
  10
112.66144
  20
248.2168
  0
VERTEX
  5
27d
  8
Layer_0
  10
113.92676
  20
247.97754
  0
VERTEX
  5
27e
  8
Layer_0
  10
114.34937
  20
247.5614
  0
VERTEX
  5
27f
  8
Layer_0
  10
114.61395
  20
247.17917
  0
VERTEX
  5
280
  8
Layer_0
  10
115.07428
  20
246.93228
  0
VERTEX
  5
281
  8
Layer_0
  10
116.00433
  20
246.16672
  0
VERTEX
  5
282
  8
Layer_0
  10
116.92999
  20
244.71713
  0
SEQEND
  0
POLYLINE
  5
284
  8
Layer_0
  62
7
  70
1
  66
1
  10
0
  20
0
  30
0
  0
VERTEX
  5
284
  8
Layer_0
  10
139.28131
  20
249.31842
  0
VERTEX
  5
285
  8
Layer_0
  10
139.18201
  20
248.53882
  0
VERTEX
  5
286
  8
Layer_0
  10
139.40118
  20
247.62949
  0
VERTEX
  5
287
  8
Layer_0
  10
139.88898
  20
246.82541
  0
VERTEX
  5
288
  8
Layer_0
  10
140.47504
  20
246.33221
  0
VERTEX
  5
289
  8
Layer_0
  10
140.98938
  20
246.35544
  0
VERTEX
  5
28a
  8
Layer_0
  10
141.33044
  20
247.10468
  0
VERTEX
  5
28b
  8
Layer_0
  10
141.04791
  20
247.74545
  0
VERTEX
  5
28c
  8
Layer_0
  10
140.39655
  20
248.8028
  0
VERTEX
  5
28d
  8
Layer_0
  10
139.98309
  20
249.47095
  0
VERTEX
  5
28e
  8
Layer_0
  10
139.57983
  20
249.63599
  0
SEQEND
  0
POLYLINE
  5
290
  8
Layer_0
  62
7
  70
1
  66
1
  10
0
  20
0
  30
0
  0
VERTEX
  5
290
  8
Layer_0
  10
141.58679
  20
250.29285
  0
VERTEX
  5
291
  8
Layer_0
  10
142.29175
  20
249.97238
  0
VERTEX
  5
292
  8
Layer_0
  10
142.1665
  20
249.73291
  0
VERTEX
  5
293
  8
Layer_0
  10
141.58679
  20
249.65195
  0
VERTEX
  5
294
  8
Layer_0
  10
141.00708
  20
249.73291
  0
VERTEX
  5
295
  8
Layer_0
  10
140.88177
  20
249.97238
  0
SEQEND
  0
POLYLINE
  5
297
  8
Layer_0
  62
7
  70
1
  66
1
  10
0
  20
0
  30
0
  0
VERTEX
  5
297
  8
Layer_0
  10
144.7926
  20
252.173
  0
VERTEX
  5
298
  8
Layer_0
  10
144.36896
  20
252.98218
  0
VERTEX
  5
299
  8
Layer_0
  10
143.58807
  20
253.23697
  0
VERTEX
  5
29a
  8
Layer_0
  10
142.78473
  20
252.69388
  0
VERTEX
  5
29b
  8
Layer_0
  10
142.35583
  20
251.66711
  0
VERTEX
  5
29c
  8
Layer_0
  10
142.45532
  20
251.25534
  0
VERTEX
  5
29d
  8
Layer_0
  10
142.78845
  20
251.06653
  0
VERTEX
  5
29e
  8
Layer_0
  10
144.36426
  20
251.32208
  0
VERTEX
  5
29f
  8
Layer_0
  10
144.81805
  20
251.58997
  0
SEQEND
  0
POLYLINE
  5
2a1
  8
Layer_0
  62
7
  70
1
  66
1
  10
0
  20
0
  30
0
  0
VERTEX
  5
2a1
  8
Layer_0
  10
120.66394
  20
252.94589
  0
VERTEX
  5
2a2
  8
Layer_0
  10
116.64545
  20
256.51331
  0
VERTEX
  5
2a3
  8
Layer_0
  10
113.41907
  20
260.18359
  0
VERTEX
  5
2a4
  8
Layer_0
  10
112.50574
  20
261.28625
  0
VERTEX
  5
2a5
  8
Layer_0
  10
111.7113
  20
261.7019
  0
VERTEX
  5
2a6
  8
Layer_0
  10
111.05853
  20
262.00778
  0
VERTEX
  5
2a7
  8
Layer_0
  10
110.75641
  20
262.98367
  0
VERTEX
  5
2a8
  8
Layer_0
  10
110.50555
  20
268.08145
  0
VERTEX
  5
2a9
  8
Layer_0
  10
110.78149
  20
272.6597
  0
VERTEX
  5
2aa
  8
Layer_0
  10
111.08325
  20
273.37253
  0
VERTEX
  5
2ab
  8
Layer_0
  10
111.42548
  20
273.71356
  0
VERTEX
  5
2ac
  8
Layer_0
  10
111.74524
  20
273.65585
  0
VERTEX
  5
2ad
  8
Layer_0
  10
111.97937
  20
273.17239
  0
VERTEX
  5
2ae
  8
Layer_0
  10
112.18213
  20
269.13483
  0
VERTEX
  5
2af
  8
Layer_0
  10
112.32581
  20
266.20676
  0
VERTEX
  5
2b0
  8
Layer_0
  10
112.69672
  20
264.78522
  0
VERTEX
  5
2b1
  8
Layer_0
  10
112.98083
  20
263.96259
  0
VERTEX
  5
2b2
  8
Layer_0
  10
113.00446
  20
263.24335
  0
VERTEX
  5
2b3
  8
Layer_0
  10
113.0694
  20
262.75473
  0
VERTEX
  5
2b4
  8
Layer_0
  10
113.60736
  20
261.95038
  0
VERTEX
  5
2b5
  8
Layer_0
  10
117.03436
  20
258.23605
  0
VERTEX
  5
2b6
  8
Layer_0
  10
122.07129
  20
252.78046
  0
VERTEX
  5
2b7
  8
Layer_0
  10
122.80975
  20
251.55405
  0
SEQEND
  0
POLYLINE
  5
2b9
  8
Layer_0
  62
7
  70
1
  66
1
  10
0
  20
0
  30
0
  0
VERTEX
  5
2b9
  8
Layer_0
  10
110.80212
  20
260.45447
  0
VERTEX
  5
2ba
  8
Layer_0
  10
110.13638
  20
259.84198
  0
VERTEX
  5
2bb
  8
Layer_0
  10
109.07782
  20
258.47452
  0
VERTEX
  5
2bc
  8
Layer_0
  10
108.7634
  20
257.51401
  0
VERTEX
  5
2bd
  8
Layer_0
  10
108.88129
  20
257.23788
  0
VERTEX
  5
2be
  8
Layer_0
  10
109.18057
  20
257.12534
  0
VERTEX
  5
2bf
  8
Layer_0
  10
110.31683
  20
257.47336
  0
VERTEX
  5
2c0
  8
Layer_0
  10
111.30286
  20
258.3537
  0
VERTEX
  5
2c1
  8
Layer_0
  10
111.59351
  20
259.76102
  0
VERTEX
  5
2c2
  8
Layer_0
  10
111.51178
  20
260.41507
  0
VERTEX
  5
2c3
  8
Layer_0
  10
111.25427
  20
260.64584
  0
SEQEND
  0
POLYLINE
  5
2c5
  8
Layer_0
  62
7
  70
1
  66
1
  10
0
  20
0
  30
0
  0
VERTEX
  5
2c5
  8
Layer_0
  10
115.93707
  20
265.79883
  0
VERTEX
  5
2c6
  8
Layer_0
  10
115.00171
  20
267.57635
  0
VERTEX
  5
2c7
  8
Layer_0
  10
114.16559
  20
269.58636
  0
VERTEX
  5
2c8
  8
Layer_0
  10
113.79321
  20
271.0495
  0
VERTEX
  5
2c9
  8
Layer_0
  10
113.87115
  20
271.85693
  0
VERTEX
  5
2ca
  8
Layer_0
  10
114.18994
  20
272.15179
  0
VERTEX
  5
2cb
  8
Layer_0
  10
114.55804
  20
271.93329
  0
VERTEX
  5
2cc
  8
Layer_0
  10
114.78265
  20
270.83414
  0
VERTEX
  5
2cd
  8
Layer_0
  10
115.0672
  20
269.60864
  0
VERTEX
  5
2ce
  8
Layer_0
  10
115.58289
  20
268.75729
  0
VERTEX
  5
2cf
  8
Layer_0
  10
116.21692
  20
267.51935
  0
VERTEX
  5
2d0
  8
Layer_0
  10
116.59235
  20
266.31488
  0
VERTEX
  5
2d1
  8
Layer_0
  10
116.96783
  20
265.35355
  0
VERTEX
  5
2d2
  8
Layer_0
  10
116.60718
  20
265.03311
  0
SEQEND
  0
POLYLINE
  5
2d4
  8
Layer_0
  62
7
  70
1
  66
1
  10
0
  20
0
  30
0
  0
VERTEX
  5
2d4
  8
Layer_0
  10
114.11383
  20
275.45541
  0
VERTEX
  5
2d5
  8
Layer_0
  10
114.31183
  20
277.52515
  0
VERTEX
  5
2d6
  8
Layer_0
  10
113.92664
  20
277.51129
  0
VERTEX
  5
2d7
  8
Layer_0
  10
113.33813
  20
277.1665
  0
VERTEX
  5
2d8
  8
Layer_0
  10
112.46082
  20
276.15665
  0
VERTEX
  5
2d9
  8
Layer_0
  10
112.41907
  20
275.33469
  0
VERTEX
  5
2da
  8
Layer_0
  10
112.6048
  20
274.46411
  0
VERTEX
  5
2db
  8
Layer_0
  10
112.94141
  20
273.77383
  0
VERTEX
  5
2dc
  8
Layer_0
  10
113.35229
  20
273.49283
  0
VERTEX
  5
2dd
  8
Layer_0
  10
113.77917
  20
273.87534
  0
SEQEND
  0
POLYLINE
  5
2df
  8
Layer_0
  62
7
  70
1
  66
1
  10
0
  20
0
  30
0
  0
VERTEX
  5
2df
  8
Layer_0
  10
120.96649
  20
288.16232
  0
VERTEX
  5
2e0
  8
Layer_0
  10
121.3349
  20
287.3176
  0
VERTEX
  5
2e1
  8
Layer_0
  10
121.16895
  20
286.92761
  0
VERTEX
  5
2e2
  8
Layer_0
  10
120.54901
  20
286.82321
  0
VERTEX
  5
2e3
  8
Layer_0
  10
119.30463
  20
287.06854
  0
VERTEX
  5
2e4
  8
Layer_0
  10
118.79077
  20
287.10626
  0
VERTEX
  5
2e5
  8
Layer_0
  10
118.11993
  20
286.55585
  0
VERTEX
  5
2e6
  8
Layer_0
  10
117.26282
  20
285.84146
  0
VERTEX
  5
2e7
  8
Layer_0
  10
117.03796
  20
285.91141
  0
VERTEX
  5
2e8
  8
Layer_0
  10
116.86047
  20
286.24417
  0
VERTEX
  5
2e9
  8
Layer_0
  10
116.87903
  20
286.6972
  0
VERTEX
  5
2ea
  8
Layer_0
  10
117.24036
  20
287.12479
  0
VERTEX
  5
2eb
  8
Layer_0
  10
118.75201
  20
287.71716
  0
VERTEX
  5
2ec
  8
Layer_0
  10
119.50269
  20
287.9444
  0
VERTEX
  5
2ed
  8
Layer_0
  10
119.89685
  20
288.25229
  0
VERTEX
  5
2ee
  8
Layer_0
  10
120.28314
  20
288.61768
  0
SEQEND
  0
POLYLINE
  5
2f0
  8
Layer_0
  62
7
  70
1
  66
1
  10
0
  20
0
  30
0
  0
VERTEX
  5
2f0
  8
Layer_0
  10
166.86365
  20
291.73508
  0
VERTEX
  5
2f1
  8
Layer_0
  10
168.35022
  20
294.64996
  0
VERTEX
  5
2f2
  8
Layer_0
  10
169.01666
  20
296.9548
  0
VERTEX
  5
2f3
  8
Layer_0
  10
168.90686
  20
297.70233
  0
VERTEX
  5
2f4
  8
Layer_0
  10
168.56683
  20
298.21896
  0
VERTEX
  5
2f5
  8
Layer_0
  10
167.98065
  20
298.51871
  0
VERTEX
  5
2f6
  8
Layer_0
  10
167.13263
  20
298.61551
  0
VERTEX
  5
2f7
  8
Layer_0
  10
165.35559
  20
298.20917
  0
VERTEX
  5
2f8
  8
Layer_0
  10
163.17731
  20
297.20941
  0
VERTEX
  5
2f9
  8
Layer_0
  10
161.20123
  20
295.94513
  0
VERTEX
  5
2fa
  8
Layer_0
  10
160.03094
  20
294.74524
  0
VERTEX
  5
2fb
  8
Layer_0
  10
160.01904
  20
294.27243
  0
VERTEX
  5
2fc
  8
Layer_0
  10
160.6228
  20
294.24908
  0
VERTEX
  5
2fd
  8
Layer_0
  10
161.65961
  20
294.63486
  0
VERTEX
  5
2fe
  8
Layer_0
  10
162.94702
  20
295.38947
  0
VERTEX
  5
2ff
  8
Layer_0
  10
165.52057
  20
296.97491
  0
VERTEX
  5
300
  8
Layer_0
  10
166.28406
  20
297.23636
  0
VERTEX
  5
301
  8
Layer_0
  10
166.8653
  20
297.22156
  0
VERTEX
  5
302
  8
Layer_0
  10
167.35187
  20
296.90851
  0
VERTEX
  5
303
  8
Layer_0
  10
167.44928
  20
296.27817
  0
VERTEX
  5
304
  8
Layer_0
  10
166.45319
  20
293.87299
  0
VERTEX
  5
305
  8
Layer_0
  10
165.4776
  20
291.54712
  0
VERTEX
  5
306
  8
Layer_0
  10
165.47412
  20
290.89789
  0
VERTEX
  5
307
  8
Layer_0
  10
165.80908
  20
290.66858
  0
VERTEX
  5
308
  8
Layer_0
  10
166.27612
  20
290.98187
  0
SEQEND
  0
POLYLINE
  5
30a
  8
Layer_0
  62
7
  70
1
  66
1
  10
0
  20
0
  30
0
  0
VERTEX
  5
30a
  8
Layer_0
  10
112.91614
  20
292.52957
  0
VERTEX
  5
30b
  8
Layer_0
  10
111.7088
  20
292.47427
  0
VERTEX
  5
30c
  8
Layer_0
  10
110.09799
  20
292.60541
  0
VERTEX
  5
30d
  8
Layer_0
  10
108.90176
  20
293.02719
  0
VERTEX
  5
30e
  8
Layer_0
  10
106.46475
  20
294.09973
  0
VERTEX
  5
30f
  8
Layer_0
  10
103.69339
  20
294.99399
  0
VERTEX
  5
310
  8
Layer_0
  10
101.02679
  20
295.58972
  0
VERTEX
  5
311
  8
Layer_0
  10
98.903961
  20
295.76657
  0
VERTEX
  5
312
  8
Layer_0
  10
98.082458
  20
295.76486
  0
VERTEX
  5
313
  8
Layer_0
  10
97.742676
  20
295.9538
  0
VERTEX
  5
314
  8
Layer_0
  10
97.831451
  20
296.48611
  0
VERTEX
  5
315
  8
Layer_0
  10
98.295624
  20
297.51465
  0
VERTEX
  5
316
  8
Layer_0
  10
99.267944
  20
298.92679
  0
VERTEX
  5
317
  8
Layer_0
  10
100.71878
  20
300.12436
  0
VERTEX
  5
318
  8
Layer_0
  10
102.61621
  20
301.08676
  0
VERTEX
  5
319
  8
Layer_0
  10
104.92828
  20
301.79346
  0
VERTEX
  5
31a
  8
Layer_0
  10
110.8244
  20
302.58401
  0
VERTEX
  5
31b
  8
Layer_0
  10
115.96075
  20
303.27826
  0
VERTEX
  5
31c
  8
Layer_0
  10
117.26825
  20
303.77127
  0
VERTEX
  5
31d
  8
Layer_0
  10
118.41052
  20
304.53516
  0
VERTEX
  5
31e
  8
Layer_0
  10
119.71326
  20
305.31757
  0
VERTEX
  5
31f
  8
Layer_0
  10
120.8606
  20
305.57108
  0
VERTEX
  5
320
  8
Layer_0
  10
121.80487
  20
305.29614
  0
VERTEX
  5
321
  8
Layer_0
  10
122.49799
  20
304.49326
  0
VERTEX
  5
322
  8
Layer_0
  10
122.81726
  20
303.70435
  0
VERTEX
  5
323
  8
Layer_0
  10
122.79865
  20
303.09381
  0
VERTEX
  5
324
  8
Layer_0
  10
122.40009
  20
302.54483
  0
VERTEX
  5
325
  8
Layer_0
  10
121.57953
  20
301.94052
  0
VERTEX
  5
326
  8
Layer_0
  10
120.16888
  20
301.12717
  0
VERTEX
  5
327
  8
Layer_0
  10
118.79962
  20
300.67178
  0
VERTEX
  5
328
  8
Layer_0
  10
116.96466
  20
300.4704
  0
VERTEX
  5
329
  8
Layer_0
  10
114.15704
  20
300.41907
  0
VERTEX
  5
32a
  8
Layer_0
  10
108.79059
  20
300.23462
  0
VERTEX
  5
32b
  8
Layer_0
  10
104.85144
  20
299.69785
  0
VERTEX
  5
32c
  8
Layer_0
  10
102.18927
  20
298.77551
  0
VERTEX
  5
32d
  8
Layer_0
  10
101.29007
  20
298.15936
  0
VERTEX
  5
32e
  8
Layer_0
  10
100.65369
  20
297.43439
  0
VERTEX
  5
32f
  8
Layer_0
  10
100.50375
  20
297.11798
  0
VERTEX
  5
330
  8
Layer_0
  10
100.72607
  20
296.90695
  0
VERTEX
  5
331
  8
Layer_0
  10
103.19095
  20
296.45096
  0
VERTEX
  5
332
  8
Layer_0
  10
106.45724
  20
295.80606
  0
VERTEX
  5
333
  8
Layer_0
  10
109.2532
  20
294.95197
  0
VERTEX
  5
334
  8
Layer_0
  10
111.5321
  20
293.90628
  0
VERTEX
  5
335
  8
Layer_0
  10
113.24695
  20
292.68649
  0
SEQEND
  0
POLYLINE
  5
337
  8
Layer_0
  62
7
  70
1
  66
1
  10
0
  20
0
  30
0
  0
VERTEX
  5
337
  8
Layer_0
  10
160.03082
  20
297.45496
  0
VERTEX
  5
338
  8
Layer_0
  10
161.98901
  20
298.10776
  0
VERTEX
  5
339
  8
Layer_0
  10
162.95514
  20
298.44321
  0
VERTEX
  5
33a
  8
Layer_0
  10
163.55347
  20
298.86322
  0
VERTEX
  5
33b
  8
Layer_0
  10
164.15094
  20
299.32535
  0
VERTEX
  5
33c
  8
Layer_0
  10
165.15863
  20
299.75195
  0
VERTEX
  5
33d
  8
Layer_0
  10
167.52008
  20
300.2005
  0
VERTEX
  5
33e
  8
Layer_0
  10
168.61511
  20
300.01544
  0
VERTEX
  5
33f
  8
Layer_0
  10
169.70801
  20
298.96695
  0
VERTEX
  5
340
  8
Layer_0
  10
170.63226
  20
298.01059
  0
VERTEX
  5
341
  8
Layer_0
  10
170.77362
  20
298.04349
  0
VERTEX
  5
342
  8
Layer_0
  10
170.8056
  20
298.35916
  0
VERTEX
  5
343
  8
Layer_0
  10
170.57587
  20
299.33749
  0
VERTEX
  5
344
  8
Layer_0
  10
169.98242
  20
300.72452
  0
VERTEX
  5
345
  8
Layer_0
  10
168.34216
  20
303.41574
  0
VERTEX
  5
346
  8
Layer_0
  10
167.59485
  20
304.51163
  0
VERTEX
  5
347
  8
Layer_0
  10
169.43726
  20
303.68683
  0
VERTEX
  5
348
  8
Layer_0
  10
170.84436
  20
302.85834
  0
VERTEX
  5
349
  8
Layer_0
  10
171.53015
  20
302.02054
  0
VERTEX
  5
34a
  8
Layer_0
  10
172.08887
  20
301.22098
  0
VERTEX
  5
34b
  8
Layer_0
  10
172.29486
  20
301.29565
  0
VERTEX
  5
34c
  8
Layer_0
  10
172.47327
  20
301.67896
  0
VERTEX
  5
34d
  8
Layer_0
  10
172.48065
  20
302.22049
  0
VERTEX
  5
34e
  8
Layer_0
  10
172.23126
  20
302.92026
  0
VERTEX
  5
34f
  8
Layer_0
  10
171.04279
  20
304.62872
  0
VERTEX
  5
350
  8
Layer_0
  10
170.44128
  20
305.64508
  0
VERTEX
  5
351
  8
Layer_0
  10
170.50391
  20
305.94241
  0
VERTEX
  5
352
  8
Layer_0
  10
170.81659
  20
306.04977
  0
VERTEX
  5
353
  8
Layer_0
  10
172.71271
  20
306.69513
  0
VERTEX
  5
354
  8
Layer_0
  10
174.30823
  20
307.73563
  0
VERTEX
  5
355
  8
Layer_0
  10
174.53931
  20
308.39688
  0
VERTEX
  5
356
  8
Layer_0
  10
173.90155
  20
309.27713
  0
VERTEX
  5
357
  8
Layer_0
  10
173.26929
  20
310.20114
  0
VERTEX
  5
358
  8
Layer_0
  10
173.16833
  20
311.12506
  0
VERTEX
  5
359
  8
Layer_0
  10
173.43811
  20
311.94083
  0
VERTEX
  5
35a
  8
Layer_0
  10
174.10278
  20
312.55377
  0
VERTEX
  5
35b
  8
Layer_0
  10
175.17889
  20
312.97369
  0
VERTEX
  5
35c
  8
Layer_0
  10
176.6828
  20
313.21036
  0
VERTEX
  5
35d
  8
Layer_0
  10
178.37347
  20
313.35587
  0
VERTEX
  5
35e
  8
Layer_0
  10
179.65527
  20
315.9194
  0
VERTEX
  5
35f
  8
Layer_0
  10
181.0766
  20
319.15369
  0
VERTEX
  5
360
  8
Layer_0
  10
182.15204
  20
322.33121
  0
VERTEX
  5
361
  8
Layer_0
  10
182.73224
  20
324.93124
  0
VERTEX
  5
362
  8
Layer_0
  10
182.66821
  20
326.43304
  0
VERTEX
  5
363
  8
Layer_0
  10
182.37152
  20
326.67441
  0
VERTEX
  5
364
  8
Layer_0
  10
181.85974
  20
326.14774
  0
VERTEX
  5
365
  8
Layer_0
  10
181.44464
  20
325.38873
  0
VERTEX
  5
366
  8
Layer_0
  10
181.4469
  20
324.51929
  0
VERTEX
  5
367
  8
Layer_0
  10
181.3764
  20
323.45688
  0
VERTEX
  5
368
  8
Layer_0
  10
180.55457
  20
321.87906
  0
VERTEX
  5
369
  8
Layer_0
  10
179.71936
  20
320.21863
  0
VERTEX
  5
36a
  8
Layer_0
  10
179.23755
  20
318.67691
  0
VERTEX
  5
36b
  8
Layer_0
  10
178.8421
  20
317.34412
  0
VERTEX
  5
36c
  8
Layer_0
  10
178.15686
  20
316.33612
  0
VERTEX
  5
36d
  8
Layer_0
  10
176.81091
  20
314.88776
  0
VERTEX
  5
36e
  8
Layer_0
  10
176.24072
  20
314.47229
  0
VERTEX
  5
36f
  8
Layer_0
  10
175.59326
  20
314.43912
  0
VERTEX
  5
370
  8
Layer_0
  10
175.09113
  20
314.63165
  0
VERTEX
  5
371
  8
Layer_0
  10
174.95673
  20
314.97433
  0
VERTEX
  5
372
  8
Layer_0
  10
175.80994
  20
316.27017
  0
VERTEX
  5
373
  8
Layer_0
  10
176.70715
  20
317.62958
  0
VERTEX
  5
374
  8
Layer_0
  10
176.47546
  20
318.24014
  0
VERTEX
  5
375
  8
Layer_0
  10
175.84229
  20
318.55142
  0
VERTEX
  5
376
  8
Layer_0
  10
174.90094
  20
318.54538
  0
VERTEX
  5
377
  8
Layer_0
  10
173.74451
  20
318.20395
  0
VERTEX
  5
378
  8
Layer_0
  10
172.84833
  20
317.93002
  0
VERTEX
  5
379
  8
Layer_0
  10
172.35681
  20
318.34464
  0
VERTEX
  5
37a
  8
Layer_0
  10
171.9422
  20
318.70523
  0
VERTEX
  5
37b
  8
Layer_0
  10
171.52515
  20
318.7319
  0
VERTEX
  5
37c
  8
Layer_0
  10
171.12469
  20
318.76859
  0
VERTEX
  5
37d
  8
Layer_0
  10
170.81299
  20
319.13187
  0
VERTEX
  5
37e
  8
Layer_0
  10
170.64624
  20
319.711
  0
VERTEX
  5
37f
  8
Layer_0
  10
170.6806
  20
320.39526
  0
VERTEX
  5
380
  8
Layer_0
  10
171.41058
  20
321.61389
  0
VERTEX
  5
381
  8
Layer_0
  10
172.94092
  20
323.52057
  0
VERTEX
  5
382
  8
Layer_0
  10
176.26373
  20
327.88284
  0
VERTEX
  5
383
  8
Layer_0
  10
177.4632
  20
329.57187
  0
VERTEX
  5
384
  8
Layer_0
  10
178.81409
  20
331.0239
  0
VERTEX
  5
385
  8
Layer_0
  10
180.32086
  20
332.24295
  0
VERTEX
  5
386
  8
Layer_0
  10
181.98785
  20
333.23312
  0
VERTEX
  5
387
  8
Layer_0
  10
183.83167
  20
333.98053
  0
VERTEX
  5
388
  8
Layer_0
  10
186.00012
  20
334.12048
  0
VERTEX
  5
389
  8
Layer_0
  10
188.24316
  20
334.19876
  0
VERTEX
  5
38a
  8
Layer_0
  10
186.81055
  20
334.93289
  0
VERTEX
  5
38b
  8
Layer_0
  10
185.4632
  20
335.41782
  0
VERTEX
  5
38c
  8
Layer_0
  10
184.354
  20
335.42499
  0
VERTEX
  5
38d
  8
Layer_0
  10
182.16412
  20
334.65704
  0
VERTEX
  5
38e
  8
Layer_0
  10
179.5271
  20
333.13925
  0
VERTEX
  5
38f
  8
Layer_0
  10
173.11823
  20
327.83392
  0
VERTEX
  5
390
  8
Layer_0
  10
171.65967
  20
326.65155
  0
VERTEX
  5
391
  8
Layer_0
  10
169.61322
  20
325.41235
  0
VERTEX
  5
392
  8
Layer_0
  10
167.42889
  20
324.36005
  0
VERTEX
  5
393
  8
Layer_0
  10
165.55682
  20
323.73837
  0
VERTEX
  5
394
  8
Layer_0
  10
164.48456
  20
323.56726
  0
VERTEX
  5
395
  8
Layer_0
  10
163.63641
  20
323.67789
  0
VERTEX
  5
396
  8
Layer_0
  10
161.16827
  20
325.23795
  0
VERTEX
  5
397
  8
Layer_0
  10
156.21881
  20
328.33325
  0
VERTEX
  5
398
  8
Layer_0
  10
151.49683
  20
330.61407
  0
VERTEX
  5
399
  8
Layer_0
  10
148.97369
  20
331.4382
  0
VERTEX
  5
39a
  8
Layer_0
  10
146.76746
  20
331.93137
  0
VERTEX
  5
39b
  8
Layer_0
  10
144.55304
  20
332.1456
  0
VERTEX
  5
39c
  8
Layer_0
  10
142.00531
  20
332.13287
  0
VERTEX
  5
39d
  8
Layer_0
  10
139.1203
  20
331.91104
  0
VERTEX
  5
39e
  8
Layer_0
  10
136.82312
  20
331.39511
  0
VERTEX
  5
39f
  8
Layer_0
  10
134.62317
  20
330.42276
  0
VERTEX
  5
3a0
  8
Layer_0
  10
132.02991
  20
328.8316
  0
VERTEX
  5
3a1
  8
Layer_0
  10
131.92944
  20
328.47385
  0
VERTEX
  5
3a2
  8
Layer_0
  10
132.08173
  20
327.77222
  0
VERTEX
  5
3a3
  8
Layer_0
  10
132.5423
  20
326.98248
  0
VERTEX
  5
3a4
  8
Layer_0
  10
133.8764
  20
326.7662
  0
VERTEX
  5
3a5
  8
Layer_0
  10
135.48621
  20
326.43768
  0
VERTEX
  5
3a6
  8
Layer_0
  10
137.45953
  20
325.39026
  0
VERTEX
  5
3a7
  8
Layer_0
  10
141.01416
  20
322.78864
  0
VERTEX
  5
3a8
  8
Layer_0
  10
142.20172
  20
321.62164
  0
VERTEX
  5
3a9
  8
Layer_0
  10
142.13507
  20
321.47226
  0
VERTEX
  5
3aa
  8
Layer_0
  10
141.71497
  20
321.44586
  0
VERTEX
  5
3ab
  8
Layer_0
  10
139.79895
  20
322.09271
  0
VERTEX
  5
3ac
  8
Layer_0
  10
138.39038
  20
322.59103
  0
VERTEX
  5
3ad
  8
Layer_0
  10
137.34296
  20
322.47458
  0
VERTEX
  5
3ae
  8
Layer_0
  10
137.04553
  20
322.23019
  0
VERTEX
  5
3af
  8
Layer_0
  10
136.9472
  20
321.88541
  0
VERTEX
  5
3b0
  8
Layer_0
  10
137.49353
  20
320.96548
  0
VERTEX
  5
3b1
  8
Layer_0
  10
139.78204
  20
319.78659
  0
VERTEX
  5
3b2
  8
Layer_0
  10
141.70758
  20
318.81842
  0
VERTEX
  5
3b3
  8
Layer_0
  10
142.02991
  20
318.35522
  0
VERTEX
  5
3b4
  8
Layer_0
  10
142.05505
  20
317.79208
  0
VERTEX
  5
3b5
  8
Layer_0
  10
141.81964
  20
317.31143
  0
VERTEX
  5
3b6
  8
Layer_0
  10
141.18085
  20
317.12402
  0
VERTEX
  5
3b7
  8
Layer_0
  10
140.40613
  20
317.24924
  0
VERTEX
  5
3b8
  8
Layer_0
  10
139.68823
  20
318.108
  0
VERTEX
  5
3b9
  8
Layer_0
  10
138.8587
  20
319.06076
  0
VERTEX
  5
3ba
  8
Layer_0
  10
137.85309
  20
319.69086
  0
VERTEX
  5
3bb
  8
Layer_0
  10
136.68903
  20
319.99078
  0
VERTEX
  5
3bc
  8
Layer_0
  10
135.38428
  20
319.95294
  0
VERTEX
  5
3bd
  8
Layer_0
  10
132.99896
  20
319.91956
  0
VERTEX
  5
3be
  8
Layer_0
  10
131.80511
  20
319.90991
  0
VERTEX
  5
3bf
  8
Layer_0
  10
132.85132
  20
319.03836
  0
VERTEX
  5
3c0
  8
Layer_0
  10
134.05695
  20
318.12408
  0
VERTEX
  5
3c1
  8
Layer_0
  10
134.06873
  20
317.79779
  0
VERTEX
  5
3c2
  8
Layer_0
  10
133.76563
  20
317.41855
  0
VERTEX
  5
3c3
  8
Layer_0
  10
133.50372
  20
317.03607
  0
VERTEX
  5
3c4
  8
Layer_0
  10
133.60529
  20
316.76862
  0
VERTEX
  5
3c5
  8
Layer_0
  10
134.92401
  20
316.56027
  0
VERTEX
  5
3c6
  8
Layer_0
  10
135.95514
  20
316.66037
  0
VERTEX
  5
3c7
  8
Layer_0
  10
136.43329
  20
317.00891
  0
VERTEX
  5
3c8
  8
Layer_0
  10
136.72998
  20
317.31012
  0
VERTEX
  5
3c9
  8
Layer_0
  10
137.151
  20
317.16757
  0
VERTEX
  5
3ca
  8
Layer_0
  10
137.55829
  20
316.5351
  0
VERTEX
  5
3cb
  8
Layer_0
  10
137.39203
  20
315.2785
  0
VERTEX
  5
3cc
  8
Layer_0
  10
137.42798
  20
314.63763
  0
VERTEX
  5
3cd
  8
Layer_0
  10
138.12372
  20
313.99673
  0
VERTEX
  5
3ce
  8
Layer_0
  10
138.88538
  20
313.26108
  0
VERTEX
  5
3cf
  8
Layer_0
  10
139.45679
  20
312.39233
  0
VERTEX
  5
3d0
  8
Layer_0
  10
139.74243
  20
311.77585
  0
VERTEX
  5
3d1
  8
Layer_0
  10
140.26978
  20
311.55664
  0
VERTEX
  5
3d2
  8
Layer_0
  10
144.53485
  20
312.23093
  0
VERTEX
  5
3d3
  8
Layer_0
  10
146.86005
  20
312.65598
  0
VERTEX
  5
3d4
  8
Layer_0
  10
147.87573
  20
312.97153
  0
VERTEX
  5
3d5
  8
Layer_0
  10
147.99036
  20
313.159
  0
VERTEX
  5
3d6
  8
Layer_0
  10
147.89514
  20
313.40405
  0
VERTEX
  5
3d7
  8
Layer_0
  10
147.23169
  20
314.1799
  0
VERTEX
  5
3d8
  8
Layer_0
  10
146.23077
  20
315.58301
  0
VERTEX
  5
3d9
  8
Layer_0
  10
146.39795
  20
315.62729
  0
VERTEX
  5
3da
  8
Layer_0
  10
147.0343
  20
315.11859
  0
VERTEX
  5
3db
  8
Layer_0
  10
148.55054
  20
313.94
  0
VERTEX
  5
3dc
  8
Layer_0
  10
149.97864
  20
313.37073
  0
VERTEX
  5
3dd
  8
Layer_0
  10
150.81488
  20
313.36005
  0
VERTEX
  5
3de
  8
Layer_0
  10
151.69507
  20
313.87244
  0
VERTEX
  5
3df
  8
Layer_0
  10
152.56183
  20
314.37805
  0
VERTEX
  5
3e0
  8
Layer_0
  10
153.35101
  20
314.38742
  0
VERTEX
  5
3e1
  8
Layer_0
  10
154.02069
  20
314.36163
  0
VERTEX
  5
3e2
  8
Layer_0
  10
154.40771
  20
314.77185
  0
VERTEX
  5
3e3
  8
Layer_0
  10
154.77759
  20
315.17337
  0
VERTEX
  5
3e4
  8
Layer_0
  10
155.35382
  20
315.16016
  0
VERTEX
  5
3e5
  8
Layer_0
  10
155.94244
  20
315.14838
  0
VERTEX
  5
3e6
  8
Layer_0
  10
156.37268
  20
315.52219
  0
VERTEX
  5
3e7
  8
Layer_0
  10
156.83197
  20
315.90082
  0
VERTEX
  5
3e8
  8
Layer_0
  10
157.43115
  20
316.0542
  0
VERTEX
  5
3e9
  8
Layer_0
  10
158.07623
  20
316.26169
  0
VERTEX
  5
3ea
  8
Layer_0
  10
158.58594
  20
317.06842
  0
VERTEX
  5
3eb
  8
Layer_0
  10
159.14862
  20
317.94269
  0
VERTEX
  5
3ec
  8
Layer_0
  10
159.91205
  20
318.58777
  0
VERTEX
  5
3ed
  8
Layer_0
  10
160.8493
  20
318.98703
  0
VERTEX
  5
3ee
  8
Layer_0
  10
161.93304
  20
319.12381
  0
VERTEX
  5
3ef
  8
Layer_0
  10
163.12048
  20
318.86746
  0
VERTEX
  5
3f0
  8
Layer_0
  10
162.57343
  20
318.61111
  0
VERTEX
  5
3f1
  8
Layer_0
  10
161.34601
  20
318.43591
  0
VERTEX
  5
3f2
  8
Layer_0
  10
160.25092
  20
317.95532
  0
VERTEX
  5
3f3
  8
Layer_0
  10
159.39783
  20
317.23685
  0
VERTEX
  5
3f4
  8
Layer_0
  10
158.89648
  20
316.34787
  0
VERTEX
  5
3f5
  8
Layer_0
  10
158.84381
  20
315.87823
  0
VERTEX
  5
3f6
  8
Layer_0
  10
159.18744
  20
315.8006
  0
VERTEX
  5
3f7
  8
Layer_0
  10
160.09802
  20
315.7598
  0
VERTEX
  5
3f8
  8
Layer_0
  10
160.14954
  20
315.15033
  0
VERTEX
  5
3f9
  8
Layer_0
  10
160.13147
  20
314.61929
  0
VERTEX
  5
3fa
  8
Layer_0
  10
160.66083
  20
314.50946
  0
VERTEX
  5
3fb
  8
Layer_0
  10
161.82928
  20
314.19946
  0
VERTEX
  5
3fc
  8
Layer_0
  10
162.40881
  20
314.03683
  0
VERTEX
  5
3fd
  8
Layer_0
  10
163.24445
  20
314.32764
  0
VERTEX
  5
3fe
  8
Layer_0
  10
164.17401
  20
314.65997
  0
VERTEX
  5
3ff
  8
Layer_0
  10
164.95825
  20
314.73877
  0
VERTEX
  5
400
  8
Layer_0
  10
165.56586
  20
314.60535
  0
VERTEX
  5
401
  8
Layer_0
  10
165.96539
  20
314.30106
  0
VERTEX
  5
402
  8
Layer_0
  10
166.12561
  20
313.86728
  0
VERTEX
  5
403
  8
Layer_0
  10
166.01501
  20
313.34537
  0
VERTEX
  5
404
  8
Layer_0
  10
165.60229
  20
312.7767
  0
VERTEX
  5
405
  8
Layer_0
  10
164.85614
  20
312.20264
  0
VERTEX
  5
406
  8
Layer_0
  10
163.5614
  20
311.72644
  0
VERTEX
  5
407
  8
Layer_0
  10
163.09686
  20
311.91077
  0
VERTEX
  5
408
  8
Layer_0
  10
162.6568
  20
312.38477
  0
VERTEX
  5
409
  8
Layer_0
  10
162.16705
  20
312.89612
  0
VERTEX
  5
40a
  8
Layer_0
  10
161.73816
  20
312.73792
  0
VERTEX
  5
40b
  8
Layer_0
  10
161.42963
  20
312.26749
  0
VERTEX
  5
40c
  8
Layer_0
  10
161.33484
  20
311.65967
  0
VERTEX
  5
40d
  8
Layer_0
  10
161.45087
  20
311.0827
  0
VERTEX
  5
40e
  8
Layer_0
  10
161.77466
  20
310.7048
  0
VERTEX
  5
40f
  8
Layer_0
  10
162.69562
  20
310.651
  0
VERTEX
  5
410
  8
Layer_0
  10
164.51996
  20
310.94122
  0
VERTEX
  5
411
  8
Layer_0
  10
166.89355
  20
311.33456
  0
VERTEX
  5
412
  8
Layer_0
  10
164.91803
  20
310.15308
  0
VERTEX
  5
413
  8
Layer_0
  10
163.33539
  20
309.20081
  0
VERTEX
  5
414
  8
Layer_0
  10
163.10162
  20
308.92178
  0
VERTEX
  5
415
  8
Layer_0
  10
163.15271
  20
308.70273
  0
VERTEX
  5
416
  8
Layer_0
  10
163.63806
  20
308.44855
  0
VERTEX
  5
417
  8
Layer_0
  10
164.43732
  20
308.37131
  0
VERTEX
  5
418
  8
Layer_0
  10
166.45306
  20
308.74149
  0
VERTEX
  5
419
  8
Layer_0
  10
167.78345
  20
309.09955
  0
VERTEX
  5
41a
  8
Layer_0
  10
167.86426
  20
308.96323
  0
VERTEX
  5
41b
  8
Layer_0
  10
167.60468
  20
308.61108
  0
VERTEX
  5
41c
  8
Layer_0
  10
166.90479
  20
308.07245
  0
VERTEX
  5
41d
  8
Layer_0
  10
165.99414
  20
307.76031
  0
VERTEX
  5
41e
  8
Layer_0
  10
164.88977
  20
307.67792
  0
VERTEX
  5
41f
  8
Layer_0
  10
163.6084
  20
307.82867
  0
VERTEX
  5
420
  8
Layer_0
  10
161.91095
  20
308.26758
  0
VERTEX
  5
421
  8
Layer_0
  10
160.45215
  20
308.8905
  0
VERTEX
  5
422
  8
Layer_0
  10
159.13831
  20
309.7475
  0
VERTEX
  5
423
  8
Layer_0
  10
157.87531
  20
310.88876
  0
VERTEX
  5
424
  8
Layer_0
  10
156.62817
  20
312.04932
  0
VERTEX
  5
425
  8
Layer_0
  10
155.61133
  20
312.67307
  0
VERTEX
  5
426
  8
Layer_0
  10
154.66736
  20
312.82202
  0
VERTEX
  5
427
  8
Layer_0
  10
153.63873
  20
312.5582
  0
VERTEX
  5
428
  8
Layer_0
  10
152.55652
  20
312.12518
  0
VERTEX
  5
429
  8
Layer_0
  10
152.65521
  20
310.37744
  0
VERTEX
  5
42a
  8
Layer_0
  10
153.0108
  20
308.46182
  0
VERTEX
  5
42b
  8
Layer_0
  10
153.89825
  20
307.20544
  0
VERTEX
  5
42c
  8
Layer_0
  10
155.43469
  20
306.51431
  0
VERTEX
  5
42d
  8
Layer_0
  10
157.73706
  20
306.29434
  0
VERTEX
  5
42e
  8
Layer_0
  10
159.91608
  20
306.28174
  0
VERTEX
  5
42f
  8
Layer_0
  10
158.18573
  20
304.67545
  0
VERTEX
  5
430
  8
Layer_0
  10
156.45532
  20
303.06912
  0
VERTEX
  5
431
  8
Layer_0
  10
156.45532
  20
301.60339
  0
VERTEX
  5
432
  8
Layer_0
  10
156.62976
  20
300.16821
  0
VERTEX
  5
433
  8
Layer_0
  10
157.73706
  20
298.89581
  0
VERTEX
  5
434
  8
Layer_0
  10
159.01886
  20
297.36557
  0
VERTEX
  5
435
  8
Layer_0
  10
159.19604
  20
297.09918
  0
SEQEND
  0
POLYLINE
  5
437
  8
Layer_0
  62
7
  70
1
  66
1
  10
0
  20
0
  30
0
  0
VERTEX
  5
437
  8
Layer_0
  10
150.14545
  20
298.20566
  0
VERTEX
  5
438
  8
Layer_0
  10
150.53894
  20
299.57159
  0
VERTEX
  5
439
  8
Layer_0
  10
150.44031
  20
300.05814
  0
VERTEX
  5
43a
  8
Layer_0
  10
150.14465
  20
300.43494
  0
VERTEX
  5
43b
  8
Layer_0
  10
149.8446
  20
300.99469
  0
VERTEX
  5
43c
  8
Layer_0
  10
149.87415
  20
302.17474
  0
VERTEX
  5
43d
  8
Layer_0
  10
149.89435
  20
303.43887
  0
VERTEX
  5
43e
  8
Layer_0
  10
149.64911
  20
304.43024
  0
VERTEX
  5
43f
  8
Layer_0
  10
149.11835
  20
305.19476
  0
VERTEX
  5
440
  8
Layer_0
  10
148.28168
  20
305.77829
  0
VERTEX
  5
441
  8
Layer_0
  10
147.112
  20
306.30609
  0
VERTEX
  5
442
  8
Layer_0
  10
146.6015
  20
305.40723
  0
VERTEX
  5
443
  8
Layer_0
  10
146.1344
  20
304.67584
  0
VERTEX
  5
444
  8
Layer_0
  10
145.50854
  20
304.23483
  0
VERTEX
  5
445
  8
Layer_0
  10
143.95245
  20
304.11163
  0
VERTEX
  5
446
  8
Layer_0
  10
142.24054
  20
304.41397
  0
VERTEX
  5
447
  8
Layer_0
  10
141.93201
  20
304.29431
  0
VERTEX
  5
448
  8
Layer_0
  10
141.62018
  20
303.84164
  0
VERTEX
  5
449
  8
Layer_0
  10
141.44751
  20
303.19876
  0
VERTEX
  5
44a
  8
Layer_0
  10
141.73615
  20
302.82056
  0
VERTEX
  5
44b
  8
Layer_0
  10
142.60944
  20
302.64859
  0
VERTEX
  5
44c
  8
Layer_0
  10
144.19086
  20
302.62439
  0
VERTEX
  5
44d
  8
Layer_0
  10
146.50793
  20
302.65979
  0
VERTEX
  5
44e
  8
Layer_0
  10
145.39325
  20
301.5184
  0
VERTEX
  5
44f
  8
Layer_0
  10
144.49701
  20
300.47821
  0
VERTEX
  5
450
  8
Layer_0
  10
144.52142
  20
300.23126
  0
VERTEX
  5
451
  8
Layer_0
  10
144.7912
  20
299.98944
  0
VERTEX
  5
452
  8
Layer_0
  10
145.98383
  20
299.71475
  0
VERTEX
  5
453
  8
Layer_0
  10
147.54504
  20
300.02689
  0
VERTEX
  5
454
  8
Layer_0
  10
147.86682
  20
300.04187
  0
VERTEX
  5
455
  8
Layer_0
  10
147.60919
  20
299.29129
  0
VERTEX
  5
456
  8
Layer_0
  10
147.2605
  20
298.09042
  0
VERTEX
  5
457
  8
Layer_0
  10
147.41461
  20
297.80664
  0
VERTEX
  5
458
  8
Layer_0
  10
147.80334
  20
297.59805
  0
VERTEX
  5
459
  8
Layer_0
  10
148.62457
  20
297.35529
  0
VERTEX
  5
45a
  8
Layer_0
  10
149.26941
  20
297.37064
  0
VERTEX
  5
45b
  8
Layer_0
  10
149.76678
  20
297.65158
  0
SEQEND
  0
POLYLINE
  5
45d
  8
Layer_0
  62
7
  70
1
  66
1
  10
0
  20
0
  30
0
  0
VERTEX
  5
45d
  8
Layer_0
  10
154.6272
  20
299.6705
  0
VERTEX
  5
45e
  8
Layer_0
  10
153.96344
  20
299.741
  0
VERTEX
  5
45f
  8
Layer_0
  10
153.23462
  20
300.00595
  0
VERTEX
  5
460
  8
Layer_0
  10
152.74994
  20
300.39093
  0
VERTEX
  5
461
  8
Layer_0
  10
152.83203
  20
300.67566
  0
VERTEX
  5
462
  8
Layer_0
  10
153.26654
  20
300.97647
  0
VERTEX
  5
463
  8
Layer_0
  10
153.91827
  20
301.1377
  0
VERTEX
  5
464
  8
Layer_0
  10
154.43457
  20
300.69281
  0
VERTEX
  5
465
  8
Layer_0
  10
154.91718
  20
299.8689
  0
SEQEND
  0
POLYLINE
  5
467
  8
Layer_0
  62
7
  70
1
  66
1
  10
0
  20
0
  30
0
  0
VERTEX
  5
467
  8
Layer_0
  10
145.36804
  20
306.77002
  0
VERTEX
  5
468
  8
Layer_0
  10
145.0257
  20
306.7056
  0
VERTEX
  5
469
  8
Layer_0
  10
144.91937
  20
306.30609
  0
VERTEX
  5
46a
  8
Layer_0
  10
145.0257
  20
305.90665
  0
VERTEX
  5
46b
  8
Layer_0
  10
145.36804
  20
305.84219
  0
VERTEX
  5
46c
  8
Layer_0
  10
145.81665
  20
306.30609
  0
SEQEND
  0
POLYLINE
  5
46e
  8
Layer_0
  62
7
  70
1
  66
1
  10
0
  20
0
  30
0
  0
VERTEX
  5
46e
  8
Layer_0
  10
147.18896
  20
307.5592
  0
VERTEX
  5
46f
  8
Layer_0
  10
147.3786
  20
307.87308
  0
VERTEX
  5
470
  8
Layer_0
  10
147.2384
  20
308.33261
  0
VERTEX
  5
471
  8
Layer_0
  10
146.05109
  20
309.54465
  0
VERTEX
  5
472
  8
Layer_0
  10
145.04132
  20
310.08206
  0
VERTEX
  5
473
  8
Layer_0
  10
143.85809
  20
310.35895
  0
VERTEX
  5
474
  8
Layer_0
  10
142.66986
  20
310.35587
  0
VERTEX
  5
475
  8
Layer_0
  10
141.64502
  20
310.05334
  0
VERTEX
  5
476
  8
Layer_0
  10
140.69537
  20
309.39169
  0
VERTEX
  5
477
  8
Layer_0
  10
140.69379
  20
308.95969
  0
VERTEX
  5
478
  8
Layer_0
  10
140.95367
  20
308.36179
  0
VERTEX
  5
479
  8
Layer_0
  10
141.77563
  20
307.50894
  0
VERTEX
  5
47a
  8
Layer_0
  10
144.65656
  20
307.36981
  0
SEQEND
  0
POLYLINE
  5
47c
  8
Layer_0
  62
7
  70
1
  66
1
  10
0
  20
0
  30
0
  0
VERTEX
  5
47c
  8
Layer_0
  10
147.54706
  20
310.45261
  0
VERTEX
  5
47d
  8
Layer_0
  10
148.51691
  20
309.94498
  0
VERTEX
  5
47e
  8
Layer_0
  10
148.70984
  20
309.96417
  0
VERTEX
  5
47f
  8
Layer_0
  10
148.76471
  20
310.15143
  0
VERTEX
  5
480
  8
Layer_0
  10
148.19598
  20
310.9592
  0
VERTEX
  5
481
  8
Layer_0
  10
147.22662
  20
311.4332
  0
VERTEX
  5
482
  8
Layer_0
  10
146.82532
  20
311.36218
  0
VERTEX
  5
483
  8
Layer_0
  10
146.74921
  20
311.16214
  0
SEQEND
  0
POLYLINE
  5
485
  8
Layer_0
  62
7
  70
1
  66
1
  10
0
  20
0
  30
0
  0
VERTEX
  5
485
  8
Layer_0
  10
164.44763
  20
313.88208
  0
VERTEX
  5
486
  8
Layer_0
  10
164.50677
  20
313.59595
  0
VERTEX
  5
487
  8
Layer_0
  10
164.78687
  20
313.48398
  0
VERTEX
  5
488
  8
Layer_0
  10
165.07404
  20
313.60309
  0
VERTEX
  5
489
  8
Layer_0
  10
165.12262
  20
313.93262
  0
VERTEX
  5
48a
  8
Layer_0
  10
164.78961
  20
314.31879
  0
SEQEND
  0
POLYLINE
  5
48c
  8
Layer_0
  62
7
  70
1
  66
1
  10
0
  20
0
  30
0
  0
VERTEX
  5
48c
  8
Layer_0
  10
173.94348
  20
321.96063
  0
VERTEX
  5
48d
  8
Layer_0
  10
174.60999
  20
321.69989
  0
VERTEX
  5
48e
  8
Layer_0
  10
175.93976
  20
321.04465
  0
VERTEX
  5
48f
  8
Layer_0
  10
176.5556
  20
320.68042
  0
VERTEX
  5
490
  8
Layer_0
  10
177.33057
  20
321.00192
  0
VERTEX
  5
491
  8
Layer_0
  10
177.6441
  20
321.35577
  0
VERTEX
  5
492
  8
Layer_0
  10
177.69202
  20
321.72665
  0
VERTEX
  5
493
  8
Layer_0
  10
177.15302
  20
322.4108
  0
VERTEX
  5
494
  8
Layer_0
  10
176.03741
  20
322.83701
  0
VERTEX
  5
495
  8
Layer_0
  10
174.66931
  20
322.78784
  0
VERTEX
  5
496
  8
Layer_0
  10
173.97449
  20
322.52884
  0
VERTEX
  5
497
  8
Layer_0
  10
173.73206
  20
322.24503
  0
SEQEND
  0
POLYLINE
  5
499
  8
Layer_0
  62
7
  70
1
  66
1
  10
0
  20
0
  30
0
  0
VERTEX
  5
499
  8
Layer_0
  10
177.8501
  20
326.04538
  0
VERTEX
  5
49a
  8
Layer_0
  10
178.57751
  20
326.14801
  0
VERTEX
  5
49b
  8
Layer_0
  10
178.92834
  20
326.44711
  0
VERTEX
  5
49c
  8
Layer_0
  10
178.79346
  20
327.13797
  0
VERTEX
  5
49d
  8
Layer_0
  10
178.36371
  20
327.28522
  0
VERTEX
  5
49e
  8
Layer_0
  10
177.7959
  20
327.17966
  0
VERTEX
  5
49f
  8
Layer_0
  10
177.28137
  20
326.8909
  0
VERTEX
  5
4a0
  8
Layer_0
  10
177.01141
  20
326.48871
  0
VERTEX
  5
4a1
  8
Layer_0
  10
177.12848
  20
326.13428
  0
SEQEND
  0
POLYLINE
  5
4a3
  8
Layer_0
  62
7
  70
1
  66
1
  10
0
  20
0
  30
0
  0
VERTEX
  5
4a3
  8
Layer_0
  10
119.06519
  20
204.91367
  0
VERTEX
  5
4a4
  8
Layer_0
  10
121.30898
  20
200.46126
  0
VERTEX
  5
4a5
  8
Layer_0
  10
121.49889
  20
200.46126
  0
VERTEX
  5
4a6
  8
Layer_0
  10
123.74268
  20
204.91367
  0
VERTEX
  5
4a7
  8
Layer_0
  10
123.74268
  20
200.46126
  0
VERTEX
  5
4a8
  8
Layer_0
  10
126.929
  20
200.46126
  0
VERTEX
  5
4a9
  8
Layer_0
  10
127.22443
  20
200.46126
  0
VERTEX
  5
4aa
  8
Layer_0
  10
130.76947
  20
200.46126
  0
VERTEX
  5
4ab
  8
Layer_0
  10
131.44472
  20
202.38853
  0
VERTEX
  5
4ac
  8
Layer_0
  10
134.63104
  20
202.38853
  0
VERTEX
  5
4ad
  8
Layer_0
  10
135.30629
  20
200.46126
  0
VERTEX
  5
4ae
  8
Layer_0
  10
139.35777
  20
200.46126
  0
VERTEX
  5
4af
  8
Layer_0
  10
135.77052
  20
211.18082
  0
VERTEX
  5
4b0
  8
Layer_0
  10
130.44591
  20
211.18082
  0
VERTEX
  5
4b1
  8
Layer_0
  10
127.21739
  20
201.36862
  0
VERTEX
  5
4b2
  8
Layer_0
  10
127.21739
  20
211.18082
  0
VERTEX
  5
4b3
  8
Layer_0
  10
123.72861
  20
211.18082
  0
VERTEX
  5
4b4
  8
Layer_0
  10
121.40041
  20
206.72839
  0
VERTEX
  5
4b5
  8
Layer_0
  10
119.05815
  20
211.18082
  0
VERTEX
  5
4b6
  8
Layer_0
  10
115.56937
  20
211.18082
  0
VERTEX
  5
4b7
  8
Layer_0
  10
115.56937
  20
200.46126
  0
VERTEX
  5
4b8
  8
Layer_0
  10
119.05815
  20
200.46126
  0
VERTEX
  5
4b9
  8
Layer_0
  10
119.05815
  20
204.91367
  0
SEQEND
  0
POLYLINE
  5
4bb
  8
Layer_0
  62
7
  70
1
  66
1
  10
0
  20
0
  30
0
  0
VERTEX
  5
4bb
  8
Layer_0
  10
133.12581
  20
208.80338
  0
VERTEX
  5
4bc
  8
Layer_0
  10
134.54663
  20
204.55495
  0
VERTEX
  5
4bd
  8
Layer_0
  10
131.59244
  20
204.55495
  0
SEQEND
  0
POLYLINE
  5
4bf
  8
Layer_0
  62
7
  70
1
  66
1
  10
0
  20
0
  30
0
  0
VERTEX
  5
4bf
  8
Layer_0
  10
142.48079
  20
200.46126
  0
VERTEX
  5
4c0
  8
Layer_0
  10
145.98364
  20
200.46126
  0
VERTEX
  5
4c1
  8
Layer_0
  10
145.98364
  20
204.40021
  0
VERTEX
  5
4c2
  8
Layer_0
  10
150.66113
  20
211.18082
  0
VERTEX
  5
4c3
  8
Layer_0
  10
146.42677
  20
211.18082
  0
VERTEX
  5
4c4
  8
Layer_0
  10
144.21815
  20
207.86787
  0
VERTEX
  5
4c5
  8
Layer_0
  10
142.03766
  20
211.18082
  0
VERTEX
  5
4c6
  8
Layer_0
  10
137.8033
  20
211.18082
  0
VERTEX
  5
4c7
  8
Layer_0
  10
142.48079
  20
204.40021
  0
SEQEND
  0
POLYLINE
  5
4c9
  8
Layer_0
  62
7
  70
1
  66
1
  10
0
  20
0
  30
0
  0
VERTEX
  5
4c9
  8
Layer_0
  10
156.7876
  20
200.46126
  0
VERTEX
  5
4ca
  8
Layer_0
  10
160.27638
  20
200.46126
  0
VERTEX
  5
4cb
  8
Layer_0
  10
160.27638
  20
207.98746
  0
VERTEX
  5
4cc
  8
Layer_0
  10
163.68076
  20
207.98746
  0
VERTEX
  5
4cd
  8
Layer_0
  10
163.68076
  20
211.18082
  0
VERTEX
  5
4ce
  8
Layer_0
  10
153.39026
  20
211.18082
  0
VERTEX
  5
4cf
  8
Layer_0
  10
153.39026
  20
207.98746
  0
VERTEX
  5
4d0
  8
Layer_0
  10
156.7876
  20
207.98746
  0
SEQEND
  0
POLYLINE
  5
4d2
  8
Layer_0
  62
7
  70
1
  66
1
  10
0
  20
0
  30
0
  0
VERTEX
  5
4d2
  8
Layer_0
  10
167.38757
  20
204.32283
  0
VERTEX
  5
4d3
  8
Layer_0
  10
170.19408
  20
204.32283
  0
VERTEX
  5
4d4
  8
Layer_0
  10
170.19408
  20
200.46126
  0
VERTEX
  5
4d5
  8
Layer_0
  10
173.68285
  20
200.46126
  0
VERTEX
  5
4d6
  8
Layer_0
  10
173.68285
  20
211.18082
  0
VERTEX
  5
4d7
  8
Layer_0
  10
170.19408
  20
211.18082
  0
VERTEX
  5
4d8
  8
Layer_0
  10
170.19408
  20
207.48805
  0
VERTEX
  5
4d9
  8
Layer_0
  10
167.38757
  20
207.48805
  0
VERTEX
  5
4da
  8
Layer_0
  10
167.38757
  20
211.18082
  0
VERTEX
  5
4db
  8
Layer_0
  10
163.8988
  20
211.18082
  0
VERTEX
  5
4dc
  8
Layer_0
  10
163.8988
  20
200.46126
  0
VERTEX
  5
4dd
  8
Layer_0
  10
167.38757
  20
200.46126
  0
SEQEND
  0
POLYLINE
  5
4df
  8
Layer_0
  62
7
  70
1
  66
1
  10
0
  20
0
  30
0
  0
VERTEX
  5
4df
  8
Layer_0
  10
184.51495
  20
203.65462
  0
VERTEX
  5
4e0
  8
Layer_0
  10
177.91019
  20
203.65462
  0
VERTEX
  5
4e1
  8
Layer_0
  10
177.91019
  20
204.88554
  0
VERTEX
  5
4e2
  8
Layer_0
  10
181.5959
  20
204.88554
  0
VERTEX
  5
4e3
  8
Layer_0
  10
181.5959
  20
206.75653
  0
VERTEX
  5
4e4
  8
Layer_0
  10
177.91019
  20
206.75653
  0
VERTEX
  5
4e5
  8
Layer_0
  10
177.91019
  20
207.98746
  0
VERTEX
  5
4e6
  8
Layer_0
  10
183.61462
  20
207.98746
  0
VERTEX
  5
4e7
  8
Layer_0
  10
183.61462
  20
211.18082
  0
VERTEX
  5
4e8
  8
Layer_0
  10
174.4214
  20
211.18082
  0
VERTEX
  5
4e9
  8
Layer_0
  10
174.4214
  20
200.46126
  0
VERTEX
  5
4ea
  8
Layer_0
  10
184.51495
  20
200.46126
  0
SEQEND
  0
POLYLINE
  5
4ec
  8
Layer_0
  62
7
  70
1
  66
1
  10
0
  20
0
  30
0
  0
VERTEX
  5
4ec
  8
Layer_0
  10
129.48932
  20
187.33749
  0
VERTEX
  5
4ed
  8
Layer_0
  10
129.00258
  20
187.31993
  0
VERTEX
  5
4ee
  8
Layer_0
  10
128.54732
  20
187.26725
  0
VERTEX
  5
4ef
  8
Layer_0
  10
128.12353
  20
187.17943
  0
VERTEX
  5
4f0
  8
Layer_0
  10
127.73119
  20
187.05647
  0
VERTEX
  5
4f1
  8
Layer_0
  10
127.3703
  20
186.89835
  0
VERTEX
  5
4f2
  8
Layer_0
  10
127.04084
  20
186.70506
  0
VERTEX
  5
4f3
  8
Layer_0
  10
126.74281
  20
186.4766
  0
VERTEX
  5
4f4
  8
Layer_0
  10
126.4762
  20
186.21296
  0
VERTEX
  5
4f5
  8
Layer_0
  10
126.24099
  20
185.91411
  0
VERTEX
  5
4f6
  8
Layer_0
  10
126.03718
  20
185.58006
  0
VERTEX
  5
4f7
  8
Layer_0
  10
125.86475
  20
185.2108
  0
VERTEX
  5
4f8
  8
Layer_0
  10
125.72369
  20
184.8063
  0
VERTEX
  5
4f9
  8
Layer_0
  10
125.614
  20
184.36657
  0
VERTEX
  5
4fa
  8
Layer_0
  10
125.53566
  20
183.89159
  0
VERTEX
  5
4fb
  8
Layer_0
  10
125.48866
  20
183.38135
  0
VERTEX
  5
4fc
  8
Layer_0
  10
125.473
  20
182.83584
  0
VERTEX
  5
4fd
  8
Layer_0
  10
125.48584
  20
182.39205
  0
VERTEX
  5
4fe
  8
Layer_0
  10
125.52432
  20
181.96277
  0
VERTEX
  5
4ff
  8
Layer_0
  10
125.58836
  20
181.54799
  0
VERTEX
  5
500
  8
Layer_0
  10
125.67786
  20
181.14772
  0
VERTEX
  5
501
  8
Layer_0
  10
125.79275
  20
180.76196
  0
VERTEX
  5
502
  8
Layer_0
  10
125.93295
  20
180.39071
  0
VERTEX
  5
503
  8
Layer_0
  10
126.09837
  20
180.03396
  0
VERTEX
  5
504
  8
Layer_0
  10
126.28893
  20
179.69172
  0
VERTEX
  5
505
  8
Layer_0
  10
126.51676
  20
179.37782
  0
VERTEX
  5
506
  8
Layer_0
  10
126.79404
  20
179.10604
  0
VERTEX
  5
507
  8
Layer_0
  10
127.12078
  20
178.8763
  0
VERTEX
  5
508
  8
Layer_0
  10
127.49698
  20
178.68852
  0
VERTEX
  5
509
  8
Layer_0
  10
127.92264
  20
178.54261
  0
VERTEX
  5
50a
  8
Layer_0
  10
128.39775
  20
178.43849
  0
VERTEX
  5
50b
  8
Layer_0
  10
128.92232
  20
178.37608
  0
VERTEX
  5
50c
  8
Layer_0
  10
129.49635
  20
178.35529
  0
VERTEX
  5
50d
  8
Layer_0
  10
129.94344
  20
178.36618
  0
VERTEX
  5
50e
  8
Layer_0
  10
130.36151
  20
178.39892
  0
VERTEX
  5
50f
  8
Layer_0
  10
130.75057
  20
178.45359
  0
VERTEX
  5
510
  8
Layer_0
  10
131.11061
  20
178.53026
  0
VERTEX
  5
511
  8
Layer_0
  10
131.44164
  20
178.62902
  0
VERTEX
  5
512
  8
Layer_0
  10
131.74366
  20
178.74995
  0
VERTEX
  5
513
  8
Layer_0
  10
132.01666
  20
178.89314
  0
VERTEX
  5
514
  8
Layer_0
  10
132.26065
  20
179.05867
  0
VERTEX
  5
515
  8
Layer_0
  10
132.67619
  20
179.42399
  0
VERTEX
  5
516
  8
Layer_0
  10
133.00535
  20
179.81305
  0
VERTEX
  5
517
  8
Layer_0
  10
133.24879
  20
180.22585
  0
VERTEX
  5
518
  8
Layer_0
  10
133.40716
  20
180.66239
  0
VERTEX
  5
519
  8
Layer_0
  10
133.51278
  20
181.1386
  0
VERTEX
  5
51a
  8
Layer_0
  10
133.59795
  20
181.66031
  0
VERTEX
  5
51b
  8
Layer_0
  10
133.66334
  20
182.22818
  0
VERTEX
  5
51c
  8
Layer_0
  10
133.70961
  20
182.84287
  0
VERTEX
  5
51d
  8
Layer_0
  10
133.67964
  20
183.28696
  0
VERTEX
  5
51e
  8
Layer_0
  10
133.62674
  20
183.71704
  0
VERTEX
  5
51f
  8
Layer_0
  10
133.5511
  20
184.13295
  0
VERTEX
  5
520
  8
Layer_0
  10
133.45288
  20
184.53451
  0
VERTEX
  5
521
  8
Layer_0
  10
133.33223
  20
184.92156
  0
VERTEX
  5
522
  8
Layer_0
  10
133.18933
  20
185.29394
  0
VERTEX
  5
523
  8
Layer_0
  10
133.02434
  20
185.65148
  0
VERTEX
  5
524
  8
Layer_0
  10
132.83742
  20
185.99403
  0
VERTEX
  5
525
  8
Layer_0
  10
132.6096
  20
186.30823
  0
VERTEX
  5
526
  8
Layer_0
  10
132.32714
  20
186.5808
  0
VERTEX
  5
527
  8
Layer_0
  10
131.9901
  20
186.81167
  0
VERTEX
  5
528
  8
Layer_0
  10
131.59859
  20
187.00074
  0
VERTEX
  5
529
  8
Layer_0
  10
131.15267
  20
187.14795
  0
VERTEX
  5
52a
  8
Layer_0
  10
130.65243
  20
187.25319
  0
VERTEX
  5
52b
  8
Layer_0
  10
130.09795
  20
187.3164
  0
SEQEND
  0
POLYLINE
  5
52d
  8
Layer_0
  62
7
  70
1
  66
1
  10
0
  20
0
  30
0
  0
VERTEX
  5
52d
  8
Layer_0
  10
197.73151
  20
195.65849
  0
VERTEX
  5
52e
  8
Layer_0
  10
102.26841
  20
195.65849
  42
0.41421356
  0
VERTEX
  5
52f
  8
Layer_0
  10
98.547516
  20
191.93759
  0
VERTEX
  5
530
  8
Layer_0
  10
98.547516
  20
173.97321
  42
0.41421356
  0
VERTEX
  5
531
  8
Layer_0
  10
102.26841
  20
170.2523
  0
VERTEX
  5
532
  8
Layer_0
  10
197.73151
  20
170.2523
  42
0.41421356
  0
VERTEX
  5
533
  8
Layer_0
  10
201.45241
  20
173.97321
  0
VERTEX
  5
534
  8
Layer_0
  10
201.45241
  20
191.93759
  42
0.41522044
  0
SEQEND
  0
POLYLINE
  5
536
  8
Layer_0
  62
7
  70
1
  66
1
  10
0
  20
0
  30
0
  0
VERTEX
  5
536
  8
Layer_0
  10
118.2774
  20
186.78885
  0
VERTEX
  5
537
  8
Layer_0
  10
108.28936
  20
186.78885
  0
VERTEX
  5
538
  8
Layer_0
  10
108.28936
  20
184.62946
  0
VERTEX
  5
539
  8
Layer_0
  10
114.73938
  20
184.62946
  0
VERTEX
  5
53a
  8
Layer_0
  10
114.73938
  20
181.3517
  0
VERTEX
  5
53b
  8
Layer_0
  10
108.28936
  20
181.3517
  0
VERTEX
  5
53c
  8
Layer_0
  10
108.28936
  20
173.60042
  0
VERTEX
  5
53d
  8
Layer_0
  10
102.17696
  20
173.60042
  0
VERTEX
  5
53e
  8
Layer_0
  10
102.17696
  20
192.38074
  0
VERTEX
  5
53f
  8
Layer_0
  10
118.2774
  20
192.38074
  0
SEQEND
  0
POLYLINE
  5
541
  8
Layer_0
  62
7
  70
1
  66
1
  10
0
  20
0
  30
0
  0
VERTEX
  5
541
  8
Layer_0
  10
139.06939
  20
177.63784
  0
VERTEX
  5
542
  8
Layer_0
  10
138.72947
  20
177.11131
  0
VERTEX
  5
543
  8
Layer_0
  10
138.35337
  20
176.61849
  0
VERTEX
  5
544
  8
Layer_0
  10
137.94116
  20
176.15946
  0
VERTEX
  5
545
  8
Layer_0
  10
137.49293
  20
175.73431
  0
VERTEX
  5
546
  8
Layer_0
  10
137.00877
  20
175.34312
  0
VERTEX
  5
547
  8
Layer_0
  10
136.48874
  20
174.98598
  0
VERTEX
  5
548
  8
Layer_0
  10
135.93295
  20
174.66296
  0
VERTEX
  5
549
  8
Layer_0
  10
135.34146
  20
174.37414
  0
VERTEX
  5
54a
  8
Layer_0
  10
134.71733
  20
174.11727
  0
VERTEX
  5
54b
  8
Layer_0
  10
134.06361
  20
173.89518
  0
VERTEX
  5
54c
  8
Layer_0
  10
133.38038
  20
173.70771
  0
VERTEX
  5
54d
  8
Layer_0
  10
132.66773
  20
173.5547
  0
VERTEX
  5
54e
  8
Layer_0
  10
131.92573
  20
173.43598
  0
VERTEX
  5
54f
  8
Layer_0
  10
131.15446
  20
173.35138
  0
VERTEX
  5
550
  8
Layer_0
  10
130.35402
  20
173.30074
  0
VERTEX
  5
551
  8
Layer_0
  10
129.52448
  20
173.2839
  0
VERTEX
  5
552
  8
Layer_0
  10
128.69497
  20
173.30105
  0
VERTEX
  5
553
  8
Layer_0
  10
127.89472
  20
173.35248
  0
VERTEX
  5
554
  8
Layer_0
  10
127.12398
  20
173.43821
  0
VERTEX
  5
555
  8
Layer_0
  10
126.383
  20
173.55822
  0
VERTEX
  5
556
  8
Layer_0
  10
125.67202
  20
173.71252
  0
VERTEX
  5
557
  8
Layer_0
  10
124.99129
  20
173.90112
  0
VERTEX
  5
558
  8
Layer_0
  10
124.34106
  20
174.124
  0
VERTEX
  5
559
  8
Layer_0
  10
123.72158
  20
174.38117
  0
VERTEX
  5
55a
  8
Layer_0
  10
123.13337
  20
174.67198
  0
VERTEX
  5
55b
  8
Layer_0
  10
122.5821
  20
174.99576
  0
VERTEX
  5
55c
  8
Layer_0
  10
122.06775
  20
175.3525
  0
VERTEX
  5
55d
  8
Layer_0
  10
121.59033
  20
175.74222
  0
VERTEX
  5
55e
  8
Layer_0
  10
121.14983
  20
176.16491
  0
VERTEX
  5
55f
  8
Layer_0
  10
120.74627
  20
176.62057
  0
VERTEX
  5
560
  8
Layer_0
  10
120.37963
  20
177.1092
  0
VERTEX
  5
561
  8
Layer_0
  10
120.04992
  20
177.6308
  0
VERTEX
  5
562
  8
Layer_0
  10
119.75812
  20
178.18374
  0
VERTEX
  5
563
  8
Layer_0
  10
119.50524
  20
178.76644
  0
VERTEX
  5
564
  8
Layer_0
  10
119.29125
  20
179.37897
  0
VERTEX
  5
565
  8
Layer_0
  10
119.11618
  20
180.02143
  0
VERTEX
  5
566
  8
Layer_0
  10
118.98001
  20
180.69388
  0
VERTEX
  5
567
  8
Layer_0
  10
118.88274
  20
181.39643
  0
VERTEX
  5
568
  8
Layer_0
  10
118.82438
  20
182.12914
  0
VERTEX
  5
569
  8
Layer_0
  10
118.80493
  20
182.89211
  0
VERTEX
  5
56a
  8
Layer_0
  10
118.81614
  20
183.47142
  0
VERTEX
  5
56b
  8
Layer_0
  10
118.84977
  20
184.03301
  0
VERTEX
  5
56c
  8
Layer_0
  10
118.90582
  20
184.57697
  0
VERTEX
  5
56d
  8
Layer_0
  10
118.98429
  20
185.10337
  0
VERTEX
  5
56e
  8
Layer_0
  10
119.08518
  20
185.61229
  0
VERTEX
  5
56f
  8
Layer_0
  10
119.2085
  20
186.10382
  0
VERTEX
  5
570
  8
Layer_0
  10
119.35423
  20
186.57804
  0
VERTEX
  5
571
  8
Layer_0
  10
119.52238
  20
187.03503
  42
-0.11639822
  0
VERTEX
  5
572
  8
Layer_0
  10
121.61846
  20
190.0455
  0
VERTEX
  5
573
  8
Layer_0
  10
121.97357
  20
190.34223
  0
VERTEX
  5
574
  8
Layer_0
  10
122.34789
  20
190.62041
  0
VERTEX
  5
575
  8
Layer_0
  10
122.7415
  20
190.87996
  0
VERTEX
  5
576
  8
Layer_0
  10
123.15447
  20
191.1208
  0
VERTEX
  5
577
  8
Layer_0
  10
123.5869
  20
191.34285
  0
VERTEX
  5
578
  8
Layer_0
  10
124.03887
  20
191.54602
  0
VERTEX
  5
579
  8
Layer_0
  10
124.51045
  20
191.73023
  0
VERTEX
  5
57a
  8
Layer_0
  10
125.00173
  20
191.89541
  0
VERTEX
  5
57b
  8
Layer_0
  10
125.51113
  20
192.04378
  0
VERTEX
  5
57c
  8
Layer_0
  10
126.03702
  20
192.17236
  0
VERTEX
  5
57d
  8
Layer_0
  10
126.5794
  20
192.28117
  0
VERTEX
  5
57e
  8
Layer_0
  10
127.13826
  20
192.37019
  0
VERTEX
  5
57f
  8
Layer_0
  10
127.7136
  20
192.43943
  0
VERTEX
  5
580
  8
Layer_0
  10
128.30543
  20
192.48888
  0
VERTEX
  5
581
  8
Layer_0
  10
128.91375
  20
192.51856
  0
VERTEX
  5
582
  8
Layer_0
  10
129.53855
  20
192.52845
  0
VERTEX
  5
583
  8
Layer_0
  10
130.36577
  20
192.51099
  0
VERTEX
  5
584
  8
Layer_0
  10
131.16446
  20
192.45866
  0
VERTEX
  5
585
  8
Layer_0
  10
131.93448
  20
192.37155
  0
VERTEX
  5
586
  8
Layer_0
  10
132.67564
  20
192.24973
  0
VERTEX
  5
587
  8
Layer_0
  10
133.38779
  20
192.0933
  0
VERTEX
  5
588
  8
Layer_0
  10
134.07075
  20
191.90233
  0
VERTEX
  5
589
  8
Layer_0
  10
134.72438
  20
191.6769
  0
VERTEX
  5
58a
  8
Layer_0
  10
135.34849
  20
191.41711
  0
VERTEX
  5
58b
  8
Layer_0
  10
135.9423
  20
191.12336
  0
VERTEX
  5
58c
  8
Layer_0
  10
136.49984
  20
190.79615
  0
VERTEX
  5
58d
  8
Layer_0
  10
137.02111
  20
190.43564
  0
VERTEX
  5
58e
  8
Layer_0
  10
137.50612
  20
190.04199
  0
VERTEX
  5
58f
  8
Layer_0
  10
137.95486
  20
189.61537
  0
VERTEX
  5
590
  8
Layer_0
  10
138.36732
  20
189.15595
  0
VERTEX
  5
591
  8
Layer_0
  10
138.74352
  20
188.66388
  0
VERTEX
  5
592
  8
Layer_0
  10
139.08345
  20
188.13934
  0
VERTEX
  5
593
  8
Layer_0
  10
139.38514
  20
187.58412
  0
VERTEX
  5
594
  8
Layer_0
  10
139.6466
  20
186.99997
  0
VERTEX
  5
595
  8
Layer_0
  10
139.86783
  20
186.38697
  0
VERTEX
  5
596
  8
Layer_0
  10
140.04885
  20
185.7452
  0
VERTEX
  5
597
  8
Layer_0
  10
140.18963
  20
185.07475
  0
VERTEX
  5
598
  8
Layer_0
  10
140.29019
  20
184.3757
  0
VERTEX
  5
599
  8
Layer_0
  10
140.35053
  20
183.64812
  0
VERTEX
  5
59a
  8
Layer_0
  10
140.37064
  20
182.89211
  0
VERTEX
  5
59b
  8
Layer_0
  10
140.34992
  20
182.1358
  0
VERTEX
  5
59c
  8
Layer_0
  10
140.28799
  20
181.40742
  0
VERTEX
  5
59d
  8
Layer_0
  10
140.18518
  20
180.70724
  0
VERTEX
  5
59e
  8
Layer_0
  10
140.04181
  20
180.0355
  0
VERTEX
  5
59f
  8
Layer_0
  10
139.85822
  20
179.39244
  0
VERTEX
  5
5a0
  8
Layer_0
  10
139.63473
  20
178.77831
  0
VERTEX
  5
5a1
  8
Layer_0
  10
139.37168
  20
178.19336
  0
SEQEND
  0
POLYLINE
  5
5a3
  8
Layer_0
  62
7
  70
1
  66
1
  10
0
  20
0
  30
0
  0
VERTEX
  5
5a3
  8
Layer_0
  10
161.41586
  20
173.60745
  0
VERTEX
  5
5a4
  8
Layer_0
  10
154.00221
  20
173.60745
  0
VERTEX
  5
5a5
  8
Layer_0
  10
148.04456
  20
179.81129
  0
VERTEX
  5
5a6
  8
Layer_0
  10
148.04456
  20
173.60745
  0
VERTEX
  5
5a7
  8
Layer_0
  10
141.25691
  20
173.60745
  0
VERTEX
  5
5a8
  8
Layer_0
  10
141.25691
  20
192.38779
  0
VERTEX
  5
5a9
  8
Layer_0
  10
153.4817
  20
192.38779
  0
VERTEX
  5
5aa
  8
Layer_0
  10
154.03394
  20
192.32313
  0
VERTEX
  5
5ab
  8
Layer_0
  10
154.56161
  20
192.23457
  0
VERTEX
  5
5ac
  8
Layer_0
  10
155.06456
  20
192.12195
  0
VERTEX
  5
5ad
  8
Layer_0
  10
155.54261
  20
191.98509
  0
VERTEX
  5
5ae
  8
Layer_0
  10
155.99561
  20
191.82383
  0
VERTEX
  5
5af
  8
Layer_0
  10
156.42338
  20
191.63801
  0
VERTEX
  5
5b0
  8
Layer_0
  10
156.82576
  20
191.42747
  0
VERTEX
  5
5b1
  8
Layer_0
  10
157.2026
  20
191.19202
  42
-0.14805856
  0
VERTEX
  5
5b2
  8
Layer_0
  10
159.33385
  20
188.54027
  0
VERTEX
  5
5b3
  8
Layer_0
  10
159.4479
  20
187.93326
  0
VERTEX
  5
5b4
  8
Layer_0
  10
159.53145
  20
187.36243
  0
VERTEX
  5
5b5
  8
Layer_0
  10
159.58435
  20
186.82771
  0
VERTEX
  5
5b6
  8
Layer_0
  10
159.60641
  20
186.32901
  0
VERTEX
  5
5b7
  8
Layer_0
  10
159.59748
  20
185.86625
  0
VERTEX
  5
5b8
  8
Layer_0
  10
159.55739
  20
185.43934
  0
VERTEX
  5
5b9
  8
Layer_0
  10
159.48598
  20
185.04821
  0
VERTEX
  5
5ba
  8
Layer_0
  10
159.38308
  20
184.69277
  42
-0.14472914
  0
VERTEX
  5
5bb
  8
Layer_0
  10
157.7442
  20
182.42787
  0
VERTEX
  5
5bc
  8
Layer_0
  10
157.43559
  20
182.20698
  0
VERTEX
  5
5bd
  8
Layer_0
  10
157.09533
  20
181.99804
  0
VERTEX
  5
5be
  8
Layer_0
  10
156.72342
  20
181.80114
  0
VERTEX
  5
5bf
  8
Layer_0
  10
156.31985
  20
181.61635
  0
VERTEX
  5
5c0
  8
Layer_0
  10
155.88464
  20
181.44376
  0
VERTEX
  5
5c1
  8
Layer_0
  10
155.41777
  20
181.28345
  0
VERTEX
  5
5c2
  8
Layer_0
  10
154.91924
  20
181.13551
  0
VERTEX
  5
5c3
  8
Layer_0
  10
154.38907
  20
181.00001
  0
VERTEX
  5
5c4
  8
Layer_0
  10
155.79584
  20
179.20638
  0
VERTEX
  5
5c5
  8
Layer_0
  10
161.41586
  20
179.20638
  0
VERTEX
  5
5c6
  8
Layer_0
  10
161.41586
  20
173.60745
  0
SEQEND
  0
POLYLINE
  5
5c8
  8
Layer_0
  62
7
  70
1
  66
1
  10
0
  20
0
  30
0
  0
VERTEX
  5
5c8
  8
Layer_0
  10
179.92889
  20
186.78885
  0
VERTEX
  5
5c9
  8
Layer_0
  10
174.05565
  20
186.78885
  0
VERTEX
  5
5ca
  8
Layer_0
  10
173.57824
  20
186.78688
  0
VERTEX
  5
5cb
  8
Layer_0
  10
173.13257
  20
186.78104
  0
VERTEX
  5
5cc
  8
Layer_0
  10
172.71871
  20
186.77141
  0
VERTEX
  5
5cd
  8
Layer_0
  10
172.33676
  20
186.75807
  0
VERTEX
  5
5ce
  8
Layer_0
  10
171.98678
  20
186.74111
  0
VERTEX
  5
5cf
  8
Layer_0
  10
171.66887
  20
186.7206
  0
VERTEX
  5
5d0
  8
Layer_0
  10
171.38311
  20
186.69663
  0
VERTEX
  5
5d1
  8
Layer_0
  10
171.12958
  20
186.66927
  42
0.055406916
  0
VERTEX
  5
5d2
  8
Layer_0
  10
169.44147
  20
186.28241
  42
0.12928798
  0
VERTEX
  5
5d3
  8
Layer_0
  10
168.12613
  20
185.33284
  0
VERTEX
  5
5d4
  8
Layer_0
  10
167.99098
  20
185.14786
  0
VERTEX
  5
5d5
  8
Layer_0
  10
167.87049
  20
184.93049
  0
VERTEX
  5
5d6
  8
Layer_0
  10
167.76485
  20
184.68063
  0
VERTEX
  5
5d7
  8
Layer_0
  10
167.67421
  20
184.39822
  0
VERTEX
  5
5d8
  8
Layer_0
  10
167.59873
  20
184.08317
  0
VERTEX
  5
5d9
  8
Layer_0
  10
167.53859
  20
183.7354
  0
VERTEX
  5
5da
  8
Layer_0
  10
167.49394
  20
183.35481
  0
VERTEX
  5
5db
  8
Layer_0
  10
167.46495
  20
182.94134
  0
VERTEX
  5
5dc
  8
Layer_0
  10
167.48932
  20
182.53944
  0
VERTEX
  5
5dd
  8
Layer_0
  10
167.53067
  20
182.16729
  0
VERTEX
  5
5de
  8
Layer_0
  10
167.58884
  20
181.82498
  0
VERTEX
  5
5df
  8
Layer_0
  10
167.66365
  20
181.5126
  0
VERTEX
  5
5e0
  8
Layer_0
  10
167.75496
  20
181.23021
  0
VERTEX
  5
5e1
  8
Layer_0
  10
167.86258
  20
180.97792
  0
VERTEX
  5
5e2
  8
Layer_0
  10
167.98636
  20
180.75579
  0
VERTEX
  5
5e3
  8
Layer_0
  10
168.12613
  20
180.56391
  42
0.15317211
  0
VERTEX
  5
5e4
  8
Layer_0
  10
169.58214
  20
179.61435
  42
0.043140925
  0
VERTEX
  5
5e5
  8
Layer_0
  10
171.34763
  20
179.29079
  0
VERTEX
  5
5e6
  8
Layer_0
  10
171.58832
  20
179.26868
  0
VERTEX
  5
5e7
  8
Layer_0
  10
171.85681
  20
179.24979
  0
VERTEX
  5
5e8
  8
Layer_0
  10
172.15315
  20
179.23404
  0
VERTEX
  5
5e9
  8
Layer_0
  10
172.47743
  20
179.22133
  0
VERTEX
  5
5ea
  8
Layer_0
  10
172.82974
  20
179.21159
  0
VERTEX
  5
5eb
  8
Layer_0
  10
173.21016
  20
179.20474
  0
VERTEX
  5
5ec
  8
Layer_0
  10
173.61877
  20
179.20068
  0
VERTEX
  5
5ed
  8
Layer_0
  10
174.05565
  20
179.19935
  0
VERTEX
  5
5ee
  8
Layer_0
  10
179.93593
  20
179.19936
  0
VERTEX
  5
5ef
  8
Layer_0
  10
179.93593
  20
173.60745
  0
VERTEX
  5
5f0
  8
Layer_0
  10
171.6149
  20
173.60745
  0
VERTEX
  5
5f1
  8
Layer_0
  10
170.85921
  20
173.62429
  0
VERTEX
  5
5f2
  8
Layer_0
  10
170.12197
  20
173.67483
  0
VERTEX
  5
5f3
  8
Layer_0
  10
169.4032
  20
173.75916
  0
VERTEX
  5
5f4
  8
Layer_0
  10
168.7029
  20
173.87738
  0
VERTEX
  5
5f5
  8
Layer_0
  10
168.02106
  20
174.02955
  0
VERTEX
  5
5f6
  8
Layer_0
  10
167.35768
  20
174.21577
  0
VERTEX
  5
5f7
  8
Layer_0
  10
166.71277
  20
174.43612
  0
VERTEX
  5
5f8
  8
Layer_0
  10
166.08632
  20
174.69067
  0
VERTEX
  5
5f9
  8
Layer_0
  10
165.48527
  20
174.97918
  0
VERTEX
  5
5fa
  8
Layer_0
  10
164.91661
  20
175.3014
  0
VERTEX
  5
5fb
  8
Layer_0
  10
164.38043
  20
175.65742
  0
VERTEX
  5
5fc
  8
Layer_0
  10
163.87681
  20
176.04732
  0
VERTEX
  5
5fd
  8
Layer_0
  10
163.40584
  20
176.47117
  0
VERTEX
  5
5fe
  8
Layer_0
  10
162.96758
  20
176.92907
  0
VERTEX
  5
5ff
  8
Layer_0
  10
162.56213
  20
177.4211
  0
VERTEX
  5
600
  8
Layer_0
  10
162.18958
  20
177.94733
  0
VERTEX
  5
601
  8
Layer_0
  10
161.85589
  20
178.50586
  0
VERTEX
  5
602
  8
Layer_0
  10
161.56697
  20
179.09472
  0
VERTEX
  5
603
  8
Layer_0
  10
161.32272
  20
179.71392
  0
VERTEX
  5
604
  8
Layer_0
  10
161.12307
  20
180.36345
  0
VERTEX
  5
605
  8
Layer_0
  10
160.96793
  20
181.04331
  0
VERTEX
  5
606
  8
Layer_0
  10
160.85721
  20
181.75351
  0
VERTEX
  5
607
  8
Layer_0
  10
160.79085
  20
182.49404
  0
VERTEX
  5
608
  8
Layer_0
  10
160.76874
  20
183.2649
  0
VERTEX
  5
609
  8
Layer_0
  10
160.78194
  20
183.81123
  0
VERTEX
  5
60a
  8
Layer_0
  10
160.8216
  20
184.3424
  0
VERTEX
  5
60b
  8
Layer_0
  10
160.88781
  20
184.85839
  0
VERTEX
  5
60c
  8
Layer_0
  10
160.98063
  20
185.35922
  0
VERTEX
  5
60d
  8
Layer_0
  10
161.10017
  20
185.84489
  0
VERTEX
  5
60e
  8
Layer_0
  10
161.24649
  20
186.31539
  0
VERTEX
  5
60f
  8
Layer_0
  10
161.41968
  20
186.77071
  0
VERTEX
  5
610
  8
Layer_0
  10
161.61983
  20
187.21088
  42
-0.11630939
  0
VERTEX
  5
611
  8
Layer_0
  10
163.9832
  20
190.09474
  0
VERTEX
  5
612
  8
Layer_0
  10
164.76538
  20
190.63294
  0
VERTEX
  5
613
  8
Layer_0
  10
165.60361
  20
191.09795
  0
VERTEX
  5
614
  8
Layer_0
  10
166.49856
  20
191.49041
  0
VERTEX
  5
615
  8
Layer_0
  10
167.45087
  20
191.811
  0
VERTEX
  5
616
  8
Layer_0
  10
168.44385
  20
192.05917
  0
VERTEX
  5
617
  8
Layer_0
  10
169.47046
  20
192.23479
  0
VERTEX
  5
618
  8
Layer_0
  10
170.53004
  20
192.3392
  0
VERTEX
  5
619
  8
Layer_0
  10
171.62194
  20
192.37371
  0
VERTEX
  5
61a
  8
Layer_0
  10
176.77069
  20
192.37372
  0
VERTEX
  5
61b
  8
Layer_0
  10
179.94295
  20
192.37372
  0
VERTEX
  5
61c
  8
Layer_0
  10
179.94295
  20
186.78885
  0
SEQEND
  0
POLYLINE
  5
61e
  8
Layer_0
  62
7
  70
1
  66
1
  10
0
  20
0
  30
0
  0
VERTEX
  5
61e
  8
Layer_0
  10
198.39972
  20
173.60745
  0
VERTEX
  5
61f
  8
Layer_0
  10
180.71667
  20
173.60745
  0
VERTEX
  5
620
  8
Layer_0
  10
180.71667
  20
192.38779
  0
VERTEX
  5
621
  8
Layer_0
  10
196.81711
  20
192.38779
  0
VERTEX
  5
622
  8
Layer_0
  10
196.81711
  20
186.79588
  0
VERTEX
  5
623
  8
Layer_0
  10
186.82907
  20
186.79588
  0
VERTEX
  5
624
  8
Layer_0
  10
186.82907
  20
184.63651
  0
VERTEX
  5
625
  8
Layer_0
  10
193.27908
  20
184.63651
  0
VERTEX
  5
626
  8
Layer_0
  10
193.27908
  20
181.35873
  0
VERTEX
  5
627
  8
Layer_0
  10
186.82907
  20
181.35873
  0
VERTEX
  5
628
  8
Layer_0
  10
186.82907
  20
179.19936
  0
VERTEX
  5
629
  8
Layer_0
  10
198.39972
  20
179.19936
  0
SEQEND
  0
POLYLINE
  5
62b
  8
Layer_0
  62
7
  70
1
  66
1
  10
0
  20
0
  30
0
  0
VERTEX
  5
62b
  8
Layer_0
  10
152.76425
  20
187.70325
  0
VERTEX
  5
62c
  8
Layer_0
  10
148.04456
  20
187.70325
  0
VERTEX
  5
62d
  8
Layer_0
  10
148.04456
  20
184.2426
  0
VERTEX
  5
62e
  8
Layer_0
  10
152.77832
  20
184.2426
  0
VERTEX
  5
62f
  8
Layer_0
  10
152.97208
  20
184.25986
  0
VERTEX
  5
630
  8
Layer_0
  10
153.17309
  20
184.31206
  0
VERTEX
  5
631
  8
Layer_0
  10
153.3807
  20
184.39987
  0
VERTEX
  5
632
  8
Layer_0
  10
153.59424
  20
184.52395
  0
VERTEX
  5
633
  8
Layer_0
  10
153.69844
  20
184.60807
  0
VERTEX
  5
634
  8
Layer_0
  10
153.78954
  20
184.71815
  0
VERTEX
  5
635
  8
Layer_0
  10
153.86761
  20
184.85445
  0
VERTEX
  5
636
  8
Layer_0
  10
153.93274
  20
185.0172
  0
VERTEX
  5
637
  8
Layer_0
  10
153.98502
  20
185.20666
  0
VERTEX
  5
638
  8
Layer_0
  10
154.02452
  20
185.42307
  0
VERTEX
  5
639
  8
Layer_0
  10
154.05132
  20
185.66669
  0
VERTEX
  5
63a
  8
Layer_0
  10
154.06551
  20
185.93775
  0
VERTEX
  5
63b
  8
Layer_0
  10
154.04342
  20
186.19556
  0
VERTEX
  5
63c
  8
Layer_0
  10
154.0088
  20
186.43078
  0
VERTEX
  5
63d
  8
Layer_0
  10
153.96165
  20
186.64325
  0
VERTEX
  5
63e
  8
Layer_0
  10
153.90197
  20
186.83281
  0
VERTEX
  5
63f
  8
Layer_0
  10
153.82977
  20
186.99928
  0
VERTEX
  5
640
  8
Layer_0
  10
153.74503
  20
187.14251
  0
VERTEX
  5
641
  8
Layer_0
  10
153.64777
  20
187.26234
  0
VERTEX
  5
642
  8
Layer_0
  10
153.53797
  20
187.35859
  0
VERTEX
  5
643
  8
Layer_0
  10
153.31619
  20
187.5074
  0
VERTEX
  5
644
  8
Layer_0
  10
153.11418
  20
187.61532
  0
VERTEX
  5
645
  8
Layer_0
  10
152.93065
  20
187.68104
  0
VERTEX
  5
646
  8
Layer_0
  10
152.76425
  20
187.70325
  0
SEQEND
  0
POLYLINE
  5
648
  8
Layer_0
  62
7
  70
1
  66
1
  10
0
  20
0
  30
0
  0
VERTEX
  5
648
  8
Layer_0
  10
110.2729
  20
159.29468
  42
0.078773573
  0
VERTEX
  5
649
  8
Layer_0
  10
109.43587
  20
159.86441
  42
0.082313344
  0
VERTEX
  5
64a
  8
Layer_0
  10
108.35267
  20
160.18094
  0
VERTEX
  5
64b
  8
Layer_0
  10
108.35267
  20
160.20908
  0
VERTEX
  5
64c
  8
Layer_0
  10
108.90669
  20
160.41855
  0
VERTEX
  5
64d
  8
Layer_0
  10
109.37697
  20
160.65572
  0
VERTEX
  5
64e
  8
Layer_0
  10
109.76416
  20
160.91927
  0
VERTEX
  5
64f
  8
Layer_0
  10
110.06892
  20
161.20787
  0
VERTEX
  5
650
  8
Layer_0
  10
110.29159
  20
161.54165
  0
VERTEX
  5
651
  8
Layer_0
  10
110.44171
  20
161.93148
  0
VERTEX
  5
652
  8
Layer_0
  10
110.51799
  20
162.37802
  0
VERTEX
  5
653
  8
Layer_0
  10
110.51909
  20
162.88192
  0
VERTEX
  5
654
  8
Layer_0
  10
110.46008
  20
163.21758
  0
VERTEX
  5
655
  8
Layer_0
  10
110.37808
  20
163.52827
  0
VERTEX
  5
656
  8
Layer_0
  10
110.27316
  20
163.81406
  0
VERTEX
  5
657
  8
Layer_0
  10
110.14541
  20
164.07504
  0
VERTEX
  5
658
  8
Layer_0
  10
109.99491
  20
164.31129
  0
VERTEX
  5
659
  8
Layer_0
  10
109.82175
  20
164.52289
  0
VERTEX
  5
65a
  8
Layer_0
  10
109.626
  20
164.70993
  0
VERTEX
  5
65b
  8
Layer_0
  10
109.40774
  20
164.87249
  0
VERTEX
  5
65c
  8
Layer_0
  10
109.16509
  20
165.0113
  0
VERTEX
  5
65d
  8
Layer_0
  10
108.89614
  20
165.13231
  0
VERTEX
  5
65e
  8
Layer_0
  10
108.60098
  20
165.23551
  0
VERTEX
  5
65f
  8
Layer_0
  10
108.27969
  20
165.3209
  0
VERTEX
  5
660
  8
Layer_0
  10
107.93235
  20
165.38849
  0
VERTEX
  5
661
  8
Layer_0
  10
107.55905
  20
165.43828
  0
VERTEX
  5
662
  8
Layer_0
  10
107.15987
  20
165.47026
  0
VERTEX
  5
663
  8
Layer_0
  10
106.73489
  20
165.48444
  0
VERTEX
  5
664
  8
Layer_0
  10
99.426743
  20
165.48444
  0
VERTEX
  5
665
  8
Layer_0
  10
99.426743
  20
154.76489
  0
VERTEX
  5
666
  8
Layer_0
  10
106.18625
  20
154.76489
  0
VERTEX
  5
667
  8
Layer_0
  10
106.88666
  20
154.7717
  0
VERTEX
  5
668
  8
Layer_0
  10
107.53235
  20
154.80357
  0
VERTEX
  5
669
  8
Layer_0
  10
108.12396
  20
154.86182
  0
VERTEX
  5
66a
  8
Layer_0
  10
108.66216
  20
154.94777
  0
VERTEX
  5
66b
  8
Layer_0
  10
109.15013
  20
155.07581
  0
VERTEX
  5
66c
  8
Layer_0
  10
109.59062
  20
155.25989
  0
VERTEX
  5
66d
  8
Layer_0
  10
109.98364
  20
155.50069
  0
VERTEX
  5
66e
  8
Layer_0
  10
110.32917
  20
155.79886
  0
VERTEX
  5
66f
  8
Layer_0
  10
110.48219
  20
155.97195
  0
VERTEX
  5
670
  8
Layer_0
  10
110.61426
  20
156.16418
  0
VERTEX
  5
671
  8
Layer_0
  10
110.72557
  20
156.37552
  0
VERTEX
  5
672
  8
Layer_0
  10
110.81626
  20
156.60599
  0
VERTEX
  5
673
  8
Layer_0
  10
110.88652
  20
156.85558
  0
VERTEX
  5
674
  8
Layer_0
  10
110.9365
  20
157.1243
  0
VERTEX
  5
675
  8
Layer_0
  10
110.96637
  20
157.41214
  0
VERTEX
  5
676
  8
Layer_0
  10
110.97628
  20
157.7191
  42
0.10312865
  0
VERTEX
  5
677
  8
Layer_0
  10
110.7934
  20
158.53503
  42
0.098404589
  0
SEQEND
  0
POLYLINE
  5
679
  8
Layer_0
  62
7
  70
1
  66
1
  10
0
  20
0
  30
0
  0
VERTEX
  5
679
  8
Layer_0
  10
103.1195
  20
162.88895
  0
VERTEX
  5
67a
  8
Layer_0
  10
105.70795
  20
162.88895
  0
VERTEX
  5
67b
  8
Layer_0
  10
105.79774
  20
162.8783
  0
VERTEX
  5
67c
  8
Layer_0
  10
105.89874
  20
162.84588
  0
VERTEX
  5
67d
  8
Layer_0
  10
106.01161
  20
162.79104
  0
VERTEX
  5
67e
  8
Layer_0
  10
106.13701
  20
162.71312
  0
VERTEX
  5
67f
  8
Layer_0
  10
106.25329
  20
162.6075
  0
VERTEX
  5
680
  8
Layer_0
  10
106.33923
  20
162.46957
  0
VERTEX
  5
681
  8
Layer_0
  10
106.39616
  20
162.29867
  0
VERTEX
  5
682
  8
Layer_0
  10
106.4254
  20
162.09414
  42
-0.20350234
  0
VERTEX
  5
683
  8
Layer_0
  10
106.17218
  20
161.48923
  0
VERTEX
  5
684
  8
Layer_0
  10
106.05337
  20
161.39174
  0
VERTEX
  5
685
  8
Layer_0
  10
105.93919
  20
161.3213
  0
VERTEX
  5
686
  8
Layer_0
  10
105.82895
  20
161.27855
  0
VERTEX
  5
687
  8
Layer_0
  10
105.72202
  20
161.26415
  0
VERTEX
  5
688
  8
Layer_0
  10
103.1195
  20
161.26416
  0
SEQEND
  0
POLYLINE
  5
68a
  8
Layer_0
  62
7
  70
1
  66
1
  10
0
  20
0
  30
0
  0
VERTEX
  5
68a
  8
Layer_0
  10
106.58014
  20
157.20563
  42
-0.14726182
  0
VERTEX
  5
68b
  8
Layer_0
  10
105.50397
  20
156.93832
  0
VERTEX
  5
68c
  8
Layer_0
  10
103.1195
  20
156.93832
  0
VERTEX
  5
68d
  8
Layer_0
  10
103.1195
  20
158.92188
  0
VERTEX
  5
68e
  8
Layer_0
  10
105.50397
  20
158.92188
  0
VERTEX
  5
68f
  8
Layer_0
  10
105.85346
  20
158.90483
  0
VERTEX
  5
690
  8
Layer_0
  10
106.16339
  20
158.85417
  0
VERTEX
  5
691
  8
Layer_0
  10
106.43375
  20
158.77053
  0
VERTEX
  5
692
  8
Layer_0
  10
106.66455
  20
158.65458
  42
-0.2889998
  0
VERTEX
  5
693
  8
Layer_0
  10
107.03734
  20
157.92307
  0
VERTEX
  5
694
  8
Layer_0
  10
107.01239
  20
157.716
  0
VERTEX
  5
695
  8
Layer_0
  10
106.92744
  20
157.52741
  0
VERTEX
  5
696
  8
Layer_0
  10
106.78313
  20
157.35728
  0
VERTEX
  5
697
  8
Layer_0
  10
106.58014
  20
157.20562
  0
SEQEND
  0
POLYLINE
  5
699
  8
Layer_0
  62
7
  70
1
  66
1
  10
0
  20
0
  30
0
  0
VERTEX
  5
699
  8
Layer_0
  10
114.99963
  20
159.18918
  0
VERTEX
  5
69a
  8
Layer_0
  10
118.67833
  20
159.18918
  0
VERTEX
  5
69b
  8
Layer_0
  10
118.67833
  20
161.06017
  0
VERTEX
  5
69c
  8
Layer_0
  10
114.99963
  20
161.06017
  0
VERTEX
  5
69d
  8
Layer_0
  10
114.99963
  20
162.29109
  0
VERTEX
  5
69e
  8
Layer_0
  10
120.69704
  20
162.29109
  0
VERTEX
  5
69f
  8
Layer_0
  10
120.69704
  20
165.48444
  0
VERTEX
  5
6a0
  8
Layer_0
  10
111.51086
  20
165.48444
  0
VERTEX
  5
6a1
  8
Layer_0
  10
111.51086
  20
154.76489
  0
VERTEX
  5
6a2
  8
Layer_0
  10
121.60439
  20
154.76489
  0
VERTEX
  5
6a3
  8
Layer_0
  10
121.60439
  20
157.95825
  0
VERTEX
  5
6a4
  8
Layer_0
  10
114.99963
  20
157.95825
  0
SEQEND
  0
POLYLINE
  5
6a6
  8
Layer_0
  62
7
  70
1
  66
1
  10
0
  20
0
  30
0
  0
VERTEX
  5
6a6
  8
Layer_0
  10
138.58406
  20
165.48444
  0
VERTEX
  5
6a7
  8
Layer_0
  10
135.81273
  20
165.48444
  0
VERTEX
  5
6a8
  8
Layer_0
  10
134.82095
  20
160.85619
  0
VERTEX
  5
6a9
  8
Layer_0
  10
133.32979
  20
165.48444
  0
VERTEX
  5
6aa
  8
Layer_0
  10
130.12236
  20
165.48444
  0
VERTEX
  5
6ab
  8
Layer_0
  10
128.84924
  20
160.85619
  0
VERTEX
  5
6ac
  8
Layer_0
  10
127.37917
  20
165.48444
  0
VERTEX
  5
6ad
  8
Layer_0
  10
123.89039
  20
165.48444
  0
VERTEX
  5
6ae
  8
Layer_0
  10
127.15408
  20
154.76489
  0
VERTEX
  5
6af
  8
Layer_0
  10
130.64287
  20
154.76489
  0
VERTEX
  5
6b0
  8
Layer_0
  10
131.76828
  20
159.30875
  0
VERTEX
  5
6b1
  8
Layer_0
  10
133.12581
  20
154.76489
  0
VERTEX
  5
6b2
  8
Layer_0
  10
136.61458
  20
154.76489
  0
VERTEX
  5
6b3
  8
Layer_0
  10
138.58406
  20
162.61464
  0
VERTEX
  5
6b4
  8
Layer_0
  10
138.58406
  20
154.76489
  0
VERTEX
  5
6b5
  8
Layer_0
  10
142.07283
  20
154.76489
  0
VERTEX
  5
6b6
  8
Layer_0
  10
142.07283
  20
165.48444
  0
VERTEX
  5
6b7
  8
Layer_0
  10
139.30151
  20
165.48444
  0
SEQEND
  0
POLYLINE
  5
6b9
  8
Layer_0
  62
7
  70
1
  66
1
  10
0
  20
0
  30
0
  0
VERTEX
  5
6b9
  8
Layer_0
  10
142.29791
  20
162.29109
  0
VERTEX
  5
6ba
  8
Layer_0
  10
145.69525
  20
162.29109
  0
VERTEX
  5
6bb
  8
Layer_0
  10
145.69525
  20
154.76489
  0
VERTEX
  5
6bc
  8
Layer_0
  10
149.18404
  20
154.76489
  0
VERTEX
  5
6bd
  8
Layer_0
  10
149.18404
  20
162.29109
  0
VERTEX
  5
6be
  8
Layer_0
  10
152.58138
  20
162.29109
  0
VERTEX
  5
6bf
  8
Layer_0
  10
152.58138
  20
165.48444
  0
VERTEX
  5
6c0
  8
Layer_0
  10
142.29791
  20
165.48444
  0
SEQEND
  0
POLYLINE
  5
6c2
  8
Layer_0
  62
7
  70
1
  66
1
  10
0
  20
0
  30
0
  0
VERTEX
  5
6c2
  8
Layer_0
  10
159.0947
  20
161.79169
  0
VERTEX
  5
6c3
  8
Layer_0
  10
156.29523
  20
161.79169
  0
VERTEX
  5
6c4
  8
Layer_0
  10
156.29523
  20
165.48444
  0
VERTEX
  5
6c5
  8
Layer_0
  10
152.80646
  20
165.48444
  0
VERTEX
  5
6c6
  8
Layer_0
  10
152.80646
  20
154.76489
  0
VERTEX
  5
6c7
  8
Layer_0
  10
156.29523
  20
154.76489
  0
VERTEX
  5
6c8
  8
Layer_0
  10
156.29523
  20
158.62646
  0
VERTEX
  5
6c9
  8
Layer_0
  10
159.0947
  20
158.62646
  0
VERTEX
  5
6ca
  8
Layer_0
  10
159.0947
  20
154.76489
  0
VERTEX
  5
6cb
  8
Layer_0
  10
162.58347
  20
154.76489
  0
VERTEX
  5
6cc
  8
Layer_0
  10
162.58347
  20
165.48444
  0
VERTEX
  5
6cd
  8
Layer_0
  10
159.0947
  20
165.48444
  0
SEQEND
  0
POLYLINE
  5
6cf
  8
Layer_0
  62
7
  70
1
  66
1
  10
0
  20
0
  30
0
  0
VERTEX
  5
6cf
  8
Layer_0
  10
174.31589
  20
165.48444
  0
VERTEX
  5
6d0
  8
Layer_0
  10
172.10023
  20
162.17151
  0
VERTEX
  5
6d1
  8
Layer_0
  10
169.91974
  20
165.48444
  0
VERTEX
  5
6d2
  8
Layer_0
  10
165.68539
  20
165.48444
  0
VERTEX
  5
6d3
  8
Layer_0
  10
170.36288
  20
158.70383
  0
VERTEX
  5
6d4
  8
Layer_0
  10
170.36288
  20
154.76489
  0
VERTEX
  5
6d5
  8
Layer_0
  10
173.86574
  20
154.76489
  0
VERTEX
  5
6d6
  8
Layer_0
  10
173.86574
  20
158.70383
  0
VERTEX
  5
6d7
  8
Layer_0
  10
178.54324
  20
165.48444
  0
SEQEND
  0
POLYLINE
  5
6d9
  8
Layer_0
  62
7
  70
1
  66
1
  10
0
  20
0
  30
0
  0
VERTEX
  5
6d9
  8
Layer_0
  10
187.09636
  20
164.93579
  0
VERTEX
  5
6da
  8
Layer_0
  10
186.73993
  20
165.08416
  0
VERTEX
  5
6db
  8
Layer_0
  10
186.36693
  20
165.21275
  0
VERTEX
  5
6dc
  8
Layer_0
  10
185.97728
  20
165.32155
  0
VERTEX
  5
6dd
  8
Layer_0
  10
185.5709
  20
165.41058
  0
VERTEX
  5
6de
  8
Layer_0
  10
185.1477
  20
165.47982
  0
VERTEX
  5
6df
  8
Layer_0
  10
184.70761
  20
165.52927
  0
VERTEX
  5
6e0
  8
Layer_0
  10
184.25054
  20
165.55895
  0
VERTEX
  5
6e1
  8
Layer_0
  10
183.7764
  20
165.56884
  0
VERTEX
  5
6e2
  8
Layer_0
  10
183.07225
  20
165.54642
  0
VERTEX
  5
6e3
  8
Layer_0
  10
182.40568
  20
165.47916
  0
VERTEX
  5
6e4
  8
Layer_0
  10
181.77737
  20
165.36706
  0
VERTEX
  5
6e5
  8
Layer_0
  10
181.18795
  20
165.21012
  0
VERTEX
  5
6e6
  8
Layer_0
  10
180.63953
  20
165.00965
  0
VERTEX
  5
6e7
  8
Layer_0
  10
180.13463
  20
164.76698
  0
VERTEX
  5
6e8
  8
Layer_0
  10
179.67458
  20
164.48211
  0
VERTEX
  5
6e9
  8
Layer_0
  10
179.26068
  20
164.15504
  42
0.11633451
  0
VERTEX
  5
6ea
  8
Layer_0
  10
178.06493
  20
162.43878
  0
VERTEX
  5
6eb
  8
Layer_0
  10
177.88545
  20
161.91026
  0
VERTEX
  5
6ec
  8
Layer_0
  10
177.75808
  20
161.33887
  0
VERTEX
  5
6ed
  8
Layer_0
  10
177.68213
  20
160.7266
  0
VERTEX
  5
6ee
  8
Layer_0
  10
177.65696
  20
160.07542
  0
VERTEX
  5
6ef
  8
Layer_0
  10
177.66816
  20
159.64084
  0
VERTEX
  5
6f0
  8
Layer_0
  10
177.7017
  20
159.22333
  0
VERTEX
  5
6f1
  8
Layer_0
  10
177.75748
  20
158.8228
  0
VERTEX
  5
6f2
  8
Layer_0
  10
177.83545
  20
158.43917
  0
VERTEX
  5
6f3
  8
Layer_0
  10
177.9355
  20
158.07236
  0
VERTEX
  5
6f4
  8
Layer_0
  10
178.05756
  20
157.72227
  0
VERTEX
  5
6f5
  8
Layer_0
  10
178.20155
  20
157.38884
  0
VERTEX
  5
6f6
  8
Layer_0
  10
178.36738
  20
157.07197
  0
VERTEX
  5
6f7
  8
Layer_0
  10
178.55495
  20
156.77322
  0
VERTEX
  5
6f8
  8
Layer_0
  10
178.76413
  20
156.49399
  0
VERTEX
  5
6f9
  8
Layer_0
  10
178.99473
  20
156.23406
  0
VERTEX
  5
6fa
  8
Layer_0
  10
179.2466
  20
155.99316
  0
VERTEX
  5
6fb
  8
Layer_0
  10
179.51958
  20
155.77106
  0
VERTEX
  5
6fc
  8
Layer_0
  10
179.81349
  20
155.5675
  0
VERTEX
  5
6fd
  8
Layer_0
  10
180.12817
  20
155.38224
  0
VERTEX
  5
6fe
  8
Layer_0
  10
180.46346
  20
155.21504
  0
VERTEX
  5
6ff
  8
Layer_0
  10
180.81757
  20
155.06899
  0
VERTEX
  5
700
  8
Layer_0
  10
181.18883
  20
154.94215
  0
VERTEX
  5
701
  8
Layer_0
  10
181.57723
  20
154.8346
  0
VERTEX
  5
702
  8
Layer_0
  10
181.98277
  20
154.74641
  0
VERTEX
  5
703
  8
Layer_0
  10
182.40546
  20
154.67768
  0
VERTEX
  5
704
  8
Layer_0
  10
182.84529
  20
154.62848
  0
VERTEX
  5
705
  8
Layer_0
  10
183.30227
  20
154.59891
  0
VERTEX
  5
706
  8
Layer_0
  10
183.77639
  20
154.58903
  0
VERTEX
  5
707
  8
Layer_0
  10
184.25053
  20
154.59891
  0
VERTEX
  5
708
  8
Layer_0
  10
184.70761
  20
154.62848
  0
VERTEX
  5
709
  8
Layer_0
  10
185.1477
  20
154.67768
  0
VERTEX
  5
70a
  8
Layer_0
  10
185.5709
  20
154.74641
  0
VERTEX
  5
70b
  8
Layer_0
  10
185.97728
  20
154.8346
  0
VERTEX
  5
70c
  8
Layer_0
  10
186.36692
  20
154.94215
  0
VERTEX
  5
70d
  8
Layer_0
  10
186.73992
  20
155.06899
  0
VERTEX
  5
70e
  8
Layer_0
  10
187.09635
  20
155.21504
  0
VERTEX
  5
70f
  8
Layer_0
  10
187.43429
  20
155.38024
  0
VERTEX
  5
710
  8
Layer_0
  10
187.75171
  20
155.56465
  0
VERTEX
  5
711
  8
Layer_0
  10
188.04852
  20
155.76834
  0
VERTEX
  5
712
  8
Layer_0
  10
188.32464
  20
155.9914
  0
VERTEX
  5
713
  8
Layer_0
  10
188.57999
  20
156.23392
  0
VERTEX
  5
714
  8
Layer_0
  10
188.81448
  20
156.49597
  0
VERTEX
  5
715
  8
Layer_0
  10
189.02803
  20
156.77764
  0
VERTEX
  5
716
  8
Layer_0
  10
189.22057
  20
157.07901
  0
VERTEX
  5
717
  8
Layer_0
  10
189.39336
  20
157.39615
  0
VERTEX
  5
718
  8
Layer_0
  10
189.54259
  20
157.73019
  0
VERTEX
  5
719
  8
Layer_0
  10
189.6684
  20
158.08087
  0
VERTEX
  5
71a
  8
Layer_0
  10
189.77097
  20
158.44796
  0
VERTEX
  5
71b
  8
Layer_0
  10
189.85046
  20
158.83121
  0
VERTEX
  5
71c
  8
Layer_0
  10
189.90703
  20
159.23037
  0
VERTEX
  5
71d
  8
Layer_0
  10
189.94085
  20
159.64518
  0
VERTEX
  5
71e
  8
Layer_0
  10
189.95209
  20
160.07542
  0
VERTEX
  5
71f
  8
Layer_0
  10
189.94056
  20
160.50767
  0
VERTEX
  5
720
  8
Layer_0
  10
189.90604
  20
160.92343
  0
VERTEX
  5
721
  8
Layer_0
  10
189.8486
  20
161.32271
  0
VERTEX
  5
722
  8
Layer_0
  10
189.76833
  20
161.7055
  0
VERTEX
  5
723
  8
Layer_0
  10
189.66531
  20
162.07181
  0
VERTEX
  5
724
  8
Layer_0
  10
189.53962
  20
162.42164
  0
VERTEX
  5
725
  8
Layer_0
  10
189.39134
  20
162.75497
  0
VERTEX
  5
726
  8
Layer_0
  10
189.22057
  20
163.07182
  0
VERTEX
  5
727
  8
Layer_0
  10
189.02803
  20
163.36858
  0
VERTEX
  5
728
  8
Layer_0
  10
188.81448
  20
163.64695
  0
VERTEX
  5
729
  8
Layer_0
  10
188.57999
  20
163.90702
  0
VERTEX
  5
72a
  8
Layer_0
  10
188.32464
  20
164.14888
  0
VERTEX
  5
72b
  8
Layer_0
  10
188.04852
  20
164.3726
  0
VERTEX
  5
72c
  8
Layer_0
  10
187.75171
  20
164.57827
  0
VERTEX
  5
72d
  8
Layer_0
  10
187.4343
  20
164.76598
  0
SEQEND
  0
POLYLINE
  5
72f
  8
Layer_0
  62
7
  70
1
  66
1
  10
0
  20
0
  30
0
  0
VERTEX
  5
72f
  8
Layer_0
  10
185.98501
  20
158.79528
  0
VERTEX
  5
730
  8
Layer_0
  10
185.89665
  20
158.54459
  0
VERTEX
  5
731
  8
Layer_0
  10
185.75817
  20
158.30906
  0
VERTEX
  5
732
  8
Layer_0
  10
185.56958
  20
158.08805
  0
VERTEX
  5
733
  8
Layer_0
  10
185.33087
  20
157.88088
  0
VERTEX
  5
734
  8
Layer_0
  10
185.03522
  20
157.70547
  0
VERTEX
  5
735
  8
Layer_0
  10
184.67496
  20
157.58018
  0
VERTEX
  5
736
  8
Layer_0
  10
184.24875
  20
157.50501
  0
VERTEX
  5
737
  8
Layer_0
  10
183.75529
  20
157.47996
  0
VERTEX
  5
738
  8
Layer_0
  10
183.42889
  20
157.49184
  0
VERTEX
  5
739
  8
Layer_0
  10
183.13027
  20
157.52755
  0
VERTEX
  5
73a
  8
Layer_0
  10
182.8595
  20
157.58715
  0
VERTEX
  5
73b
  8
Layer_0
  10
182.61669
  20
157.67075
  0
VERTEX
  5
73c
  8
Layer_0
  10
182.40189
  20
157.77841
  0
VERTEX
  5
73d
  8
Layer_0
  10
182.21521
  20
157.91023
  0
VERTEX
  5
73e
  8
Layer_0
  10
182.05671
  20
158.06628
  0
VERTEX
  5
73f
  8
Layer_0
  10
181.92649
  20
158.24664
  0
VERTEX
  5
740
  8
Layer_0
  10
181.72339
  20
158.6446
  0
VERTEX
  5
741
  8
Layer_0
  10
181.57832
  20
159.07752
  0
VERTEX
  5
742
  8
Layer_0
  10
181.49127
  20
159.5434
  0
VERTEX
  5
743
  8
Layer_0
  10
181.46226
  20
160.04027
  0
VERTEX
  5
744
  8
Layer_0
  10
181.47124
  20
160.35077
  0
VERTEX
  5
745
  8
Layer_0
  10
181.49818
  20
160.64132
  0
VERTEX
  5
746
  8
Layer_0
  10
181.54307
  20
160.9119
  0
VERTEX
  5
747
  8
Layer_0
  10
181.6059
  20
161.1625
  0
VERTEX
  5
748
  8
Layer_0
  10
181.68666
  20
161.39311
  0
VERTEX
  5
749
  8
Layer_0
  10
181.78534
  20
161.60372
  0
VERTEX
  5
74a
  8
Layer_0
  10
181.90192
  20
161.79432
  0
VERTEX
  5
74b
  8
Layer_0
  10
182.0364
  20
161.9649
  0
VERTEX
  5
74c
  8
Layer_0
  10
182.18876
  20
162.11545
  0
VERTEX
  5
74d
  8
Layer_0
  10
182.35901
  20
162.24597
  0
VERTEX
  5
74e
  8
Layer_0
  10
182.54711
  20
162.35643
  0
VERTEX
  5
74f
  8
Layer_0
  10
182.75308
  20
162.44683
  0
VERTEX
  5
750
  8
Layer_0
  10
182.97689
  20
162.51716
  0
VERTEX
  5
751
  8
Layer_0
  10
183.21853
  20
162.56741
  0
VERTEX
  5
752
  8
Layer_0
  10
183.478
  20
162.59756
  0
VERTEX
  5
753
  8
Layer_0
  10
183.75529
  20
162.60762
  0
VERTEX
  5
754
  8
Layer_0
  10
184.10348
  20
162.59573
  0
VERTEX
  5
755
  8
Layer_0
  10
184.4201
  20
162.56003
  0
VERTEX
  5
756
  8
Layer_0
  10
184.70523
  20
162.50042
  0
VERTEX
  5
757
  8
Layer_0
  10
184.95895
  20
162.41682
  0
VERTEX
  5
758
  8
Layer_0
  10
185.18136
  20
162.30916
  0
VERTEX
  5
759
  8
Layer_0
  10
185.37252
  20
162.17734
  0
VERTEX
  5
75a
  8
Layer_0
  10
185.53252
  20
162.02129
  0
VERTEX
  5
75b
  8
Layer_0
  10
185.66145
  20
161.84093
  0
VERTEX
  5
75c
  8
Layer_0
  10
185.86313
  20
161.43989
  0
VERTEX
  5
75d
  8
Layer_0
  10
186.01402
  20
161.00654
  0
VERTEX
  5
75e
  8
Layer_0
  10
186.11348
  20
160.54022
  0
VERTEX
  5
75f
  8
Layer_0
  10
186.16086
  20
160.04027
  42
-0.041988586
  0
VERTEX
  5
760
  8
Layer_0
  10
185.98502
  20
158.79529
  0
SEQEND
  0
POLYLINE
  5
762
  8
Layer_0
  62
7
  70
1
  66
1
  10
0
  20
0
  30
0
  0
VERTEX
  5
762
  8
Layer_0
  10
197.25321
  20
159.14697
  0
VERTEX
  5
763
  8
Layer_0
  10
197.25224
  20
158.89276
  0
VERTEX
  5
764
  8
Layer_0
  10
197.23354
  20
158.65768
  0
VERTEX
  5
765
  8
Layer_0
  10
197.19721
  20
158.44172
  0
VERTEX
  5
766
  8
Layer_0
  10
197.14331
  20
158.24488
  0
VERTEX
  5
767
  8
Layer_0
  10
197.07194
  20
158.06716
  0
VERTEX
  5
768
  8
Layer_0
  10
196.98318
  20
157.90857
  0
VERTEX
  5
769
  8
Layer_0
  10
196.87711
  20
157.7691
  0
VERTEX
  5
76a
  8
Layer_0
  10
196.75381
  20
157.64876
  0
VERTEX
  5
76b
  8
Layer_0
  10
196.47411
  20
157.45368
  0
VERTEX
  5
76c
  8
Layer_0
  10
196.16209
  20
157.31201
  0
VERTEX
  5
76d
  8
Layer_0
  10
195.8171
  20
157.22442
  0
VERTEX
  5
76e
  8
Layer_0
  10
195.43849
  20
157.19156
  0
VERTEX
  5
76f
  8
Layer_0
  10
194.98074
  20
157.23124
  0
VERTEX
  5
770
  8
Layer_0
  10
194.58827
  20
157.31905
  0
VERTEX
  5
771
  8
Layer_0
  10
194.26043
  20
157.45566
  0
VERTEX
  5
772
  8
Layer_0
  10
193.99655
  20
157.64173
  0
VERTEX
  5
773
  8
Layer_0
  10
193.88871
  20
157.75747
  0
VERTEX
  5
774
  8
Layer_0
  10
193.79719
  20
157.89374
  0
VERTEX
  5
775
  8
Layer_0
  10
193.72182
  20
158.05061
  0
VERTEX
  5
776
  8
Layer_0
  10
193.66244
  20
158.22817
  0
VERTEX
  5
777
  8
Layer_0
  10
193.61889
  20
158.42651
  0
VERTEX
  5
778
  8
Layer_0
  10
193.59101
  20
158.6457
  0
VERTEX
  5
779
  8
Layer_0
  10
193.57862
  20
158.88582
  0
VERTEX
  5
77a
  8
Layer_0
  10
193.58156
  20
159.14697
  0
VERTEX
  5
77b
  8
Layer_0
  10
193.58156
  20
165.48444
  0
VERTEX
  5
77c
  8
Layer_0
  10
190.09277
  20
165.48444
  0
VERTEX
  5
77d
  8
Layer_0
  10
190.09277
  20
159.18918
  0
VERTEX
  5
77e
  8
Layer_0
  10
190.11904
  20
158.54568
  0
VERTEX
  5
77f
  8
Layer_0
  10
190.19741
  20
157.96616
  0
VERTEX
  5
780
  8
Layer_0
  10
190.3272
  20
157.45127
  0
VERTEX
  5
781
  8
Layer_0
  10
190.50778
  20
157.00165
  42
0.12824651
  0
VERTEX
  5
782
  8
Layer_0
  10
191.68242
  20
155.63007
  42
0.09616697
  0
VERTEX
  5
783
  8
Layer_0
  10
193.46198
  20
154.8493
  42
0.052625243
  0
VERTEX
  5
784
  8
Layer_0
  10
195.46661
  20
154.57498
  0
VERTEX
  5
785
  8
Layer_0
  10
196.04823
  20
154.60675
  0
VERTEX
  5
786
  8
Layer_0
  10
196.60083
  20
154.67082
  0
VERTEX
  5
787
  8
Layer_0
  10
197.12441
  20
154.76786
  0
VERTEX
  5
788
  8
Layer_0
  10
197.61897
  20
154.89854
  0
VERTEX
  5
789
  8
Layer_0
  10
198.08331
  20
155.06185
  0
VERTEX
  5
78a
  8
Layer_0
  10
198.50611
  20
155.2555
  0
VERTEX
  5
78b
  8
Layer_0
  10
198.88803
  20
155.47817
  0
VERTEX
  5
78c
  8
Layer_0
  10
199.22972
  20
155.72853
  42
0.096421617
  0
VERTEX
  5
78d
  8
Layer_0
  10
200.29184
  20
157.05792
  0
VERTEX
  5
78e
  8
Layer_0
  10
200.47779
  20
157.49182
  0
VERTEX
  5
78f
  8
Layer_0
  10
200.61363
  20
157.99166
  0
VERTEX
  5
790
  8
Layer_0
  10
200.69935
  20
158.55745
  0
VERTEX
  5
791
  8
Layer_0
  10
200.73497
  20
159.18918
  0
VERTEX
  5
792
  8
Layer_0
  10
200.73497
  20
165.47742
  0
VERTEX
  5
793
  8
Layer_0
  10
197.24619
  20
165.47742
  0
VERTEX
  5
794
  8
Layer_0
  10
197.24619
  20
159.14697
  0
VERTEX
  5
795
  8
Layer_0
  10
197.2532
  20
159.14697
  0
SEQEND
  0
POLYLINE
  5
797
  8
Layer_0
  62
7
  70
1
  66
1
  10
0
  20
0
  30
0
  0
VERTEX
  5
797
  8
Layer_0
  10
198.00583
  20
168.59274
  0
VERTEX
  5
798
  8
Layer_0
  10
198.27975
  20
168.61374
  0
VERTEX
  5
799
  8
Layer_0
  10
198.55078
  20
168.64905
  0
VERTEX
  5
79a
  8
Layer_0
  10
198.81708
  20
168.69772
  0
VERTEX
  5
79b
  8
Layer_0
  10
199.07761
  20
168.75784
  0
VERTEX
  5
79c
  8
Layer_0
  10
199.33054
  20
168.83038
  0
VERTEX
  5
79d
  8
Layer_0
  10
199.58057
  20
168.91437
  0
VERTEX
  5
79e
  8
Layer_0
  10
199.82968
  20
169.01364
  0
VERTEX
  5
79f
  8
Layer_0
  10
200.06732
  20
169.12149
  0
VERTEX
  5
7a0
  8
Layer_0
  10
200.29828
  20
169.24078
  0
VERTEX
  5
7a1
  8
Layer_0
  10
200.52255
  20
169.36963
  0
VERTEX
  5
7a2
  8
Layer_0
  10
200.74207
  20
169.51086
  0
VERTEX
  5
7a3
  8
Layer_0
  10
200.95395
  20
169.66165
  0
VERTEX
  5
7a4
  8
Layer_0
  10
201.15533
  20
169.8201
  0
VERTEX
  5
7a5
  8
Layer_0
  10
201.35001
  20
169.98807
  0
VERTEX
  5
7a6
  8
Layer_0
  10
201.53708
  20
170.16748
  0
VERTEX
  5
7a7
  8
Layer_0
  10
201.7146
  20
170.35263
  0
VERTEX
  5
7a8
  8
Layer_0
  10
201.88351
  20
170.54639
  0
VERTEX
  5
7a9
  8
Layer_0
  10
202.04672
  20
170.75443
  0
VERTEX
  5
7aa
  8
Layer_0
  10
202.19562
  20
170.96631
  0
VERTEX
  5
7ab
  8
Layer_0
  10
202.33398
  20
171.18008
  0
VERTEX
  5
7ac
  8
Layer_0
  10
202.46378
  20
171.40628
  0
VERTEX
  5
7ad
  8
Layer_0
  10
202.5831
  20
171.63724
  0
VERTEX
  5
7ae
  8
Layer_0
  10
202.69095
  20
171.87491
  0
VERTEX
  5
7af
  8
Layer_0
  10
202.78925
  20
172.12018
  0
VERTEX
  5
7b0
  8
Layer_0
  10
202.87515
  20
172.375
  0
VERTEX
  5
7b1
  8
Layer_0
  10
202.94672
  20
172.6279
  0
VERTEX
  5
7b2
  8
Layer_0
  10
203.00876
  20
172.88751
  0
VERTEX
  5
7b3
  8
Layer_0
  10
203.05646
  20
173.15665
  0
VERTEX
  5
7b4
  8
Layer_0
  10
203.09082
  20
173.42484
  0
VERTEX
  5
7b5
  8
Layer_0
  10
203.11182
  20
173.69873
  0
VERTEX
  5
7b6
  8
Layer_0
  10
203.11755
  20
173.95355
  0
VERTEX
  5
7b7
  8
Layer_0
  10
203.11755
  20
191.95432
  0
VERTEX
  5
7b8
  8
Layer_0
  10
203.11279
  20
192.20816
  0
VERTEX
  5
7b9
  8
Layer_0
  10
203.0918
  20
192.48398
  0
VERTEX
  5
7ba
  8
Layer_0
  10
203.05743
  20
192.7493
  0
VERTEX
  5
7bb
  8
Layer_0
  10
203.01163
  20
193.01654
  0
VERTEX
  5
7bc
  8
Layer_0
  10
202.95053
  20
193.27899
  0
VERTEX
  5
7bd
  8
Layer_0
  10
202.87799
  20
193.53574
  0
VERTEX
  5
7be
  8
Layer_0
  10
202.79211
  20
193.79056
  0
VERTEX
  5
7bf
  8
Layer_0
  10
202.69571
  20
194.03296
  0
VERTEX
  5
7c0
  8
Layer_0
  10
202.58786
  20
194.2706
  0
VERTEX
  5
7c1
  8
Layer_0
  10
202.46762
  20
194.50443
  0
VERTEX
  5
7c2
  8
Layer_0
  10
202.33685
  20
194.73157
  0
VERTEX
  5
7c3
  8
Layer_0
  10
202.19656
  20
194.94821
  0
VERTEX
  5
7c4
  8
Layer_0
  10
202.04672
  20
195.1601
  0
VERTEX
  5
7c5
  8
Layer_0
  10
201.88544
  20
195.36435
  0
VERTEX
  5
7c6
  8
Layer_0
  10
201.71936
  20
195.55618
  0
VERTEX
  5
7c7
  8
Layer_0
  10
201.53995
  20
195.74323
  0
VERTEX
  5
7c8
  8
Layer_0
  10
201.35098
  20
195.92456
  0
VERTEX
  5
7c9
  8
Layer_0
  10
201.15533
  20
196.09158
  0
VERTEX
  5
7ca
  8
Layer_0
  10
200.95584
  20
196.24905
  0
VERTEX
  5
7cb
  8
Layer_0
  10
200.74399
  20
196.39984
  0
VERTEX
  5
7cc
  8
Layer_0
  10
200.52542
  20
196.54013
  0
VERTEX
  5
7cd
  8
Layer_0
  10
200.3002
  20
196.6709
  0
VERTEX
  5
7ce
  8
Layer_0
  10
200.0654
  20
196.79114
  0
VERTEX
  5
7cf
  8
Layer_0
  10
199.82776
  20
196.89899
  0
VERTEX
  5
7d0
  8
Layer_0
  10
199.58536
  20
196.99539
  0
VERTEX
  5
7d1
  8
Layer_0
  10
199.33054
  20
197.0813
  0
VERTEX
  5
7d2
  8
Layer_0
  10
199.07379
  20
197.15381
  0
VERTEX
  5
7d3
  8
Layer_0
  10
198.81708
  20
197.21298
  0
VERTEX
  5
7d4
  8
Layer_0
  10
198.55078
  20
197.26166
  0
VERTEX
  5
7d5
  8
Layer_0
  10
198.27975
  20
197.29697
  0
VERTEX
  5
7d6
  8
Layer_0
  10
198.00583
  20
197.31796
  0
VERTEX
  5
7d7
  8
Layer_0
  10
197.75101
  20
197.3237
  0
VERTEX
  5
7d8
  8
Layer_0
  10
102.24903
  20
197.3237
  0
VERTEX
  5
7d9
  8
Layer_0
  10
101.99421
  20
197.31796
  0
VERTEX
  5
7da
  8
Layer_0
  10
101.7203
  20
197.29697
  0
VERTEX
  5
7db
  8
Layer_0
  10
101.44926
  20
197.26166
  0
VERTEX
  5
7dc
  8
Layer_0
  10
101.18298
  20
197.21298
  0
VERTEX
  5
7dd
  8
Layer_0
  10
100.92721
  20
197.15381
  0
VERTEX
  5
7de
  8
Layer_0
  10
100.67048
  20
197.0813
  0
VERTEX
  5
7df
  8
Layer_0
  10
100.41566
  20
196.99539
  0
VERTEX
  5
7e0
  8
Layer_0
  10
100.17037
  20
196.89709
  0
VERTEX
  5
7e1
  8
Layer_0
  10
99.932732
  20
196.78925
  0
VERTEX
  5
7e2
  8
Layer_0
  10
99.701775
  20
196.66995
  0
VERTEX
  5
7e3
  8
Layer_0
  10
99.477486
  20
196.54111
  0
VERTEX
  5
7e4
  8
Layer_0
  10
99.257973
  20
196.39984
  0
VERTEX
  5
7e5
  8
Layer_0
  10
99.046104
  20
196.24905
  0
VERTEX
  5
7e6
  8
Layer_0
  10
98.844734
  20
196.09064
  0
VERTEX
  5
7e7
  8
Layer_0
  10
98.650032
  20
195.92267
  0
VERTEX
  5
7e8
  8
Layer_0
  10
98.462975
  20
195.74323
  0
VERTEX
  5
7e9
  8
Layer_0
  10
98.285454
  20
195.55807
  0
VERTEX
  5
7ea
  8
Layer_0
  10
98.116524
  20
195.36435
  0
VERTEX
  5
7eb
  8
Layer_0
  10
97.954277
  20
195.15723
  0
VERTEX
  5
7ec
  8
Layer_0
  10
97.804436
  20
194.94632
  0
VERTEX
  5
7ed
  8
Layer_0
  10
97.667015
  20
194.73157
  0
VERTEX
  5
7ee
  8
Layer_0
  10
97.536263
  20
194.50729
  0
VERTEX
  5
7ef
  8
Layer_0
  10
97.415047
  20
194.2706
  0
VERTEX
  5
7f0
  8
Layer_0
  10
97.307198
  20
194.03296
  0
VERTEX
  5
7f1
  8
Layer_0
  10
97.210808
  20
193.79056
  0
VERTEX
  5
7f2
  8
Layer_0
  10
97.124916
  20
193.53574
  0
VERTEX
  5
7f3
  8
Layer_0
  10
97.053337
  20
193.28281
  0
VERTEX
  5
7f4
  8
Layer_0
  10
96.991295
  20
193.02322
  0
VERTEX
  5
7f5
  8
Layer_0
  10
96.943581
  20
192.75409
  0
VERTEX
  5
7f6
  8
Layer_0
  10
96.909218
  20
192.4859
  0
VERTEX
  5
7f7
  8
Layer_0
  10
96.888222
  20
192.21198
  0
VERTEX
  5
7f8
  8
Layer_0
  10
96.8825
  20
191.95715
  0
VERTEX
  5
7f9
  8
Layer_0
  10
96.8825
  20
173.95355
  0
VERTEX
  5
7fa
  8
Layer_0
  10
96.888222
  20
173.69873
  0
VERTEX
  5
7fb
  8
Layer_0
  10
96.909218
  20
173.42484
  0
VERTEX
  5
7fc
  8
Layer_0
  10
96.943581
  20
173.15665
  0
VERTEX
  5
7fd
  8
Layer_0
  10
96.991295
  20
172.88751
  0
VERTEX
  5
7fe
  8
Layer_0
  10
97.053337
  20
172.6279
  0
VERTEX
  5
7ff
  8
Layer_0
  10
97.124916
  20
172.375
  0
VERTEX
  5
800
  8
Layer_0
  10
97.210808
  20
172.12018
  0
VERTEX
  5
801
  8
Layer_0
  10
97.307198
  20
171.87775
  0
VERTEX
  5
802
  8
Layer_0
  10
97.415047
  20
171.64011
  0
VERTEX
  5
803
  8
Layer_0
  10
97.536263
  20
171.40341
  0
VERTEX
  5
804
  8
Layer_0
  10
97.667961
  20
171.17725
  0
VERTEX
  5
805
  8
Layer_0
  10
97.804436
  20
170.96631
  0
VERTEX
  5
806
  8
Layer_0
  10
97.953331
  20
170.75443
  0
VERTEX
  5
807
  8
Layer_0
  10
98.116524
  20
170.54639
  0
VERTEX
  5
808
  8
Layer_0
  10
98.285454
  20
170.35263
  0
VERTEX
  5
809
  8
Layer_0
  10
98.462975
  20
170.16748
  0
VERTEX
  5
80a
  8
Layer_0
  10
98.650032
  20
169.98807
  0
VERTEX
  5
80b
  8
Layer_0
  10
98.844734
  20
169.8201
  0
VERTEX
  5
80c
  8
Layer_0
  10
99.046104
  20
169.66165
  0
VERTEX
  5
80d
  8
Layer_0
  10
99.257973
  20
169.51086
  0
VERTEX
  5
80e
  8
Layer_0
  10
99.477486
  20
169.36963
  0
VERTEX
  5
80f
  8
Layer_0
  10
99.701775
  20
169.24078
  0
VERTEX
  5
810
  8
Layer_0
  10
99.932732
  20
169.12149
  0
VERTEX
  5
811
  8
Layer_0
  10
100.17037
  20
169.01364
  0
VERTEX
  5
812
  8
Layer_0
  10
100.41947
  20
168.91437
  0
VERTEX
  5
813
  8
Layer_0
  10
100.67048
  20
168.83038
  0
VERTEX
  5
814
  8
Layer_0
  10
100.92339
  20
168.75784
  0
VERTEX
  5
815
  8
Layer_0
  10
101.18298
  20
168.69772
  0
VERTEX
  5
816
  8
Layer_0
  10
101.44926
  20
168.64905
  0
VERTEX
  5
817
  8
Layer_0
  10
101.7203
  20
168.61374
  0
VERTEX
  5
818
  8
Layer_0
  10
101.99421
  20
168.59274
  0
VERTEX
  5
819
  8
Layer_0
  10
102.24903
  20
168.58701
  0
VERTEX
  5
81a
  8
Layer_0
  10
197.75101
  20
168.58701
  0
SEQEND
  0
ENDSEC
  0
EOF
