0
SECTION
2
HEADER
9
$INSUNITS
70
1
9
$ACADVER
1
AC1014
9
$HANDSEED
5
FFFF
0
ENDSEC
0
SECTION
2
TABLES
0
TABLE
2
VPORT
5
8
100
AcDbSymbolTable
0
ENDTAB
0
TABLE
2
LTYPE
5
5
100
AcDbSymbolTable
0
LTYPE
5
14
100
AcDbSymbolTableRecord
100
AcDbLinetypeTableRecord
2
BYBLOCK
70
0
0
LTYPE
5
15
100
AcDbSymbolTableRecord
100
AcDbLinetypeTableRecord
2
BYLAYER
70
0
0
ENDTAB
0
TABLE
2
LAYER
5
2
100
AcDbSymbolTable
70
2
0
LAYER
5
50
100
AcDbSymbolTableRecord
100
AcDbLayerTableRecord
2
0
70
0
6
CONTINUOUS
0
ENDTAB
0
TABLE
2
STYLE
5
3
100
AcDbSymbolTable
70
1
0
STYLE
5
11
100
AcDbSymbolTableRecord
100
AcDbTextStyleTableRecord
2
STANDARD
70
0
0
ENDTAB
0
TABLE
2
VIEW
5
6
100
AcDbSymbolTable
70
0
0
ENDTAB
0
TABLE
2
UCS
5
7
100
AcDbSymbolTable
70
0
0
ENDTAB
0
TABLE
2
APPID
5
9
100
AcDbSymbolTable
70
2
0
APPID
5
12
100
AcDbSymbolTableRecord
100
AcDbRegAppTableRecord
2
ACAD
70
0
0
ENDTAB
0
TABLE
2
DIMSTYLE
5
A
100
AcDbSymbolTable
70
1
0
ENDTAB
0
TABLE
2
BLOCK_RECORD
5
1
100
AcDbSymbolTable
70
1
0
BLOCK_RECORD
5
1F
100
AcDbSymbolTableRecord
100
AcDbBlockTableRecord
2
*MODEL_SPACE
0
BLOCK_RECORD
5
1B
100
AcDbSymbolTableRecord
100
AcDbBlockTableRecord
2
*PAPER_SPACE
0
ENDTAB
0
ENDSEC
0
SECTION
2
BLOCKS
0
BLOCK
5
20
100
AcDbEntity
100
AcDbBlockBegin
2
*MODEL_SPACE
0
ENDBLK
5
21
100
AcDbEntity
100
AcDbBlockEnd
0
BLOCK
5
1C
100
AcDbEntity
100
AcDbBlockBegin
2
*PAPER_SPACE
0
ENDBLK
5
1D
100
AcDbEntity
100
AcDbBlockEnd
0
ENDSEC
0
SECTION
2
ENTITIES
0
ARC
5
100
100
AcDbEntity
8
0
100
AcDbCircle
10
24.476035701255537
20
-5.0531580564483365
30
0
40
0.86148564194639987
210
0
220
0
230
1
100
AcDbArc
50
114.77829092264581
51
245.72898241030606
0
LINE
5
101
100
AcDbEntity
8
0
100
AcDbLine
10
22.771623756272298
20
-6.5733366205141968
30
0
11
23.716351018708487
21
-5.87353864833924
31
0
0
LINE
5
102
100
AcDbEntity
8
0
100
AcDbLine
10
22.275933525981703
20
-6.3284073302529613
30
0
11
23.570559774505373
21
-5.698589155295501
31
0
0
LINE
5
103
100
AcDbEntity
8
0
100
AcDbLine
10
22.019340936184221
20
-5.9435184455567356
30
0
11
23.448095129374757
21
-5.4944814134111386
31
0
0
LINE
5
104
100
AcDbEntity
8
0
100
AcDbLine
10
22.310923424590449
20
-5.4186699664255187
30
0
11
23.360620382852886
21
-5.2962053212949014
31
0
0
LINE
5
105
100
AcDbEntity
8
0
100
AcDbLine
10
22.975731498156659
20
-5.0396127314974173
30
0
11
23.348957083316634
21
-5.0396127314974173
31
0
0
LINE
5
106
100
AcDbEntity
8
0
100
AcDbLine
10
22.87659345209854
20
-4.7480302430911854
30
0
11
23.366452032621009
21
-4.818010040308681
31
0
0
LINE
5
107
100
AcDbEntity
8
0
100
AcDbLine
10
23.466240808338668
20
-4.5890155914143476
30
0
11
22.618105104895179
21
-4.3308873338445917
31
0
0
LINE
5
108
100
AcDbEntity
8
0
100
AcDbLine
10
23.57159928081612
20
-4.4046382645788071
30
0
11
22.270422145719589
21
-3.7619515824663514
31
0
0
LINE
5
109
100
AcDbEntity
8
0
100
AcDbLine
10
22.773314466342175
20
-3.5163714813897422
30
0
11
23.716799587377754
21
-4.2239853221664276
31
0
0
LINE
5
110
100
AcDbEntity
8
0
100
AcDbLine
10
22.605583778158071
20
-3.6683774175565858
30
0
11
22.605583778158071
21
-3.1809101050215358
31
0
0
LINE
5
111
100
AcDbEntity
8
0
100
AcDbLine
10
22.380718181319601
20
-3.6013292714363749
30
0
11
22.380718181319601
21
-3.0173921777506392
31
0
0
LINE
5
112
100
AcDbEntity
8
0
100
AcDbLine
10
22.105749618897839
20
-3.9955117500476498
30
0
11
22.105749618897839
21
-2.7146174800273251
31
0
0
LINE
5
113
100
AcDbEntity
8
0
100
AcDbLine
10
21.860872773158661
20
-3.6752881825425687
30
0
11
21.860872773158661
21
-2.5827607169369973
31
0
0
LINE
5
114
100
AcDbEntity
8
0
100
AcDbLine
10
21.634086911384468
20
-2.8383281360359662
30
0
11
21.634086911384468
21
-2.4553156337259674
31
0
0
LINE
5
115
100
AcDbEntity
8
0
100
AcDbLine
10
21.382931172164795
20
-2.6248457576992457
30
0
11
21.382931172164795
21
-2.4113633793625247
31
0
0
LINE
5
116
100
AcDbEntity
8
0
100
AcDbLine
10
22.365050578711692
20
-4.2119030084706193
30
0
11
22.365050578711692
21
-4.0494139890883725
31
0
0
LINE
5
117
100
AcDbEntity
8
0
100
AcDbLine
10
22.109710691111015
20
-5.7149264377564073
30
0
11
22.109710691111015
21
-5.5176183427922503
31
0
0
LINE
5
118
100
AcDbEntity
8
0
100
AcDbLine
10
21.871780341301296
20
-5.8251868437657901
30
0
11
21.871780341301296
21
-5.7323359755473628
31
0
0
LINE
5
119
100
AcDbEntity
8
0
100
AcDbLine
10
21.628243994654131
20
-6.3643635839179744
30
0
11
21.628243994654131
21
-5.9117156013531424
31
0
0
LINE
5
120
100
AcDbEntity
8
0
100
AcDbLine
10
22.10410469427357
20
-6.2889222534905018
30
0
11
22.10410469427357
21
-6.1612523096901644
31
0
0
LINE
5
121
100
AcDbEntity
8
0
100
AcDbLine
10
21.378382023922565
20
-6.1708815830741344
30
0
11
21.378382023922565
21
-6.0783601613425056
31
0
0
LINE
5
122
100
AcDbEntity
8
0
100
AcDbLine
10
22.368361236451001
20
-6.0691080191693416
30
0
11
22.368361236451001
21
-6.0197632609124732
31
0
0
LINE
5
123
100
AcDbEntity
8
0
100
AcDbLine
10
22.599664790780075
20
-5.9827546922198209
30
0
11
22.599664790780075
21
-5.9272418391808435
31
0
0
LINE
5
124
100
AcDbEntity
8
0
100
AcDbLine
10
22.346772904713621
20
-5.6435094792038463
30
0
11
22.346772904713621
21
-5.5725763892095967
31
0
0
LINE
5
125
100
AcDbEntity
8
0
100
AcDbLine
10
22.589621242627629
20
-6.8923944569655342
30
0
11
22.589621242627629
21
-6.4197129993619129
31
0
0
LINE
5
126
100
AcDbEntity
8
0
100
AcDbLine
10
22.356916525038155
20
-7.1178271521303387
30
0
11
22.356916525038155
21
-6.5287933357319785
31
0
0
LINE
5
127
100
AcDbEntity
8
0
100
AcDbLine
10
22.095123717749996
20
-7.2705396230484318
30
0
11
22.095123717749996
21
-6.5142492908826366
31
0
0
LINE
5
128
100
AcDbEntity
8
0
100
AcDbLine
10
21.86969102258519
20
-7.5832365873092904
30
0
11
21.86969102258519
21
-6.136104124799739
31
0
0
LINE
5
129
100
AcDbEntity
8
0
100
AcDbLine
10
21.628243994654131
20
-6.9505706363629027
30
0
11
21.628243994654131
21
-6.7614980533214544
31
0
0
LINE
5
130
100
AcDbEntity
8
0
100
AcDbLine
10
21.612311234432088
20
-7.6558926811860912
30
0
11
21.612311234432088
21
-7.4813641429939848
31
0
0
LINE
5
131
100
AcDbEntity
8
0
100
AcDbLine
10
21.365062471993269
20
-7.6631647036107626
30
0
11
21.365062471993269
21
-7.5322682999666828
31
0
0
LINE
5
132
100
AcDbEntity
8
0
100
AcDbLine
10
19.408278195259307
20
-7.3496163562880978
30
0
11
19.408278195259307
21
-7.1387277059726362
31
0
0
LINE
5
133
100
AcDbEntity
8
0
100
AcDbLine
10
19.142996126139955
20
-6.1444610727600546
30
0
11
19.142996126139955
21
-5.8521879418512102
31
0
0
LINE
5
134
100
AcDbEntity
8
0
100
AcDbLine
10
19.132917742315509
20
-5.6304634977134658
30
0
11
19.132917742315509
21
-4.9098590542657972
31
0
0
LINE
5
135
100
AcDbEntity
8
0
100
AcDbLine
10
18.865840570967773
20
-6.0940691536378404
30
0
11
18.865840570967773
21
-5.3835430940146143
31
0
0
LINE
5
136
100
AcDbEntity
8
0
100
AcDbLine
10
18.860801379055552
20
-5.1114267307546557
30
0
11
18.860801379055552
21
-4.1338234997836931
31
0
0
LINE
5
137
100
AcDbEntity
8
0
100
AcDbLine
10
19.142996126139955
20
-4.6780562263036103
30
0
11
19.142996126139955
21
-3.8919422879970629
31
0
0
LINE
5
138
100
AcDbEntity
8
0
100
AcDbLine
10
19.412887016701198
20
-6.1920605572134804
30
0
11
19.412887016701198
21
-3.7944464580559423
31
0
0
LINE
5
139
100
AcDbEntity
8
0
100
AcDbLine
10
18.587797144521478
20
-5.9590940050686179
30
0
11
18.587797144521478
21
-5.1631249519070055
31
0
0
LINE
5
140
100
AcDbEntity
8
0
100
AcDbLine
10
18.578090204848774
20
-4.8913306410713346
30
0
11
18.578090204848774
21
-3.8818089151102648
31
0
0
LINE
5
141
100
AcDbEntity
8
0
100
AcDbLine
10
18.286882014667697
20
-5.5902302975059204
30
0
11
18.286882014667697
21
-4.7748473649989034
31
0
0
LINE
5
142
100
AcDbEntity
8
0
100
AcDbLine
10
18.2965889543404
20
-6.1823536175407776
30
0
11
18.2965889543404
21
-5.8620246083415921
31
0
0
LINE
5
143
100
AcDbEntity
8
0
100
AcDbLine
10
17.985966884813916
20
-6.0755772811410491
30
0
11
17.985966884813916
21
-4.9786930981256567
31
0
0
LINE
5
144
100
AcDbEntity
8
0
100
AcDbLine
10
17.723879513650946
20
-5.5319886594697047
30
0
11
17.723879513650946
21
-5.2116596502705193
31
0
0
LINE
5
145
100
AcDbEntity
8
0
100
AcDbLine
10
17.47149908216068
20
-5.0466416758345751
30
0
11
17.47149908216068
21
-4.8913306410713346
31
0
0
LINE
5
146
100
AcDbEntity
8
0
100
AcDbLine
10
17.47149908216068
20
-4.7166057269626878
30
0
11
17.47149908216068
21
-3.8429811564194547
31
0
0
LINE
5
147
100
AcDbEntity
8
0
100
AcDbLine
10
17.20941171099771
20
-4.7748473649989034
30
0
11
17.20941171099771
21
-4.0953615879097223
31
0
0
LINE
5
148
100
AcDbEntity
8
0
100
AcDbLine
10
16.704650848017174
20
-4.8622098220532255
30
0
11
16.704650848017181
21
-4.532173873181339
31
0
0
LINE
5
149
100
AcDbEntity
8
0
100
AcDbLine
10
16.432856537181504
20
-5.3572637453610579
30
0
11
16.432856537181504
21
-4.7457265459807951
31
0
0
LINE
5
150
100
AcDbEntity
8
0
100
AcDbLine
10
24.973236540522393
20
-5.0642822482160428
30
0
11
22.034392871579147
21
-2.3478683750951395
31
0
0
LINE
5
151
100
AcDbEntity
8
0
100
AcDbLine
10
24.973236540522393
20
-5.0642822482160428
30
0
11
22.037523317862941
21
-7.7341160008658285
31
0
0
LINE
5
152
100
AcDbEntity
8
0
100
AcDbLine
10
21.057575493855477
20
-8.5686599822500842
30
0
11
20.525247853463604
21
-9.0249407726992246
31
0
0
LINE
5
153
100
AcDbEntity
8
0
100
AcDbLine
10
20.525247853463604
20
-9.0249407726992246
30
0
11
16.09830324935006
21
-5.0206079528430587
31
0
0
LINE
5
154
100
AcDbEntity
8
0
100
AcDbLine
10
16.09830324935006
20
-5.0206079528430587
30
0
11
20.545432931818663
21
-1.0635045636793492
31
0
0
SPLINE
5
155
100
AcDbEntity
8
0
100
AcDbSpline
70
4
71
5
72
81
73
75
74
0
42
0.000000001
43
0.0000000001
44
0.0000000001
40
0
40
0
40
0
40
0
40
0
40
0
40
0.014285714285714285
40
0.028571428571428571
40
0.042857142857142858
40
0.057142857142857141
40
0.071428571428571425
40
0.085714285714285715
40
0.10000000000000001
40
0.1142857142857143
40
0.12857142857142859
40
0.14285714285714288
40
0.15714285714285717
40
0.17142857142857146
40
0.18571428571428575
40
0.20000000000000004
40
0.21428571428571433
40
0.22857142857142862
40
0.24285714285714291
40
0.25714285714285717
40
0.27142857142857146
40
0.28571428571428575
40
0.30000000000000004
40
0.31428571428571433
40
0.32857142857142863
40
0.34285714285714292
40
0.35714285714285721
40
0.3714285714285715
40
0.38571428571428579
40
0.40000000000000008
40
0.41428571428571437
40
0.42857142857142866
40
0.44285714285714295
40
0.45714285714285724
40
0.47142857142857153
40
0.48571428571428582
40
0.50000000000000011
40
0.51428571428571435
40
0.52857142857142858
40
0.54285714285714282
40
0.55714285714285705
40
0.57142857142857129
40
0.58571428571428552
40
0.59999999999999976
40
0.61428571428571399
40
0.62857142857142823
40
0.64285714285714246
40
0.6571428571428567
40
0.67142857142857093
40
0.68571428571428517
40
0.6999999999999994
40
0.71428571428571364
40
0.72857142857142787
40
0.74285714285714211
40
0.75714285714285634
40
0.77142857142857058
40
0.78571428571428481
40
0.79999999999999905
40
0.81428571428571328
40
0.82857142857142752
40
0.84285714285714175
40
0.85714285714285599
40
0.87142857142857022
40
0.88571428571428445
40
0.89999999999999869
40
0.91428571428571292
40
0.92857142857142716
40
0.94285714285714139
40
0.95714285714285563
40
0.97142857142856986
40
0.9857142857142841
40
1
40
1
40
1
40
1
40
1
40
1
41
1
41
1
41
1
41
1
41
1
41
1
41
1
41
1
41
1
41
1
41
1
41
1
41
1
41
1
41
1
41
1
41
1
41
1
41
1
41
1
41
1
41
1
41
1
41
1
41
1
41
1
41
1
41
1
41
1
41
1
41
1
41
1
41
1
41
1
41
1
41
1
41
1
41
1
41
1
41
1
41
1
41
1
41
1
41
1
41
1
41
1
41
1
41
1
41
1
41
1
41
1
41
1
41
1
41
1
41
1
41
1
41
1
41
1
41
1
41
1
41
1
41
1
41
1
41
1
41
1
41
1
41
1
41
1
41
1
41
1
41
1
41
1
41
1
41
1
41
1
10
21.074568753288489
20
-7.5625959013432054
30
0
10
21.079991847254021
20
-7.5490460127027079
30
0
10
21.091751824401669
20
-7.5230406951452222
30
0
10
21.112135638269539
20
-7.4873202109434942
30
0
10
21.144782068483842
20
-7.4462344039940929
30
0
10
21.194777978316505
20
-7.406177482301147
30
0
10
21.253766630677255
20
-7.3779288474833962
30
0
10
21.322044351032954
20
-7.3636497333056594
30
0
10
21.398657406437803
20
-7.3645555360794797
30
0
10
21.47397816110086
20
-7.36843104276858
30
0
10
21.536518765471694
20
-7.361023723912945
30
0
10
21.575613474525785
20
-7.3304251570767729
30
0
10
21.586408822177379
20
-7.2755646146884496
30
0
10
21.571849127795758
20
-7.208857029543557
30
0
10
21.539002605655146
20
-7.1467758185127837
30
0
10
21.496619840507062
20
-7.1036042899915701
30
0
10
21.451770752922396
20
-7.081827831231565
30
0
10
21.40858212537503
20
-7.0719930021393775
30
0
10
21.368907630064797
20
-7.061132089365679
30
0
10
21.332430673922318
20
-7.0397467955582602
30
0
10
21.297188806377008
20
-7.006841517327433
30
0
10
21.261114827139426
20
-6.9661058526906681
30
0
10
21.222932796676318
20
-6.9240732842592614
30
0
10
21.184329829197683
20
-6.8869554655197165
30
0
10
21.151558436088919
20
-6.857815601408598
30
0
10
21.143059218852596
20
-6.8304988054079656
30
0
10
21.182958766161228
20
-6.790911451556747
30
0
10
21.261940733398539
20
-6.7394930818311742
30
0
10
21.358991761048649
20
-6.6808871378359331
30
0
10
21.446019219354508
20
-6.6228179249222228
30
0
10
21.498592396727783
20
-6.5716213043943146
30
0
10
21.506269033592353
20
-6.528162378613799
30
0
10
21.473340880892607
20
-6.4881666990430107
30
0
10
21.411812745661159
20
-6.4460505834979021
30
0
10
21.336092010480058
20
-6.3983017483225311
30
0
10
21.259509618685943
20
-6.3446910222368329
30
0
10
21.194079865201282
20
-6.2867160171814724
30
0
10
21.149266679551044
20
-6.2268112668261546
30
0
10
21.131241533035311
20
-6.1672976173847749
30
0
10
21.141725410377187
20
-6.1093177074672926
30
0
10
21.177627144440518
20
-6.052168160958364
30
0
10
21.233003346499753
20
-5.9941501297845186
30
0
10
21.300684728653096
20
-5.9331784749704202
30
0
10
21.373930111571671
20
-5.8674450925348767
30
0
10
21.448307196379091
20
-5.7961552470236501
30
0
10
21.522701457872653
20
-5.719921366711505
30
0
10
21.598149719851524
20
-5.6402790557095344
30
0
10
21.677109261672353
20
-5.5593796466164092
30
0
10
21.762549056587176
20
-5.479610911723376
30
0
10
21.857133684086062
20
-5.4032548105325784
30
0
10
21.962330981240591
20
-5.3321157329453781
30
0
10
22.077636327322587
20
-5.2671927634615967
30
0
10
22.199523667466533
20
-5.2082494777838626
30
0
10
22.322001831960172
20
-5.1539844442654159
30
0
10
22.437640894139257
20
-5.1023779309125024
30
0
10
22.538446765761307
20
-5.0509805845084319
30
0
10
22.616780850618568
20
-4.9972211156906594
30
0
10
22.666300554077644
20
-4.9387159575225938
30
0
10
22.682798984310416
20
-4.8735538221569481
30
0
10
22.665321661094289
20
-4.8006518993930287
30
0
10
22.616264789013353
20
-4.7198463821092815
30
0
10
22.540413935336641
20
-4.6317066704354763
30
0
10
22.444273296981557
20
-4.5374249259431725
30
0
10
22.335273673992891
20
-4.4386756147254571
30
0
10
22.221046932837197
20
-4.3374891981632127
30
0
10
22.108643011818419
20
-4.236119168233448
30
0
10
22.00384053416747
20
-4.136915078197168
30
0
10
21.910238926367573
20
-4.0421862239934452
30
0
10
21.829410020249195
20
-3.954107511362194
30
0
10
21.761513164620791
20
-3.8746433578292527
30
0
10
21.705760058067327
20
-3.8054655547825242
30
0
10
21.669904485208459
20
-3.7593916764736948
30
0
10
21.647422908034208
20
-3.7304299230595404
30
0
10
21.634322428943275
20
-3.7136493698796618
30
0
10
21.628243994654134
20
-3.7058909138341285
30
0
0
SPLINE
5
156
100
AcDbEntity
8
0
100
AcDbSpline
70
4
71
5
72
31
73
25
74
0
42
0.000000001
43
0.0000000001
44
0.0000000001
40
0
40
0
40
0
40
0
40
0
40
0
40
0.050000000000000003
40
0.10000000000000001
40
0.15000000000000002
40
0.20000000000000001
40
0.25
40
0.29999999999999999
40
0.34999999999999998
40
0.39999999999999997
40
0.44999999999999996
40
0.49999999999999994
40
0.54999999999999993
40
0.59999999999999998
40
0.65000000000000002
40
0.70000000000000007
40
0.75000000000000011
40
0.80000000000000016
40
0.8500000000000002
40
0.90000000000000024
40
0.95000000000000029
40
1
40
1
40
1
40
1
40
1
40
1
41
1
41
1
41
1
41
1
41
1
41
1
41
1
41
1
41
1
41
1
41
1
41
1
41
1
41
1
41
1
41
1
41
1
41
1
41
1
41
1
41
1
41
1
41
1
41
1
41
1
10
21.628243994654131
20
-3.7058909138341281
30
0
10
21.609052604183884
20
-3.705545942904688
30
0
10
21.574083608367125
20
-3.7031392010080388
30
0
10
21.531870051585905
20
-3.6943793011891488
30
0
10
21.496161106664136
20
-3.6723524933040195
30
0
10
21.484964175365409
20
-3.6279027197971034
30
0
10
21.50399657058141
20
-3.5678639328645878
30
0
10
21.545682976390253
20
-3.4954372849609499
30
0
10
21.598450532242722
20
-3.4155498270672084
30
0
10
21.64935445943221
20
-3.3337346751504571
30
0
10
21.686050409095852
20
-3.255295485393277
30
0
10
21.699014863481956
20
-3.1843657856776302
30
0
10
21.683749453238256
20
-3.1229794908845219
30
0
10
21.642978033529545
20
-3.0701434777232621
30
0
10
21.583884695867482
20
-3.0229227158617893
30
0
10
21.515472723603281
20
-2.9774730631157604
30
0
10
21.446091583698163
20
-2.9300120317145097
30
0
10
21.380555896303793
20
-2.8779381122322776
30
0
10
21.318512047572192
20
-2.8204915313199952
30
0
10
21.256442280998456
20
-2.7580775555488022
30
0
10
21.188958641357512
20
-2.6918544778339855
30
0
10
21.12606329516775
20
-2.6369604798270387
30
0
10
21.071795903652529
20
-2.5952626580009901
30
0
10
21.032190824568264
20
-2.5673047408649761
30
0
10
21.011531552116775
20
-2.5532859488443242
30
0
0
SPLINE
5
157
100
AcDbEntity
8
0
100
AcDbSpline
70
4
71
5
72
16
73
10
74
0
42
0.000000001
43
0.0000000001
44
0.0000000001
40
0
40
0
40
0
40
0
40
0
40
0
40
0.20000000000000001
40
0.40000000000000002
40
0.60000000000000009
40
0.80000000000000004
40
1
40
1
40
1
40
1
40
1
40
1
41
1
41
1
41
1
41
1
41
1
41
1
41
1
41
1
41
1
41
1
10
21.153677890736375
20
-6.850613664312232
30
0
10
21.109114154635808
20
-6.8696290315555162
30
0
10
21.020982615225908
20
-6.9084336394705783
30
0
10
20.891771848305446
20
-6.9689611955349076
30
0
10
20.72587899141768
20
-7.0546284241864177
30
0
10
20.534368607503851
20
-7.1740328646718465
30
0
10
20.401837572571612
20
-7.285623356187612
30
0
10
20.319912424672513
20
-7.3828934358834779
30
0
10
20.274304208318078
20
-7.4547401025596738
30
0
10
20.253754265186693
20
-7.492414998300549
30
0
0
SPLINE
5
158
100
AcDbEntity
8
0
100
AcDbSpline
70
4
71
5
72
16
73
10
74
0
42
0.000000001
43
0.0000000001
44
0.0000000001
40
0
40
0
40
0
40
0
40
0
40
0
40
0.20000000000000001
40
0.40000000000000002
40
0.60000000000000009
40
0.80000000000000004
40
1
40
1
40
1
40
1
40
1
40
1
41
1
41
1
41
1
41
1
41
1
41
1
41
1
41
1
41
1
41
1
10
20.253754265186693
20
-6.9352254966652112
30
0
10
20.260781726823708
20
-6.9486302885679532
30
0
10
20.274836650098603
20
-6.9754398723735704
30
0
10
20.295919035013746
20
-7.015654248082452
30
0
10
20.324028881572286
20
-7.0692734156951245
30
0
10
20.359166189776289
20
-7.1362973752119778
30
0
10
20.387276036342332
20
-7.1899165428259808
30
0
10
20.408358421267938
20
-7.2301309185367106
30
0
10
20.422413344552073
20
-7.2569405023439462
30
0
10
20.429440806194247
20
-7.2703452942475888
30
0
0
SPLINE
5
159
100
AcDbEntity
8
0
100
AcDbSpline
70
4
71
5
72
56
73
50
74
0
42
0.000000001
43
0.0000000001
44
0.0000000001
40
0
40
0
40
0
40
0
40
0
40
0
40
0.022222222222222223
40
0.044444444444444446
40
0.066666666666666666
40
0.088888888888888892
40
0.11111111111111112
40
0.13333333333333333
40
0.15555555555555556
40
0.17777777777777778
40
0.20000000000000001
40
0.22222222222222224
40
0.24444444444444446
40
0.26666666666666666
40
0.28888888888888886
40
0.31111111111111106
40
0.33333333333333326
40
0.35555555555555546
40
0.37777777777777766
40
0.39999999999999986
40
0.42222222222222205
40
0.44444444444444425
40
0.46666666666666645
40
0.48888888888888865
40
0.51111111111111085
40
0.5333333333333331
40
0.55555555555555536
40
0.57777777777777761
40
0.59999999999999987
40
0.62222222222222212
40
0.64444444444444438
40
0.66666666666666663
40
0.68888888888888888
40
0.71111111111111114
40
0.73333333333333339
40
0.75555555555555565
40
0.7777777777777779
40
0.80000000000000016
40
0.82222222222222241
40
0.84444444444444466
40
0.86666666666666692
40
0.88888888888888917
40
0.91111111111111143
40
0.93333333333333368
40
0.95555555555555594
40
0.97777777777777819
40
1
40
1
40
1
40
1
40
1
40
1
41
1
41
1
41
1
41
1
41
1
41
1
41
1
41
1
41
1
41
1
41
1
41
1
41
1
41
1
41
1
41
1
41
1
41
1
41
1
41
1
41
1
41
1
41
1
41
1
41
1
41
1
41
1
41
1
41
1
41
1
41
1
41
1
41
1
41
1
41
1
41
1
41
1
41
1
41
1
41
1
41
1
41
1
41
1
41
1
41
1
41
1
41
1
41
1
41
1
41
1
10
21.140062150208557
20
-6.1818845345306865
30
0
10
21.115348289396447
20
-6.177611121225218
30
0
10
21.066054714563879
20
-6.1678787100613315
30
0
10
20.992516763586647
20
-6.1497232979916667
30
0
10
20.895271882795136
20
-6.1183971303682849
30
0
10
20.775266382502711
20
-6.0675288310672659
30
0
10
20.657433358190133
20
-6.0054776933390102
30
0
10
20.54300487621024
20
-5.9333322829044182
30
0
10
20.434050636123636
20
-5.852974335897482
30
0
10
20.333638087314796
20
-5.767213313661812
30
0
10
20.24616026215498
20
-5.6801651701997722
30
0
10
20.177160394444947
20
-5.5968311362261023
30
0
10
20.132645573100728
20
-5.5211921179357084
30
0
10
20.118096160675343
20
-5.4547795485474868
30
0
10
20.138478127012565
20
-5.3947607419039283
30
0
10
20.196141705736206
20
-5.3325630427738764
30
0
10
20.27254063513849
20
-5.2686359326328889
30
0
10
20.344130627393412
20
-5.2055861734196114
30
0
10
20.389821296082481
20
-5.1462384286386431
30
0
10
20.4034269162802
20
-5.0891365871867604
30
0
10
20.398838866078037
20
-5.0270851925016222
30
0
10
20.397671941029333
20
-4.9523039289336612
30
0
10
20.420815680852073
20
-4.8600354615746664
30
0
10
20.476473876145739
20
-4.7537719821303916
30
0
10
20.56027820241221
20
-4.6443553920535194
30
0
10
20.660622314240022
20
-4.5461584234990973
30
0
10
20.762000866431613
20
-4.4747143267261951
30
0
10
20.849887350410693
20
-4.4426140807053356
30
0
10
20.913245645180638
20
-4.458800867493717
30
0
10
20.95261555820068
20
-4.5192948598030442
30
0
10
20.979530118872727
20
-4.6063274504046143
30
0
10
21.009001473914751
20
-4.6984023039264837
30
0
10
21.054289135353258
20
-4.7767045686439333
30
0
10
21.121288933278205
20
-4.8323016509934114
30
0
10
21.210719731762477
20
-4.8631965833908843
30
0
10
21.319597801423892
20
-4.8723500068497634
30
0
10
21.44289500060383
20
-4.8654501018004037
30
0
10
21.575305501941131
20
-4.8485343027393055
30
0
10
21.712267670996507
20
-4.8266279926563032
30
0
10
21.849743387937686
20
-4.8040799721915262
30
0
10
21.984298090184321
20
-4.7844877063438807
30
0
10
22.113059779306923
20
-4.7707870172926645
30
0
10
22.233734881560963
20
-4.7652668301141379
30
0
10
22.344594766517311
20
-4.7696187416677942
30
0
10
22.444495267982159
20
-4.7849562800687062
30
0
10
22.532779855933015
20
-4.8119192419191981
30
0
10
22.593868664667674
20
-4.8430289143699223
30
0
10
22.634282604438827
20
-4.8717628458384388
30
0
10
22.658825938444529
20
-4.8933176408779158
30
0
10
22.670497784457609
20
-4.9046947471517823
30
0
0
SPLINE
5
160
100
AcDbEntity
8
0
100
AcDbSpline
70
4
71
5
72
21
73
15
74
0
42
0.000000001
43
0.0000000001
44
0.0000000001
40
0
40
0
40
0
40
0
40
0
40
0
40
0.10000000000000001
40
0.20000000000000001
40
0.30000000000000004
40
0.40000000000000002
40
0.5
40
0.59999999999999998
40
0.69999999999999996
40
0.79999999999999993
40
0.89999999999999991
40
1
40
1
40
1
40
1
40
1
40
1
41
1
41
1
41
1
41
1
41
1
41
1
41
1
41
1
41
1
41
1
41
1
41
1
41
1
41
1
41
1
10
20.130816091974435
20
-5.4314896183949726
30
0
10
20.105268908177841
20
-5.4523249563548202
30
0
10
20.055594844033113
20
-5.4937395331393679
30
0
10
19.985344501790085
20
-5.5550931291065195
30
0
10
19.900340416186502
20
-5.6353358657162058
30
0
10
19.809617828800505
20
-5.7328385717108938
30
0
10
19.736157930410929
20
-5.8272285909555039
30
0
10
19.682043754305198
20
-5.9181303255273736
30
0
10
19.649255739783211
20
-6.0051866765306583
30
0
10
19.638904638022133
20
-6.0881973611193656
30
0
10
19.650331837996035
20
-6.1672811354043899
30
0
10
19.675893000219979
20
-6.2275875236203992
30
0
10
19.703792488204627
20
-6.271243432035555
30
0
10
19.726208597935003
20
-6.2996592153445006
30
0
10
19.738370773540648
20
-6.3136950666529019
30
0
0
SPLINE
5
161
100
AcDbEntity
8
0
100
AcDbSpline
70
4
71
5
72
21
73
15
74
0
42
0.000000001
43
0.0000000001
44
0.0000000001
40
0
40
0
40
0
40
0
40
0
40
0
40
0.10000000000000001
40
0.20000000000000001
40
0.30000000000000004
40
0.40000000000000002
40
0.5
40
0.59999999999999998
40
0.69999999999999996
40
0.79999999999999993
40
0.89999999999999991
40
1
40
1
40
1
40
1
40
1
40
1
41
1
41
1
41
1
41
1
41
1
41
1
41
1
41
1
41
1
41
1
41
1
41
1
41
1
41
1
41
1
10
19.412887016701198
20
-5.842489919470113
30
0
10
19.416618995725884
20
-5.8521145670715535
30
0
10
19.42416179695222
20
-5.8710359504765401
30
0
10
19.435712513339524
20
-5.898434352505264
30
0
10
19.451594409078588
20
-5.9329653049845446
30
0
10
19.47230656766693
20
-5.9725531004968619
30
0
10
19.493967919679463
20
-6.008193164134271
30
0
10
19.516678736319836
20
-6.0394684641123737
30
0
10
19.540526551625188
20
-6.0660149430121271
30
0
10
19.565529356511131
20
-6.0877577759269075
30
0
10
19.591627579066863
20
-6.1049447247223698
30
0
10
19.613323772678978
20
-6.1152937892449364
30
0
10
19.630028679026861
20
-6.1212557174588937
30
0
10
19.641354541416018
20
-6.1244432043320174
30
0
10
19.647064785212134
20
-6.1258401728437493
30
0
0
SPLINE
5
162
100
AcDbEntity
8
0
100
AcDbSpline
70
4
71
5
72
16
73
10
74
0
42
0.000000001
43
0.0000000001
44
0.0000000001
40
0
40
0
40
0
40
0
40
0
40
0
40
0.20000000000000001
40
0.40000000000000002
40
0.60000000000000009
40
0.80000000000000004
40
1
40
1
40
1
40
1
40
1
40
1
41
1
41
1
41
1
41
1
41
1
41
1
41
1
41
1
41
1
41
1
10
21.46520392890287
20
-2.9421479860895485
30
0
10
21.433134680452103
20
-2.9494661017949855
30
0
10
21.368996183550813
20
-2.9641023332059486
30
0
10
21.272788438199687
20
-2.9860566803226858
30
0
10
21.144511444399562
20
-3.0153291431455216
30
0
10
20.984165202150781
20
-3.0519197216746581
30
0
10
20.855888208352052
20
-3.0811921844982311
30
0
10
20.759680463002873
20
-3.1031465316159936
30
0
10
20.695541966103281
20
-3.1177827630278636
30
0
10
20.663472717653466
20
-3.1251008787338055
30
0
0
SPLINE
5
163
100
AcDbEntity
8
0
100
AcDbSpline
70
4
71
5
72
41
73
35
74
0
42
0.000000001
43
0.0000000001
44
0.0000000001
40
0
40
0
40
0
40
0
40
0
40
0
40
0.033333333333333333
40
0.066666666666666666
40
0.10000000000000001
40
0.13333333333333333
40
0.16666666666666666
40
0.19999999999999998
40
0.23333333333333331
40
0.26666666666666666
40
0.29999999999999999
40
0.33333333333333331
40
0.36666666666666664
40
0.39999999999999997
40
0.43333333333333329
40
0.46666666666666662
40
0.49999999999999994
40
0.53333333333333333
40
0.56666666666666665
40
0.59999999999999998
40
0.6333333333333333
40
0.66666666666666663
40
0.69999999999999996
40
0.73333333333333328
40
0.76666666666666661
40
0.79999999999999993
40
0.83333333333333326
40
0.86666666666666659
40
0.89999999999999991
40
0.93333333333333324
40
0.96666666666666656
40
1
40
1
40
1
40
1
40
1
40
1
41
1
41
1
41
1
41
1
41
1
41
1
41
1
41
1
41
1
41
1
41
1
41
1
41
1
41
1
41
1
41
1
41
1
41
1
41
1
41
1
41
1
41
1
41
1
41
1
41
1
41
1
41
1
41
1
41
1
41
1
41
1
41
1
41
1
41
1
41
1
10
20.848083642551238
20
-4.454212580734076
30
0
10
20.842908854599333
20
-4.4361116045611109
30
0
10
20.831514675090503
20
-4.4005193880350966
30
0
10
20.81128971820684
20
-4.3489601800366868
30
0
10
20.778043311580653
20
-4.283880215996299
30
0
10
20.726277071644201
20
-4.2085133332338343
30
0
10
20.665173897011915
20
-4.1386970475969953
30
0
10
20.596604246759874
20
-4.0734868602874199
30
0
10
20.523703938743285
20
-4.0113100892281075
30
0
10
20.451452715415485
20
-3.9496212399445598
30
0
10
20.386225981570508
20
-3.8853146464164947
30
0
10
20.334025901989168
20
-3.816097420046153
30
0
10
20.298966907848627
20
-3.7416986700221266
30
0
10
20.281800586345177
20
-3.6650062114597755
30
0
10
20.278028210244592
20
-3.5936184158396332
30
0
10
20.277278590197248
20
-3.5401483878625375
30
0
10
20.267834269681661
20
-3.517499963185684
30
0
10
20.240422724082769
20
-3.5348441369490886
30
0
10
20.192172493130119
20
-3.5934443416294428
30
0
10
20.124993297373294
20
-3.6886203359802217
30
0
10
20.044193104931683
20
-3.8114509155206742
30
0
10
19.957026223300339
20
-3.9505452362018625
30
0
10
19.871313456679076
20
-4.0937308494307088
30
0
10
19.79399203904396
20
-4.2298196000273665
30
0
10
19.729806989026635
20
-4.3502093620882158
30
0
10
19.679628266752729
20
-4.4509184491105174
30
0
10
19.641144240578981
20
-4.5318678304985331
30
0
10
19.610107162909962
20
-4.5955214032529916
30
0
10
19.581411295649495
20
-4.6457314225836326
30
0
10
19.550141899475744
20
-4.6866011638208009
30
0
10
19.512850407483008
20
-4.7211381877530441
30
0
10
19.476931515775476
20
-4.7448380046518315
30
0
10
19.446329540270884
20
-4.7606376040393661
30
0
10
19.424305114289993
20
-4.7702925494633108
30
0
10
19.412887016701198
20
-4.7749005964562823
30
0
0
SPLINE
5
164
100
AcDbEntity
8
0
100
AcDbSpline
70
4
71
5
72
51
73
45
74
0
42
0.000000001
43
0.0000000001
44
0.0000000001
40
0
40
0
40
0
40
0
40
0
40
0
40
0.025000000000000001
40
0.050000000000000003
40
0.075000000000000011
40
0.10000000000000001
40
0.125
40
0.14999999999999999
40
0.17499999999999999
40
0.19999999999999998
40
0.22499999999999998
40
0.24999999999999997
40
0.27499999999999997
40
0.29999999999999999
40
0.32500000000000001
40
0.35000000000000003
40
0.37500000000000006
40
0.40000000000000008
40
0.4250000000000001
40
0.45000000000000012
40
0.47500000000000014
40
0.50000000000000011
40
0.52500000000000013
40
0.55000000000000016
40
0.57500000000000018
40
0.6000000000000002
40
0.62500000000000022
40
0.65000000000000024
40
0.67500000000000027
40
0.70000000000000029
40
0.72500000000000031
40
0.75000000000000033
40
0.77500000000000036
40
0.80000000000000038
40
0.8250000000000004
40
0.85000000000000042
40
0.87500000000000044
40
0.90000000000000047
40
0.92500000000000049
40
0.95000000000000051
40
0.97500000000000053
40
1
40
1
40
1
40
1
40
1
40
1
41
1
41
1
41
1
41
1
41
1
41
1
41
1
41
1
41
1
41
1
41
1
41
1
41
1
41
1
41
1
41
1
41
1
41
1
41
1
41
1
41
1
41
1
41
1
41
1
41
1
41
1
41
1
41
1
41
1
41
1
41
1
41
1
41
1
41
1
41
1
41
1
41
1
41
1
41
1
41
1
41
1
41
1
41
1
41
1
41
1
10
17.93086461985045
20
-6.6782265355279673
30
0
10
17.934338743638222
20
-6.6730585480772326
30
0
10
17.940260975262362
20
-6.661747532152078
30
0
10
17.946066412073723
20
-6.6418561548713599
30
0
10
17.947643714085569
20
-6.609476313854568
30
0
10
17.939568199635858
20
-6.5596199771356316
30
0
10
17.922162245049169
20
-6.5015450960028671
30
0
10
17.896950189095023
20
-6.4377069816985939
30
0
10
17.866395264836019
20
-6.3719984728814758
30
0
10
17.833408409622809
20
-6.3086454431650214
30
0
10
17.800967760243889
20
-6.2513389814264144
30
0
10
17.771684088695096
20
-6.2022149587810311
30
0
10
17.747414885547052
20
-6.161027585460614
30
0
10
17.728785568062847
20
-6.1238787304561892
30
0
10
17.715252138925806
20
-6.0847659934922387
30
0
10
17.705290582731283
20
-6.0379051598487239
30
0
10
17.696551981850977
20
-5.9796820765857808
30
0
10
17.685994331923023
20
-5.9110400838999171
30
0
10
17.67043943932465
20
-5.8362590107081012
30
0
10
17.64718134329819
20
-5.7613388419689606
30
0
10
17.614585286212208
20
-5.6925233311295358
30
0
10
17.57267800329317
20
-5.6347869215165955
30
0
10
17.523788889213822
20
-5.5902884309125787
30
0
10
17.473069780175461
20
-5.5569537879261137
30
0
10
17.426696496773786
20
-5.5300608396016173
30
0
10
17.39005383358786
20
-5.5037466277841371
30
0
10
17.36615437365796
20
-5.4724254336570617
30
0
10
17.353399338153636
20
-5.4325115726978765
30
0
10
17.345695506678307
20
-5.3829995168104476
30
0
10
17.335245540116077
20
-5.324738237936022
30
0
10
17.314639255627036
20
-5.2600553644627155
30
0
10
17.279207008683397
20
-5.1922476820986265
30
0
10
17.229329325785528
20
-5.1251303673517805
30
0
10
17.169267354540651
20
-5.0627930395593417
30
0
10
17.105908507511444
20
-5.0093724459562745
30
0
10
17.047558777778463
20
-4.9688187690494496
30
0
10
17.002721182450479
20
-4.9446630955626683
30
0
10
16.978887453334561
20
-4.9397833027299516
30
0
10
16.981306633662602
20
-4.9561635547892138
30
0
10
17.013378649832813
20
-4.9950590826888455
30
0
10
17.077057196247569
20
-5.0571620083444691
30
0
10
17.15400407538311
20
-5.1256426056505733
30
0
10
17.226446004545291
20
-5.1875988834551645
30
0
10
17.281281407401664
20
-5.2336075326567011
30
0
10
17.310334305287878
20
-5.2577879735081243
30
0
0
SPLINE
5
165
100
AcDbEntity
8
0
100
AcDbSpline
70
4
71
5
72
21
73
15
74
0
42
0.000000001
43
0.0000000001
44
0.0000000001
40
0
40
0
40
0
40
0
40
0
40
0
40
0.10000000000000001
40
0.20000000000000001
40
0.30000000000000004
40
0.40000000000000002
40
0.5
40
0.59999999999999998
40
0.69999999999999996
40
0.79999999999999993
40
0.89999999999999991
40
1
40
1
40
1
40
1
40
1
40
1
41
1
41
1
41
1
41
1
41
1
41
1
41
1
41
1
41
1
41
1
41
1
41
1
41
1
41
1
41
1
10
17.253752341051179
20
-5.2103872558334645
30
0
10
17.2379422729122
20
-5.2366148715424501
30
0
10
17.207310390087802
20
-5.2862152170865659
30
0
10
17.164327422469423
20
-5.3520507997105771
30
0
10
17.113043232759697
20
-5.4224222969579117
30
0
10
17.059628563699423
20
-5.4795035467006237
30
0
10
17.017725256387898
20
-5.5033305498349598
30
0
10
16.988058857341137
20
-5.4918073334131741
30
0
10
16.970638801019607
20
-5.444906642977184
30
0
10
16.964627463626968
20
-5.3650482225022591
30
0
10
16.96899866586617
20
-5.2551965187759917
30
0
10
16.980044448508341
20
-5.145507974694211
30
0
10
16.992292589922741
20
-5.0517908509730978
30
0
10
17.002190705513275
20
-4.9843073456127929
30
0
10
17.007572964059335
20
-4.9493141541431918
30
0
0
SPLINE
5
166
100
AcDbEntity
8
0
100
AcDbSpline
70
4
71
5
72
16
73
10
74
0
42
0.000000001
43
0.0000000001
44
0.0000000001
40
0
40
0
40
0
40
0
40
0
40
0
40
0.20000000000000001
40
0.40000000000000002
40
0.60000000000000009
40
0.80000000000000004
40
1
40
1
40
1
40
1
40
1
40
1
41
1
41
1
41
1
41
1
41
1
41
1
41
1
41
1
41
1
41
1
10
17.001860485922947
20
-5.4919995771000165
30
0
10
17.000448977396253
20
-5.5045591699213396
30
0
10
16.997625960343292
20
-5.5296783555640845
30
0
10
16.99339143476519
20
-5.5673571340285282
30
0
10
16.987745400663414
20
-5.6175955053150206
30
0
10
16.980687858039175
20
-5.6803934694237563
30
0
10
16.975041823941616
20
-5.7306318407109851
30
0
10
16.970807298369433
20
-5.7683106191764635
30
0
10
16.967984281321726
20
-5.7934298048201214
30
0
10
16.966572772797978
20
-5.8059893976419543
30
0
0
SPLINE
5
167
100
AcDbEntity
8
0
100
AcDbSpline
70
4
71
5
72
26
73
20
74
0
42
0.000000001
43
0.0000000001
44
0.0000000001
40
0
40
0
40
0
40
0
40
0
40
0
40
0.066666666666666666
40
0.13333333333333333
40
0.20000000000000001
40
0.26666666666666666
40
0.33333333333333331
40
0.39999999999999997
40
0.46666666666666662
40
0.53333333333333333
40
0.59999999999999998
40
0.66666666666666663
40
0.73333333333333328
40
0.79999999999999993
40
0.86666666666666659
40
0.93333333333333324
40
1
40
1
40
1
40
1
40
1
40
1
41
1
41
1
41
1
41
1
41
1
41
1
41
1
41
1
41
1
41
1
41
1
41
1
41
1
41
1
41
1
41
1
41
1
41
1
41
1
41
1
10
16.991113513846944
20
-5.6233865742369318
30
0
10
17.02658140130734
20
-5.634297875203476
30
0
10
17.095441446209822
20
-5.6561652373049576
30
0
10
17.192504380730167
20
-5.6891005540404498
30
0
10
17.309376337770427
20
-5.7332848728686239
30
0
10
17.433982156570927
20
-5.7889234084385146
30
0
10
17.536326692137624
20
-5.8448209615332667
30
0
10
17.61563516613294
20
-5.9006574497864053
30
0
10
17.671374447413733
20
-5.9558792468338853
30
0
10
17.703600280352255
20
-6.0096171707760302
30
0
10
17.713268631663553
20
-6.0606333109339277
30
0
10
17.7028887415456
20
-6.1071794666134886
30
0
10
17.676137576366024
20
-6.1472064275877436
30
0
10
17.636884818394869
20
-6.1787724978057543
30
0
10
17.588407199253151
20
-6.2004528998644597
30
0
10
17.532719609993038
20
-6.2116718077168729
30
0
10
17.483297764282955
20
-6.2121962296673585
30
0
10
17.443693601810192
20
-6.207894546459614
30
0
10
17.41617144168988
20
-6.2029549655434231
30
0
10
17.402130493059659
20
-6.1999672379259572
30
0
0
LINE
5
168
100
AcDbEntity
8
0
100
AcDbLine
10
16.690551116618064
20
-5.5563177446907854
30
0
11
16.690551116618078
21
-5.0749262755603874
31
0
0
ARC
5
169
100
AcDbEntity
8
0
100
AcDbCircle
10
16.727352051457689
20
-5.0749262755603857
30
0
40
0.036800934839626896
210
0
220
0
230
1
100
AcDbArc
50
96.233407156861759
51
180
0
SPLINE
5
170
100
AcDbEntity
8
0
100
AcDbSpline
70
4
71
5
72
16
73
10
74
0
42
0.000000001
43
0.0000000001
44
0.0000000001
40
0
40
0
40
0
40
0
40
0
40
0
40
0.20000000000000001
40
0.40000000000000002
40
0.60000000000000009
40
0.80000000000000004
40
1
40
1
40
1
40
1
40
1
40
1
41
1
41
1
41
1
41
1
41
1
41
1
41
1
41
1
41
1
41
1
10
19.121756814206815
20
-7.7554319503733646
30
0
10
19.115978645380434
20
-7.7419226891644524
30
0
10
19.10442230772836
20
-7.7149041667467184
30
0
10
19.087087801252483
20
-7.6743763831204159
30
0
10
19.063975125955281
20
-7.6203393382858762
30
0
10
19.035084281838316
20
-7.5527930322433541
30
0
10
19.011971606546986
20
-7.4987559874096554
30
0
10
18.994637100079384
20
-7.4582282037845165
30
0
10
18.98308076243466
20
-7.4312096813678012
30
0
10
18.977302593612396
20
-7.4177004201594556
30
0
0
LINE
5
171
100
AcDbEntity
8
0
100
AcDbLine
10
20.272097276423303
20
-3.0612219818412236
30
0
11
19.803010428594707
21
-2.5756759463695182
31
0
0
LINE
5
172
100
AcDbEntity
8
0
100
AcDbLine
10
19.425911313566232
20
-2.8385241610644565
30
0
11
19.425911313566232
21
-2.6567903842451099
31
0
0
LINE
5
173
100
AcDbEntity
8
0
100
AcDbLine
10
18.860024477343405
20
-3.9038491452664492
30
0
11
18.860024477343405
21
-3.6835605019125968
31
0
0
LINE
5
174
100
AcDbEntity
8
0
100
AcDbLine
10
20.402661682095278
20
-6.7367223877276219
30
0
11
18.389525417871344
21
-6.7049694758870695
31
0
0
SPLINE
5
175
100
AcDbEntity
8
0
100
AcDbSpline
70
4
71
5
72
21
73
15
74
0
42
0.000000001
43
0.0000000001
44
0.0000000001
40
0
40
0
40
0
40
0
40
0
40
0
40
0.10000000000000001
40
0.20000000000000001
40
0.30000000000000004
40
0.40000000000000002
40
0.5
40
0.59999999999999998
40
0.69999999999999996
40
0.79999999999999993
40
0.89999999999999991
40
1
40
1
40
1
40
1
40
1
40
1
41
1
41
1
41
1
41
1
41
1
41
1
41
1
41
1
41
1
41
1
41
1
41
1
41
1
41
1
41
1
10
19.208320198992816
20
-6.717884209460995
30
0
10
19.197478061673941
20
-6.7320282400927844
30
0
10
19.176540985694412
20
-6.7598222947899878
30
0
10
19.14737690878458
20
-6.8000313987352659
30
0
10
19.113048815011652
20
-6.8506304691290598
30
0
10
19.078224524630308
20
-6.9084536632774043
30
0
10
19.052132443463421
20
-6.960180489583168
30
0
10
19.035336058568284
20
-7.0049419434788494
30
0
10
19.027953972138327
20
-7.0418101545535947
30
0
10
19.029182830260112
20
-7.0700137168516761
30
0
10
19.036605536637001
20
-7.0892802316693233
30
0
10
19.043690441745863
20
-7.0980591964665019
30
0
10
19.04753481280574
20
-7.1012841746718296
30
0
10
19.049126432592256
20
-7.1020008682877611
30
0
10
19.049679415299376
20
-7.1020008682877611
30
0
0
SPLINE
5
176
100
AcDbEntity
8
0
100
AcDbSpline
70
4
71
5
72
16
73
10
74
0
42
0.000000001
43
0.0000000001
44
0.0000000001
40
0
40
0
40
0
40
0
40
0
40
0
40
0.20000000000000001
40
0.40000000000000002
40
0.60000000000000009
40
0.80000000000000004
40
1
40
1
40
1
40
1
40
1
40
1
41
1
41
1
41
1
41
1
41
1
41
1
41
1
41
1
41
1
41
1
10
19.524158571160562
20
-6.722865883163629
30
0
10
19.510624520215352
20
-6.7351652523165608
30
0
10
19.484253287932024
20
-6.7595654482716485
30
0
10
19.446786169360152
20
-6.7955703655752888
30
0
10
19.401299909777361
20
-6.8423034209555329
30
0
10
19.35553655533225
20
-6.897558858804671
30
0
10
19.333394079552669
20
-6.9376411294906459
30
0
10
19.329013441356658
20
-6.9642195091289061
30
0
10
19.332396437164395
20
-6.9801425461773396
30
0
10
19.335665209281828
20
-6.9876546897720404
30
0
0
SPLINE
5
177
100
AcDbEntity
8
0
100
AcDbSpline
70
4
71
5
72
16
73
10
74
0
42
0.000000001
43
0.0000000001
44
0.0000000001
40
0
40
0
40
0
40
0
40
0
40
0
40
0.20000000000000001
40
0.40000000000000002
40
0.60000000000000009
40
0.80000000000000004
40
1
40
1
40
1
40
1
40
1
40
1
41
1
41
1
41
1
41
1
41
1
41
1
41
1
41
1
41
1
41
1
10
19.781615793452232
20
-6.7269267192964941
30
0
10
19.771750937147505
20
-6.73766772018302
30
0
10
19.752595366272512
20
-6.7588137702461726
30
0
10
19.725583710993124
20
-6.7895254139502459
30
0
10
19.69325086141264
20
-6.8283193926962396
30
0
10
19.661975387868278
20
-6.8714633674398318
30
0
10
19.648875175766968
20
-6.899003613767098
30
0
10
19.649123037963076
20
-6.9137646986427717
30
0
10
19.654481585586105
20
-6.9205666250586511
30
0
10
19.658460354946861
20
-6.9232072050269515
30
0
0
SPLINE
5
178
100
AcDbEntity
8
0
100
AcDbSpline
70
4
71
5
72
16
73
10
74
0
42
0.000000001
43
0.0000000001
44
0.0000000001
40
0
40
0
40
0
40
0
40
0
40
0
40
0.20000000000000001
40
0.40000000000000002
40
0.60000000000000009
40
0.80000000000000004
40
1
40
1
40
1
40
1
40
1
40
1
41
1
41
1
41
1
41
1
41
1
41
1
41
1
41
1
41
1
41
1
10
18.974997093977862
20
-6.7142040373258203
30
0
10
18.952514570569388
20
-6.7458526804296808
30
0
10
18.908938973250002
20
-6.8078373909234431
30
0
10
18.847742173238089
20
-6.8968783850862092
30
0
10
18.775058721583846
20
-7.0071805168983969
30
0
10
18.706325052910724
20
-7.1241614001422739
30
0
10
18.680185471653235
20
-7.1904947845887701
30
0
10
18.68495796211641
20
-7.217216357481294
30
0
10
18.700707663030908
20
-7.2231580481698305
30
0
10
18.711727352696538
20
-7.2231580481698305
30
0
0
SPLINE
5
179
100
AcDbEntity
8
0
100
AcDbSpline
70
4
71
5
72
16
73
10
74
0
42
0.000000001
43
0.0000000001
44
0.0000000001
40
0
40
0
40
0
40
0
40
0
40
0
40
0.20000000000000001
40
0.40000000000000002
40
0.60000000000000009
40
0.80000000000000004
40
1
40
1
40
1
40
1
40
1
40
1
41
1
41
1
41
1
41
1
41
1
41
1
41
1
41
1
41
1
41
1
10
18.687369049607344
20
-6.7096673211094044
30
0
10
18.675803562660168
20
-6.7276169310092717
30
0
10
18.653219384589647
20
-6.7630411459198694
30
0
10
18.620982815276708
20
-6.8147530527464584
30
0
10
18.581508010040324
20
-6.8806554599416287
30
0
10
18.540869733021744
20
-6.9554711825964368
30
0
10
18.519711530147347
20
-7.0054618448550903
30
0
10
18.513436129328355
20
-7.0346211252082309
30
0
10
18.514198481928474
20
-7.0497640655762979
30
0
10
18.51581725984558
20
-7.0562604236364352
30
0
0
SPLINE
5
180
100
AcDbEntity
8
0
100
AcDbSpline
70
4
71
5
72
16
73
10
74
0
42
0.000000001
43
0.0000000001
44
0.0000000001
40
0
40
0
40
0
40
0
40
0
40
0
40
0.20000000000000001
40
0.40000000000000002
40
0.60000000000000009
40
0.80000000000000004
40
1
40
1
40
1
40
1
40
1
40
1
41
1
41
1
41
1
41
1
41
1
41
1
41
1
41
1
41
1
41
1
10
20.132827584591052
20
-6.7324663329031722
30
0
10
20.122517599171193
20
-6.7385946813408477
30
0
10
20.102078035665372
20
-6.7512769667265999
30
0
10
20.071959684858903
20
-6.7715766235376904
30
0
10
20.032959062206974
20
-6.8013726653316029
30
0
10
19.98708044783266
20
-6.8453932734697061
30
0
10
19.954123121872627
20
-6.8894457070966011
30
0
10
19.93257028122871
20
-6.929951763718007
30
0
10
19.919833566142962
20
-6.9608053934724357
30
0
10
19.913873537263189
20
-6.977195472891764
30
0
0
SPLINE
5
181
100
AcDbEntity
8
0
100
AcDbSpline
70
4
71
5
72
16
73
10
74
0
42
0.000000001
43
0.0000000001
44
0.0000000001
40
0
40
0
40
0
40
0
40
0
40
0
40
0.20000000000000001
40
0.40000000000000002
40
0.60000000000000009
40
0.80000000000000004
40
1
40
1
40
1
40
1
40
1
40
1
41
1
41
1
41
1
41
1
41
1
41
1
41
1
41
1
41
1
41
1
10
20.132827584591052
20
-6.7324663329031722
30
0
10
20.121956195745696
20
-6.7252954142132042
30
0
10
20.100419203145531
20
-6.7105647326066604
30
0
10
20.068730809958282
20
-6.6873026679698873
30
0
10
20.027799576837069
20
-6.6537924362360474
30
0
10
19.979911724403092
20
-6.6057140757967669
30
0
10
19.945873893734532
20
-6.5591783146502758
30
0
10
19.923955914242484
20
-6.5174544219340165
30
0
10
19.911205323650766
20
-6.4861212659204366
30
0
10
19.905295796287835
20
-6.4695745893042229
30
0
0
SPLINE
5
182
100
AcDbEntity
8
0
100
AcDbSpline
70
4
71
5
72
16
73
10
74
0
42
0.000000001
43
0.0000000001
44
0.0000000001
40
0
40
0
40
0
40
0
40
0
40
0
40
0.20000000000000001
40
0.40000000000000002
40
0.60000000000000009
40
0.80000000000000004
40
1
40
1
40
1
40
1
40
1
40
1
41
1
41
1
41
1
41
1
41
1
41
1
41
1
41
1
41
1
41
1
10
19.781615793452232
20
-6.7269267192964941
30
0
10
19.775021318732605
20
-6.7201774318074445
30
0
10
19.762003582601452
20
-6.7063706524480677
30
0
10
19.742990402376073
20
-6.6847362590062502
30
0
10
19.718737701017709
20
-6.6539134999653484
30
0
10
19.691147615335598
20
-6.6104783021271247
30
0
10
19.672630228594087
20
-6.5693312925029774
30
0
10
19.661746037915385
20
-6.5330637480176064
30
0
10
19.656038593068441
20
-6.5060975721646077
30
0
10
19.65357238982029
20
-6.4919169034877369
30
0
0
SPLINE
5
183
100
AcDbEntity
8
0
100
AcDbSpline
70
4
71
5
72
16
73
10
74
0
42
0.000000001
43
0.0000000001
44
0.0000000001
40
0
40
0
40
0
40
0
40
0
40
0
40
0.20000000000000001
40
0.40000000000000002
40
0.60000000000000009
40
0.80000000000000004
40
1
40
1
40
1
40
1
40
1
40
1
41
1
41
1
41
1
41
1
41
1
41
1
41
1
41
1
41
1
41
1
10
19.524158571160562
20
-6.722865883163629
30
0
10
19.512811912039975
20
-6.7100512248183986
30
0
10
19.490589177929497
20
-6.6845596910471317
30
0
10
19.458666235603769
20
-6.6467355653609532
30
0
10
19.419120758542999
20
-6.5971871723897886
30
0
10
19.377180818138346
20
-6.5374452457271897
30
0
10
19.353398999149448
20
-6.4925123140157686
30
0
10
19.343818791311069
20
-6.461229945642053
30
0
10
19.341688578694601
20
-6.4416213264927018
30
0
10
19.341688578694601
20
-6.4321288707326607
30
0
0
SPLINE
5
184
100
AcDbEntity
8
0
100
AcDbSpline
70
4
71
5
72
16
73
10
74
0
42
0.000000001
43
0.0000000001
44
0.0000000001
40
0
40
0
40
0
40
0
40
0
40
0
40
0.20000000000000001
40
0.40000000000000002
40
0.60000000000000009
40
0.80000000000000004
40
1
40
1
40
1
40
1
40
1
40
1
41
1
41
1
41
1
41
1
41
1
41
1
41
1
41
1
41
1
41
1
10
19.208320198992816
20
-6.717884209460995
30
0
10
19.199479240456991
20
-6.7061344746433837
30
0
10
19.18201222307221
20
-6.6822496595353114
30
0
10
19.15645612500068
20
-6.6452668864944977
30
0
10
19.123759748700689
20
-6.5934848187831614
30
0
10
19.086310575664864
20
-6.5226223650679298
30
0
10
19.060812923156323
20
-6.4579319694276176
30
0
10
19.045459988182223
20
-6.4026534846756809
30
0
10
19.037168538539927
20
-6.3623155813829051
30
0
10
19.033509211360954
20
-6.3412744501037164
30
0
0
SPLINE
5
185
100
AcDbEntity
8
0
100
AcDbSpline
70
4
71
5
72
16
73
10
74
0
42
0.000000001
43
0.0000000001
44
0.0000000001
40
0
40
0
40
0
40
0
40
0
40
0
40
0.20000000000000001
40
0.40000000000000002
40
0.60000000000000009
40
0.80000000000000004
40
1
40
1
40
1
40
1
40
1
40
1
41
1
41
1
41
1
41
1
41
1
41
1
41
1
41
1
41
1
41
1
10
18.974997093977862
20
-6.7142040373258203
30
0
10
18.96139900324971
20
-6.6966909020377763
30
0
10
18.934505721980994
20
-6.661495902779154
30
0
10
18.895074118589896
20
-6.608197430662698
30
0
10
18.844441526075311
20
-6.5360505325837872
30
0
10
18.78597308937205
20
-6.443180675294327
30
0
10
18.745487067198226
20
-6.3653816927361948
30
0
10
18.720436778477001
20
-6.3040721979088072
30
0
10
18.70647642062816
20
-6.261672993359122
30
0
10
18.700181817096546
20
-6.2400914955364239
30
0
0
SPLINE
5
186
100
AcDbEntity
8
0
100
AcDbSpline
70
4
71
5
72
16
73
10
74
0
42
0.000000001
43
0.0000000001
44
0.0000000001
40
0
40
0
40
0
40
0
40
0
40
0
40
0.20000000000000001
40
0.40000000000000002
40
0.60000000000000009
40
0.80000000000000004
40
1
40
1
40
1
40
1
40
1
40
1
41
1
41
1
41
1
41
1
41
1
41
1
41
1
41
1
41
1
41
1
10
18.687369049607344
20
-6.7096673211094044
30
0
10
18.677534142129691
20
-6.6974502294969964
30
0
10
18.658157751289689
20
-6.6726451836558436
30
0
10
18.629973067277014
20
-6.6343254948175927
30
0
10
18.594275585334643
20
-6.5808537694268585
30
0
10
18.554325173617929
20
-6.5081098170454537
30
0
10
18.5284568319295
20
-6.4422149114036031
30
0
10
18.514203550763213
20
-6.3862871384153186
30
0
10
18.507355483673852
20
-6.3456473786336334
30
0
10
18.504595577658467
20
-6.3244880991823544
30
0
0
SPLINE
5
187
100
AcDbEntity
8
0
100
AcDbSpline
70
4
71
5
72
16
73
10
74
0
42
0.000000001
43
0.0000000001
44
0.0000000001
40
0
40
0
40
0
40
0
40
0
40
0
40
0.20000000000000001
40
0.40000000000000002
40
0.60000000000000009
40
0.80000000000000004
40
1
40
1
40
1
40
1
40
1
40
1
41
1
41
1
41
1
41
1
41
1
41
1
41
1
41
1
41
1
41
1
10
18.270625323041717
20
-6.9855524807006217
30
0
10
18.274559063139954
20
-6.9701529500886732
30
0
10
18.281508800034047
20
-6.9414227524065373
30
0
10
18.28918375398057
20
-6.9045276542404892
30
0
10
18.295629903128358
20
-6.8653238689537233
30
0
10
18.306234254370651
20
-6.822447338638276
30
0
10
18.325892024750001
20
-6.7838670562522108
30
0
10
18.352292565357967
20
-6.7478556844204745
30
0
10
18.376081971214802
20
-6.7199202099795601
30
0
10
18.389525417871344
20
-6.7049694758870695
30
0
0
SPLINE
5
188
100
AcDbEntity
8
0
100
AcDbSpline
70
4
71
5
72
16
73
10
74
0
42
0.000000001
43
0.0000000001
44
0.0000000001
40
0
40
0
40
0
40
0
40
0
40
0
40
0.20000000000000001
40
0.40000000000000002
40
0.60000000000000009
40
0.80000000000000004
40
1
40
1
40
1
40
1
40
1
40
1
41
1
41
1
41
1
41
1
41
1
41
1
41
1
41
1
41
1
41
1
10
18.389525417871344
20
-6.7049694758870695
30
0
10
18.382404818974624
20
-6.6966809130947231
30
0
10
18.368350173858392
20
-6.6797949669932999
30
0
10
18.347827628915017
20
-6.6535399758091875
30
0
10
18.321660831872141
20
-6.6165524677295009
30
0
10
18.291922336072844
20
-6.5654015244467701
30
0
10
18.272004692837058
20
-6.5180691264401407
30
0
10
18.260339431123537
20
-6.4771517308897701
30
0
10
18.254250022033972
20
-6.4470800811739073
30
0
10
18.251627555342132
20
-6.4313452810228746
30
0
0
LINE
5
189
100
AcDbEntity
8
0
100
AcDbLine
10
17.960432722054723
20
-6.7049719621518795
30
0
11
18.389525417871344
21
-6.7049694758870695
31
0
0
LINE
5
190
100
AcDbEntity
8
0
100
AcDbLine
10
18.642904198455049
20
-3.285140784226853
30
0
11
20.460740087362495
21
-3.285140784226853
31
0
0
SPLINE
5
191
100
AcDbEntity
8
0
100
AcDbSpline
70
4
71
5
72
16
73
10
74
0
42
0.000000001
43
0.0000000001
44
0.0000000001
40
0
40
0
40
0
40
0
40
0
40
0
40
0.20000000000000001
40
0.40000000000000002
40
0.60000000000000009
40
0.80000000000000004
40
1
40
1
40
1
40
1
40
1
40
1
41
1
41
1
41
1
41
1
41
1
41
1
41
1
41
1
41
1
41
1
10
19.016552147063507
20
-3.285140784226853
30
0
10
19.009347590785698
20
-3.2888982378358089
30
0
10
18.995256220338927
20
-3.2967917727588598
30
0
10
18.97507199022429
20
-3.3097674806922019
30
0
10
18.950197761927981
20
-3.3294970387931442
30
0
10
18.924163570399188
20
-3.3601869056830846
30
0
10
18.909933088096281
20
-3.3925997594852548
30
0
10
18.904834848149452
20
-3.423552228078254
30
0
10
18.904310106347701
20
-3.4476120227826956
30
0
10
18.904766903608635
20
-3.4604988949690814
30
0
0
SPLINE
5
192
100
AcDbEntity
8
0
100
AcDbSpline
70
4
71
5
72
16
73
10
74
0
42
0.000000001
43
0.0000000001
44
0.0000000001
40
0
40
0
40
0
40
0
40
0
40
0
40
0.20000000000000001
40
0.40000000000000002
40
0.60000000000000009
40
0.80000000000000004
40
1
40
1
40
1
40
1
40
1
40
1
41
1
41
1
41
1
41
1
41
1
41
1
41
1
41
1
41
1
41
1
10
19.016552147063507
20
-3.285140784226853
30
0
10
19.007190771256603
20
-3.2808493047910035
30
0
10
18.98898203147963
20
-3.2718543399246114
30
0
10
18.963210308996768
20
-3.2571263943079507
30
0
10
18.932145014721119
20
-3.2348464224758269
30
0
10
18.901496690939339
20
-3.2004371413999908
30
0
10
18.887649798877341
20
-3.164355765731401
30
0
10
18.886282702985753
20
-3.1300663008234926
30
0
10
18.890020716620587
20
-3.1034799239908972
30
0
10
18.893053122741044
20
-3.0892542132993737
30
0
0
SPLINE
5
193
100
AcDbEntity
8
0
100
AcDbSpline
70
4
71
5
72
16
73
10
74
0
42
0.000000001
43
0.0000000001
44
0.0000000001
40
0
40
0
40
0
40
0
40
0
40
0
40
0.20000000000000001
40
0.40000000000000002
40
0.60000000000000009
40
0.80000000000000004
40
1
40
1
40
1
40
1
40
1
40
1
41
1
41
1
41
1
41
1
41
1
41
1
41
1
41
1
41
1
41
1
10
19.307565628111703
20
-3.285140784226853
30
0
10
19.292890887692032
20
-3.2953879781019864
30
0
10
19.264183804730504
20
-3.3163358427132708
30
0
10
19.223049563659238
20
-3.349117498238662
30
0
10
19.172324411915021
20
-3.3957350879435224
30
0
10
19.119145228427463
20
-3.4612266257546977
30
0
10
19.089939162925461
20
-3.5230348130934401
30
0
10
19.079305153978559
20
-3.5773469717604582
30
0
10
19.078026520738767
20
-3.6176569291092129
30
0
10
19.078841188619183
20
-3.638838294000132
30
0
0
SPLINE
5
194
100
AcDbEntity
8
0
100
AcDbSpline
70
4
71
5
72
16
73
10
74
0
42
0.000000001
43
0.0000000001
44
0.0000000001
40
0
40
0
40
0
40
0
40
0
40
0
40
0.20000000000000001
40
0.40000000000000002
40
0.60000000000000009
40
0.80000000000000004
40
1
40
1
40
1
40
1
40
1
40
1
41
1
41
1
41
1
41
1
41
1
41
1
41
1
41
1
41
1
41
1
10
19.358647970150013
20
-3.5763451364955614
30
0
10
19.361567017085285
20
-3.5581010931501234
30
0
10
19.368953167301882
20
-3.5235380632472135
30
0
10
19.384672383830193
20
-3.4774634934876847
30
0
10
19.413631163702416
20
-3.4259787673539597
30
0
10
19.458704760202789
20
-3.3726593527980904
30
0
10
19.499119218591318
20
-3.3354201234448677
30
0
10
19.531075223706658
20
-3.3095365113145463
30
0
10
19.5530629001546
20
-3.2931309388340693
30
0
10
19.5642277285285
20
-3.285140784226853
30
0
0
SPLINE
5
195
100
AcDbEntity
8
0
100
AcDbSpline
70
4
71
5
72
16
73
10
74
0
42
0.000000001
43
0.0000000001
44
0.0000000001
40
0
40
0
40
0
40
0
40
0
40
0
40
0.20000000000000001
40
0.40000000000000002
40
0.60000000000000009
40
0.80000000000000004
40
1
40
1
40
1
40
1
40
1
40
1
41
1
41
1
41
1
41
1
41
1
41
1
41
1
41
1
41
1
41
1
10
19.760863151635924
20
-3.285140784226853
30
0
10
19.754501085330066
20
-3.2926040060572208
30
0
10
19.742111345021495
20
-3.3075736048353495
30
0
10
19.724529489695975
20
-3.3301574139227719
30
0
10
19.703231893023659
20
-3.3605459672476115
30
0
10
19.681933569427397
20
-3.3992187073150091
30
0
10
19.67183746805101
20
-3.4310528735917125
30
0
10
19.670132132890814
20
-3.4556856326251091
30
0
10
19.672019934252504
20
-3.4724978246118949
30
0
10
19.67372068865636
20
-3.4810015966311831
30
0
0
SPLINE
5
196
100
AcDbEntity
8
0
100
AcDbSpline
70
4
71
5
72
16
73
10
74
0
42
0.000000001
43
0.0000000001
44
0.0000000001
40
0
40
0
40
0
40
0
40
0
40
0
40
0.20000000000000001
40
0.40000000000000002
40
0.60000000000000009
40
0.80000000000000004
40
1
40
1
40
1
40
1
40
1
40
1
41
1
41
1
41
1
41
1
41
1
41
1
41
1
41
1
41
1
41
1
10
20.218988904114223
20
-3.285140784226853
30
0
10
20.201987168251168
20
-3.291148648445958
30
0
10
20.168688815715381
20
-3.3036794499756827
30
0
10
20.120855755109325
20
-3.3240202218783166
30
0
10
20.06160115440122
20
-3.3544450606073353
30
0
10
19.99875871053391
20
-3.4006762987262866
30
0
10
19.963124238704633
20
-3.448355089659854
30
0
10
19.948769338160869
20
-3.4931508751899289
30
0
10
19.945577446005476
20
-3.5276737425174618
30
0
10
19.945577446005483
20
-3.5461009774979892
30
0
0
SPLINE
5
197
100
AcDbEntity
8
0
100
AcDbSpline
70
4
71
5
72
16
73
10
74
0
42
0.000000001
43
0.0000000001
44
0.0000000001
40
0
40
0
40
0
40
0
40
0
40
0
40
0.20000000000000001
40
0.40000000000000002
40
0.60000000000000009
40
0.80000000000000004
40
1
40
1
40
1
40
1
40
1
40
1
41
1
41
1
41
1
41
1
41
1
41
1
41
1
41
1
41
1
41
1
10
19.307565628111703
20
-3.285140784226853
30
0
10
19.289434507428261
20
-3.2698555713633914
30
0
10
19.254201775272442
20
-3.2394194837041161
30
0
10
19.204439906142401
20
-3.1941681969762818
30
0
10
19.144694280653241
20
-3.1346948264643668
30
0
10
19.086402487330652
20
-3.0624918343287977
30
0
10
19.061143428913315
20
-3.00751852921803
30
0
10
19.060261344409149
20
-2.9686454426500433
30
0
10
19.068985547058162
20
-2.9439451848587566
30
0
10
19.075677809311792
20
-2.9318991128022502
30
0
0
SPLINE
5
198
100
AcDbEntity
8
0
100
AcDbSpline
70
4
71
5
72
16
73
10
74
0
42
0.000000001
43
0.0000000001
44
0.0000000001
40
0
40
0
40
0
40
0
40
0
40
0
40
0.20000000000000001
40
0.40000000000000002
40
0.60000000000000009
40
0.80000000000000004
40
1
40
1
40
1
40
1
40
1
40
1
41
1
41
1
41
1
41
1
41
1
41
1
41
1
41
1
41
1
41
1
10
19.5642277285285
20
-3.285140784226853
30
0
10
19.552042999690471
20
-3.2797494639514455
30
0
10
19.528178883716169
20
-3.2682696598746306
30
0
10
19.493898097467795
20
-3.2489593425202705
30
0
10
19.451431772391594
20
-3.2187404689307186
30
0
10
19.406394127754108
20
-3.1698677275897142
30
0
10
19.380855772140912
20
-3.1162952244746664
30
0
10
19.370567965529503
20
-3.0638844718387555
30
0
10
19.368280414381431
20
-3.0226378902111417
30
0
10
19.368280414381427
20
-3.0004366599356773
30
0
0
SPLINE
5
199
100
AcDbEntity
8
0
100
AcDbSpline
70
4
71
5
72
16
73
10
74
0
42
0.000000001
43
0.0000000001
44
0.0000000001
40
0
40
0
40
0
40
0
40
0
40
0
40
0.20000000000000001
40
0.40000000000000002
40
0.60000000000000009
40
0.80000000000000004
40
1
40
1
40
1
40
1
40
1
40
1
41
1
41
1
41
1
41
1
41
1
41
1
41
1
41
1
41
1
41
1
10
19.760863151635924
20
-3.285140784226853
30
0
10
19.755763880863697
20
-3.277825441697003
30
0
10
19.745730002125779
20
-3.2630767585192442
30
0
10
19.731172964747817
20
-3.2405998882305633
30
0
10
19.712819770606639
20
-3.2098738579704968
30
0
10
19.692499782086216
20
-3.1695877383100406
30
0
10
19.67966247343184
20
-3.1349089993494421
30
0
10
19.672923416140055
20
-3.1068297288691178
30
0
10
19.669920142049367
20
-3.0870428823307545
30
0
10
19.668791197966449
20
-3.0768823855844993
30
0
0
SPLINE
5
200
100
AcDbEntity
8
0
100
AcDbSpline
70
4
71
5
72
16
73
10
74
0
42
0.000000001
43
0.0000000001
44
0.0000000001
40
0
40
0
40
0
40
0
40
0
40
0
40
0.20000000000000001
40
0.40000000000000002
40
0.60000000000000009
40
0.80000000000000004
40
1
40
1
40
1
40
1
40
1
40
1
41
1
41
1
41
1
41
1
41
1
41
1
41
1
41
1
41
1
41
1
10
20.218988904114223
20
-3.285140784226853
30
0
10
20.202502759408564
20
-3.2780230296617914
30
0
10
20.170065325217781
20
-3.2634871950834539
30
0
10
20.12301306497535
20
-3.2407828456745977
30
0
10
20.063707415106695
20
-3.2085840161538903
30
0
10
19.998090482654352
20
-3.1635541662893001
30
0
10
19.95670144804134
20
-3.1212950152034598
30
0
10
19.935043431682146
20
-3.0843315964488678
30
0
10
19.925442700462423
20
-3.0569727720310853
30
0
10
19.921852910459098
20
-3.042613612017786
30
0
0
LINE
5
201
100
AcDbEntity
8
0
100
AcDbLine
10
17.699905175469208
20
-4.9166112460362683
30
0
11
17.699905175469208
21
-3.5954854890386843
31
0
0
SPLINE
5
202
100
AcDbEntity
8
0
100
AcDbSpline
70
4
71
5
72
36
73
30
74
0
42
0.000000001
43
0.0000000001
44
0.0000000001
40
0
40
0
40
0
40
0
40
0
40
0
40
0.040000000000000001
40
0.080000000000000002
40
0.12
40
0.16
40
0.20000000000000001
40
0.24000000000000002
40
0.28000000000000003
40
0.32000000000000001
40
0.35999999999999999
40
0.39999999999999997
40
0.43999999999999995
40
0.47999999999999993
40
0.51999999999999991
40
0.55999999999999994
40
0.59999999999999998
40
0.64000000000000001
40
0.68000000000000005
40
0.72000000000000008
40
0.76000000000000012
40
0.80000000000000016
40
0.84000000000000019
40
0.88000000000000023
40
0.92000000000000026
40
0.9600000000000003
40
1
40
1
40
1
40
1
40
1
40
1
41
1
41
1
41
1
41
1
41
1
41
1
41
1
41
1
41
1
41
1
41
1
41
1
41
1
41
1
41
1
41
1
41
1
41
1
41
1
41
1
41
1
41
1
41
1
41
1
41
1
41
1
41
1
41
1
41
1
41
1
10
17.699905175469208
20
-4.9166112460362683
30
0
10
17.717800868257306
20
-4.9087286245334329
30
0
10
17.752784160117191
20
-4.8925090502560264
30
0
10
17.802834816231456
20
-4.8668167046912432
30
0
10
17.8647078176698
20
-4.829827078476769
30
0
10
17.933847588941124
20
-4.7790712932776582
30
0
10
17.99461653888704
20
-4.7239779971193565
30
0
10
18.046774402564829
20
-4.6649699579003032
30
0
10
18.090013598899322
20
-4.602802654258733
30
0
10
18.123959227216091
20
-4.5386797505671854
30
0
10
18.148185069523748
20
-4.4743252519067909
30
0
10
18.162197804100288
20
-4.4121806836970858
30
0
10
18.16560396405044
20
-4.3549699364214058
30
0
10
18.158336491596796
20
-4.3050541205088964
30
0
10
18.140888097616305
20
-4.2638091750573288
30
0
10
18.114509308791781
20
-4.2310763945621446
30
0
10
18.081544084658173
20
-4.2043202109826296
30
0
10
18.045004917277225
20
-4.1794620005691376
30
0
10
18.007857432647842
20
-4.1523512377272036
30
0
10
17.972472123670219
20
-4.119880055865039
30
0
10
17.9398421280058
20
-4.0815851000774153
30
0
10
17.909513928573212
20
-4.0397763954819341
30
0
10
17.88020739876216
20
-3.9982457707489765
30
0
10
17.85025162021465
20
-3.9613502608148052
30
0
10
17.818064554337926
20
-3.933007823635486
30
0
10
17.782678803807535
20
-3.9155816425747085
30
0
10
17.751455762037036
20
-3.9112295030221267
30
0
10
17.72633930182592
20
-3.9134949907365213
30
0
10
17.708842052229169
20
-3.9174558870128102
30
0
10
17.699905175469208
20
-3.9200490141932227
30
0
0
SPLINE
5
203
100
AcDbEntity
8
0
100
AcDbSpline
70
4
71
5
72
21
73
15
74
0
42
0.000000001
43
0.0000000001
44
0.0000000001
40
0
40
0
40
0
40
0
40
0
40
0
40
0.10000000000000001
40
0.20000000000000001
40
0.30000000000000004
40
0.40000000000000002
40
0.5
40
0.59999999999999998
40
0.69999999999999996
40
0.79999999999999993
40
0.89999999999999991
40
1
40
1
40
1
40
1
40
1
40
1
41
1
41
1
41
1
41
1
41
1
41
1
41
1
41
1
41
1
41
1
41
1
41
1
41
1
41
1
41
1
10
17.844517506826413
20
-3.9582447791767543
30
0
10
17.858530648784857
20
-3.9440380731514662
30
0
10
17.885636743710766
20
-3.9158884429834147
30
0
10
17.923535458962057
20
-3.8744553032936935
30
0
10
17.968454195096083
20
-3.8208201095141954
30
0
10
18.014552297266132
20
-3.7566571469742316
30
0
10
18.049513561965785
20
-3.6956866763846139
30
0
10
18.072069736674937
20
-3.6382722557061067
30
0
10
18.081053249931553
20
-3.5847485816120663
30
0
10
18.075976666631341
20
-3.5352553825144355
30
0
10
18.057408962441286
20
-3.4896295555339338
30
0
10
18.032429524753194
20
-3.4560314106450587
30
0
10
18.008323897751822
20
-3.4323724697545583
30
0
10
17.989904720973623
20
-3.4172731389733966
30
0
10
17.980107958472995
20
-3.4098917932356394
30
0
0
SPLINE
5
204
100
AcDbEntity
8
0
100
AcDbSpline
70
4
71
5
72
26
73
20
74
0
42
0.000000001
43
0.0000000001
44
0.0000000001
40
0
40
0
40
0
40
0
40
0
40
0
40
0.066666666666666666
40
0.13333333333333333
40
0.20000000000000001
40
0.26666666666666666
40
0.33333333333333331
40
0.39999999999999997
40
0.46666666666666662
40
0.53333333333333333
40
0.59999999999999998
40
0.66666666666666663
40
0.73333333333333328
40
0.79999999999999993
40
0.86666666666666659
40
0.93333333333333324
40
1
40
1
40
1
40
1
40
1
40
1
41
1
41
1
41
1
41
1
41
1
41
1
41
1
41
1
41
1
41
1
41
1
41
1
41
1
41
1
41
1
41
1
41
1
41
1
41
1
41
1
10
18.132721915338514
20
-4.2565499895009467
30
0
10
18.14601217100595
20
-4.2362604051630832
30
0
10
18.171973200000103
20
-4.1963259130345465
30
0
10
18.209056312281902
20
-4.1383581959770437
30
0
10
18.254756450930646
20
-4.0649641362484532
30
0
10
18.305393462436566
20
-3.9799244476094349
30
0
10
18.349079612740365
20
-3.901919633256377
30
0
10
18.385117033066223
20
-3.8313760629493019
30
0
10
18.41255961964772
20
-3.7687672945295172
30
0
10
18.430224187262986
20
-3.7145573170988406
30
0
10
18.436692393095385
20
-3.6691049233111941
30
0
10
18.430413443969126
20
-3.6326067749433375
30
0
10
18.409974733608429
20
-3.6051295975909508
30
0
10
18.37438244212532
20
-3.586590308827029
30
0
10
18.32337755034494
20
-3.5767262649453526
30
0
10
18.257127741826785
20
-3.5752081824252899
30
0
10
18.192216949989646
20
-3.5804230701613062
30
0
10
18.136986733519699
20
-3.5878510356345985
30
0
10
18.097277856220373
20
-3.5943547116978847
30
0
10
18.07670122853985
20
-3.5979944770500354
30
0
0
SPLINE
5
205
100
AcDbEntity
8
0
100
AcDbSpline
70
4
71
5
72
26
73
20
74
0
42
0.000000001
43
0.0000000001
44
0.0000000001
40
0
40
0
40
0
40
0
40
0
40
0
40
0.066666666666666666
40
0.13333333333333333
40
0.20000000000000001
40
0.26666666666666666
40
0.33333333333333331
40
0.39999999999999997
40
0.46666666666666662
40
0.53333333333333333
40
0.59999999999999998
40
0.66666666666666663
40
0.73333333333333328
40
0.79999999999999993
40
0.86666666666666659
40
0.93333333333333324
40
1
40
1
40
1
40
1
40
1
40
1
41
1
41
1
41
1
41
1
41
1
41
1
41
1
41
1
41
1
41
1
41
1
41
1
41
1
41
1
41
1
41
1
41
1
41
1
41
1
41
1
10
18.40715188929487
20
-3.6081621896886515
30
0
10
18.423850008053954
20
-3.5898786584885323
30
0
10
18.455808499016406
20
-3.5545936905885989
30
0
10
18.499432989638024
20
-3.5055125439153882
30
0
10
18.54890982889351
20
-3.4478193648417026
30
0
10
18.595963844002465
20
-3.3888041238782778
30
0
10
18.62796193170319
20
-3.3428532280751408
30
0
10
18.644908892778155
20
-3.3094169619777229
30
0
10
18.647377067539491
20
-3.287054430767109
30
0
10
18.636776705170934
20
-3.2731133616161503
30
0
10
18.615876850365922
20
-3.2630836591499328
30
0
10
18.588203664806713
20
-3.2515155682850119
30
0
10
18.557226696552629
20
-3.233229053312479
30
0
10
18.525497107678472
20
-3.2046821586466305
30
0
10
18.494583499598519
20
-3.1639765991622273
30
0
10
18.465384563926406
20
-3.1102468521779341
30
0
10
18.443714012330087
20
-3.056706395829305
30
0
10
18.428456006731782
20
-3.0106748988944703
30
0
10
18.418722827968136
20
-2.9773947853933342
30
0
10
18.41396595421261
20
-2.9601065976217189
30
0
0
SPLINE
5
206
100
AcDbEntity
8
0
100
AcDbSpline
70
4
71
5
72
26
73
20
74
0
42
0.000000001
43
0.0000000001
44
0.0000000001
40
0
40
0
40
0
40
0
40
0
40
0
40
0.066666666666666666
40
0.13333333333333333
40
0.20000000000000001
40
0.26666666666666666
40
0.33333333333333331
40
0.39999999999999997
40
0.46666666666666662
40
0.53333333333333333
40
0.59999999999999998
40
0.66666666666666663
40
0.73333333333333328
40
0.79999999999999993
40
0.86666666666666659
40
0.93333333333333324
40
1
40
1
40
1
40
1
40
1
40
1
41
1
41
1
41
1
41
1
41
1
41
1
41
1
41
1
41
1
41
1
41
1
41
1
41
1
41
1
41
1
41
1
41
1
41
1
41
1
41
1
10
18.578090204848774
20
-3.2447114852517136
30
0
10
18.580831093777384
20
-3.235096412731798
30
0
10
18.586426377256799
20
-3.2161857703853078
30
0
10
18.595159799672665
20
-3.1887782906280147
30
0
10
18.607490481931375
20
-3.1541660997937715
30
0
10
18.624023120984244
20
-3.1141655754950035
30
0
10
18.641551919450436
20
-3.0774238998039487
30
0
10
18.659779881846557
20
-3.0438023578439823
30
0
10
18.678173313876716
20
-3.0129569464485728
30
0
10
18.695848077116214
20
-2.9842075178954603
30
0
10
18.711601725467506
20
-2.9565542369220976
30
0
10
18.724131736894329
20
-2.9288825643561522
30
0
10
18.732207759121284
20
-2.9001120795987374
30
0
10
18.7348730967609
20
-2.8693667855439733
30
0
10
18.731654663521393
20
-2.8361436656882897
30
0
10
18.722403750068942
20
-2.8002064572860497
30
0
10
18.710206264272323
20
-2.7692330793810798
30
0
10
18.698405912172841
20
-2.7447614858389699
30
0
10
18.689368775152015
20
-2.7278992813818679
30
0
10
18.684557646056913
20
-2.7193312262405409
30
0
0
LINE
5
207
100
AcDbEntity
8
0
100
AcDbLine
10
19.487417322465912
20
-2.004938129258178
30
0
11
22.168300310072802
21
-2.0049381292581865
31
0
0
SPLINE
5
208
100
AcDbEntity
8
0
100
AcDbSpline
70
4
71
5
72
16
73
10
74
0
42
0.000000001
43
0.0000000001
44
0.0000000001
40
0
40
0
40
0
40
0
40
0
40
0
40
0.20000000000000001
40
0.40000000000000002
40
0.60000000000000009
40
0.80000000000000004
40
1
40
1
40
1
40
1
40
1
40
1
41
1
41
1
41
1
41
1
41
1
41
1
41
1
41
1
41
1
41
1
10
19.846887348059052
20
-2.0049381292581794
30
0
10
19.831897859444187
20
-2.0253701037484113
30
0
10
19.802540546741159
20
-2.0661322936800235
30
0
10
19.760368787155532
20
-2.126970429780529
30
0
10
19.708127288416048
20
-2.2074352362171585
30
0
10
19.652722587130445
20
-2.3063961955376646
30
0
10
19.621305647469004
20
-2.3834522706797459
30
0
10
19.608649726921318
20
-2.4394590168892516
30
0
10
19.605835612438785
20
-2.4758764026838884
30
0
10
19.605835612438785
20
-2.4938547771367672
30
0
0
SPLINE
5
209
100
AcDbEntity
8
0
100
AcDbSpline
70
4
71
5
72
16
73
10
74
0
42
0.000000001
43
0.0000000001
44
0.0000000001
40
0
40
0
40
0
40
0
40
0
40
0
40
0.20000000000000001
40
0.40000000000000002
40
0.60000000000000009
40
0.80000000000000004
40
1
40
1
40
1
40
1
40
1
40
1
41
1
41
1
41
1
41
1
41
1
41
1
41
1
41
1
41
1
41
1
10
20.170886004351583
20
-2.0049381292581803
30
0
10
20.157585323386439
20
-2.0200239382928369
30
0
10
20.13140387973624
20
-2.0502284256597121
30
0
10
20.093390939454377
20
-2.0956337231443634
30
0
10
20.045400481494518
20
-2.1563849518067291
30
0
10
19.992097692382455
20
-2.232847281279315
30
0
10
19.958173684502079
20
-2.2946995678260667
30
0
10
19.940097928715847
20
-2.3416654576461946
30
0
10
19.931845727712073
20
-2.3732733647718143
30
0
10
19.928670057918872
20
-2.3891517137378235
30
0
0
SPLINE
5
210
100
AcDbEntity
8
0
100
AcDbSpline
70
4
71
5
72
16
73
10
74
0
42
0.000000001
43
0.0000000001
44
0.0000000001
40
0
40
0
40
0
40
0
40
0
40
0
40
0.20000000000000001
40
0.40000000000000002
40
0.60000000000000009
40
0.80000000000000004
40
1
40
1
40
1
40
1
40
1
40
1
41
1
41
1
41
1
41
1
41
1
41
1
41
1
41
1
41
1
41
1
10
20.450301616359791
20
-2.0049381292581812
30
0
10
20.437393637984513
20
-2.0193037711476345
30
0
10
20.412194426413684
20
-2.0481719343982103
30
0
10
20.376245066690153
20
-2.091884645041727
30
0
10
20.332268547160151
20
-2.1510462389019702
30
0
10
20.287116751723925
20
-2.2271774124992221
30
0
10
20.263800002666301
20
-2.2909242038793933
30
0
10
20.257132917661657
20
-2.3411357773054733
30
0
10
20.258266863051421
20
-2.3758482807025056
30
0
10
20.260229758682193
20
-2.3935143413794449
30
0
0
SPLINE
5
211
100
AcDbEntity
8
0
100
AcDbSpline
70
4
71
5
72
16
73
10
74
0
42
0.000000001
43
0.0000000001
44
0.0000000001
40
0
40
0
40
0
40
0
40
0
40
0
40
0.20000000000000001
40
0.40000000000000002
40
0.60000000000000009
40
0.80000000000000004
40
1
40
1
40
1
40
1
40
1
40
1
41
1
41
1
41
1
41
1
41
1
41
1
41
1
41
1
41
1
41
1
10
20.742748046568327
20
-2.004938129258182
30
0
10
20.731119775044014
20
-2.0181793221520521
30
0
10
20.708005911874107
20
-2.0453350523167888
30
0
10
20.673762976791931
20
-2.0880878313993407
30
0
10
20.62902091496715
20
-2.1494105385597901
30
0
10
20.575364863981573
20
-2.236783860555855
30
0
10
20.535402302084925
20
-2.3206623018233046
30
0
10
20.507933625705192
20
-2.3953846133599166
30
0
10
20.490911762539149
20
-2.4512901153287712
30
0
10
20.482723768404949
20
-2.4807668942118992
30
0
0
SPLINE
5
212
100
AcDbEntity
8
0
100
AcDbSpline
70
4
71
5
72
16
73
10
74
0
42
0.000000001
43
0.0000000001
44
0.0000000001
40
0
40
0
40
0
40
0
40
0
40
0
40
0.20000000000000001
40
0.40000000000000002
40
0.60000000000000009
40
0.80000000000000004
40
1
40
1
40
1
40
1
40
1
40
1
41
1
41
1
41
1
41
1
41
1
41
1
41
1
41
1
41
1
41
1
10
20.965299121015626
20
-2.0049381292581829
30
0
10
20.957259820149901
20
-2.0149766516143188
30
0
10
20.941357474785498
20
-2.0355516156213116
30
0
10
20.918032503526263
20
-2.0679071914857148
30
0
10
20.888063094915843
20
-2.1142417400244611
30
0
10
20.85340741287953
20
-2.1800870194310504
30
0
10
20.829342251602419
20
-2.2431009011644187
30
0
10
20.814385707894289
20
-2.2990970502572439
30
0
10
20.806008977200523
20
-2.3409316647333887
30
0
10
20.802219545340325
20
-2.3629759478880863
30
0
0
SPLINE
5
213
100
AcDbEntity
8
0
100
AcDbSpline
70
4
71
5
72
16
73
10
74
0
42
0.000000001
43
0.0000000001
44
0.0000000001
40
0
40
0
40
0
40
0
40
0
40
0
40
0.20000000000000001
40
0.40000000000000002
40
0.60000000000000009
40
0.80000000000000004
40
1
40
1
40
1
40
1
40
1
40
1
41
1
41
1
41
1
41
1
41
1
41
1
41
1
41
1
41
1
41
1
10
21.253025102418373
20
-2.0049381292581834
30
0
10
21.244678015442616
20
-2.0162227576584231
30
0
10
21.228272266337754
20
-2.0388324533359716
30
0
10
21.204528553427519
20
-2.0728682624775665
30
0
10
21.174720299710259
20
-2.1185087265531775
30
0
10
21.142051832720554
20
-2.1762031113207811
30
0
10
21.121905253420028
20
-2.223198199551744
30
0
10
21.111855584443681
20
-2.2591539950121931
30
0
10
21.107764705402531
20
-2.2834903086380267
30
0
10
21.106372078212644
20
-2.2957499936182248
30
0
0
SPLINE
5
214
100
AcDbEntity
8
0
100
AcDbSpline
70
4
71
5
72
16
73
10
74
0
42
0.000000001
43
0.0000000001
44
0.0000000001
40
0
40
0
40
0
40
0
40
0
40
0
40
0.20000000000000001
40
0.40000000000000002
40
0.60000000000000009
40
0.80000000000000004
40
1
40
1
40
1
40
1
40
1
40
1
41
1
41
1
41
1
41
1
41
1
41
1
41
1
41
1
41
1
41
1
10
21.509552363009913
20
-2.0049381292581847
30
0
10
21.504845418515501
20
-2.01126522313209
30
0
10
21.49558483446852
20
-2.0242018074950647
30
0
10
21.482153679858648
20
-2.0444535176955263
30
0
10
21.465228810514958
20
-2.073267161519778
30
0
10
21.446513405799102
20
-2.1137800943711924
30
0
10
21.434723955443499
20
-2.1520534785333769
30
0
10
21.42857152398317
20
-2.1857130199445476
30
0
10
21.425856598052071
20
-2.2107070871077368
30
0
10
21.424846120991194
20
-2.2238432888991131
30
0
0
SPLINE
5
215
100
AcDbEntity
8
0
100
AcDbSpline
70
4
71
5
72
16
73
10
74
0
42
0.000000001
43
0.0000000001
44
0.0000000001
40
0
40
0
40
0
40
0
40
0
40
0
40
0.20000000000000001
40
0.40000000000000002
40
0.60000000000000009
40
0.80000000000000004
40
1
40
1
40
1
40
1
40
1
40
1
41
1
41
1
41
1
41
1
41
1
41
1
41
1
41
1
41
1
41
1
10
22.168300310072802
20
-2.0049381292581865
30
0
10
22.148898339675533
20
-2.0033076887040941
30
0
10
22.110018820735775
20
-2.0014579564507944
30
0
10
22.051472903217938
20
-2.0029150247402887
30
0
10
21.972926902456603
20
-2.0139092493397444
30
0
10
21.873541164253876
20
-2.0501181392815777
30
0
10
21.792463441815176
20
-2.1083831207844534
30
0
10
21.73032917031388
20
-2.176839737383184
30
0
10
21.688222692758796
20
-2.235241800417723
30
0
10
21.666998392624762
20
-2.2676367848328431
30
0
0
SPLINE
5
216
100
AcDbEntity
8
0
100
AcDbSpline
70
4
71
5
72
16
73
10
74
0
42
0.000000001
43
0.0000000001
44
0.0000000001
40
0
40
0
40
0
40
0
40
0
40
0
40
0.20000000000000001
40
0.40000000000000002
40
0.60000000000000009
40
0.80000000000000004
40
1
40
1
40
1
40
1
40
1
40
1
41
1
41
1
41
1
41
1
41
1
41
1
41
1
41
1
41
1
41
1
10
22.168300310072802
20
-2.0049381292581865
30
0
10
22.142868104233862
20
-2.0034373861201256
30
0
10
22.092581242458461
20
-1.9994960013014969
30
0
10
22.018882871033767
20
-1.9907654139488322
30
0
10
21.924322927447058
20
-1.9730958830304466
30
0
10
21.815317845922234
20
-1.9360453720174262
30
0
10
21.740104706841596
20
-1.8868910580691867
30
0
10
21.693827668351666
20
-1.8335352863572851
30
0
10
21.668200443546809
20
-1.7894630716965394
30
0
10
21.656694040640357
20
-1.7652996255929934
30
0
0
SPLINE
5
217
100
AcDbEntity
8
0
100
AcDbSpline
70
4
71
5
72
16
73
10
74
0
42
0.000000001
43
0.0000000001
44
0.0000000001
40
0
40
0
40
0
40
0
40
0
40
0
40
0.20000000000000001
40
0.40000000000000002
40
0.60000000000000009
40
0.80000000000000004
40
1
40
1
40
1
40
1
40
1
40
1
41
1
41
1
41
1
41
1
41
1
41
1
41
1
41
1
41
1
41
1
10
21.509552363009913
20
-2.0049381292581847
30
0
10
21.502622169063322
20
-1.9986554513218695
30
0
10
21.489089694792884
20
-1.9859457076193587
30
0
10
21.46977431065498
20
-1.9664481106936684
30
0
10
21.446123786332457
20
-1.939525174608757
30
0
10
21.421781159737197
20
-1.9035727868716221
30
0
10
21.409115107448581
20
-1.871813137789444
30
0
10
21.405368643989963
20
-1.8454601908049155
30
0
10
21.405837091297069
20
-1.8265855227290864
30
0
10
21.40681350501848
20
-1.8168213855150293
30
0
0
SPLINE
5
218
100
AcDbEntity
8
0
100
AcDbSpline
70
4
71
5
72
16
73
10
74
0
42
0.000000001
43
0.0000000001
44
0.0000000001
40
0
40
0
40
0
40
0
40
0
40
0
40
0.20000000000000001
40
0.40000000000000002
40
0.60000000000000009
40
0.80000000000000004
40
1
40
1
40
1
40
1
40
1
40
1
41
1
41
1
41
1
41
1
41
1
41
1
41
1
41
1
41
1
41
1
10
21.253025102418373
20
-2.0049381292581834
30
0
10
21.243271984636959
20
-1.995058225952991
30
0
10
21.224212968095337
20
-1.9752382036504752
30
0
10
21.196965536265047
20
-1.9453275990709258
30
0
10
21.163504203455997
20
-1.9050605542338075
30
0
10
21.128797460564549
20
-1.8537680879366301
30
0
10
21.110317099851194
20
-1.8114839338935977
30
0
10
21.104303056893571
20
-1.7787143650295645
30
0
10
21.10433894221168
20
-1.7563233144865287
30
0
10
21.105369107275472
20
-1.7449914987848036
30
0
0
SPLINE
5
219
100
AcDbEntity
8
0
100
AcDbSpline
70
4
71
5
72
16
73
10
74
0
42
0.000000001
43
0.0000000001
44
0.0000000001
40
0
40
0
40
0
40
0
40
0
40
0
40
0.20000000000000001
40
0.40000000000000002
40
0.60000000000000009
40
0.80000000000000004
40
1
40
1
40
1
40
1
40
1
40
1
41
1
41
1
41
1
41
1
41
1
41
1
41
1
41
1
41
1
41
1
10
20.965299121015626
20
-2.0049381292581829
30
0
10
20.952541458418619
20
-1.9877921206519891
30
0
10
20.927615296184893
20
-1.9538054360245969
30
0
10
20.891992798598427
20
-1.9037410217196551
30
0
10
20.848275175896067
20
-1.8389469500012952
30
0
10
20.803007880455453
20
-1.7628153891319462
30
0
10
20.779026077233691
20
-1.7082493683735216
30
0
10
20.771376285762443
20
-1.6726817558819889
30
0
10
20.771605603006147
20
-1.6517318507140266
30
0
10
20.773053755778339
20
-1.6419479789407316
30
0
0
SPLINE
5
220
100
AcDbEntity
8
0
100
AcDbSpline
70
4
71
5
72
16
73
10
74
0
42
0.000000001
43
0.0000000001
44
0.0000000001
40
0
40
0
40
0
40
0
40
0
40
0
40
0.20000000000000001
40
0.40000000000000002
40
0.60000000000000009
40
0.80000000000000004
40
1
40
1
40
1
40
1
40
1
40
1
41
1
41
1
41
1
41
1
41
1
41
1
41
1
41
1
41
1
41
1
10
20.742748046568327
20
-2.004938129258182
30
0
10
20.722199385301568
20
-1.9847023966791031
30
0
10
20.682294432274016
20
-1.9444384731490072
30
0
10
20.626012607303817
20
-1.8846649509638591
30
0
10
20.558618334623681
20
-1.806298146056448
30
0
10
20.493358539694608
20
-1.7116437937408311
30
0
10
20.465906338927436
20
-1.6402292319027507
30
0
10
20.466236697725765
20
-1.5903095215855256
30
0
10
20.477242322355593
20
-1.5589069989223427
30
0
10
20.48544390881079
20
-1.5436754812198288
30
0
0
SPLINE
5
221
100
AcDbEntity
8
0
100
AcDbSpline
70
4
71
5
72
16
73
10
74
0
42
0.000000001
43
0.0000000001
44
0.0000000001
40
0
40
0
40
0
40
0
40
0
40
0
40
0.20000000000000001
40
0.40000000000000002
40
0.60000000000000009
40
0.80000000000000004
40
1
40
1
40
1
40
1
40
1
40
1
41
1
41
1
41
1
41
1
41
1
41
1
41
1
41
1
41
1
41
1
10
20.450301616359791
20
-2.0049381292581812
30
0
10
20.435551355585414
20
-1.9891412093320446
30
0
10
20.40692278147462
20
-1.9576821119095258
30
0
10
20.366594662826916
20
-1.9108975231131289
30
0
10
20.318416730115022
20
-1.8493823435242884
30
0
10
20.272076100174377
20
-1.7746335276647165
30
0
10
20.253106719923316
20
-1.7176319588252242
30
0
10
20.254177553816898
20
-1.6772447687856789
30
0
10
20.262778502540037
20
-1.6515387662719891
30
0
10
20.269052517138235
20
-1.6389907370755947
30
0
0
SPLINE
5
222
100
AcDbEntity
8
0
100
AcDbSpline
70
4
71
5
72
16
73
10
74
0
42
0.000000001
43
0.0000000001
44
0.0000000001
40
0
40
0
40
0
40
0
40
0
40
0
40
0.20000000000000001
40
0.40000000000000002
40
0.60000000000000009
40
0.80000000000000004
40
1
40
1
40
1
40
1
40
1
40
1
41
1
41
1
41
1
41
1
41
1
41
1
41
1
41
1
41
1
41
1
10
20.170886004351583
20
-2.0049381292581803
30
0
10
20.151537034013661
20
-1.9844513601106593
30
0
10
20.113981448787555
20
-1.9440165298999033
30
0
10
20.061073696434104
20
-1.8849797293590997
30
0
10
19.997857384393534
20
-1.8097194056719847
30
0
10
19.937023794534277
20
-1.7242204702302633
30
0
10
19.912074180268355
20
-1.667005825285933
30
0
10
19.913404008062361
20
-1.6335461976930914
30
0
10
19.924623551302211
20
-1.6161125761082353
30
0
10
19.932818896715403
20
-1.60861506138148
30
0
0
SPLINE
5
223
100
AcDbEntity
8
0
100
AcDbSpline
70
4
71
5
72
16
73
10
74
0
42
0.000000001
43
0.0000000001
44
0.0000000001
40
0
40
0
40
0
40
0
40
0
40
0
40
0.20000000000000001
40
0.40000000000000002
40
0.60000000000000009
40
0.80000000000000004
40
1
40
1
40
1
40
1
40
1
40
1
41
1
41
1
41
1
41
1
41
1
41
1
41
1
41
1
41
1
41
1
10
19.846887348059052
20
-2.0049381292581794
30
0
10
19.843496594337221
20
-1.9993716636871415
30
0
10
19.836471330699268
20
-1.9879661007446194
30
0
10
19.825202474111453
20
-1.9700402048025358
30
0
10
19.808613817902746
20
-1.9443902806557944
30
0
10
19.783997292027973
20
-1.9079874575371751
30
0
10
19.759243274822804
20
-1.8732048954546514
30
0
10
19.736401184921426
20
-1.8423347892512421
30
0
10
19.718968267768865
20
-1.8192886716108059
30
0
10
19.709700098576217
20
-1.8071485459756655
30
0
0
LINE
5
224
100
AcDbEntity
8
0
100
AcDbLine
10
20.545432931818663
20
-1.0635045636793492
30
0
11
21.089817156291339
21
-1.5508228046476071
31
0
0
SPLINE
5
225
100
AcDbEntity
8
0
100
AcDbSpline
70
4
71
5
72
16
73
10
74
0
42
0.000000001
43
0.0000000001
44
0.0000000001
40
0
40
0
40
0
40
0
40
0
40
0
40
0.20000000000000001
40
0.40000000000000002
40
0.60000000000000009
40
0.80000000000000004
40
1
40
1
40
1
40
1
40
1
40
1
41
1
41
1
41
1
41
1
41
1
41
1
41
1
41
1
41
1
41
1
10
19.301567770494991
20
-2.6130208041118785
30
0
10
19.310291742681958
20
-2.5731397883999905
30
0
10
19.327919157233211
20
-2.4979183977341859
30
0
10
19.354898205244901
20
-2.3986959799030907
30
0
10
19.391797709610508
20
-2.2898638976415988
30
0
10
19.438951005881538
20
-2.1798556245041416
30
0
10
19.47717859669325
20
-2.104624464409889
30
0
10
19.506040017610662
20
-2.0530265560102983
30
0
10
19.525360224872983
20
-2.0206332480012961
30
0
10
19.535040151834618
20
-2.004938129258178
30
0
0
SPLINE
5
226
100
AcDbEntity
8
0
100
AcDbSpline
70
4
71
5
72
16
73
10
74
0
42
0.000000001
43
0.0000000001
44
0.0000000001
40
0
40
0
40
0
40
0
40
0
40
0
40
0.20000000000000001
40
0.40000000000000002
40
0.60000000000000009
40
0.80000000000000004
40
1
40
1
40
1
40
1
40
1
40
1
41
1
41
1
41
1
41
1
41
1
41
1
41
1
41
1
41
1
41
1
10
18.957199001254693
20
-2.7173021412079184
30
0
10
18.969384416908259
20
-2.6685604785936508
30
0
10
18.996388774949445
20
-2.5769864308081281
30
0
10
19.044788784953003
20
-2.4573372437286274
30
0
10
19.122931294977747
20
-2.328342114337854
30
0
10
19.235707636280434
20
-2.2009765277485802
30
0
10
19.333338348857733
20
-2.1157102864181874
30
0
10
19.409360103337818
20
-2.0580405542921816
30
0
10
19.461204325762147
20
-2.0222037991624147
30
0
10
19.487417322465912
20
-2.004938129258178
30
0
0
LINE
5
227
100
AcDbEntity
8
0
100
AcDbLine
10
19.452413532825972
20
-8.0545230095301292
30
0
11
22.137969043314698
21
-8.0891598976719976
31
0
0
LINE
5
228
100
AcDbEntity
8
0
100
AcDbLine
10
22.137969043314698
20
-8.0891598976719976
30
0
11
20.859671944994972
21
-8.0726730913357834
31
0
0
SPLINE
5
229
100
AcDbEntity
8
0
100
AcDbSpline
70
4
71
5
72
16
73
10
74
0
42
0.000000001
43
0.0000000001
44
0.0000000001
40
0
40
0
40
0
40
0
40
0
40
0
40
0.20000000000000001
40
0.40000000000000002
40
0.60000000000000009
40
0.80000000000000004
40
1
40
1
40
1
40
1
40
1
40
1
41
1
41
1
41
1
41
1
41
1
41
1
41
1
41
1
41
1
41
1
10
22.137969043314698
20
-8.0891598976719976
30
0
10
22.11574387159602
20
-8.0916779875686142
30
0
10
22.07163356984875
20
-8.0974823001413103
30
0
10
22.006487813400383
20
-8.1084921984857132
30
0
10
21.921807918499145
20
-8.128099061530957
30
0
10
21.821371662836789
20
-8.1648366513567261
30
0
10
21.748082506766409
20
-8.2101744766299518
30
0
10
21.699081496172877
20
-8.257654339911813
30
0
10
21.669489947861422
20
-8.2962556028672445
30
0
10
21.655463814085351
20
-8.3172948035313503
30
0
0
SPLINE
5
230
100
AcDbEntity
8
0
100
AcDbSpline
70
4
71
5
72
16
73
10
74
0
42
0.000000001
43
0.0000000001
44
0.0000000001
40
0
40
0
40
0
40
0
40
0
40
0
40
0.20000000000000001
40
0.40000000000000002
40
0.60000000000000009
40
0.80000000000000004
40
1
40
1
40
1
40
1
40
1
40
1
41
1
41
1
41
1
41
1
41
1
41
1
41
1
41
1
41
1
41
1
10
22.137969043314698
20
-8.0891598976719976
30
0
10
22.110450827565202
20
-8.0848481817015774
30
0
10
22.056389548004031
20
-8.0755729658448541
30
0
10
21.978221854507492
20
-8.0597056124132962
30
0
10
21.880253135184219
20
-8.0343684337232819
30
0
10
21.773317082919899
20
-7.9923202743182404
30
0
10
21.708014067166491
20
-7.9451495952566304
30
0
10
21.676145344275547
20
-7.8983363725660052
30
0
10
21.663720108081105
20
-7.8612319514883655
30
0
10
21.65971462025648
20
-7.8412045123652208
30
0
0
SPLINE
5
231
100
AcDbEntity
8
0
100
AcDbSpline
70
4
71
5
72
16
73
10
74
0
42
0.000000001
43
0.0000000001
44
0.0000000001
40
0
40
0
40
0
40
0
40
0
40
0
40
0.20000000000000001
40
0.40000000000000002
40
0.60000000000000009
40
0.80000000000000004
40
1
40
1
40
1
40
1
40
1
40
1
41
1
41
1
41
1
41
1
41
1
41
1
41
1
41
1
41
1
41
1
10
21.498820494154845
20
-8.0809164945038923
30
0
10
21.493247764040188
20
-8.0881988229762936
30
0
10
21.482312325588591
20
-8.1028974767106412
30
0
10
21.466538968341968
20
-8.1253472786694321
30
0
10
21.44685495832816
20
-8.1561398373618115
30
0
10
21.425593584696848
20
-8.1967638234325779
30
0
10
21.412944897957843
20
-8.232045015364946
30
0
10
21.407143106907519
20
-8.2608568140274468
30
0
10
21.405174964211049
20
-8.2812767260789606
30
0
10
21.404666249988907
20
-8.2917899665045933
30
0
0
SPLINE
5
232
100
AcDbEntity
8
0
100
AcDbSpline
70
4
71
5
72
16
73
10
74
0
42
0.000000001
43
0.0000000001
44
0.0000000001
40
0
40
0
40
0
40
0
40
0
40
0
40
0.20000000000000001
40
0.40000000000000002
40
0.60000000000000009
40
0.80000000000000004
40
1
40
1
40
1
40
1
40
1
40
1
41
1
41
1
41
1
41
1
41
1
41
1
41
1
41
1
41
1
41
1
10
21.498820494154845
20
-8.0809164945038923
30
0
10
21.492724748151097
20
-8.0728657460260909
30
0
10
21.480746230838999
20
-8.0567402523122151
30
0
10
21.463417110330077
20
-8.0324800517339359
30
0
10
21.441677690063401
20
-7.9999791963318652
30
0
10
21.417894065362486
20
-7.9589710881523343
30
0
10
21.403288885402876
20
-7.9256663877625249
30
0
10
21.396071531859572
20
-7.9002668516918337
30
0
10
21.393186390974279
20
-7.8831167688487849
30
0
10
21.392225861205119
20
-7.8744874138684988
30
0
0
SPLINE
5
233
100
AcDbEntity
8
0
100
AcDbSpline
70
4
71
5
72
16
73
10
74
0
42
0.000000001
43
0.0000000001
44
0.0000000001
40
0
40
0
40
0
40
0
40
0
40
0
40
0.20000000000000001
40
0.40000000000000002
40
0.60000000000000009
40
0.80000000000000004
40
1
40
1
40
1
40
1
40
1
40
1
41
1
41
1
41
1
41
1
41
1
41
1
41
1
41
1
41
1
41
1
10
21.28468831482137
20
-8.0781547298283218
30
0
10
21.272730473762877
20
-8.0888170888313589
30
0
10
21.249436333691566
20
-8.110118303413806
30
0
10
21.216358965764844
20
-8.1419996446617091
30
0
10
21.17624253694634
20
-8.1843573427349945
30
0
10
21.135992223112861
20
-8.2369302805050548
30
0
10
21.116696250501747
20
-8.2785006593502377
30
0
10
21.113128906379618
20
-8.309266088010375
30
0
10
21.116372734967442
20
-8.3295637773676834
30
0
10
21.11940142928324
20
-8.3396594250870049
30
0
0
SPLINE
5
234
100
AcDbEntity
8
0
100
AcDbSpline
70
4
71
5
72
16
73
10
74
0
42
0.000000001
43
0.0000000001
44
0.0000000001
40
0
40
0
40
0
40
0
40
0
40
0
40
0.20000000000000001
40
0.40000000000000002
40
0.60000000000000009
40
0.80000000000000004
40
1
40
1
40
1
40
1
40
1
40
1
41
1
41
1
41
1
41
1
41
1
41
1
41
1
41
1
41
1
41
1
10
21.28468831482137
20
-8.0781547298283218
30
0
10
21.274152679267058
20
-8.0692478063056754
30
0
10
21.253402411602014
20
-8.0512622835617211
30
0
10
21.223239615550579
20
-8.0237691888859946
30
0
10
21.185081551700591
20
-7.986010557818763
30
0
10
21.142494487611138
20
-7.9360791165038505
30
0
10
21.115089418161812
20
-7.8925696816185322
30
0
10
21.100167456296287
20
-7.8569256436647619
30
0
10
21.09312306642515
20
-7.8316100869401453
30
0
10
21.090327421260888
20
-7.8185637428402304
30
0
0
SPLINE
5
235
100
AcDbEntity
8
0
100
AcDbSpline
70
4
71
5
72
16
73
10
74
0
42
0.000000001
43
0.0000000001
44
0.0000000001
40
0
40
0
40
0
40
0
40
0
40
0
40
0.20000000000000001
40
0.40000000000000002
40
0.60000000000000009
40
0.80000000000000004
40
1
40
1
40
1
40
1
40
1
40
1
41
1
41
1
41
1
41
1
41
1
41
1
41
1
41
1
41
1
41
1
10
20.980728754864963
20
-8.0742344186536936
30
0
10
20.967322191845525
20
-8.0924070782184483
30
0
10
20.941312101207107
20
-8.1284356138190965
30
0
10
20.904705058574805
20
-8.1815284661955019
30
0
10
20.861046541252804
20
-8.250287006082436
30
0
10
20.819258070662777
20
-8.3311918481092082
30
0
10
20.802499685847071
20
-8.3893387525658039
30
0
10
20.804019740080509
20
-8.4273911269124202
30
0
10
20.812296836344622
20
-8.449893962323225
30
0
10
20.818252951230171
20
-8.4604283814875458
30
0
0
SPLINE
5
236
100
AcDbEntity
8
0
100
AcDbSpline
70
4
71
5
72
16
73
10
74
0
42
0.000000001
43
0.0000000001
44
0.0000000001
40
0
40
0
40
0
40
0
40
0
40
0
40
0.20000000000000001
40
0.40000000000000002
40
0.60000000000000009
40
0.80000000000000004
40
1
40
1
40
1
40
1
40
1
40
1
41
1
41
1
41
1
41
1
41
1
41
1
41
1
41
1
41
1
41
1
10
20.980728754864963
20
-8.0742344186536936
30
0
10
20.966287638268486
20
-8.057971443849306
30
0
10
20.938127513681916
20
-8.0256272268742155
30
0
10
20.898052741818955
20
-7.9776558700915929
30
0
10
20.849251500527856
20
-7.9148597402809537
30
0
10
20.799746234892542
20
-7.8392578413157725
30
0
10
20.775134235052704
20
-7.7825494031846469
30
0
10
20.769344259062212
20
-7.7432064801206506
30
0
10
20.772015991622663
20
-7.7186216978758733
30
0
10
20.774986257326145
20
-7.7067406350619514
30
0
0
SPLINE
5
237
100
AcDbEntity
8
0
100
AcDbSpline
70
4
71
5
72
16
73
10
74
0
42
0.000000001
43
0.0000000001
44
0.0000000001
40
0
40
0
40
0
40
0
40
0
40
0
40
0.20000000000000001
40
0.40000000000000002
40
0.60000000000000009
40
0.80000000000000004
40
1
40
1
40
1
40
1
40
1
40
1
41
1
41
1
41
1
41
1
41
1
41
1
41
1
41
1
41
1
41
1
10
20.725335421299487
20
-8.0709404892255563
30
0
10
20.711421819956108
20
-8.0905893702656755
30
0
10
20.683914230011602
20
-8.1299548481192545
30
0
10
20.643611280191081
20
-8.1892061268091005
30
0
10
20.591924091004255
20
-8.2686421778841357
30
0
10
20.532403479667284
20
-8.3690153065626465
30
0
10
20.49142269907459
20
-8.4507197050528493
30
0
10
20.46629455471102
20
-8.5131860423154215
30
0
10
20.452433463809964
20
-8.5554427792273824
30
0
10
20.446226320458006
20
-8.5767244135769563
30
0
0
SPLINE
5
238
100
AcDbEntity
8
0
100
AcDbSpline
70
4
71
5
72
16
73
10
74
0
42
0.000000001
43
0.0000000001
44
0.0000000001
40
0
40
0
40
0
40
0
40
0
40
0
40
0.20000000000000001
40
0.40000000000000002
40
0.60000000000000009
40
0.80000000000000004
40
1
40
1
40
1
40
1
40
1
40
1
41
1
41
1
41
1
41
1
41
1
41
1
41
1
41
1
41
1
41
1
10
20.725335421299487
20
-8.0709404892255563
30
0
10
20.707305394591415
20
-8.0472450950531567
30
0
10
20.672033109184255
20
-8.0004370130546754
30
0
10
20.621486991481344
20
-7.9319722741229892
30
0
10
20.559145111808398
20
-7.8444235819333166
30
0
10
20.493759374706368
20
-7.7442646575070864
30
0
10
20.457806199460173
20
-7.6762355007253396
30
0
10
20.444662302345041
20
-7.6354369161183282
30
0
10
20.443025332324712
20
-7.613508635683206
30
0
10
20.443989858302441
20
-7.6038633759059353
30
0
0
SPLINE
5
239
100
AcDbEntity
8
0
100
AcDbSpline
70
4
71
5
72
16
73
10
74
0
42
0.000000001
43
0.0000000001
44
0.0000000001
40
0
40
0
40
0
40
0
40
0
40
0
40
0.20000000000000001
40
0.40000000000000002
40
0.60000000000000009
40
0.80000000000000004
40
1
40
1
40
1
40
1
40
1
40
1
41
1
41
1
41
1
41
1
41
1
41
1
41
1
41
1
41
1
41
1
10
20.449930997550705
20
-8.0673884672390805
30
0
10
20.4366723872275
20
-8.0856932466830482
30
0
10
20.410868119476085
20
-8.1219920974955677
30
0
10
20.37429967727979
20
-8.1755086413871112
30
0
10
20.330114815154573
20
-8.2448710727944494
30
0
10
20.286234260533387
20
-8.3266275031068044
30
0
10
20.265931941241256
20
-8.3855818150202008
30
0
10
20.263213593418335
20
-8.4243463356625305
30
0
10
20.267850261585352
20
-8.4473788898009854
30
0
10
20.271782272323897
20
-8.4581919193319823
30
0
0
SPLINE
5
240
100
AcDbEntity
8
0
100
AcDbSpline
70
4
71
5
72
16
73
10
74
0
42
0.000000001
43
0.0000000001
44
0.0000000001
40
0
40
0
40
0
40
0
40
0
40
0
40
0.20000000000000001
40
0.40000000000000002
40
0.60000000000000009
40
0.80000000000000004
40
1
40
1
40
1
40
1
40
1
40
1
41
1
41
1
41
1
41
1
41
1
41
1
41
1
41
1
41
1
41
1
10
20.449930997550705
20
-8.0673884672390805
30
0
10
20.437900682086287
20
-8.0533295779362621
30
0
10
20.414338988817384
20
-8.0251884338166235
30
0
10
20.380492632579166
20
-7.9829066505663429
30
0
10
20.338564470366464
20
-7.9263810672292649
30
0
10
20.294097574147262
20
-7.8553520988170336
30
0
10
20.268882858373804
20
-7.798043815954669
30
0
10
20.258725426017268
20
-7.7546526678857388
30
0
10
20.256466864311534
20
-7.7255138868619282
30
0
10
20.256466864311534
20
-7.7108916115310535
30
0
0
SPLINE
5
241
100
AcDbEntity
8
0
100
AcDbSpline
70
4
71
5
72
16
73
10
74
0
42
0.000000001
43
0.0000000001
44
0.0000000001
40
0
40
0
40
0
40
0
40
0
40
0
40
0.20000000000000001
40
0.40000000000000002
40
0.60000000000000009
40
0.80000000000000004
40
1
40
1
40
1
40
1
40
1
40
1
41
1
41
1
41
1
41
1
41
1
41
1
41
1
41
1
41
1
41
1
10
20.1623334533951
20
-8.0636791847729796
30
0
10
20.148247023319016
20
-8.0830272217099601
30
0
10
20.120641847077298
20
-8.1214497355242301
30
0
10
20.0809364184211
20
-8.1782631711104017
30
0
10
20.031637115548993
20
-8.2522597349109788
30
0
10
19.979050763993602
20
-8.3404002434319189
30
0
10
19.948767773979348
20
-8.4052330744076169
30
0
10
19.936015253536173
20
-8.4490582271670114
30
0
10
19.932648466194639
20
-8.4758005524162296
30
0
10
19.932249951623081
20
-8.4885525472311691
30
0
0
SPLINE
5
242
100
AcDbEntity
8
0
100
AcDbSpline
70
4
71
5
72
16
73
10
74
0
42
0.000000001
43
0.0000000001
44
0.0000000001
40
0
40
0
40
0
40
0
40
0
40
0
40
0.20000000000000001
40
0.40000000000000002
40
0.60000000000000009
40
0.80000000000000004
40
1
40
1
40
1
40
1
40
1
40
1
41
1
41
1
41
1
41
1
41
1
41
1
41
1
41
1
41
1
41
1
10
20.1623334533951
20
-8.0636791847729796
30
0
10
20.150422113055363
20
-8.0517567560848224
30
0
10
20.126906489656182
20
-8.027471631537388
30
0
10
20.092553839104099
20
-7.9897236985159878
30
0
10
20.048719848355901
20
-7.9365691357863071
30
0
10
19.998815846601961
20
-7.8631166857533774
30
0
10
19.965267680760551
20
-7.7952140244422807
30
0
10
19.945493718342149
20
-7.7365627675033695
30
0
10
19.935088513671975
20
-7.6934795640837521
30
0
10
19.930580895771485
20
-7.6709414745812383
30
0
0
SPLINE
5
243
100
AcDbEntity
8
0
100
AcDbSpline
70
4
71
5
72
16
73
10
74
0
42
0.000000001
43
0.0000000001
44
0.0000000001
40
0
40
0
40
0
40
0
40
0
40
0
40
0.20000000000000001
40
0.40000000000000002
40
0.60000000000000009
40
0.80000000000000004
40
1
40
1
40
1
40
1
40
1
40
1
41
1
41
1
41
1
41
1
41
1
41
1
41
1
41
1
41
1
41
1
10
19.856777644637823
20
-8.0718414536010634
30
0
10
19.839731771593311
20
-8.0497910796986876
30
0
10
19.80646729429473
20
-8.0059631333159977
30
0
10
19.759051341276386
20
-7.9410392739211879
30
0
10
19.701136382553045
20
-7.8562239456146647
30
0
10
19.641913166417233
20
-7.7545479036153937
30
0
10
19.611710111887817
20
-7.6788708952355567
30
0
10
19.603571826192869
20
-7.6268992995128162
30
0
10
19.60562922837957
20
-7.5947191501522617
30
0
10
19.608530345370045
20
-7.5792465262030495
30
0
0
SPLINE
5
244
100
AcDbEntity
8
0
100
AcDbSpline
70
4
71
5
72
16
73
10
74
0
42
0.000000001
43
0.0000000001
44
0.0000000001
40
0
40
0
40
0
40
0
40
0
40
0
40
0.20000000000000001
40
0.40000000000000002
40
0.60000000000000009
40
0.80000000000000004
40
1
40
1
40
1
40
1
40
1
40
1
41
1
41
1
41
1
41
1
41
1
41
1
41
1
41
1
41
1
41
1
10
19.552673860801235
20
-8.0558161147188265
30
0
10
19.53637045149512
20
-8.0323495787397974
30
0
10
19.504327530399951
20
-7.9854916652136305
30
0
10
19.4579541300592
20
-7.915430175422042
30
0
10
19.399739911386337
20
-7.8224969409557428
30
0
10
19.335949634036247
20
-7.7075269530969992
30
0
10
19.296624891369834
20
-7.6171113807059685
30
0
10
19.27702462611575
20
-7.5506183174191621
30
0
10
19.269058426359077
20
-7.5069694419938173
30
0
10
19.266351635568512
20
-7.4853151156692963
30
0
0
SPLINE
5
245
100
AcDbEntity
8
0
100
AcDbSpline
70
4
71
5
72
116
73
110
74
0
42
0.000000001
43
0.0000000001
44
0.0000000001
40
0
40
0
40
0
40
0
40
0
40
0
40
0.0095238095238095247
40
0.019047619047619049
40
0.028571428571428574
40
0.038095238095238099
40
0.047619047619047623
40
0.057142857142857148
40
0.06666666666666668
40
0.076190476190476197
40
0.085714285714285715
40
0.095238095238095233
40
0.10476190476190475
40
0.11428571428571427
40
0.12380952380952379
40
0.1333333333333333
40
0.14285714285714282
40
0.15238095238095234
40
0.16190476190476186
40
0.17142857142857137
40
0.18095238095238089
40
0.19047619047619041
40
0.19999999999999993
40
0.20952380952380945
40
0.21904761904761896
40
0.22857142857142848
40
0.238095238095238
40
0.24761904761904752
40
0.25714285714285706
40
0.26666666666666661
40
0.27619047619047615
40
0.2857142857142857
40
0.29523809523809524
40
0.30476190476190479
40
0.31428571428571433
40
0.32380952380952388
40
0.33333333333333343
40
0.34285714285714297
40
0.35238095238095252
40
0.36190476190476206
40
0.37142857142857161
40
0.38095238095238115
40
0.3904761904761907
40
0.40000000000000024
40
0.40952380952380979
40
0.41904761904761934
40
0.42857142857142888
40
0.43809523809523843
40
0.44761904761904797
40
0.45714285714285752
40
0.46666666666666706
40
0.47619047619047661
40
0.48571428571428615
40
0.4952380952380957
40
0.50476190476190519
40
0.51428571428571468
40
0.52380952380952417
40
0.53333333333333366
40
0.54285714285714315
40
0.55238095238095264
40
0.56190476190476213
40
0.57142857142857162
40
0.58095238095238111
40
0.5904761904761906
40
0.60000000000000009
40
0.60952380952380958
40
0.61904761904761907
40
0.62857142857142856
40
0.63809523809523805
40
0.64761904761904754
40
0.65714285714285703
40
0.66666666666666652
40
0.67619047619047601
40
0.6857142857142855
40
0.69523809523809499
40
0.70476190476190448
40
0.71428571428571397
40
0.72380952380952346
40
0.73333333333333295
40
0.74285714285714244
40
0.75238095238095193
40
0.76190476190476142
40
0.77142857142857091
40
0.7809523809523804
40
0.79047619047618989
40
0.79999999999999938
40
0.80952380952380887
40
0.81904761904761836
40
0.82857142857142785
40
0.83809523809523734
40
0.84761904761904683
40
0.85714285714285632
40
0.86666666666666581
40
0.8761904761904753
40
0.88571428571428479
40
0.89523809523809428
40
0.90476190476190377
40
0.91428571428571326
40
0.92380952380952275
40
0.93333333333333224
40
0.94285714285714173
40
0.95238095238095122
40
0.96190476190476071
40
0.9714285714285702
40
0.98095238095237969
40
0.99047619047618918
40
1
40
1
40
1
40
1
40
1
40
1
41
1
41
1
41
1
41
1
41
1
41
1
41
1
41
1
41
1
41
1
41
1
41
1
41
1
41
1
41
1
41
1
41
1
41
1
41
1
41
1
41
1
41
1
41
1
41
1
41
1
41
1
41
1
41
1
41
1
41
1
41
1
41
1
41
1
41
1
41
1
41
1
41
1
41
1
41
1
41
1
41
1
41
1
41
1
41
1
41
1
41
1
41
1
41
1
41
1
41
1
41
1
41
1
41
1
41
1
41
1
41
1
41
1
41
1
41
1
41
1
41
1
41
1
41
1
41
1
41
1
41
1
41
1
41
1
41
1
41
1
41
1
41
1
41
1
41
1
41
1
41
1
41
1
41
1
41
1
41
1
41
1
41
1
41
1
41
1
41
1
41
1
41
1
41
1
41
1
41
1
41
1
41
1
41
1
41
1
41
1
41
1
41
1
41
1
41
1
41
1
41
1
41
1
41
1
41
1
41
1
41
1
41
1
41
1
41
1
41
1
10
0.82093298769655698
20
-5.0184980520832738
30
0
10
0.82480946515058551
20
-5.0605504409955993
30
0
10
0.83572995322084498
20
-5.142735903185538
30
0
10
0.86161097109691287
20
-5.2602554415859029
30
0
10
0.91514246725220016
20
-5.4054352983448641
30
0
10
1.0147247815079017
20
-5.5682218519060198
30
0
10
1.1502213314441991
20
-5.7139556030361378
30
0
10
1.3271482796783476
20
-5.8456251500295044
30
0
10
1.549486239633145
20
-5.966566536469057
30
0
10
1.8160880480512089
20
-6.0795831637455562
30
0
10
2.1181183417216025
20
-6.1862279656136021
30
0
10
2.4431611385287777
20
-6.2873765407450746
30
0
10
2.7786460653372251
20
-6.3836539517482001
30
0
10
3.11514790381253
20
-6.4758639464399401
30
0
10
3.450711091283619
20
-6.5655524696031886
30
0
10
3.7899977749884455
20
-6.654853277692057
30
0
10
4.1406112662235959
20
-6.7459406574696166
30
0
10
4.5101457628690955
20
-6.8405789786725268
30
0
10
4.9032699816832936
20
-6.9396876951396163
30
0
10
5.3179710279485572
20
-7.0427618765052813
30
0
10
5.7455225240083996
20
-7.1479152569322633
30
0
10
6.1739769224358847
20
-7.2525087007302833
30
0
10
6.5905970339066151
20
-7.3536040821732565
30
0
10
6.9848834432756606
20
-7.448512805646339
30
0
10
7.3509720862324599
20
-7.5352497262045173
30
0
10
7.6912450948779165
20
-7.6131636535197122
30
0
10
8.0151706032982553
20
-7.6828777903753407
30
0
10
8.3350809070923209
20
-7.7457825482301992
30
0
10
8.6627221828093859
20
-7.8036503948236469
30
0
10
9.00579875371605
20
-7.8582262665515792
30
0
10
9.3637110617135235
20
-7.9107624369474969
30
0
10
9.729643800985059
20
-7.9620707073821952
30
0
10
10.094212052193965
20
-8.0127066490068941
30
0
10
10.448718748375281
20
-8.0631165735336801
30
0
10
10.788245923232665
20
-8.1137815413071142
30
0
10
11.115661170739752
20
-8.1654099882929607
30
0
10
11.440034741695831
20
-8.2188176037173655
30
0
10
11.773100571856213
20
-8.2746976888763797
30
0
10
12.126324009374393
20
-8.3334237376180855
30
0
10
12.507809739056775
20
-8.3948473139249113
30
0
10
12.91902619319294
20
-8.4580736422118132
30
0
10
13.356096713355816
20
-8.521679469651847
30
0
10
13.811484341158845
20
-8.5839691901349084
30
0
10
14.275512843199486
20
-8.6432129189922033
30
0
10
14.737995359302955
20
-8.6979010460828263
30
0
10
15.189722433064695
20
-8.7469709405751743
30
0
10
15.624252659454628
20
-8.7900996931873436
30
0
10
16.038016412971825
20
-8.8276225217859867
30
0
10
16.429874099731759
20
-8.8603304549449842
30
0
10
16.800859937452557
20
-8.8893076928938299
30
0
10
17.153842502472546
20
-8.915754093537176
30
0
10
17.493239093651415
20
-8.9408106376413627
30
0
10
17.824661122574163
20
-8.9653938311063275
30
0
10
18.154030196647859
20
-8.9901781195273234
30
0
10
18.486690388423153
20
-9.0155640962876724
30
0
10
18.826600722118108
20
-9.0416583555608483
30
0
10
19.175305755304816
20
-9.068233074131486
30
0
10
19.531634042577871
20
-9.094745376198702
30
0
10
19.89273874270409
20
-9.1204646252147157
30
0
10
20.254860003537431
20
-9.1445776343100196
30
0
10
20.614160073589556
20
-9.1662990855280881
30
0
10
20.967618414138219
20
-9.1849882934252634
30
0
10
21.313593938832579
20
-9.2002339732505121
30
0
10
21.651658859340042
20
-9.2118642184416419
30
0
10
21.982604851023527
20
-9.2199804658972369
30
0
10
22.308350669562181
20
-9.224965536867769
30
0
10
22.631966631534571
20
-9.2275432608847314
30
0
10
22.957346692259311
20
-9.2286511296106131
30
0
10
23.288595148727453
20
-9.2291552986805634
30
0
10
23.629479366867027
20
-9.2296022034020151
30
0
10
23.982884961603411
20
-9.229971560048611
30
0
10
24.350191570229349
20
-9.2293849072071801
30
0
10
24.731582365960957
20
-9.2263370680107091
30
0
10
25.126470492925847
20
-9.2189936790761546
30
0
10
25.533902148829942
20
-9.2054744388000369
30
0
10
25.952926803117276
20
-9.1841209580055327
30
0
10
26.383085235459919
20
-9.1538235828655861
30
0
10
26.824455886895127
20
-9.1141262136286407
30
0
10
27.277171615259377
20
-9.0650649418439002
30
0
10
27.741074479627279
20
-9.0070759019882729
30
0
10
28.215311950007983
20
-8.9408750530145582
30
0
10
28.697963081693537
20
-8.8673506317682502
30
0
10
29.185638703345834
20
-8.7874492457001594
30
0
10
29.673126581656394
20
-8.7020677152242794
30
0
10
30.154245411133545
20
-8.6120514411683562
30
0
10
30.622675191119498
20
-8.5181902258733633
30
0
10
31.072772992677297
20
-8.4212145421546332
30
0
10
31.500447732401746
20
-8.3217926162259026
30
0
10
31.903888148674103
20
-8.2205247203481591
30
0
10
32.284654736357673
20
-8.1179445267635479
30
0
10
32.647525837018748
20
-8.0144957626608857
30
0
10
32.998694433888829
20
-7.9104751371718667
30
0
10
33.344348359191173
20
-7.8059843440661716
30
0
10
33.689152905308802
20
-7.7008765948648454
30
0
10
34.034639036168329
20
-7.5947092909378302
30
0
10
34.378027716971431
20
-7.486682671561363
30
0
10
34.714075723089508
20
-7.375507827511381
30
0
10
35.03662970922268
20
-7.2592724464532621
30
0
10
35.340211656753375
20
-7.1353265746303958
30
0
10
35.621780037922058
20
-7.0001136164341782
30
0
10
35.881835472470009
20
-6.8491651473407957
30
0
10
36.123005867471441
20
-6.6777016665079545
30
0
10
36.349022641585499
20
-6.481142175376073
30
0
10
36.563557693379721
20
-6.2556418575822121
30
0
10
36.769084349484231
20
-5.9986388384675946
30
0
10
36.967080584286549
20
-5.7086125215224595
30
0
10
37.120048474078743
20
-5.449572577497702
30
0
10
37.231832464134108
20
-5.2399867461481486
30
0
10
37.305047855888063
20
-5.0934612217287496
30
0
10
37.341328731115176
20
-5.0184980520832738
30
0
0
SPLINE
5
246
100
AcDbEntity
8
0
100
AcDbSpline
70
4
71
5
72
116
73
110
74
0
42
0.000000001
43
0.0000000001
44
0.0000000001
40
0
40
0
40
0
40
0
40
0
40
0
40
0.0095238095238095247
40
0.019047619047619049
40
0.028571428571428574
40
0.038095238095238099
40
0.047619047619047623
40
0.057142857142857148
40
0.06666666666666668
40
0.076190476190476197
40
0.085714285714285715
40
0.095238095238095233
40
0.10476190476190475
40
0.11428571428571427
40
0.12380952380952379
40
0.1333333333333333
40
0.14285714285714282
40
0.15238095238095234
40
0.16190476190476186
40
0.17142857142857137
40
0.18095238095238089
40
0.19047619047619041
40
0.19999999999999993
40
0.20952380952380945
40
0.21904761904761896
40
0.22857142857142848
40
0.238095238095238
40
0.24761904761904752
40
0.25714285714285706
40
0.26666666666666661
40
0.27619047619047615
40
0.2857142857142857
40
0.29523809523809524
40
0.30476190476190479
40
0.31428571428571433
40
0.32380952380952388
40
0.33333333333333343
40
0.34285714285714297
40
0.35238095238095252
40
0.36190476190476206
40
0.37142857142857161
40
0.38095238095238115
40
0.3904761904761907
40
0.40000000000000024
40
0.40952380952380979
40
0.41904761904761934
40
0.42857142857142888
40
0.43809523809523843
40
0.44761904761904797
40
0.45714285714285752
40
0.46666666666666706
40
0.47619047619047661
40
0.48571428571428615
40
0.4952380952380957
40
0.50476190476190519
40
0.51428571428571468
40
0.52380952380952417
40
0.53333333333333366
40
0.54285714285714315
40
0.55238095238095264
40
0.56190476190476213
40
0.57142857142857162
40
0.58095238095238111
40
0.5904761904761906
40
0.60000000000000009
40
0.60952380952380958
40
0.61904761904761907
40
0.62857142857142856
40
0.63809523809523805
40
0.64761904761904754
40
0.65714285714285703
40
0.66666666666666652
40
0.67619047619047601
40
0.6857142857142855
40
0.69523809523809499
40
0.70476190476190448
40
0.71428571428571397
40
0.72380952380952346
40
0.73333333333333295
40
0.74285714285714244
40
0.75238095238095193
40
0.76190476190476142
40
0.77142857142857091
40
0.7809523809523804
40
0.79047619047618989
40
0.79999999999999938
40
0.80952380952380887
40
0.81904761904761836
40
0.82857142857142785
40
0.83809523809523734
40
0.84761904761904683
40
0.85714285714285632
40
0.86666666666666581
40
0.8761904761904753
40
0.88571428571428479
40
0.89523809523809428
40
0.90476190476190377
40
0.91428571428571326
40
0.92380952380952275
40
0.93333333333333224
40
0.94285714285714173
40
0.95238095238095122
40
0.96190476190476071
40
0.9714285714285702
40
0.98095238095237969
40
0.99047619047618918
40
1
40
1
40
1
40
1
40
1
40
1
41
1
41
1
41
1
41
1
41
1
41
1
41
1
41
1
41
1
41
1
41
1
41
1
41
1
41
1
41
1
41
1
41
1
41
1
41
1
41
1
41
1
41
1
41
1
41
1
41
1
41
1
41
1
41
1
41
1
41
1
41
1
41
1
41
1
41
1
41
1
41
1
41
1
41
1
41
1
41
1
41
1
41
1
41
1
41
1
41
1
41
1
41
1
41
1
41
1
41
1
41
1
41
1
41
1
41
1
41
1
41
1
41
1
41
1
41
1
41
1
41
1
41
1
41
1
41
1
41
1
41
1
41
1
41
1
41
1
41
1
41
1
41
1
41
1
41
1
41
1
41
1
41
1
41
1
41
1
41
1
41
1
41
1
41
1
41
1
41
1
41
1
41
1
41
1
41
1
41
1
41
1
41
1
41
1
41
1
41
1
41
1
41
1
41
1
41
1
41
1
41
1
41
1
41
1
41
1
41
1
41
1
41
1
41
1
41
1
41
1
10
0.82093298769655698
20
-5.0184980520832738
30
0
10
0.82480946515058551
20
-4.9764456631709484
30
0
10
0.83572995322084498
20
-4.8942602009810097
30
0
10
0.86161097109691287
20
-4.7767406625806448
30
0
10
0.91514246725220016
20
-4.6315608058216844
30
0
10
1.0147247815079017
20
-4.4687742522605287
30
0
10
1.1502213314441991
20
-4.3230405011304098
30
0
10
1.3271482796783476
20
-4.1913709541370441
30
0
10
1.549486239633145
20
-4.0704295676974915
30
0
10
1.8160880480512089
20
-3.9574129404209919
30
0
10
2.1181183417216025
20
-3.850768138552946
30
0
10
2.4431611385287777
20
-3.749619563421474
30
0
10
2.7786460653372251
20
-3.6533421524183485
30
0
10
3.11514790381253
20
-3.5611321577266084
30
0
10
3.450711091283619
20
-3.4714436345633599
30
0
10
3.7899977749884455
20
-3.382142826474491
30
0
10
4.1406112662235959
20
-3.2910554466969315
30
0
10
4.5101457628690955
20
-3.1964171254940212
30
0
10
4.9032699816832936
20
-3.0973084090269323
30
0
10
5.3179710279485572
20
-2.9942342276612672
30
0
10
5.7455225240083996
20
-2.8890808472342853
30
0
10
6.1739769224358847
20
-2.7844874034362652
30
0
10
6.5905970339066151
20
-2.6833920219932921
30
0
10
6.9848834432756606
20
-2.5884832985202095
30
0
10
7.3509720862324599
20
-2.5017463779620308
30
0
10
7.6912450948779165
20
-2.4238324506468358
30
0
10
8.0151706032982553
20
-2.3541183137912078
30
0
10
8.3350809070923209
20
-2.2912135559363489
30
0
10
8.6627221828093859
20
-2.2333457093429008
30
0
10
9.00579875371605
20
-2.1787698376149689
30
0
10
9.3637110617135235
20
-2.1262336672190516
30
0
10
9.729643800985059
20
-2.0749253967843528
30
0
10
10.094212052193965
20
-2.024289455159654
30
0
10
10.448718748375281
20
-1.973879530632868
30
0
10
10.788245923232665
20
-1.9232145628594348
30
0
10
11.115661170739752
20
-1.8715861158735871
30
0
10
11.440034741695831
20
-1.8181785004491828
30
0
10
11.773100571856213
20
-1.7622984152901691
30
0
10
12.126324009374393
20
-1.7035723665484626
30
0
10
12.507809739056775
20
-1.6421487902416374
30
0
10
12.91902619319294
20
-1.5789224619547344
30
0
10
13.356096713355816
20
-1.5153166345147016
30
0
10
13.811484341158845
20
-1.4530269140316399
30
0
10
14.275512843199486
20
-1.3937831851743452
30
0
10
14.737995359302955
20
-1.3390950580837215
30
0
10
15.189722433064695
20
-1.2900251635913738
30
0
10
15.624252659454628
20
-1.246896410979204
30
0
10
16.038016412971825
20
-1.2093735823805614
30
0
10
16.429874099731759
20
-1.1766656492215648
30
0
10
16.800859937452557
20
-1.1476884112727188
30
0
10
17.153842502472546
20
-1.1212420106293728
30
0
10
17.493239093651415
20
-1.0961854665251856
30
0
10
17.824661122574163
20
-1.0716022730602213
30
0
10
18.154030196647859
20
-1.0468179846392247
30
0
10
18.486690388423153
20
-1.0214320078788759
30
0
10
18.826600722118108
20
-0.99533774860570057
30
0
10
19.175305755304816
20
-0.96876303003506248
30
0
10
19.531634042577871
20
-0.94225072796784559
30
0
10
19.89273874270409
20
-0.91653147895183185
30
0
10
20.254860003537431
20
-0.89241846985652828
30
0
10
20.614160073589556
20
-0.87069701863846094
30
0
10
20.967618414138219
20
-0.85200781074128418
30
0
10
21.313593938832579
20
-0.83676213091603546
30
0
10
21.651658859340042
20
-0.8251318857249067
30
0
10
21.982604851023527
20
-0.8170156382693109
30
0
10
22.308350669562181
20
-0.81203056729877887
30
0
10
22.631966631534571
20
-0.80945284328181655
30
0
10
22.957346692259311
20
-0.80834497455593446
30
0
10
23.288595148727453
20
-0.80784080548598436
30
0
10
23.629479366867027
20
-0.80739390076453221
30
0
10
23.982884961603411
20
-0.80702454411793667
30
0
10
24.350191570229349
20
-0.80761119695936801
30
0
10
24.731582365960957
20
-0.81065903615583901
30
0
10
25.126470492925847
20
-0.81800242509039378
30
0
10
25.533902148829942
20
-0.83152166536651206
30
0
10
25.952926803117276
20
-0.8528751461610159
30
0
10
26.383085235459919
20
-0.88317252130096158
30
0
10
26.824455886895127
20
-0.92286989053790769
30
0
10
27.277171615259377
20
-0.97193116232264853
30
0
10
27.741074479627279
20
-1.0299202021782752
30
0
10
28.215311950007983
20
-1.0961210511519899
30
0
10
28.697963081693537
20
-1.1696454723982987
30
0
10
29.185638703345834
20
-1.2495468584663882
30
0
10
29.673126581656394
20
-1.3349283889422683
30
0
10
30.154245411133545
20
-1.4249446629981923
30
0
10
30.622675191119498
20
-1.5188058782931857
30
0
10
31.072772992677297
20
-1.6157815620119158
30
0
10
31.500447732401746
20
-1.7152034879406453
30
0
10
31.903888148674103
20
-1.8164713838183897
30
0
10
32.284654736357673
20
-1.9190515774029999
30
0
10
32.647525837018748
20
-2.0225003415056619
30
0
10
32.998694433888829
20
-2.126520966994681
30
0
10
33.344348359191173
20
-2.2310117601003765
30
0
10
33.689152905308802
20
-2.3361195093017026
30
0
10
34.034639036168329
20
-2.4422868132287179
30
0
10
34.378027716971431
20
-2.5503134326051851
30
0
10
34.714075723089508
20
-2.6614882766551671
30
0
10
35.03662970922268
20
-2.777723657713286
30
0
10
35.340211656753375
20
-2.9016695295361523
30
0
10
35.621780037922058
20
-3.0368824877323704
30
0
10
35.881835472470009
20
-3.1878309568257523
30
0
10
36.123005867471441
20
-3.3592944376585936
30
0
10
36.349022641585499
20
-3.5558539287904751
30
0
10
36.563557693379721
20
-3.7813542465843355
30
0
10
36.769084349484231
20
-4.038357265698953
30
0
10
36.967080584286549
20
-4.3283835826440882
30
0
10
37.120048474078743
20
-4.5874235266688457
30
0
10
37.231832464134108
20
-4.797009358018399
30
0
10
37.305047855888063
20
-4.9435348824377989
30
0
10
37.341328731115176
20
-5.0184980520832738
30
0
0
ENDSEC
0
SECTION
2
OBJECTS
0
DICTIONARY
5
C
100
AcDbDictionary
3
ACAD_GROUP
350
D
3
ACAD_MLINESTYLE
350
17
0
DICTIONARY
5
D
100
AcDbDictionary
0
DICTIONARY
5
1A
330
C
100
AcDbDictionary
0
DICTIONARY
5
17
100
AcDbDictionary
0
ENDSEC
0
EOF
