0
SECTION
2
HEADER
9
$INSUNITS
70
4
9
$ACADVER
1
AC1014
9
$HANDSEED
5
FFFF
0
ENDSEC
0
SECTION
2
TABLES
0
TABLE
2
VPORT
5
8
100
AcDbSymbolTable
0
ENDTAB
0
TABLE
2
LTYPE
5
5
100
AcDbSymbolTable
0
LTYPE
5
14
100
AcDbSymbolTableRecord
100
AcDbLinetypeTableRecord
2
BYBLOCK
70
0
0
LTYPE
5
15
100
AcDbSymbolTableRecord
100
AcDbLinetypeTableRecord
2
BYLAYER
70
0
0
ENDTAB
0
TABLE
2
LAYER
5
2
100
AcDbSymbolTable
70
2
0
LAYER
5
50
100
AcDbSymbolTableRecord
100
AcDbLayerTableRecord
2
0
70
0
6
CONTINUOUS
0
ENDTAB
0
TABLE
2
STYLE
5
3
100
AcDbSymbolTable
70
1
0
STYLE
5
11
100
AcDbSymbolTableRecord
100
AcDbTextStyleTableRecord
2
STANDARD
70
0
0
ENDTAB
0
TABLE
2
VIEW
5
6
100
AcDbSymbolTable
70
0
0
ENDTAB
0
TABLE
2
UCS
5
7
100
AcDbSymbolTable
70
0
0
ENDTAB
0
TABLE
2
APPID
5
9
100
AcDbSymbolTable
70
2
0
APPID
5
12
100
AcDbSymbolTableRecord
100
AcDbRegAppTableRecord
2
ACAD
70
0
0
ENDTAB
0
TABLE
2
DIMSTYLE
5
A
100
AcDbSymbolTable
70
1
0
ENDTAB
0
TABLE
2
BLOCK_RECORD
5
1
100
AcDbSymbolTable
70
1
0
BLOCK_RECORD
5
1F
100
AcDbSymbolTableRecord
100
AcDbBlockTableRecord
2
*MODEL_SPACE
0
BLOCK_RECORD
5
1B
100
AcDbSymbolTableRecord
100
AcDbBlockTableRecord
2
*PAPER_SPACE
0
ENDTAB
0
ENDSEC
0
SECTION
2
BLOCKS
0
BLOCK
5
20
100
AcDbEntity
100
AcDbBlockBegin
2
*MODEL_SPACE
0
ENDBLK
5
21
100
AcDbEntity
100
AcDbBlockEnd
0
BLOCK
5
1C
100
AcDbEntity
100
AcDbBlockBegin
2
*PAPER_SPACE
0
ENDBLK
5
1D
100
AcDbEntity
100
AcDbBlockEnd
0
ENDSEC
0
SECTION
2
ENTITIES
0
LWPOLYLINE
5
100
100
AcDbEntity
8
0
100
AcDbPolyline
90
4
70
1
43
0.0
10
-6.2500000000000009
20
-11.400000000000002
10
6.2500000000000009
20
-11.400000000000002
10
6.2500000000000009
20
11.400000000000002
10
-6.2500000000000009
20
11.400000000000002
0
CIRCLE
5
101
100
AcDbEntity
8
0
100
AcDbCircle
10
0
20
13.639922016122457
30
0
40
1.0000000000000009
0
CIRCLE
5
102
100
AcDbEntity
8
0
100
AcDbCircle
10
0
20
-13.700000000000001
30
0
40
1.0000000000000009
0
LINE
5
103
100
AcDbEntity
8
0
100
AcDbLine
10
17.320508075688764
20
-30.000000000000004
30
0
11
34.641016151377542
21
-1.3322676295501878e-14
31
0
0
LINE
5
104
100
AcDbEntity
8
0
100
AcDbLine
10
34.641016151377542
20
-1.3322676295501878e-14
30
0
11
17.320508075688789
21
29.999999999999986
31
0
0
LINE
5
105
100
AcDbEntity
8
0
100
AcDbLine
10
17.320508075688789
20
29.999999999999986
30
0
11
-17.32050807568875
21
30.000000000000007
31
0
0
LINE
5
106
100
AcDbEntity
8
0
100
AcDbLine
10
-17.32050807568875
20
30.000000000000007
30
0
11
-34.641016151377542
21
2.886579864025407e-14
31
0
0
LINE
5
107
100
AcDbEntity
8
0
100
AcDbLine
10
-34.641016151377542
20
2.886579864025407e-14
30
0
11
-17.320508075688799
21
-29.999999999999982
31
0
0
LINE
5
108
100
AcDbEntity
8
0
100
AcDbLine
10
-17.320508075688799
20
-29.999999999999982
30
0
11
17.320508075688764
21
-30.000000000000004
31
0
0
LINE
5
109
100
AcDbEntity
8
0
100
AcDbLine
10
17.320508075688789
20
29.999999999999986
30
0
11
34.641016151377542
21
-1.3322676295501878e-14
31
0
0
LINE
5
110
100
AcDbEntity
8
0
100
AcDbLine
10
34.641016151377542
20
-1.3322676295501878e-14
30
0
11
49.363448015713004
21
8.4999999999999805
31
0
0
LINE
5
111
100
AcDbEntity
8
0
100
AcDbLine
10
49.363448015713004
20
8.4999999999999805
30
0
11
32.04293994002424
21
38.499999999999979
31
0
0
LINE
5
112
100
AcDbEntity
8
0
100
AcDbLine
10
32.04293994002424
20
38.499999999999979
30
0
11
17.320508075688789
21
29.999999999999986
31
0
0
LINE
5
113
100
AcDbEntity
8
0
100
AcDbLine
10
17.320508075688789
20
29.999999999999986
30
0
11
-17.32050807568875
21
30.000000000000007
31
0
0
LINE
5
114
100
AcDbEntity
8
0
100
AcDbLine
10
-17.32050807568875
20
30.000000000000007
30
0
11
-17.320508075688739
21
47.000000000000021
31
0
0
LINE
5
115
100
AcDbEntity
8
0
100
AcDbLine
10
-17.320508075688739
20
47.000000000000021
30
0
11
17.320508075688799
21
46.999999999999993
31
0
0
LINE
5
116
100
AcDbEntity
8
0
100
AcDbLine
10
17.320508075688799
20
46.999999999999993
30
0
11
17.320508075688789
21
29.999999999999986
31
0
0
LINE
5
117
100
AcDbEntity
8
0
100
AcDbLine
10
-17.320508075688799
20
-29.999999999999982
30
0
11
17.320508075688764
21
-29.999999999999982
31
0
0
LINE
5
118
100
AcDbEntity
8
0
100
AcDbLine
10
17.320508075688764
20
-29.999999999999982
30
0
11
17.320508075688764
21
-46.999999999999986
31
0
0
LINE
5
119
100
AcDbEntity
8
0
100
AcDbLine
10
17.320508075688764
20
-46.999999999999986
30
0
11
-17.320508075688799
21
-46.999999999999986
31
0
0
LINE
5
120
100
AcDbEntity
8
0
100
AcDbLine
10
-17.320508075688799
20
-46.999999999999986
30
0
11
-17.320508075688799
21
-29.999999999999982
31
0
0
LINE
5
121
100
AcDbEntity
8
0
100
AcDbLine
10
17.320508075688764
20
-30.000000000000004
30
0
11
34.641016151377542
21
-1.3322676295501878e-14
31
0
0
LINE
5
122
100
AcDbEntity
8
0
100
AcDbLine
10
34.641016151377542
20
-1.3322676295501878e-14
30
0
11
49.363448015713004
21
-8.5000000000000178
31
0
0
LINE
5
123
100
AcDbEntity
8
0
100
AcDbLine
10
49.363448015713004
20
-8.5000000000000178
30
0
11
32.042939940024226
21
-38.500000000000007
31
0
0
LINE
5
124
100
AcDbEntity
8
0
100
AcDbLine
10
32.042939940024226
20
-38.500000000000007
30
0
11
17.320508075688764
21
-30.000000000000004
31
0
0
LINE
5
125
100
AcDbEntity
8
0
100
AcDbLine
10
-34.641016151377542
20
2.886579864025407e-14
30
0
11
-17.320508075688799
21
-29.999999999999982
31
0
0
LINE
5
126
100
AcDbEntity
8
0
100
AcDbLine
10
-17.320508075688799
20
-29.999999999999982
30
0
11
-32.042939940024262
21
-38.499999999999972
31
0
0
LINE
5
127
100
AcDbEntity
8
0
100
AcDbLine
10
-32.042939940024262
20
-38.499999999999972
30
0
11
-49.363448015713011
21
-8.4999999999999591
31
0
0
LINE
5
128
100
AcDbEntity
8
0
100
AcDbLine
10
-49.363448015713011
20
-8.4999999999999591
30
0
11
-34.641016151377542
21
2.886579864025407e-14
31
0
0
LINE
5
129
100
AcDbEntity
8
0
100
AcDbLine
10
-17.32050807568875
20
30.000000000000007
30
0
11
-34.641016151377542
21
2.886579864025407e-14
31
0
0
LINE
5
130
100
AcDbEntity
8
0
100
AcDbLine
10
-34.641016151377542
20
2.886579864025407e-14
30
0
11
-49.36344801571299
21
8.5000000000000391
31
0
0
LINE
5
131
100
AcDbEntity
8
0
100
AcDbLine
10
-49.36344801571299
20
8.5000000000000391
30
0
11
-32.042939940024198
21
38.500000000000021
31
0
0
LINE
5
132
100
AcDbEntity
8
0
100
AcDbLine
10
-32.042939940024198
20
38.500000000000021
30
0
11
-17.32050807568875
21
30.000000000000007
31
0
0
LWPOLYLINE
5
133
100
AcDbEntity
8
0
100
AcDbPolyline
90
8
70
1
43
0.0
10
-19.917183909278773
20
1.8181818181817975
42
-0.91287092917527735
10
19.917183909278769
20
1.8181818181818186
42
0.3877945824087991
10
21.908902300206648
20
0
10
23.916521486202797
20
0
42
0.43886622996571556
10
25.909564943386357
20
2.166666666666667
42
0.91986621100779997
10
-25.909564943386361
20
2.1666666666666701
42
0.43886622996571573
10
-23.916521486202797
20
1.9428902930940239e-15
10
-21.908902300206648
20
8.3266726846886741e-16
42
0.3877945824087991
0
LWPOLYLINE
5
134
100
AcDbEntity
8
0
100
AcDbPolyline
90
4
70
1
43
0.0
10
-7.4999999999999716
20
42.384661966373692
10
7.5000000000000284
20
42.384661966373692
10
7.5000000000000284
20
46.384661966373699
10
-7.4999999999999716
20
46.384661966373699
0
LINE
5
135
100
AcDbEntity
8
0
100
AcDbLine
10
-7.6306111409442217
20
-43.909886923516233
30
0
11
-7.6306111409442217
21
-40.909886923516225
31
0
0
LWPOLYLINE
5
136
100
AcDbEntity
8
0
100
AcDbPolyline
90
7
70
1
43
0.0
10
-7.6306111409442217
20
-33.909886923516225
10
-7.6306111409442217
20
-36.909886923516233
10
-6.6306111409442199
20
-36.909886923516233
10
-6.6306111409442199
20
-33.909886923516225
10
-5.8806111409442208
20
-33.909886923516225
10
-7.1306111409442208
20
-32.409886923516225
10
-8.3806111409442217
20
-33.909886923516225
0
LINE
5
137
100
AcDbEntity
8
0
100
AcDbLine
10
-6.6306111409442199
20
-40.909886923516225
30
0
11
-6.6306111409442199
21
-43.909886923516233
31
0
0
LWPOLYLINE
5
138
100
AcDbEntity
8
0
100
AcDbPolyline
90
7
70
1
43
0.0
10
-2.1306111409442208
20
-38.409886923516225
10
-5.1306111409442199
20
-38.409886923516225
10
-5.1306111409442199
20
-39.409886923516233
10
-2.1306111409442208
20
-39.409886923516233
10
-2.1306111409442208
20
-40.159886923516233
10
-0.63061114094422055
20
-38.909886923516225
10
-2.1306111409442208
20
-37.659886923516225
0
LINE
5
139
100
AcDbEntity
8
0
100
AcDbLine
10
-12.130611140944222
20
-38.409886923516225
30
0
11
-9.1306111409442217
21
-38.409886923516225
31
0
0
LINE
5
140
100
AcDbEntity
8
0
100
AcDbLine
10
-7.1806111409442206
20
-38.409886923516225
30
0
11
-7.0806111409442209
21
-38.409886923516225
31
0
0
LINE
5
141
100
AcDbEntity
8
0
100
AcDbLine
10
-9.1306111409442217
20
-39.409886923516233
30
0
11
-12.130611140944222
21
-39.409886923516233
31
0
0
LINE
5
142
100
AcDbEntity
8
0
100
AcDbLine
10
-7.1306111409442208
20
-45.40988692351624
30
0
11
-8.3806111409442217
21
-43.909886923516233
31
0
0
LINE
5
143
100
AcDbEntity
8
0
100
AcDbLine
10
-7.1306111409442208
20
-45.40988692351624
30
0
11
-5.8806111409442208
21
-43.909886923516233
31
0
0
LINE
5
144
100
AcDbEntity
8
0
100
AcDbLine
10
-6.6306111409442199
20
-43.909886923516233
30
0
11
-5.8806111409442208
21
-43.909886923516233
31
0
0
LINE
5
145
100
AcDbEntity
8
0
100
AcDbLine
10
-7.6306111409442217
20
-43.909886923516233
30
0
11
-8.3806111409442217
21
-43.909886923516233
31
0
0
LINE
5
146
100
AcDbEntity
8
0
100
AcDbLine
10
-12.130611140944222
20
-38.409886923516225
30
0
11
-12.130611140944222
21
-37.659886923516225
31
0
0
LINE
5
147
100
AcDbEntity
8
0
100
AcDbLine
10
-13.63061114094422
20
-38.909886923516225
30
0
11
-12.130611140944222
21
-37.659886923516225
31
0
0
LINE
5
148
100
AcDbEntity
8
0
100
AcDbLine
10
-13.63061114094422
20
-38.909886923516225
30
0
11
-12.130611140944222
21
-40.159886923516233
31
0
0
LINE
5
149
100
AcDbEntity
8
0
100
AcDbLine
10
-12.130611140944222
20
-39.409886923516233
30
0
11
-12.130611140944222
21
-40.159886923516233
31
0
0
LINE
5
150
100
AcDbEntity
8
0
100
AcDbLine
10
-6.6306111409442199
20
-40.909886923516225
30
0
11
-7.6306111409442217
21
-40.909886923516225
31
0
0
LINE
5
151
100
AcDbEntity
8
0
100
AcDbLine
10
-9.1306111409442217
20
-39.409886923516233
30
0
11
-9.1306111409442217
21
-38.409886923516225
31
0
0
CIRCLE
5
152
100
AcDbEntity
8
0
100
AcDbCircle
10
7.9008168129127814
20
-38.909886923516225
30
0
40
5.100000000000005
0
CIRCLE
5
153
100
AcDbEntity
8
0
100
AcDbCircle
10
-7.1306111409442208
20
-38.909886923516225
30
0
40
1.5000000000000002
0
LWPOLYLINE
5
154
100
AcDbEntity
8
0
100
AcDbPolyline
90
4
70
1
43
0.0
10
-3.5411781991509339
20
38.781629499483358
10
-15.541178199150936
20
38.781629499483358
10
-15.541178199150936
20
37.781629499483358
10
-3.5411781991509339
20
37.781629499483358
0
LWPOLYLINE
5
155
100
AcDbEntity
8
0
100
AcDbPolyline
90
4
70
1
43
0.0
10
-15.541178199150936
20
37.531629499483358
10
-15.541178199150936
20
36.531629499483358
10
-3.5411781991509339
20
36.531629499483358
10
-3.5411781991509339
20
37.531629499483358
0
LWPOLYLINE
5
156
100
AcDbEntity
8
0
100
AcDbPolyline
90
4
70
1
43
0.0
10
-15.541178199150936
20
36.281629499483358
10
-15.541178199150936
20
35.281629499483358
10
-3.5411781991509339
20
35.281629499483358
10
-3.5411781991509339
20
36.281629499483358
0
LWPOLYLINE
5
157
100
AcDbEntity
8
0
100
AcDbPolyline
90
4
70
1
43
0.0
10
-15.541178199150936
20
35.031629499483358
10
-15.541178199150936
20
34.031629499483358
10
-3.5411781991509339
20
34.031629499483358
10
-3.5411781991509339
20
35.031629499483358
0
LWPOLYLINE
5
158
100
AcDbEntity
8
0
100
AcDbPolyline
90
4
70
1
43
0.0
10
-15.541178199150936
20
33.781629499483358
10
-15.541178199150936
20
32.781629499483358
10
-3.5411781991509339
20
32.781629499483358
10
-3.5411781991509339
20
33.781629499483358
0
LWPOLYLINE
5
159
100
AcDbEntity
8
0
100
AcDbPolyline
90
8
70
1
43
0.0
10
185
20
40
10
54.999999999999993
20
40
42
0.41421356237309553
10
50
20
35
10
50.000000000000007
20
-28.979819144485788
42
0.41421356237309553
10
55
20
-33.979819144485788
10
185
20
-33.979819144485781
42
0.41421356237309448
10
190
20
-28.979819144485788
10
190
20
35
42
0.41421356237309448
0
CIRCLE
5
160
100
AcDbEntity
8
0
100
AcDbCircle
10
54.999999999999993
20
35.000000000000007
30
0
40
1.4999999999999989
0
CIRCLE
5
161
100
AcDbEntity
8
0
100
AcDbCircle
10
55
20
-28.979819144485795
30
0
40
1.5000000000000036
0
CIRCLE
5
162
100
AcDbEntity
8
0
100
AcDbCircle
10
185
20
34.999999999999993
30
0
40
1.4999999999999889
0
CIRCLE
5
163
100
AcDbEntity
8
0
100
AcDbCircle
10
185
20
-28.979819144485781
30
0
40
1.4999999999999858
0
CIRCLE
5
164
100
AcDbEntity
8
0
100
AcDbCircle
10
0
20
90
30
0
40
24.999999999999996
0
CIRCLE
5
165
100
AcDbEntity
8
0
100
AcDbCircle
10
0
20
90
30
0
40
1.5000000000000002
0
ENDSEC
0
SECTION
2
OBJECTS
0
DICTIONARY
5
C
100
AcDbDictionary
3
ACAD_GROUP
350
D
3
ACAD_MLINESTYLE
350
17
0
DICTIONARY
5
D
100
AcDbDictionary
0
DICTIONARY
5
1A
330
C
100
AcDbDictionary
0
DICTIONARY
5
17
100
AcDbDictionary
0
ENDSEC
0
EOF
