  0
SECTION
  2
HEADER
  9
$ACADVER
  1
AC1014
  9
$ACADMAINTVER
 70
     9
  9
$DWGCODEPAGE
  3
ANSI_1252
  9
$INSBASE
 10
0.0
 20
0.0
 30
0.0
  9
$EXTMIN
 10
0.4810079948566468
 20
0.5673502684927813
 30
0.0
  9
$EXTMAX
 10
107.1980192777413
 20
96.97744329256182
 30
0.0
  9
$LIMMIN
 10
0.0
 20
0.0
  9
$LIMMAX
 10
12.0
 20
9.0
  9
$ORTHOMODE
 70
     0
  9
$REGENMODE
 70
     1
  9
$FILLMODE
 70
     1
  9
$QTEXTMODE
 70
     0
  9
$MIRRTEXT
 70
     0
  9
$DRAGMODE
 70
     2
  9
$LTSCALE
 40
1.0
  9
$OSMODE
 70
 12719
  9
$ATTMODE
 70
     1
  9
$TEXTSIZE
 40
0.2
  9
$TRACEWID
 40
0.05
  9
$TEXTSTYLE
  7
STANDARD
  9
$CLAYER
  8
0
  9
$CELTYPE
  6
BYLAYER
  9
$CECOLOR
 62
   256
  9
$CELTSCALE
 40
1.0
  9
$DELOBJ
 70
     1
  9
$DISPSILH
 70
     0
  9
$DIMSCALE
 40
1.0
  9
$DIMASZ
 40
0.18
  9
$DIMEXO
 40
0.0625
  9
$DIMDLI
 40
0.38
  9
$DIMRND
 40
0.0
  9
$DIMDLE
 40
0.0
  9
$DIMEXE
 40
0.18
  9
$DIMTP
 40
0.0
  9
$DIMTM
 40
0.0
  9
$DIMTXT
 40
0.18
  9
$DIMCEN
 40
0.09
  9
$DIMTSZ
 40
0.0
  9
$DIMTOL
 70
     0
  9
$DIMLIM
 70
     0
  9
$DIMTIH
 70
     1
  9
$DIMTOH
 70
     1
  9
$DIMSE1
 70
     0
  9
$DIMSE2
 70
     0
  9
$DIMTAD
 70
     0
  9
$DIMZIN
 70
     0
  9
$DIMBLK
  1

  9
$DIMASO
 70
     1
  9
$DIMSHO
 70
     1
  9
$DIMPOST
  1

  9
$DIMAPOST
  1

  9
$DIMALT
 70
     0
  9
$DIMALTD
 70
     2
  9
$DIMALTF
 40
25.4
  9
$DIMLFAC
 40
1.0
  9
$DIMTOFL
 70
     0
  9
$DIMTVP
 40
0.0
  9
$DIMTIX
 70
     0
  9
$DIMSOXD
 70
     0
  9
$DIMSAH
 70
     0
  9
$DIMBLK1
  1

  9
$DIMBLK2
  1

  9
$DIMSTYLE
  2
STANDARD
  9
$DIMCLRD
 70
     0
  9
$DIMCLRE
 70
     0
  9
$DIMCLRT
 70
     0
  9
$DIMTFAC
 40
1.0
  9
$DIMGAP
 40
0.09
  9
$DIMJUST
 70
     0
  9
$DIMSD1
 70
     0
  9
$DIMSD2
 70
     0
  9
$DIMTOLJ
 70
     1
  9
$DIMTZIN
 70
     0
  9
$DIMALTZ
 70
     0
  9
$DIMALTTZ
 70
     0
  9
$DIMFIT
 70
     5
  9
$DIMUPT
 70
     0
  9
$DIMUNIT
 70
     2
  9
$DIMDEC
 70
     4
  9
$DIMTDEC
 70
     4
  9
$DIMALTU
 70
     2
  9
$DIMALTTD
 70
     2
  9
$DIMTXSTY
  7
STANDARD
  9
$DIMAUNIT
 70
     0
  9
$LUNITS
 70
     2
  9
$LUPREC
 70
     4
  9
$SKETCHINC
 40
0.1
  9
$FILLETRAD
 40
0.0
  9
$AUNITS
 70
     0
  9
$AUPREC
 70
     0
  9
$MENU
  1
.
  9
$ELEVATION
 40
0.0
  9
$PELEVATION
 40
0.0
  9
$THICKNESS
 40
0.0
  9
$LIMCHECK
 70
     0
  9
$CHAMFERA
 40
0.0
  9
$CHAMFERB
 40
0.0
  9
$CHAMFERC
 40
0.0
  9
$CHAMFERD
 40
0.0
  9
$SKPOLY
 70
     0
  9
$TDCREATE
 40
2458616.543518519
  9
$TDUPDATE
 40
2458617.341660961
  9
$TDINDWG
 40
0.0005787269
  9
$TDUSRTIMER
 40
0.0041053819
  9
$USRTIMER
 70
     1
  9
$ANGBASE
 50
0.0
  9
$ANGDIR
 70
     0
  9
$PDMODE
 70
     0
  9
$PDSIZE
 40
0.0
  9
$PLINEWID
 40
0.0
  9
$COORDS
 70
     2
  9
$SPLFRAME
 70
     0
  9
$SPLINETYPE
 70
     6
  9
$SPLINESEGS
 70
     8
  9
$ATTDIA
 70
     0
  9
$ATTREQ
 70
     1
  9
$HANDLING
 70
     1
  9
$HANDSEED
  5
65A
  9
$SURFTAB1
 70
     6
  9
$SURFTAB2
 70
     6
  9
$SURFTYPE
 70
     6
  9
$SURFU
 70
     6
  9
$SURFV
 70
     6
  9
$UCSNAME
  2

  9
$UCSORG
 10
0.0
 20
0.0
 30
0.0
  9
$UCSXDIR
 10
1.0
 20
0.0
 30
0.0
  9
$UCSYDIR
 10
0.0
 20
1.0
 30
0.0
  9
$PUCSNAME
  2

  9
$PUCSORG
 10
0.0
 20
0.0
 30
0.0
  9
$PUCSXDIR
 10
1.0
 20
0.0
 30
0.0
  9
$PUCSYDIR
 10
0.0
 20
1.0
 30
0.0
  9
$USERI1
 70
     0
  9
$USERI2
 70
     0
  9
$USERI3
 70
     0
  9
$USERI4
 70
     0
  9
$USERI5
 70
     0
  9
$USERR1
 40
0.0
  9
$USERR2
 40
0.0
  9
$USERR3
 40
0.0
  9
$USERR4
 40
0.0
  9
$USERR5
 40
0.0
  9
$WORLDVIEW
 70
     1
  9
$SHADEDGE
 70
     3
  9
$SHADEDIF
 70
    70
  9
$TILEMODE
 70
     1
  9
$MAXACTVP
 70
    64
  9
$PINSBASE
 10
0.0
 20
0.0
 30
0.0
  9
$PLIMCHECK
 70
     0
  9
$PEXTMIN
 10
0.0
 20
0.0
 30
0.0
  9
$PEXTMAX
 10
0.0
 20
0.0
 30
0.0
  9
$PLIMMIN
 10
0.0
 20
0.0
  9
$PLIMMAX
 10
0.0
 20
0.0
  9
$UNITMODE
 70
     0
  9
$VISRETAIN
 70
     1
  9
$PLINEGEN
 70
     0
  9
$PSLTSCALE
 70
     1
  9
$TREEDEPTH
 70
  3020
  9
$PICKSTYLE
 70
     1
  9
$CMLSTYLE
  2
STANDARD
  9
$CMLJUST
 70
     0
  9
$CMLSCALE
 40
1.0
  9
$PROXYGRAPHICS
 70
     1
  9
$MEASUREMENT
 70
     0
  0
ENDSEC
  0
SECTION
  2
CLASSES
  0
CLASS
  1
ACDBDICTIONARYWDFLT
  2
AcDbDictionaryWithDefault
  3
ObjectDBX Classes
 90
        0
280
     0
281
     0
  0
CLASS
  1
MATERIAL
  2
AcDbMaterial
  3
ObjectDBX Classes
 90
     1153
280
     0
281
     0
  0
CLASS
  1
SCALE
  2
AcDbScale
  3
ObjectDBX Classes
 90
     1153
280
     0
281
     0
  0
CLASS
  1
VISUALSTYLE
  2
AcDbVisualStyle
  3
ObjectDBX Classes
 90
     4095
280
     0
281
     0
  0
CLASS
  1
TABLESTYLE
  2
AcDbTableStyle
  3
ObjectDBX Classes
 90
     4095
280
     0
281
     0
  0
CLASS
  1
MLEADERSTYLE
  2
AcDbMLeaderStyle
  3
ACDB_MLEADERSTYLE_CLASS
 90
     4095
280
     0
281
     0
  0
CLASS
  1
XRECORD
  2
AcDbXrecord
  3
ObjectDBX Classes
 90
        0
280
     0
281
     0
  0
CLASS
  1
LWPOLYLINE
  2
AcDbPolyline
  3
ObjectDBX Classes
 90
        0
280
     0
281
     1
  0
CLASS
  1
HATCH
  2
AcDbHatch
  3
ObjectDBX Classes
 90
        0
280
     0
281
     1
  0
ENDSEC
  0
SECTION
  2
TABLES
  0
TABLE
  2
VPORT
  5
5C8
330
0
100
AcDbSymbolTable
 70
     1
  0
VPORT
  5
5DF
330
5C8
100
AcDbSymbolTableRecord
100
AcDbViewportTableRecord
  2
*ACTIVE
 70
     0
 10
0.0
 20
0.0
 11
1.0
 21
1.0
 12
62.7474343163075
 22
37.86509992585768
 13
0.0
 23
0.0
 14
0.5
 24
0.5
 15
0.5
 25
0.5
 16
0.0
 26
0.0
 36
1.0
 17
0.0
 27
0.0
 37
0.0
 40
88.7570499173017
 41
1.845771144278607
 42
50.0
 43
0.0
 44
0.0
 50
0.0
 51
0.0
 71
    16
 72
  1000
 73
     1
 74
     3
 75
     0
 76
     0
 77
     0
 78
     0
  0
ENDTAB
  0
TABLE
  2
LTYPE
  5
5C5
330
0
100
AcDbSymbolTable
 70
     1
  0
LTYPE
  5
5D3
330
5C5
100
AcDbSymbolTableRecord
100
AcDbLinetypeTableRecord
  2
BYBLOCK
 70
     0
  3

 72
    65
 73
     0
 40
0.0
  0
LTYPE
  5
5D4
330
5C5
100
AcDbSymbolTableRecord
100
AcDbLinetypeTableRecord
  2
BYLAYER
 70
     0
  3

 72
    65
 73
     0
 40
0.0
  0
LTYPE
  5
5D5
330
5C5
100
AcDbSymbolTableRecord
100
AcDbLinetypeTableRecord
  2
CONTINUOUS
 70
     0
  3
Solid line
 72
    65
 73
     0
 40
0.0
  0
ENDTAB
  0
TABLE
  2
LAYER
  5
5C2
102
{ACAD_XDICTIONARY
360
643
102
}
330
0
100
AcDbSymbolTable
 70
     5
  0
LAYER
  5
5D0
330
5C2
100
AcDbSymbolTableRecord
100
AcDbLayerTableRecord
  2
0
 70
     0
 62
     7
  6
CONTINUOUS
  0
LAYER
  5
5E6
330
5C2
100
AcDbSymbolTableRecord
100
AcDbLayerTableRecord
  2
SHEET
 70
     0
 62
     3
  6
CONTINUOUS
  0
LAYER
  5
5E7
330
5C2
100
AcDbSymbolTableRecord
100
AcDbLayerTableRecord
  2
POCKET
 70
     0
 62
     1
  6
CONTINUOUS
  0
LAYER
  5
5E8
330
5C2
100
AcDbSymbolTableRecord
100
AcDbLayerTableRecord
  2
CUT_THROUGH
 70
     0
 62
     4
  6
CONTINUOUS
  0
LAYER
  5
649
330
5C2
100
AcDbSymbolTableRecord
100
AcDbLayerTableRecord
  2
TAB_HEIGHT__17MM_
 70
     0
 62
     6
  6
CONTINUOUS
1001
ACAECLAYERSTANDARD
1000

1000

  0
ENDTAB
  0
TABLE
  2
STYLE
  5
5C3
330
0
100
AcDbSymbolTable
 70
     2
  0
STYLE
  5
5D1
330
5C3
100
AcDbSymbolTableRecord
100
AcDbTextStyleTableRecord
  2
STANDARD
 70
     0
 40
0.0
 41
1.0
 50
0.0
 71
     0
 42
0.2
  3
txt
  4

  0
STYLE
  5
5EA
330
5C3
100
AcDbSymbolTableRecord
100
AcDbTextStyleTableRecord
  2
ANNOTATIVE
 70
     0
 40
0.0
 41
1.0
 50
0.0
 71
     0
 42
0.2
  3
txt
  4

  0
ENDTAB
  0
TABLE
  2
VIEW
  5
5C6
330
0
100
AcDbSymbolTable
 70
     0
  0
ENDTAB
  0
TABLE
  2
UCS
  5
5C7
330
0
100
AcDbSymbolTable
 70
     0
  0
ENDTAB
  0
TABLE
  2
APPID
  5
5C9
330
0
100
AcDbSymbolTable
 70
    11
  0
APPID
  5
5D2
330
5C9
100
AcDbSymbolTableRecord
100
AcDbRegAppTableRecord
  2
ACAD
 70
     0
  0
APPID
  5
5EC
330
5C9
100
AcDbSymbolTableRecord
100
AcDbRegAppTableRecord
  2
ACADANNOPO
 70
     0
  0
APPID
  5
5ED
330
5C9
100
AcDbSymbolTableRecord
100
AcDbRegAppTableRecord
  2
ACADANNOTATIVE
 70
     0
  0
APPID
  5
5EE
330
5C9
100
AcDbSymbolTableRecord
100
AcDbRegAppTableRecord
  2
ACAD_DSTYLE_DIMJAG
 70
     0
  0
APPID
  5
5EF
330
5C9
100
AcDbSymbolTableRecord
100
AcDbRegAppTableRecord
  2
ACAD_DSTYLE_DIMTALN
 70
     0
  0
APPID
  5
5F0
330
5C9
100
AcDbSymbolTableRecord
100
AcDbRegAppTableRecord
  2
ACAD_MLEADERVER
 70
     0
  0
APPID
  5
5F1
330
5C9
100
AcDbSymbolTableRecord
100
AcDbRegAppTableRecord
  2
ACAD_NAV_VCDISPLAY
 70
     0
  0
APPID
  5
5F2
330
5C9
100
AcDbSymbolTableRecord
100
AcDbRegAppTableRecord
  2
ACAECLAYERSTANDARD
 70
     0
  0
APPID
  5
5F3
330
5C9
100
AcDbSymbolTableRecord
100
AcDbRegAppTableRecord
  2
ACAUTHENVIRON
 70
     0
  0
APPID
  5
5F4
330
5C9
100
AcDbSymbolTableRecord
100
AcDbRegAppTableRecord
  2
ACDBDYNAMICBLOCKTRUENAME
 70
     0
  0
APPID
  5
5F5
330
5C9
100
AcDbSymbolTableRecord
100
AcDbRegAppTableRecord
  2
ACDBDYNAMICBLOCKGUID
 70
     0
  0
ENDTAB
  0
TABLE
  2
DIMSTYLE
  5
5CA
330
0
100
AcDbSymbolTable
 70
     2
  0
DIMSTYLE
105
5F6
330
5CA
100
AcDbSymbolTableRecord
100
AcDbDimStyleTableRecord
  2
STANDARD
 70
     0
  3

  4

  5

  6

  7

 40
1.0
 41
0.18
 42
0.0625
 43
0.38
 44
0.18
 45
0.0
 46
0.0
 47
0.0
 48
0.0
140
0.18
141
0.09
142
0.0
143
25.4
144
1.0
145
0.0
146
1.0
147
0.09
 71
     0
 72
     0
 73
     1
 74
     1
 75
     0
 76
     0
 77
     0
 78
     0
170
     0
171
     2
172
     0
173
     0
174
     0
175
     0
176
     0
177
     0
178
     0
270
     2
271
     4
272
     4
273
     2
274
     2
340
5D1
275
     0
280
     0
281
     0
282
     0
283
     1
284
     0
285
     0
286
     0
287
     3
288
     0
  0
DIMSTYLE
105
5F7
330
5CA
100
AcDbSymbolTableRecord
100
AcDbDimStyleTableRecord
  2
ANNOTATIVE
 70
     0
  3

  4

  5

  6

  7

 40
0.0
 41
0.18
 42
0.0625
 43
0.38
 44
0.18
 45
0.0
 46
0.0
 47
0.0
 48
0.0
140
0.18
141
0.09
142
0.0
143
25.4
144
1.0
145
0.0
146
1.0
147
0.09
 71
     0
 72
     0
 73
     1
 74
     1
 75
     0
 76
     0
 77
     0
 78
     0
170
     0
171
     2
172
     0
173
     0
174
     0
175
     0
176
     0
177
     0
178
     0
270
     2
271
     4
272
     4
273
     2
274
     2
340
5D1
275
     0
280
     0
281
     0
282
     0
283
     1
284
     0
285
     0
286
     0
287
     3
288
     0
  0
ENDTAB
  0
TABLE
  2
BLOCK_RECORD
  5
5C1
330
0
100
AcDbSymbolTable
 70
     0
  0
BLOCK_RECORD
  5
5DC
330
5C1
100
AcDbSymbolTableRecord
100
AcDbBlockTableRecord
  2
*MODEL_SPACE
  0
BLOCK_RECORD
  5
5DA
330
5C1
100
AcDbSymbolTableRecord
100
AcDbBlockTableRecord
  2
*PAPER_SPACE
  0
ENDTAB
  0
ENDSEC
  0
SECTION
  2
BLOCKS
  0
BLOCK
  5
5F8
330
5DC
100
AcDbEntity
  8
0
100
AcDbBlockBegin
  2
*MODEL_SPACE
 70
     0
 10
0.0
 20
0.0
 30
0.0
  3
*MODEL_SPACE
  1

  0
ENDBLK
  5
21
330
5DC
100
AcDbEntity
  8
0
100
AcDbBlockEnd
  0
BLOCK
  5
5F9
330
5DA
100
AcDbEntity
 67
     1
  8
0
100
AcDbBlockBegin
  2
*PAPER_SPACE
 70
     0
 10
0.0
 20
0.0
 30
0.0
  3
*PAPER_SPACE
  1

  0
ENDBLK
  5
5B
330
5DA
100
AcDbEntity
 67
     1
  8
0
100
AcDbBlockEnd
  0
ENDSEC
  0
SECTION
  2
ENTITIES
  0
LWPOLYLINE
  5
24F
330
5DC
100
AcDbEntity
  8
SHEET
100
AcDbPolyline
 90
        2
 70
     0
 43
0.0
 10
59.19809399107217
 20
0.9776605359387389
 10
107.1980192777413
 20
0.9776605359387389
  0
LWPOLYLINE
  5
250
330
5DC
100
AcDbEntity
  8
SHEET
100
AcDbPolyline
 90
        4
 70
     0
 43
0.0
 10
107.1980192777413
 20
0.9776605359387389
 10
107.1980192777413
 20
96.97744329256182
 10
59.19809399107217
 20
96.97744329256182
 10
59.19809399107217
 20
0.9776605359387389
  0
LWPOLYLINE
  5
251
330
5DC
100
AcDbEntity
  8
SHEET
100
AcDbPolyline
 90
        3
 70
     0
 43
0.0
 10
48.48104674741197
 20
0.5673502684927813
 10
0.4810079948566468
 20
0.5673502684927813
 10
0.4810079948566468
 20
96.56749559057532
  0
LWPOLYLINE
  5
252
330
5DC
100
AcDbEntity
  8
SHEET
100
AcDbPolyline
 90
        3
 70
     0
 43
0.0
 10
0.4810079948566468
 20
96.56749559057532
 10
48.48104674741197
 20
96.56749559057532
 10
48.48104674741197
 20
0.5673502684927813
  0
LWPOLYLINE
  5
253
330
5DC
100
AcDbEntity
  8
CUT_THROUGH
100
AcDbPolyline
 90
        8
 70
     1
 43
0.0
 10
75.94804916307368
 20
78.91904220918762
 10
75.94804916307368
 20
85.9190410597518
 42
-0.4142135623731055
 10
76.94804916307368
 20
86.9190410597518
 10
77.94805720912467
 20
86.9190410597518
 42
-0.4142135623731055
 10
78.94805720912467
 20
85.9190410597518
 10
78.94805720912467
 20
78.91901692159878
 42
-0.4142135623731055
 10
77.94805720912467
 20
77.91901692159878
 10
76.9480744506626
 20
77.91901692159878
 42
-0.4142135623730688
  0
LWPOLYLINE
  5
254
330
5DC
100
AcDbEntity
  8
CUT_THROUGH
100
AcDbPolyline
 90
       20
 70
     1
 43
0.0
 10
94.94805491025286
 20
42.91908129000677
 10
71.94805835856057
 20
42.91908129000677
 42
0.4142135623730951
 10
70.94805835856057
 20
41.91908129000677
 10
70.94805835856057
 20
37.91909048549363
 10
106.9480192777414
 20
37.91909048549363
 10
106.9480192777414
 20
67.91906060016133
 42
0.4142135623731055
 10
105.9480192777414
 20
68.91906060016134
 10
102.9480284732283
 20
68.91906060016134
 42
-0.4142135623731055
 10
101.9480284732283
 20
69.91906060016134
 10
101.9480284732283
 20
85.9190410597518
 42
-0.4142135623731161
 10
102.9480284732283
 20
86.9190410597518
 10
105.9480192777414
 20
86.9190410597518
 42
0.4142135623731161
 10
106.9480192777414
 20
87.91904105975183
 10
106.9480192777414
 20
89.91904910580283
 10
70.94805835856057
 20
89.91904910580283
 10
70.94805835856057
 20
76.9190341631366
 42
0.4142135623730951
 10
71.94805835856057
 20
75.9190341631366
 10
94.94805491025286
 20
75.9190341631366
 42
-0.4142135623730898
 10
96.94803766871507
 20
73.91905140467449
 10
96.94803766871507
 20
44.91913186518445
 42
-0.4142036309626766
  0
LWPOLYLINE
  5
255
330
5DC
100
AcDbEntity
  8
CUT_THROUGH
100
AcDbPolyline
 90
       14
 70
     1
 43
0.0
 10
0.7310079948566468
 20
91.6924859024365
 10
0.7310079948566468
 20
96.3174955905753
 10
45.73098861857917
 20
96.3174955905753
 42
-0.4142135623730898
 10
46.73098861857917
 20
95.31749559057532
 10
46.73098861857908
 20
68.56745199395048
 42
-0.4142135623730951
 10
45.73098861857907
 20
67.5674519939505
 10
0.7310079948566468
 20
67.5674519939505
 10
0.7310079948566468
 20
72.19242292953406
 42
-0.4142135623730943
 10
1.731007994856646
 20
73.19242292953406
 10
2.730959554162602
 20
73.19242292953406
 42
0.4142135623730943
 10
3.730959554162602
 20
74.19242292953406
 10
3.730959554162602
 20
89.69245683802
 42
0.4142135623731038
 10
2.730959554162602
 20
90.69245683802
 10
1.730901425329669
 20
90.69245683802
 42
-0.4141908636208719
  0
LWPOLYLINE
  5
256
330
5DC
100
AcDbEntity
  8
CUT_THROUGH
100
AcDbPolyline
 90
        7
 70
     1
 43
0.0
 10
12.35608549996715
 20
62.1924156634299
 10
4.730988618578955
 20
62.1924156634299
 42
0.4142135623730951
 10
3.730988618578955
 20
61.19241566342989
 10
3.730988618578955
 20
61.19242535156871
 42
0.4142135623730884
 10
4.730988618578955
 20
60.19242535156871
 10
12.35608549996715
 20
60.19242535156871
 42
0.4142135623730951
 10
13.35608549996715
 20
61.19242535156871
 42
0.4142107247720332
  0
LWPOLYLINE
  5
257
330
5DC
100
AcDbEntity
  8
CUT_THROUGH
100
AcDbPolyline
 90
        5
 70
     0
 43
0.0
 10
27.98100799485669
 20
14.94236480070098
 10
27.98100799485669
 20
66.9424519939505
 10
0.7310079948566468
 20
66.9424519939505
 10
0.7310079948566468
 20
14.94236480070098
 10
27.98100799485669
 20
14.94236480070098
  0
LWPOLYLINE
  5
258
330
5DC
100
AcDbEntity
  8
CUT_THROUGH
100
AcDbPolyline
 90
        7
 70
     1
 43
0.0
 10
12.35608549996715
 20
53.19242535156867
 10
4.730988618578955
 20
53.19242535156867
 42
0.4142135623730951
 10
3.730988618578955
 20
52.19242535156867
 10
3.730988618578955
 20
52.19243503970749
 42
0.4142135623730884
 10
4.730988618578955
 20
51.19243503970749
 10
12.35608549996715
 20
51.19243503970749
 42
0.4142135623730951
 10
13.35608549996715
 20
52.19243503970749
 42
0.4142107247720332
  0
LWPOLYLINE
  5
259
330
5DC
100
AcDbEntity
  8
TAB_HEIGHT__17MM_
100
AcDbPolyline
 90
        4
 70
     1
 43
0.0
 10
31.12470878225831
 20
66.94245199395047
 10
31.12470878225831
 20
18.94245199395047
 10
32.62470878225838
 20
18.94245199395047
 10
32.62470878225838
 20
66.94245199395047
  0
LWPOLYLINE
  5
25A
330
5DC
100
AcDbEntity
  8
CUT_THROUGH
100
AcDbPolyline
 90
        2
 70
     0
 43
0.0
 10
13.35608549996715
 20
61.19242535156871
 10
13.35608549996715
 20
61.19242535156871
 42
0.4142135623730965
  0
LWPOLYLINE
  5
25B
330
5DC
100
AcDbEntity
  8
CUT_THROUGH
100
AcDbPolyline
 90
        7
 70
     1
 43
0.0
 10
24.981095188106
 20
47.69243988377688
 42
0.4142107247720332
 10
23.981095188106
 20
48.69243019563807
 10
16.35599830671781
 20
48.69243019563807
 42
0.4142135623730951
 10
15.35599830671781
 20
47.69243019563806
 10
15.35599830671781
 20
47.69243988377688
 42
0.4142135623730884
 10
16.35599830671781
 20
46.69243988377688
 10
23.981095188106
 20
46.69243988377688
 42
0.4142135623730951
  0
LWPOLYLINE
  5
25C
330
5DC
100
AcDbEntity
  8
TAB_HEIGHT__17MM_
100
AcDbPolyline
 90
        4
 70
     1
 43
0.0
 10
28.99970878225825
 20
66.94245199395047
 10
28.99970878225825
 20
18.94245199395047
 10
30.49970878225831
 20
18.94245199395047
 10
30.49970878225831
 20
66.94245199395047
  0
LWPOLYLINE
  5
25D
330
5DC
100
AcDbEntity
  8
TAB_HEIGHT__17MM_
100
AcDbPolyline
 90
        4
 70
     1
 43
0.0
 10
34.74970878225845
 20
42.94245199395043
 10
33.24970878225838
 20
42.94245199395043
 10
33.24970878225838
 20
66.94245199395043
 10
34.74970878225845
 20
66.94245199395043
  0
LWPOLYLINE
  5
25E
330
5DC
100
AcDbEntity
  8
CUT_THROUGH
100
AcDbPolyline
 90
        2
 70
     0
 43
0.0
 10
13.35608549996715
 20
52.19243503970749
 10
13.35608549996715
 20
52.19243503970749
 42
0.4142135623730965
  0
LWPOLYLINE
  5
25F
330
5DC
100
AcDbEntity
  8
TAB_HEIGHT__17MM_
100
AcDbPolyline
 90
        4
 70
     1
 43
0.0
 10
36.87470878225852
 20
42.94245199395043
 10
35.37470878225845
 20
42.94245199395043
 10
35.37470878225845
 20
66.94245199395043
 10
36.87470878225852
 20
66.94245199395043
  0
LWPOLYLINE
  5
260
330
5DC
100
AcDbEntity
  8
CUT_THROUGH
100
AcDbPolyline
 90
        7
 70
     1
 43
0.0
 10
12.35608549996715
 20
44.19236722273579
 10
4.730988618578955
 20
44.19236722273579
 42
0.4142135623730951
 10
3.730988618578955
 20
43.19236722273578
 10
3.730988618578955
 20
43.19237691087461
 42
0.4142135623730884
 10
4.730988618578955
 20
42.19237691087459
 10
12.35608549996715
 20
42.19237691087459
 42
0.4142135623730951
 10
13.35608549996715
 20
43.19237691087461
 42
0.4142107247720332
  0
LWPOLYLINE
  5
261
330
5DC
100
AcDbEntity
  8
CUT_THROUGH
100
AcDbPolyline
 90
        8
 70
     1
 43
0.0
 10
83.94804801363787
 20
78.91902956539317
 10
83.94804801363787
 20
85.91902841595731
 42
-0.4142135623731055
 10
84.94804801363787
 20
86.91902841595731
 10
85.94805605968887
 20
86.91902841595731
 42
-0.4142135623731055
 10
86.94805605968887
 20
85.91902841595731
 10
86.94805605968887
 20
78.91900427780433
 42
-0.4142135623731055
 10
85.94805605968887
 20
77.91900427780433
 10
84.94807330122677
 20
77.91900427780433
 42
-0.4142135623730688
  0
LWPOLYLINE
  5
262
330
5DC
100
AcDbEntity
  8
CUT_THROUGH
100
AcDbPolyline
 90
        2
 70
     0
 43
0.0
 10
24.981095188106
 20
29.6923236261111
 10
24.981095188106
 20
29.6923236261111
 42
0.4142135623730965
  0
LWPOLYLINE
  5
263
330
5DC
100
AcDbEntity
  8
POCKET
100
AcDbPolyline
 90
       10
 70
     1
 43
0.0
 10
67.94807560009828
 20
70.66379809954533
 10
67.94807560009828
 20
94.66379809954529
 42
-1.0
 10
68.44807560009828
 20
94.66379809954529
 10
68.94807560009836
 20
94.66379809954529
 42
-1.0
 10
69.44807560009838
 20
94.66379809954529
 10
69.44807560009838
 20
70.66379809954535
 10
69.44807560009838
 20
46.66379809954531
 42
-1.0
 10
68.94807560009836
 20
46.66379809954531
 10
68.44807560009828
 20
46.66379809954531
 42
-1.0
 10
67.94807560009838
 20
46.66379809954531
  0
POINT
  5
264
330
5DC
100
AcDbEntity
  8
0
100
AcDbPoint
 10
70.94463366072208
 20
58.37027682125086
 30
0.0
  0
LWPOLYLINE
  5
265
330
5DC
100
AcDbEntity
  8
CUT_THROUGH
100
AcDbPolyline
 90
        2
 70
     0
 43
0.0
 10
13.35608549996715
 20
25.19239628715215
 10
13.35608549996715
 20
25.19239628715215
 42
0.4142135623730965
  0
LWPOLYLINE
  5
266
330
5DC
100
AcDbEntity
  8
CUT_THROUGH
100
AcDbPolyline
 90
        2
 70
     0
 43
0.0
 10
13.35608549996715
 20
43.19237691087461
 10
13.35608549996715
 20
43.19237691087461
 42
0.4142135623730965
  0
LWPOLYLINE
  5
267
330
5DC
100
AcDbEntity
  8
POCKET
100
AcDbPolyline
 90
        8
 70
     1
 43
0.0
 10
69.76723756333708
 20
95.7274432925617
 10
69.76723756333708
 20
96.22744329256182
 42
-1.0
 10
69.76723756333708
 20
96.72744329256182
 10
93.76723756333706
 20
96.72744329256182
 42
-1.0
 10
93.76723756333706
 20
96.22744329256182
 10
93.76723756333706
 20
95.7274432925617
 42
-1.0
 10
93.76723756333706
 20
95.2274432925617
 10
69.76723756333708
 20
95.2274432925617
 42
-1.0
  0
LWPOLYLINE
  5
268
330
5DC
100
AcDbEntity
  8
CUT_THROUGH
100
AcDbPolyline
 90
        7
 70
     1
 43
0.0
 10
23.981095188106
 20
30.6923139379723
 10
16.35599830671781
 20
30.6923139379723
 42
0.4142135623730951
 10
15.35599830671781
 20
29.69231393797228
 10
15.35599830671781
 20
29.6923236261111
 42
0.4142135623730884
 10
16.35599830671781
 20
28.69232362611109
 10
23.981095188106
 20
28.69232362611109
 42
0.4142135623730951
 10
24.981095188106
 20
29.6923236261111
 42
0.4142107247720332
  0
LWPOLYLINE
  5
269
330
5DC
100
AcDbEntity
  8
CUT_THROUGH
100
AcDbPolyline
 90
        7
 70
     1
 43
0.0
 10
24.981095188106
 20
56.69243019563811
 42
0.4142107247720332
 10
23.981095188106
 20
57.69242050749929
 10
16.35599830671781
 20
57.69242050749929
 42
0.4142135623730951
 10
15.35599830671781
 20
56.69242050749929
 10
15.35599830671781
 20
56.69243019563811
 42
0.4142135623730884
 10
16.35599830671781
 20
55.69243019563811
 10
23.981095188106
 20
55.69243019563811
 42
0.4142135623730951
  0
LWPOLYLINE
  5
26B
330
5DC
100
AcDbEntity
  8
CUT_THROUGH
100
AcDbPolyline
 90
        7
 70
     1
 43
0.0
 10
12.35608549996715
 20
26.19238659901334
 10
4.730988618578955
 20
26.19238659901334
 42
0.4142135623730951
 10
3.730988618578955
 20
25.19238659901334
 10
3.730988618578955
 20
25.19239628715215
 42
0.4142135623730884
 10
4.730988618578955
 20
24.19239628715215
 10
12.35608549996715
 20
24.19239628715215
 42
0.4142135623730951
 10
13.35608549996715
 20
25.19239628715215
 42
0.4142107247720332
  0
LWPOLYLINE
  5
26C
330
5DC
100
AcDbEntity
  8
CUT_THROUGH
100
AcDbPolyline
 90
        8
 70
     1
 43
0.0
 10
90.44806410573987
 20
55.72749156886778
 10
90.44806410573987
 20
48.72749271830362
 42
-0.4142135623731055
 10
89.44806410573987
 20
47.72749271830362
 10
88.44805605968887
 20
47.72749271830362
 42
-0.4142135623731055
 10
87.44805605968887
 20
48.72749271830362
 10
87.44805605968887
 20
55.72751685645662
 42
-0.4142135623731055
 10
88.44805605968887
 20
56.72751685645661
 10
89.44803881815095
 20
56.72751685645661
 42
-0.4142135623730688
  0
LWPOLYLINE
  5
26D
330
5DC
100
AcDbEntity
  8
CUT_THROUGH
100
AcDbPolyline
 90
        8
 70
     1
 43
0.0
 10
82.44806525517569
 20
55.72750421266222
 10
82.44806525517569
 20
48.72750536209807
 42
-0.4142135623731055
 10
81.44806525517569
 20
47.72750536209807
 10
80.44805720912458
 20
47.72750536209807
 42
-0.4142135623731055
 10
79.44805720912458
 20
48.72750536209807
 10
79.44805720912458
 20
55.72752950025106
 42
-0.4142135623731055
 10
80.44805720912458
 20
56.72752950025106
 10
81.44803996758668
 20
56.72752950025106
 42
-0.4142135623730688
  0
LWPOLYLINE
  5
26E
330
5DC
100
AcDbEntity
  8
CUT_THROUGH
100
AcDbPolyline
 90
        7
 70
     1
 43
0.0
 10
23.981095188106
 20
21.69232362611106
 10
16.35599830671781
 20
21.69232362611106
 42
0.4142135623730951
 10
15.35599830671781
 20
20.69232362611104
 10
15.35599830671781
 20
20.69233331424987
 42
0.4142135623730884
 10
16.35599830671781
 20
19.69233331424986
 10
23.981095188106
 20
19.69233331424986
 42
0.4142135623730951
 10
24.981095188106
 20
20.69233331424987
 42
0.4142107247720332
  0
LWPOLYLINE
  5
26F
330
5DC
100
AcDbEntity
  8
POCKET
100
AcDbPolyline
 90
        8
 70
     1
 43
0.0
 10
96.62887570547637
 20
88.9190491058027
 10
96.62887570547637
 20
89.41904910580281
 42
1.0
 10
96.62887570547637
 20
89.91904910580283
 10
72.62887570547647
 20
89.91904910580283
 42
1.0
 10
72.62887570547637
 20
89.41904910580281
 10
72.62887570547637
 20
88.9190491058027
 42
1.0
 10
72.62887570547637
 20
88.41904910580271
 10
96.62887570547637
 20
88.41904910580271
 42
1.0
  0
LWPOLYLINE
  5
270
330
5DC
100
AcDbEntity
  8
CUT_THROUGH
100
AcDbPolyline
 90
        8
 70
     1
 43
0.0
 10
74.44806640461158
 20
55.72750421266224
 10
74.44806640461158
 20
48.72750536209808
 42
-0.4142135623731055
 10
73.44806640461158
 20
47.72750536209808
 10
72.44805835856057
 20
47.72750536209808
 42
-0.4142135623731055
 10
71.44805835856057
 20
48.72750536209808
 10
71.44805835856057
 20
55.72752950025108
 42
-0.4142135623731055
 10
72.44805835856057
 20
56.72752950025108
 10
73.44804111702258
 20
56.72752950025108
 42
-0.4142135623730688
  0
LWPOLYLINE
  5
271
330
5DC
100
AcDbEntity
  8
CUT_THROUGH
100
AcDbPolyline
 90
        2
 70
     0
 43
0.0
 10
24.981095188106
 20
20.69233331424987
 10
24.981095188106
 20
20.69233331424987
 42
0.4142135623730965
  0
LWPOLYLINE
  5
272
330
5DC
100
AcDbEntity
  8
CUT_THROUGH
100
AcDbPolyline
 90
        8
 70
     1
 43
0.0
 10
91.94804686420198
 20
78.91902956539317
 10
91.94804686420198
 20
85.91902841595731
 42
-0.4142135623731055
 10
92.94804686420198
 20
86.91902841595731
 10
93.94805491025298
 20
86.91902841595731
 42
-0.4142135623731055
 10
94.94805491025298
 20
85.91902841595731
 10
94.94805491025298
 20
78.91900427780433
 42
-0.4142135623731055
 10
93.94805491025298
 20
77.91900427780433
 10
92.9480721517909
 20
77.91900427780433
 42
-0.4142135623730688
  0
LWPOLYLINE
  5
273
330
5DC
100
AcDbEntity
  8
CUT_THROUGH
100
AcDbPolyline
 90
       20
 70
     1
 43
0.0
 10
71.44805835856057
 20
91.72745248804861
 10
94.44805491025296
 20
91.72745248804861
 42
0.4142135623730951
 10
95.44805491025298
 20
92.72745248804861
 10
95.44805491025298
 20
96.72744329256182
 10
59.44809399107217
 20
96.72744329256182
 10
59.44809399107217
 20
66.72747317789407
 42
0.4142135623731055
 10
60.44809399107217
 20
65.72747317789405
 10
63.44808479558529
 20
65.72747317789405
 42
-0.4142135623731055
 10
64.44808479558527
 20
64.72747317789407
 10
64.44808479558527
 20
48.72749271830364
 42
-0.4142135623731161
 10
63.44808479558529
 20
47.72749271830363
 10
60.44809399107217
 20
47.72749271830363
 42
0.4142135623731161
 10
59.44809399107217
 20
46.72749271830364
 10
59.44809399107217
 20
44.72748467225263
 10
95.44805491025298
 20
44.72748467225261
 10
95.44805491025298
 20
57.72749961491881
 42
0.4142135623730951
 10
94.44805491025296
 20
58.72749961491881
 10
71.44805835856057
 20
58.72749961491881
 42
-0.4142135623730898
 10
69.44807560009848
 20
60.72748237338091
 10
69.44807560009848
 20
89.7274019128709
 42
-0.4142036309626766
  0
LWPOLYLINE
  5
274
330
5DC
100
AcDbEntity
  8
TAB_HEIGHT__17MM_
100
AcDbPolyline
 90
        4
 70
     1
 43
0.0
 10
38.99970878225858
 20
18.31745199395044
 10
38.99970878225858
 20
42.31745199395043
 10
37.49970878225852
 20
42.31745199395043
 10
37.49970878225852
 20
18.31745199395045
  0
LWPOLYLINE
  5
275
330
5DC
100
AcDbEntity
  8
TAB_HEIGHT__17MM_
100
AcDbPolyline
 90
        4
 70
     1
 43
0.0
 10
34.74970878225845
 20
18.31745199395044
 10
33.24970878225838
 20
18.31745199395045
 10
33.24970878225838
 20
42.31745199395043
 10
34.74970878225845
 20
42.31745199395043
  0
LWPOLYLINE
  5
276
330
5DC
100
AcDbEntity
  8
CUT_THROUGH
100
AcDbPolyline
 90
        2
 70
     0
 43
0.0
 10
24.981095188106
 20
47.69243988377688
 10
24.981095188106
 20
47.69243988377688
 42
0.4142135623730965
  0
LWPOLYLINE
  5
277
330
5DC
100
AcDbEntity
  8
CUT_THROUGH
100
AcDbPolyline
 90
       14
 70
     1
 43
0.0
 10
60.94803865401887
 20
32.66908079735485
 10
60.94803865401887
 20
37.29409048549363
 10
105.9480192777414
 20
37.29409048549363
 42
-0.4142135623730898
 10
106.9480192777414
 20
36.29409048549361
 10
106.9480192777414
 20
9.54404688886886
 42
-0.4142135623730951
 10
105.9480192777413
 20
8.544046888868849
 10
60.94803865401887
 20
8.544046888868849
 10
60.94803865401887
 20
13.1690178244524
 42
-0.4142135623730943
 10
61.94803865401887
 20
14.16901782445239
 10
62.94799021332479
 20
14.16901782445239
 42
0.4142135623730943
 10
63.94799021332478
 20
15.16901782445239
 10
63.94799021332478
 20
30.66905173293833
 42
0.4142135623731038
 10
62.94799021332479
 20
31.66905173293833
 10
61.94793208449188
 20
31.66905173293833
 42
-0.4141908636208719
  0
LWPOLYLINE
  5
278
330
5DC
100
AcDbEntity
  8
POCKET
100
AcDbPolyline
 90
        8
 70
     1
 43
0.0
 10
96.62887570547637
 20
38.9190904854937
 10
96.62887570547637
 20
38.41909048549363
 42
-1.0
 10
96.62887570547637
 20
37.91909048549363
 10
72.62887570547647
 20
37.91909048549363
 42
-1.0
 10
72.62887570547637
 20
38.41909048549363
 10
72.62887570547637
 20
38.9190904854937
 42
-1.0
 10
72.62887570547637
 20
39.41909048549369
 10
96.62887570547637
 20
39.41909048549369
 42
-1.0
  0
LWPOLYLINE
  5
279
330
5DC
100
AcDbEntity
  8
CUT_THROUGH
100
AcDbPolyline
 90
        2
 70
     0
 43
0.0
 10
13.35608549996715
 20
34.19238659901338
 10
13.35608549996715
 20
34.19238659901338
 42
0.4142135623730965
  0
LWPOLYLINE
  5
27A
330
5DC
100
AcDbEntity
  8
TAB_HEIGHT__17MM_
100
AcDbPolyline
 90
        4
 70
     1
 43
0.0
 10
38.99970878225858
 20
42.94245199395043
 10
38.99970878225858
 20
66.94245199395043
 10
37.49970878225852
 20
66.94245199395043
 10
37.49970878225852
 20
42.94245199395043
  0
LWPOLYLINE
  5
27B
330
5DC
100
AcDbEntity
  8
CUT_THROUGH
100
AcDbPolyline
 90
        7
 70
     1
 43
0.0
 10
12.35608549996715
 20
35.19237691087456
 10
4.730988618578955
 20
35.19237691087456
 42
0.4142135623730951
 10
3.730988618578955
 20
34.19237691087456
 10
3.730988618578955
 20
34.19238659901338
 42
0.4142135623730884
 10
4.730988618578955
 20
33.19238659901338
 10
12.35608549996715
 20
33.19238659901338
 42
0.4142135623730951
 10
13.35608549996715
 20
34.19238659901338
 42
0.4142107247720332
  0
LWPOLYLINE
  5
27C
330
5DC
100
AcDbEntity
  8
CUT_THROUGH
100
AcDbPolyline
 90
        7
 70
     1
 43
0.0
 10
24.981095188106
 20
38.69244957191566
 42
0.4142107247720332
 10
23.981095188106
 20
39.69243988377685
 10
16.35599830671781
 20
39.69243988377685
 42
0.4142135623730951
 10
15.35599830671781
 20
38.69243988377685
 10
15.35599830671781
 20
38.69244957191566
 42
0.4142135623730884
 10
16.35599830671781
 20
37.69244957191566
 10
23.981095188106
 20
37.69244957191566
 42
0.4142135623730951
  0
LWPOLYLINE
  5
27D
330
5DC
100
AcDbEntity
  8
CUT_THROUGH
100
AcDbPolyline
 90
        2
 70
     0
 43
0.0
 10
24.981095188106
 20
56.69243019563811
 10
24.981095188106
 20
56.69243019563811
 42
0.4142135623730965
  0
LWPOLYLINE
  5
27E
330
5DC
100
AcDbEntity
  8
POCKET
100
AcDbPolyline
 90
       10
 70
     1
 43
0.0
 10
98.44803766871519
 20
63.9827356785101
 10
98.44803766871519
 20
39.98273567851009
 42
-1.0
 10
97.94803766871519
 20
39.98273567851009
 10
97.44803766871507
 20
39.98273567851009
 42
-1.0
 10
96.94803766871507
 20
39.98273567851009
 10
96.94803766871507
 20
63.98273567851008
 10
96.94803766871507
 20
87.9827356785101
 42
-1.0
 10
97.44803766871507
 20
87.9827356785101
 10
97.94803766871519
 20
87.9827356785101
 42
-1.0
 10
98.44803766871519
 20
87.9827356785101
  0
LWPOLYLINE
  5
27F
330
5DC
100
AcDbEntity
  8
CUT_THROUGH
100
AcDbPolyline
 90
        2
 70
     0
 43
0.0
 10
24.981095188106
 20
38.69244957191566
 10
24.981095188106
 20
38.69244957191566
 42
0.4142135623730965
  0
LWPOLYLINE
  5
280
330
5DC
100
AcDbEntity
  8
POCKET
100
AcDbPolyline
 90
        8
 70
     1
 43
0.0
 10
69.76723756333708
 20
45.72748467225268
 10
69.76723756333708
 20
45.22748467225262
 42
1.0
 10
69.76723756333708
 20
44.72748467225262
 10
93.76723756333706
 20
44.72748467225262
 42
1.0
 10
93.76723756333706
 20
45.22748467225262
 10
93.76723756333706
 20
45.72748467225268
 42
1.0
 10
93.76723756333706
 20
46.22748467225268
 10
69.76723756333708
 20
46.22748467225268
 42
1.0
  0
LWPOLYLINE
  5
282
330
5DC
100
AcDbEntity
  8
TAB_HEIGHT__17MM_
100
AcDbPolyline
 90
        4
 70
     1
 43
0.0
 10
36.87470878225852
 20
18.31745199395044
 10
35.37470878225845
 20
18.31745199395045
 10
35.37470878225845
 20
42.31745199395043
 10
36.87470878225852
 20
42.31745199395043
  0
LWPOLYLINE
  5
63A
330
5DC
100
AcDbEntity
  8
POCKET
100
AcDbPolyline
 90
        8
 70
     1
 43
0.0
 10
27.73100799485664
 20
93.94243988377703
 10
27.23100799485657
 20
93.94243988377703
 42
1.0
 10
26.73100799485657
 20
93.94243988377703
 10
26.73100799485657
 20
69.94243988377704
 42
1.0
 10
27.23100799485657
 20
69.942439883777
 10
27.73100799485664
 20
69.942439883777
 42
1.0
 10
28.23100799485664
 20
69.942439883777
 10
28.23100799485664
 20
93.94243988377703
 42
1.0
  0
LWPOLYLINE
  5
63B
330
5DC
100
AcDbEntity
  8
POCKET
100
AcDbPolyline
 90
        8
 70
     1
 43
0.0
 10
87.94803865401882
 20
34.91903477869536
 10
87.4480386540188
 20
34.91903477869536
 42
1.0
 10
86.94803865401882
 20
34.91903477869536
 10
86.94803865401882
 20
10.91903477869536
 42
1.0
 10
87.4480386540188
 20
10.91903477869534
 10
87.94803865401882
 20
10.91903477869534
 42
1.0
 10
88.44803865401889
 20
10.91903477869534
 10
88.44803865401889
 20
34.91903477869536
 42
1.0
  0
LWPOLYLINE
  5
63C
330
5DC
100
AcDbEntity
  8
CUT_THROUGH
100
AcDbPolyline
 90
        6
 70
     0
 43
0.0
 10
28.99970878225825
 20
42.44245199395047
 10
28.99970878225825
 20
18.94245199395047
 10
30.49970878225831
 20
18.94245199395047
 10
30.49970878225831
 20
66.94245199395047
 10
28.99970878225825
 20
66.94245199395047
 10
28.99970878225825
 20
43.44245199395047
  0
LINE
  5
640
330
5DC
100
AcDbEntity
  8
CUT_THROUGH
100
AcDbLine
 10
28.99970878225825
 20
43.44245199395047
 30
0.0
 11
28.99970878225825
 21
42.44245199395047
 31
0.0
  0
LINE
  5
64B
330
5DC
100
AcDbEntity
  8
CUT_THROUGH
100
AcDbLine
 10
31.12470878225831
 20
43.44245199395047
 30
0.0
 11
31.12470878225831
 21
42.44245199395047
 31
0.0
  0
LWPOLYLINE
  5
64C
330
5DC
100
AcDbEntity
  8
CUT_THROUGH
100
AcDbPolyline
 90
        6
 70
     0
 43
0.0
 10
31.12470878225831
 20
42.44245199395047
 10
31.12470878225831
 20
18.94245199395047
 10
32.62470878225837
 20
18.94245199395047
 10
32.62470878225837
 20
66.94245199395047
 10
31.12470878225831
 20
66.94245199395047
 10
31.12470878225831
 20
43.44245199395047
  0
LINE
  5
64D
330
5DC
100
AcDbEntity
  8
CUT_THROUGH
100
AcDbLine
 10
33.24970878225838
 20
55.44245199395043
 30
0.0
 11
33.24970878225838
 21
54.44245199395043
 31
0.0
  0
LWPOLYLINE
  5
64E
330
5DC
100
AcDbEntity
  8
CUT_THROUGH
100
AcDbPolyline
 90
        6
 70
     0
 43
0.0
 10
33.24970878225838
 20
54.44245199395043
 10
33.24970878225839
 20
42.94245199395043
 10
34.74970878225845
 20
42.94245199395043
 10
34.74970878225845
 20
66.94245199395043
 10
33.24970878225839
 20
66.94245199395043
 10
33.24970878225838
 20
55.44245199395043
  0
LINE
  5
64F
330
5DC
100
AcDbEntity
  8
CUT_THROUGH
100
AcDbLine
 10
35.37470878225844
 20
55.44245199395043
 30
0.0
 11
35.37470878225844
 21
54.44245199395043
 31
0.0
  0
LWPOLYLINE
  5
650
330
5DC
100
AcDbEntity
  8
CUT_THROUGH
100
AcDbPolyline
 90
        6
 70
     0
 43
0.0
 10
35.37470878225844
 20
54.44245199395043
 10
35.37470878225845
 20
42.94245199395043
 10
36.87470878225852
 20
42.94245199395043
 10
36.87470878225852
 20
66.94245199395043
 10
35.37470878225845
 20
66.94245199395043
 10
35.37470878225844
 20
55.44245199395043
  0
LINE
  5
651
330
5DC
100
AcDbEntity
  8
CUT_THROUGH
100
AcDbLine
 10
37.49970878225851
 20
55.44245199395043
 30
0.0
 11
37.49970878225851
 21
54.44245199395043
 31
0.0
  0
LWPOLYLINE
  5
652
330
5DC
100
AcDbEntity
  8
CUT_THROUGH
100
AcDbPolyline
 90
        6
 70
     0
 43
0.0
 10
37.49970878225851
 20
54.44245199395043
 10
37.49970878225852
 20
42.94245199395043
 10
38.99970878225858
 20
42.94245199395043
 10
38.99970878225858
 20
66.94245199395043
 10
37.49970878225852
 20
66.94245199395043
 10
37.49970878225851
 20
55.44245199395043
  0
LINE
  5
653
330
5DC
100
AcDbEntity
  8
CUT_THROUGH
100
AcDbLine
 10
33.24970878225837
 20
30.81745199395043
 30
0.0
 11
33.24970878225837
 21
29.81745199395043
 31
0.0
  0
LWPOLYLINE
  5
654
330
5DC
100
AcDbEntity
  8
CUT_THROUGH
100
AcDbPolyline
 90
        6
 70
     0
 43
0.0
 10
33.24970878225837
 20
29.81745199395043
 10
33.24970878225838
 20
18.31745199395043
 10
34.74970878225844
 20
18.31745199395043
 10
34.74970878225844
 20
42.31745199395043
 10
33.24970878225838
 20
42.31745199395043
 10
33.24970878225837
 20
30.81745199395043
  0
LINE
  5
655
330
5DC
100
AcDbEntity
  8
CUT_THROUGH
100
AcDbLine
 10
35.37470878225844
 20
30.81745199395043
 30
0.0
 11
35.37470878225844
 21
29.81745199395043
 31
0.0
  0
LWPOLYLINE
  5
656
330
5DC
100
AcDbEntity
  8
CUT_THROUGH
100
AcDbPolyline
 90
        6
 70
     0
 43
0.0
 10
35.37470878225844
 20
29.81745199395043
 10
35.37470878225845
 20
18.31745199395043
 10
36.87470878225852
 20
18.31745199395043
 10
36.87470878225852
 20
42.31745199395043
 10
35.37470878225845
 20
42.31745199395043
 10
35.37470878225844
 20
30.81745199395043
  0
LINE
  5
657
330
5DC
100
AcDbEntity
  8
CUT_THROUGH
100
AcDbLine
 10
37.49970878225851
 20
30.81745199395043
 30
0.0
 11
37.49970878225851
 21
29.81745199395043
 31
0.0
  0
LWPOLYLINE
  5
658
330
5DC
100
AcDbEntity
  8
CUT_THROUGH
100
AcDbPolyline
 90
        6
 70
     0
 43
0.0
 10
37.49970878225851
 20
29.81745199395043
 10
37.49970878225852
 20
18.31745199395043
 10
38.99970878225858
 20
18.31745199395043
 10
38.99970878225858
 20
42.31745199395043
 10
37.49970878225852
 20
42.31745199395043
 10
37.49970878225851
 20
30.81745199395043
  0
ENDSEC
  0
SECTION
  2
OBJECTS
  0
DICTIONARY
  5
5CC
330
0
100
AcDbDictionary
  3
ACAD_GROUP
350
5CD
  3
ACAD_MLINESTYLE
350
5D6
  3
ACAD_SCALELIST
350
5FA
  3
APPDATA
350
639
  3
DWGPROPS
350
659
  0
DICTIONARY
  5
643
330
5C2
100
AcDbDictionary
280
     1
  3
ACAD_LAYERSTATES
360
647
  3
ACLYDICTIONARY
360
64A
  0
DICTIONARY
  5
5CD
102
{ACAD_REACTORS
330
5CC
102
}
330
5CC
100
AcDbDictionary
  0
DICTIONARY
  5
5D6
102
{ACAD_REACTORS
330
5CC
102
}
330
5CC
100
AcDbDictionary
  3
STANDARD
350
5D7
  0
DICTIONARY
  5
5FA
102
{ACAD_REACTORS
330
5CC
102
}
330
5CC
100
AcDbDictionary
  0
DICTIONARY
  5
639
102
{ACAD_REACTORS
330
5CC
102
}
330
5CC
100
AcDbDictionary
  0
XRECORD
  5
659
102
{ACAD_REACTORS
330
5CC
102
}
330
5CC
100
AcDbXrecord
  1
DWGPROPS COOKIE
  2

  3

  4

  6

  7

  8
dlong
  9

300
=
301
=
302
=
303
=
304
=
305
=
306
=
307
=
308
=
309
=
 40
0.0
 41
2458616.876851852
 42
2458617.674994294
  1

 90
        0
  0
DICTIONARY
  5
647
102
{ACAD_REACTORS
330
643
102
}
330
643
100
AcDbDictionary
  0
DICTIONARY
  5
64A
102
{ACAD_REACTORS
330
643
102
}
330
643
100
AcDbDictionary
1001
ACAD
1000
<All
  0
MLINESTYLE
  5
5D7
102
{ACAD_REACTORS
330
5D6
102
}
330
5D6
100
AcDbMlineStyle
  2
Standard
 70
     0
  3

 62
   256
 51
90.0
 52
90.0
 71
     2
 49
0.5
 62
   256
  6
BYLAYER
 49
-0.5
 62
   256
  6
BYLAYER
  0
ENDSEC
  0
EOF
