  0
SECTION
  2
HEADER
  9
$ACADVER
  1
AC1021
  9
$ACADMAINTVER
 70
    25
  9
$DWGCODEPAGE
  3
ANSI_1252
  9
$INSBASE
 10
0.0
 20
0.0
 30
0.0
  9
$EXTMIN
 10
-7.313996062992126
 20
-3.234602362204724
 30
0.0
  9
$EXTMAX
 10
3.712625984251968
 20
5.272334645669291
 30
0.0
  9
$LIMMIN
 10
0.0
 20
0.0
  9
$LIMMAX
 10
12.0
 20
9.0
  9
$ORTHOMODE
 70
     0
  9
$REGENMODE
 70
     1
  9
$FILLMODE
 70
     1
  9
$QTEXTMODE
 70
     0
  9
$MIRRTEXT
 70
     1
  9
$LTSCALE
 40
1.0
  9
$ATTMODE
 70
     1
  9
$TEXTSIZE
 40
0.2
  9
$TRACEWID
 40
0.05
  9
$TEXTSTYLE
  7
Standard
  9
$CLAYER
  8
0
  9
$CELTYPE
  6
ByLayer
  9
$CECOLOR
 62
   256
  9
$CELTSCALE
 40
1.0
  9
$DISPSILH
 70
     0
  9
$DIMSCALE
 40
1.0
  9
$DIMASZ
 40
0.18
  9
$DIMEXO
 40
0.0625
  9
$DIMDLI
 40
0.38
  9
$DIMRND
 40
0.0
  9
$DIMDLE
 40
0.0
  9
$DIMEXE
 40
0.18
  9
$DIMTP
 40
0.0
  9
$DIMTM
 40
0.0
  9
$DIMTXT
 40
0.18
  9
$DIMCEN
 40
0.09
  9
$DIMTSZ
 40
0.0
  9
$DIMTOL
 70
     0
  9
$DIMLIM
 70
     0
  9
$DIMTIH
 70
     1
  9
$DIMTOH
 70
     1
  9
$DIMSE1
 70
     0
  9
$DIMSE2
 70
     0
  9
$DIMTAD
 70
     0
  9
$DIMZIN
 70
     0
  9
$DIMBLK
  1

  9
$DIMASO
 70
     1
  9
$DIMSHO
 70
     1
  9
$DIMPOST
  1

  9
$DIMAPOST
  1

  9
$DIMALT
 70
     0
  9
$DIMALTD
 70
     2
  9
$DIMALTF
 40
25.4
  9
$DIMLFAC
 40
1.0
  9
$DIMTOFL
 70
     0
  9
$DIMTVP
 40
0.0
  9
$DIMTIX
 70
     0
  9
$DIMSOXD
 70
     0
  9
$DIMSAH
 70
     0
  9
$DIMBLK1
  1

  9
$DIMBLK2
  1

  9
$DIMSTYLE
  2
Standard
  9
$DIMCLRD
 70
     0
  9
$DIMCLRE
 70
     0
  9
$DIMCLRT
 70
     0
  9
$DIMTFAC
 40
1.0
  9
$DIMGAP
 40
0.09
  9
$DIMJUST
 70
     0
  9
$DIMSD1
 70
     0
  9
$DIMSD2
 70
     0
  9
$DIMTOLJ
 70
     1
  9
$DIMTZIN
 70
     0
  9
$DIMALTZ
 70
     0
  9
$DIMALTTZ
 70
     0
  9
$DIMUPT
 70
     0
  9
$DIMDEC
 70
     4
  9
$DIMTDEC
 70
     4
  9
$DIMALTU
 70
     2
  9
$DIMALTTD
 70
     2
  9
$DIMTXSTY
  7
Standard
  9
$DIMAUNIT
 70
     0
  9
$DIMADEC
 70
     0
  9
$DIMALTRND
 40
0.0
  9
$DIMAZIN
 70
     0
  9
$DIMDSEP
 70
    46
  9
$DIMATFIT
 70
     3
  9
$DIMFRAC
 70
     0
  9
$DIMLDRBLK
  1

  9
$DIMLUNIT
 70
     2
  9
$DIMLWD
 70
    -2
  9
$DIMLWE
 70
    -2
  9
$DIMTMOVE
 70
     0
  9
$DIMFXL
 40
1.0
  9
$DIMFXLON
 70
     0
  9
$DIMJOGANG
 40
0.7853981633974483
  9
$DIMTFILL
 70
     0
  9
$DIMTFILLCLR
 70
     0
  9
$DIMARCSYM
 70
     0
  9
$DIMLTYPE
  6

  9
$DIMLTEX1
  6

  9
$DIMLTEX2
  6

  9
$LUNITS
 70
     2
  9
$LUPREC
 70
     4
  9
$SKETCHINC
 40
0.1
  9
$FILLETRAD
 40
0.5
  9
$AUNITS
 70
     0
  9
$AUPREC
 70
     0
  9
$MENU
  1
.
  9
$ELEVATION
 40
0.0
  9
$PELEVATION
 40
0.0
  9
$THICKNESS
 40
0.0
  9
$LIMCHECK
 70
     0
  9
$CHAMFERA
 40
0.5
  9
$CHAMFERB
 40
0.5
  9
$CHAMFERC
 40
1.0
  9
$CHAMFERD
 40
0.0
  9
$SKPOLY
 70
     0
  9
$TDCREATE
 40
2457279.9831611
  9
$TDUCREATE
 40
2457280.191494433
  9
$TDUPDATE
 40
2457279.983161123
  9
$TDUUPDATE
 40
2457280.191494456
  9
$TDINDWG
 40
0.0000000116
  9
$TDUSRTIMER
 40
0.0000000116
  9
$USRTIMER
 70
     1
  9
$ANGBASE
 50
0.0
  9
$ANGDIR
 70
     0
  9
$PDMODE
 70
     0
  9
$PDSIZE
 40
0.0
  9
$PLINEWID
 40
0.0
  9
$SPLFRAME
 70
     0
  9
$SPLINETYPE
 70
     6
  9
$SPLINESEGS
 70
     8
  9
$HANDSEED
  5
6D
  9
$SURFTAB1
 70
     6
  9
$SURFTAB2
 70
     6
  9
$SURFTYPE
 70
     6
  9
$SURFU
 70
     6
  9
$SURFV
 70
     6
  9
$UCSBASE
  2

  9
$UCSNAME
  2

  9
$UCSORG
 10
0.0
 20
0.0
 30
0.0
  9
$UCSXDIR
 10
1.0
 20
0.0
 30
0.0
  9
$UCSYDIR
 10
0.0
 20
1.0
 30
0.0
  9
$UCSORTHOREF
  2

  9
$UCSORTHOVIEW
 70
     0
  9
$UCSORGTOP
 10
0.0
 20
0.0
 30
0.0
  9
$UCSORGBOTTOM
 10
0.0
 20
0.0
 30
0.0
  9
$UCSORGLEFT
 10
0.0
 20
0.0
 30
0.0
  9
$UCSORGRIGHT
 10
0.0
 20
0.0
 30
0.0
  9
$UCSORGFRONT
 10
0.0
 20
0.0
 30
0.0
  9
$UCSORGBACK
 10
0.0
 20
0.0
 30
0.0
  9
$PUCSBASE
  2

  9
$PUCSNAME
  2

  9
$PUCSORG
 10
0.0
 20
0.0
 30
0.0
  9
$PUCSXDIR
 10
1.0
 20
0.0
 30
0.0
  9
$PUCSYDIR
 10
0.0
 20
1.0
 30
0.0
  9
$PUCSORTHOREF
  2

  9
$PUCSORTHOVIEW
 70
     0
  9
$PUCSORGTOP
 10
0.0
 20
0.0
 30
0.0
  9
$PUCSORGBOTTOM
 10
0.0
 20
0.0
 30
0.0
  9
$PUCSORGLEFT
 10
0.0
 20
0.0
 30
0.0
  9
$PUCSORGRIGHT
 10
0.0
 20
0.0
 30
0.0
  9
$PUCSORGFRONT
 10
0.0
 20
0.0
 30
0.0
  9
$PUCSORGBACK
 10
0.0
 20
0.0
 30
0.0
  9
$USERI1
 70
     0
  9
$USERI2
 70
     0
  9
$USERI3
 70
     0
  9
$USERI4
 70
     0
  9
$USERI5
 70
     0
  9
$USERR1
 40
0.0
  9
$USERR2
 40
0.0
  9
$USERR3
 40
0.0
  9
$USERR4
 40
0.0
  9
$USERR5
 40
0.0
  9
$WORLDVIEW
 70
     1
  9
$SHADEDGE
 70
     3
  9
$SHADEDIF
 70
    70
  9
$TILEMODE
 70
     1
  9
$MAXACTVP
 70
    64
  9
$PINSBASE
 10
0.0
 20
0.0
 30
0.0
  9
$PLIMCHECK
 70
     0
  9
$PEXTMIN
 10
1.000000000000000E+20
 20
1.000000000000000E+20
 30
1.000000000000000E+20
  9
$PEXTMAX
 10
-1.000000000000000E+20
 20
-1.000000000000000E+20
 30
-1.000000000000000E+20
  9
$PLIMMIN
 10
0.0
 20
0.0
  9
$PLIMMAX
 10
12.0
 20
9.0
  9
$UNITMODE
 70
     0
  9
$VISRETAIN
 70
     1
  9
$PLINEGEN
 70
     0
  9
$PSLTSCALE
 70
     1
  9
$TREEDEPTH
 70
  3020
  9
$CMLSTYLE
  2
Standard
  9
$CMLJUST
 70
     0
  9
$CMLSCALE
 40
1.0
  9
$PROXYGRAPHICS
 70
     1
  9
$MEASUREMENT
 70
     0
  9
$CELWEIGHT
370
    -1
  9
$ENDCAPS
280
     0
  9
$JOINSTYLE
280
     0
  9
$LWDISPLAY
290
     0
  9
$INSUNITS
 70
     1
  9
$HYPERLINKBASE
  1

  9
$STYLESHEET
  1

  9
$XEDIT
290
     1
  9
$CEPSNTYPE
380
     0
  9
$PSTYLEMODE
290
     1
  9
$FINGERPRINTGUID
  2
{00B74FD9-995A-47E4-AE55-C1995F8C44F5}
  9
$VERSIONGUID
  2
{FAEB1C32-E019-11D5-929B-00C0DF256EC4}
  9
$EXTNAMES
290
     1
  9
$PSVPSCALE
 40
0.0
  9
$OLESTARTUP
290
     0
  9
$SORTENTS
280
   127
  9
$INDEXCTL
280
     0
  9
$HIDETEXT
280
     1
  9
$XCLIPFRAME
290
     0
  9
$HALOGAP
280
     0
  9
$OBSCOLOR
 70
   257
  9
$OBSLTYPE
280
     0
  9
$INTERSECTIONDISPLAY
280
     0
  9
$INTERSECTIONCOLOR
 70
   257
  9
$DIMASSOC
280
     2
  9
$PROJECTNAME
  1

  9
$CAMERADISPLAY
290
     0
  9
$LENSLENGTH
 40
50.0
  9
$CAMERAHEIGHT
 40
0.0
  9
$STEPSPERSEC
 40
2.0
  9
$STEPSIZE
 40
6.0
  9
$3DDWFPREC
 40
2.0
  9
$PSOLWIDTH
 40
0.25
  9
$PSOLHEIGHT
 40
4.0
  9
$LOFTANG1
 40
1.570796326794897
  9
$LOFTANG2
 40
1.570796326794897
  9
$LOFTMAG1
 40
0.0
  9
$LOFTMAG2
 40
0.0
  9
$LOFTPARAM
 70
     7
  9
$LOFTNORMALS
280
     1
  9
$LATITUDE
 40
37.795
  9
$LONGITUDE
 40
-122.394
  9
$NORTHDIRECTION
 40
0.0
  9
$TIMEZONE
 70
 -8000
  9
$LIGHTGLYPHDISPLAY
280
     1
  9
$TILEMODELIGHTSYNCH
280
     1
  9
$SOLIDHIST
280
     1
  9
$SHOWHIST
280
     1
  9
$DWFFRAME
280
     2
  9
$DGNFRAME
280
     2
  9
$REALWORLDSCALE
290
     1
  9
$INTERFERECOLOR
 62
   256
  9
$CSHADOW
280
     0
  9
$SHADOWPLANELOCATION
 40
0.0
  0
ENDSEC
  0
SECTION
  2
CLASSES
  0
CLASS
  1
ACDBDICTIONARYWDFLT
  2
AcDbDictionaryWithDefault
  3
ObjectDBX Classes
 90
        0
 91
        4
280
     0
281
     0
  0
CLASS
  1
VISUALSTYLE
  2
AcDbVisualStyle
  3
ObjectDBX Classes
 90
     4095
 91
        4
280
     0
281
     0
  0
CLASS
  1
MATERIAL
  2
AcDbMaterial
  3
ObjectDBX Classes
 90
     1153
 91
        4
280
     0
281
     0
  0
ENDSEC
  0
SECTION
  2
TABLES
  0
TABLE
  2
VPORT
  5
8
330
0
100
AcDbSymbolTable
 70
     1
  0
VPORT
  5
29
330
8
100
AcDbSymbolTableRecord
100
AcDbViewportTableRecord
  2
*Active
 70
     0
 10
0.0
 20
0.0
 11
1.0
 21
1.0
 12
10.42990654205607
 22
4.5
 13
0.0
 23
0.0
 14
0.5
 24
0.5
 15
0.5
 25
0.5
 16
0.0
 26
0.0
 36
1.0
 17
0.0
 27
0.0
 37
0.0
 40
9.0
 41
1.972972972850329
 42
50.0
 43
0.0
 44
0.0
 50
0.0
 51
0.0
 71
     0
 72
   100
 73
     1
 74
     3
 75
     0
 76
     0
 77
     0
 78
     0
281
     0
 65
     1
110
0.0
120
0.0
130
0.0
111
1.0
121
0.0
131
0.0
112
0.0
122
1.0
132
0.0
 79
     0
146
0.0
 60
     3
 61
     5
292
     1
282
     1
141
0.0
142
0.0
 63
   250
  0
ENDTAB
  0
TABLE
  2
LTYPE
  5
5
330
0
100
AcDbSymbolTable
 70
     1
  0
LTYPE
  5
14
330
5
100
AcDbSymbolTableRecord
100
AcDbLinetypeTableRecord
  2
ByBlock
 70
     0
  3

 72
    65
 73
     0
 40
0.0
  0
LTYPE
  5
15
330
5
100
AcDbSymbolTableRecord
100
AcDbLinetypeTableRecord
  2
ByLayer
 70
     0
  3

 72
    65
 73
     0
 40
0.0
  0
LTYPE
  5
16
330
5
100
AcDbSymbolTableRecord
100
AcDbLinetypeTableRecord
  2
Continuous
 70
     0
  3
Solid line
 72
    65
 73
     0
 40
0.0
  0
ENDTAB
  0
TABLE
  2
LAYER
  5
2
330
0
100
AcDbSymbolTable
 70
     2
  0
LAYER
  5
10
330
2
100
AcDbSymbolTableRecord
100
AcDbLayerTableRecord
  2
0
 70
     0
 62
     7
  6
Continuous
370
    -3
390
F
347
3E
  0
LAYER
  5
40
330
2
100
AcDbSymbolTableRecord
100
AcDbLayerTableRecord
  2
Layer 1
 70
     0
 62
     7
  6
Continuous
370
    -3
390
F
347
3E
  0
ENDTAB
  0
TABLE
  2
STYLE
  5
3
330
0
100
AcDbSymbolTable
 70
     1
  0
STYLE
  5
11
330
3
100
AcDbSymbolTableRecord
100
AcDbTextStyleTableRecord
  2
Standard
 70
     0
 40
0.0
 41
1.0
 50
0.0
 71
     0
 42
0.2
  3
txt
  4

  0
ENDTAB
  0
TABLE
  2
VIEW
  5
6
330
0
100
AcDbSymbolTable
 70
     0
  0
ENDTAB
  0
TABLE
  2
UCS
  5
7
330
0
100
AcDbSymbolTable
 70
     0
  0
ENDTAB
  0
TABLE
  2
APPID
  5
9
330
0
100
AcDbSymbolTable
 70
     2
  0
APPID
  5
12
330
9
100
AcDbSymbolTableRecord
100
AcDbRegAppTableRecord
  2
ACAD
 70
     0
  0
APPID
  5
3F
330
9
100
AcDbSymbolTableRecord
100
AcDbRegAppTableRecord
  2
ODA
 70
     0
  0
ENDTAB
  0
TABLE
  2
DIMSTYLE
  5
A
330
0
100
AcDbSymbolTable
 70
     1
100
AcDbDimStyleTable
  0
DIMSTYLE
105
27
330
A
100
AcDbSymbolTableRecord
100
AcDbDimStyleTableRecord
  2
Standard
 70
     0
178
     0
340
11
  0
ENDTAB
  0
TABLE
  2
BLOCK_RECORD
  5
1
330
0
100
AcDbSymbolTable
 70
     1
  0
BLOCK_RECORD
  5
1F
330
1
100
AcDbSymbolTableRecord
100
AcDbBlockTableRecord
  2
*Model_Space
340
22
 70
     0
280
     1
281
     0
  0
BLOCK_RECORD
  5
1B
330
1
100
AcDbSymbolTableRecord
100
AcDbBlockTableRecord
  2
*Paper_Space
340
1E
 70
     0
280
     1
281
     0
  0
BLOCK_RECORD
  5
23
330
1
100
AcDbSymbolTableRecord
100
AcDbBlockTableRecord
  2
*Paper_Space0
340
26
 70
     0
280
     1
281
     0
  0
ENDTAB
  0
ENDSEC
  0
SECTION
  2
BLOCKS
  0
BLOCK
  5
20
330
1F
100
AcDbEntity
  8
0
100
AcDbBlockBegin
  2
*Model_Space
 70
     0
 10
0.0
 20
0.0
 30
0.0
  3
*Model_Space
  1

  0
ENDBLK
  5
21
330
1F
100
AcDbEntity
  8
0
100
AcDbBlockEnd
  0
BLOCK
  5
1C
330
1B
100
AcDbEntity
 67
     1
  8
0
100
AcDbBlockBegin
  2
*Paper_Space
 70
     0
 10
0.0
 20
0.0
 30
0.0
  3
*Paper_Space
  1

  0
ENDBLK
  5
1D
330
1B
100
AcDbEntity
 67
     1
  8
0
100
AcDbBlockEnd
  0
BLOCK
  5
24
330
23
100
AcDbEntity
  8
0
100
AcDbBlockBegin
  2
*Paper_Space0
 70
     0
 10
0.0
 20
0.0
 30
0.0
  3
*Paper_Space0
  1

  0
ENDBLK
  5
25
330
23
100
AcDbEntity
  8
0
100
AcDbBlockEnd
  0
ENDSEC
  0
SECTION
  2
ENTITIES
  0
SPLINE
  5
41
330
1F
100
AcDbEntity
  8
Layer 1
 62
   250
370
     9
100
AcDbSpline
210
0.0
220
0.0
230
1.0
 70
    11
 71
     3
 72
   372
 73
   368
 74
     0
 42
0.0000000001
 43
0.0000000001
 12
1.0
 22
0.0
 32
0.0
 13
1.0
 23
0.0
 33
0.0
 40
0.0
 40
0.0
 40
0.0
 40
0.0
 40
0.010752688172043
 40
0.010752688172043
 40
0.010752688172043
 40
0.010752688172043
 40
0.021505376344086
 40
0.021505376344086
 40
0.021505376344086
 40
0.021505376344086
 40
0.032258064516129
 40
0.032258064516129
 40
0.032258064516129
 40
0.032258064516129
 40
0.043010752688172
 40
0.043010752688172
 40
0.043010752688172
 40
0.043010752688172
 40
0.0537634408602151
 40
0.0537634408602151
 40
0.0537634408602151
 40
0.0537634408602151
 40
0.0645161290322581
 40
0.0645161290322581
 40
0.0645161290322581
 40
0.0645161290322581
 40
0.0752688172043011
 40
0.0752688172043011
 40
0.0752688172043011
 40
0.0752688172043011
 40
0.0860215053763441
 40
0.0860215053763441
 40
0.0860215053763441
 40
0.0860215053763441
 40
0.0967741935483871
 40
0.0967741935483871
 40
0.0967741935483871
 40
0.0967741935483871
 40
0.1075268817204301
 40
0.1075268817204301
 40
0.1075268817204301
 40
0.1075268817204301
 40
0.1182795698924731
 40
0.1182795698924731
 40
0.1182795698924731
 40
0.1182795698924731
 40
0.1290322580645161
 40
0.1290322580645161
 40
0.1290322580645161
 40
0.1290322580645161
 40
0.1397849462365591
 40
0.1397849462365591
 40
0.1397849462365591
 40
0.1397849462365591
 40
0.1505376344086022
 40
0.1505376344086022
 40
0.1505376344086022
 40
0.1505376344086022
 40
0.1612903225806452
 40
0.1612903225806452
 40
0.1612903225806452
 40
0.1612903225806452
 40
0.1720430107526882
 40
0.1720430107526882
 40
0.1720430107526882
 40
0.1720430107526882
 40
0.1827956989247312
 40
0.1827956989247312
 40
0.1827956989247312
 40
0.1827956989247312
 40
0.1935483870967742
 40
0.1935483870967742
 40
0.1935483870967742
 40
0.1935483870967742
 40
0.2043010752688172
 40
0.2043010752688172
 40
0.2043010752688172
 40
0.2043010752688172
 40
0.2150537634408602
 40
0.2150537634408602
 40
0.2150537634408602
 40
0.2150537634408602
 40
0.2258064516129032
 40
0.2258064516129032
 40
0.2258064516129032
 40
0.2258064516129032
 40
0.2365591397849462
 40
0.2365591397849462
 40
0.2365591397849462
 40
0.2365591397849462
 40
0.2473118279569892
 40
0.2473118279569892
 40
0.2473118279569892
 40
0.2473118279569892
 40
0.2580645161290323
 40
0.2580645161290323
 40
0.2580645161290323
 40
0.2580645161290323
 40
0.2688172043010753
 40
0.2688172043010753
 40
0.2688172043010753
 40
0.2688172043010753
 40
0.2795698924731183
 40
0.2795698924731183
 40
0.2795698924731183
 40
0.2795698924731183
 40
0.2903225806451613
 40
0.2903225806451613
 40
0.2903225806451613
 40
0.2903225806451613
 40
0.3010752688172043
 40
0.3010752688172043
 40
0.3010752688172043
 40
0.3010752688172043
 40
0.3118279569892473
 40
0.3118279569892473
 40
0.3118279569892473
 40
0.3118279569892473
 40
0.3225806451612903
 40
0.3225806451612903
 40
0.3225806451612903
 40
0.3225806451612903
 40
0.3333333333333333
 40
0.3333333333333333
 40
0.3333333333333333
 40
0.3333333333333333
 40
0.3440860215053764
 40
0.3440860215053764
 40
0.3440860215053764
 40
0.3440860215053764
 40
0.3548387096774194
 40
0.3548387096774194
 40
0.3548387096774194
 40
0.3548387096774194
 40
0.3655913978494624
 40
0.3655913978494624
 40
0.3655913978494624
 40
0.3655913978494624
 40
0.3763440860215054
 40
0.3763440860215054
 40
0.3763440860215054
 40
0.3763440860215054
 40
0.3870967741935484
 40
0.3870967741935484
 40
0.3870967741935484
 40
0.3870967741935484
 40
0.3978494623655914
 40
0.3978494623655914
 40
0.3978494623655914
 40
0.3978494623655914
 40
0.4086021505376344
 40
0.4086021505376344
 40
0.4086021505376344
 40
0.4086021505376344
 40
0.4193548387096774
 40
0.4193548387096774
 40
0.4193548387096774
 40
0.4193548387096774
 40
0.4301075268817204
 40
0.4301075268817204
 40
0.4301075268817204
 40
0.4301075268817204
 40
0.4408602150537634
 40
0.4408602150537634
 40
0.4408602150537634
 40
0.4408602150537634
 40
0.4516129032258064
 40
0.4516129032258064
 40
0.4516129032258064
 40
0.4516129032258064
 40
0.4623655913978494
 40
0.4623655913978494
 40
0.4623655913978494
 40
0.4623655913978494
 40
0.4731182795698925
 40
0.4731182795698925
 40
0.4731182795698925
 40
0.4731182795698925
 40
0.4838709677419355
 40
0.4838709677419355
 40
0.4838709677419355
 40
0.4838709677419355
 40
0.4946236559139785
 40
0.4946236559139785
 40
0.4946236559139785
 40
0.4946236559139785
 40
0.5053763440860215
 40
0.5053763440860215
 40
0.5053763440860215
 40
0.5053763440860215
 40
0.5161290322580645
 40
0.5161290322580645
 40
0.5161290322580645
 40
0.5161290322580645
 40
0.5268817204301075
 40
0.5268817204301075
 40
0.5268817204301075
 40
0.5268817204301075
 40
0.5376344086021505
 40
0.5376344086021505
 40
0.5376344086021505
 40
0.5376344086021505
 40
0.5483870967741935
 40
0.5483870967741935
 40
0.5483870967741935
 40
0.5483870967741935
 40
0.5591397849462365
 40
0.5591397849462365
 40
0.5591397849462365
 40
0.5591397849462365
 40
0.5698924731182796
 40
0.5698924731182796
 40
0.5698924731182796
 40
0.5698924731182796
 40
0.5806451612903226
 40
0.5806451612903226
 40
0.5806451612903226
 40
0.5806451612903226
 40
0.5913978494623656
 40
0.5913978494623656
 40
0.5913978494623656
 40
0.5913978494623656
 40
0.6021505376344086
 40
0.6021505376344086
 40
0.6021505376344086
 40
0.6021505376344086
 40
0.6129032258064516
 40
0.6129032258064516
 40
0.6129032258064516
 40
0.6129032258064516
 40
0.6236559139784946
 40
0.6236559139784946
 40
0.6236559139784946
 40
0.6236559139784946
 40
0.6344086021505376
 40
0.6344086021505376
 40
0.6344086021505376
 40
0.6344086021505376
 40
0.6451612903225806
 40
0.6451612903225806
 40
0.6451612903225806
 40
0.6451612903225806
 40
0.6559139784946236
 40
0.6559139784946236
 40
0.6559139784946236
 40
0.6559139784946236
 40
0.6666666666666666
 40
0.6666666666666666
 40
0.6666666666666666
 40
0.6666666666666666
 40
0.6774193548387096
 40
0.6774193548387096
 40
0.6774193548387096
 40
0.6774193548387096
 40
0.6881720430107527
 40
0.6881720430107527
 40
0.6881720430107527
 40
0.6881720430107527
 40
0.6989247311827957
 40
0.6989247311827957
 40
0.6989247311827957
 40
0.6989247311827957
 40
0.7096774193548387
 40
0.7096774193548387
 40
0.7096774193548387
 40
0.7096774193548387
 40
0.7204301075268817
 40
0.7204301075268817
 40
0.7204301075268817
 40
0.7204301075268817
 40
0.7311827956989247
 40
0.7311827956989247
 40
0.7311827956989247
 40
0.7311827956989247
 40
0.7419354838709677
 40
0.7419354838709677
 40
0.7419354838709677
 40
0.7419354838709677
 40
0.7526881720430108
 40
0.7526881720430108
 40
0.7526881720430108
 40
0.7526881720430108
 40
0.7634408602150538
 40
0.7634408602150538
 40
0.7634408602150538
 40
0.7634408602150538
 40
0.7741935483870968
 40
0.7741935483870968
 40
0.7741935483870968
 40
0.7741935483870968
 40
0.7849462365591398
 40
0.7849462365591398
 40
0.7849462365591398
 40
0.7849462365591398
 40
0.7956989247311828
 40
0.7956989247311828
 40
0.7956989247311828
 40
0.7956989247311828
 40
0.8064516129032258
 40
0.8064516129032258
 40
0.8064516129032258
 40
0.8064516129032258
 40
0.8172043010752689
 40
0.8172043010752689
 40
0.8172043010752689
 40
0.8172043010752689
 40
0.8279569892473119
 40
0.8279569892473119
 40
0.8279569892473119
 40
0.8279569892473119
 40
0.8387096774193549
 40
0.8387096774193549
 40
0.8387096774193549
 40
0.8387096774193549
 40
0.8494623655913979
 40
0.8494623655913979
 40
0.8494623655913979
 40
0.8494623655913979
 40
0.8602150537634409
 40
0.8602150537634409
 40
0.8602150537634409
 40
0.8602150537634409
 40
0.8709677419354839
 40
0.8709677419354839
 40
0.8709677419354839
 40
0.8709677419354839
 40
0.8817204301075269
 40
0.8817204301075269
 40
0.8817204301075269
 40
0.8817204301075269
 40
0.8924731182795699
 40
0.8924731182795699
 40
0.8924731182795699
 40
0.8924731182795699
 40
0.9032258064516129
 40
0.9032258064516129
 40
0.9032258064516129
 40
0.9032258064516129
 40
0.9139784946236559
 40
0.9139784946236559
 40
0.9139784946236559
 40
0.9139784946236559
 40
0.9247311827956989
 40
0.9247311827956989
 40
0.9247311827956989
 40
0.9247311827956989
 40
0.9354838709677419
 40
0.9354838709677419
 40
0.9354838709677419
 40
0.9354838709677419
 40
0.946236559139785
 40
0.946236559139785
 40
0.946236559139785
 40
0.946236559139785
 40
0.956989247311828
 40
0.956989247311828
 40
0.956989247311828
 40
0.956989247311828
 40
0.967741935483871
 40
0.967741935483871
 40
0.967741935483871
 40
0.967741935483871
 40
0.978494623655914
 40
0.978494623655914
 40
0.978494623655914
 40
0.978494623655914
 40
1.0
 40
1.0
 40
1.0
 40
1.0
 10
-7.115645669291339
 20
0.1527244094488189
 30
0.0
 10
-7.115645669291339
 20
0.1527244094488189
 30
0.0
 10
-6.800685039370078
 20
0.1527244094488189
 30
0.0
 10
-6.800685039370078
 20
0.1527244094488189
 30
0.0
 10
-6.800685039370078
 20
0.1527244094488189
 30
0.0
 10
-6.800685039370078
 20
0.1527244094488189
 30
0.0
 10
-6.800685039370078
 20
-0.0441259842519685
 30
0.0
 10
-6.800685039370078
 20
-0.0441259842519685
 30
0.0
 10
-6.800685039370078
 20
-0.0441259842519685
 30
0.0
 10
-6.800685039370078
 20
-0.0441259842519685
 30
0.0
 10
-6.288874015748031
 20
-0.0441259842519685
 30
0.0
 10
-6.288874015748031
 20
-0.0441259842519685
 30
0.0
 10
-6.288874015748031
 20
-0.0441259842519685
 30
0.0
 10
-6.288874015748031
 20
-0.0441259842519685
 30
0.0
 10
-6.288874015748031
 20
0.1527244094488189
 30
0.0
 10
-6.288874015748031
 20
0.1527244094488189
 30
0.0
 10
-6.288874015748031
 20
0.1527244094488189
 30
0.0
 10
-6.288874015748031
 20
0.1527244094488189
 30
0.0
 10
-5.973913385826772
 20
0.1527244094488189
 30
0.0
 10
-5.973913385826772
 20
0.1527244094488189
 30
0.0
 10
-5.973913385826772
 20
0.1527244094488189
 30
0.0
 10
-5.973913385826772
 20
0.1527244094488189
 30
0.0
 10
-5.973913385826772
 20
-0.0441259842519685
 30
0.0
 10
-5.973913385826772
 20
-0.0441259842519685
 30
0.0
 10
-5.973913385826772
 20
-0.0441259842519685
 30
0.0
 10
-5.973913385826772
 20
-0.0441259842519685
 30
0.0
 10
-5.658952755905512
 20
-0.0441259842519685
 30
0.0
 10
-5.658952755905512
 20
-0.0441259842519685
 30
0.0
 10
-5.658952755905512
 20
-0.0441259842519685
 30
0.0
 10
-5.658952755905512
 20
-0.0441259842519685
 30
0.0
 10
-5.658952755905512
 20
0.1527244094488189
 30
0.0
 10
-5.658952755905512
 20
0.1527244094488189
 30
0.0
 10
-5.658952755905512
 20
0.1527244094488189
 30
0.0
 10
-5.658952755905512
 20
0.1527244094488189
 30
0.0
 10
-5.343992125984252
 20
0.1527244094488189
 30
0.0
 10
-5.343992125984252
 20
0.1527244094488189
 30
0.0
 10
-5.343992125984252
 20
0.1527244094488189
 30
0.0
 10
-5.343992125984252
 20
0.1527244094488189
 30
0.0
 10
-5.343992125984252
 20
-0.0441259842519685
 30
0.0
 10
-5.343992125984252
 20
-0.0441259842519685
 30
0.0
 10
-5.343992125984252
 20
-0.0441259842519685
 30
0.0
 10
-5.343992125984252
 20
-0.0441259842519685
 30
0.0
 10
-5.029031496062992
 20
-0.0441259842519685
 30
0.0
 10
-5.029031496062992
 20
-0.0441259842519685
 30
0.0
 10
-5.029031496062992
 20
-0.0441259842519685
 30
0.0
 10
-5.029031496062992
 20
-0.0441259842519685
 30
0.0
 10
-5.029031496062992
 20
0.1527244094488189
 30
0.0
 10
-5.029031496062992
 20
0.1527244094488189
 30
0.0
 10
-5.029031496062992
 20
0.1527244094488189
 30
0.0
 10
-5.029031496062992
 20
0.1527244094488189
 30
0.0
 10
-4.714070866141732
 20
0.1527244094488189
 30
0.0
 10
-4.714070866141732
 20
0.1527244094488189
 30
0.0
 10
-4.714070866141732
 20
0.1527244094488189
 30
0.0
 10
-4.714070866141732
 20
0.1527244094488189
 30
0.0
 10
-4.714070866141732
 20
-0.0441259842519685
 30
0.0
 10
-4.714070866141732
 20
-0.0441259842519685
 30
0.0
 10
-4.714070866141732
 20
-0.0441259842519685
 30
0.0
 10
-4.714070866141732
 20
-0.0441259842519685
 30
0.0
 10
-4.399110236220473
 20
-0.0441259842519685
 30
0.0
 10
-4.399110236220473
 20
-0.0441259842519685
 30
0.0
 10
-4.399110236220473
 20
-0.0441259842519685
 30
0.0
 10
-4.399110236220473
 20
-0.0441259842519685
 30
0.0
 10
-4.399110236220473
 20
0.1527244094488189
 30
0.0
 10
-4.399110236220473
 20
0.1527244094488189
 30
0.0
 10
-4.399110236220473
 20
0.1527244094488189
 30
0.0
 10
-4.399110236220473
 20
0.1527244094488189
 30
0.0
 10
-4.084149606299213
 20
0.1527244094488189
 30
0.0
 10
-4.084149606299213
 20
0.1527244094488189
 30
0.0
 10
-4.084149606299213
 20
0.1527244094488189
 30
0.0
 10
-4.084149606299213
 20
0.1527244094488189
 30
0.0
 10
-4.084149606299213
 20
-0.0441259842519685
 30
0.0
 10
-4.084149606299213
 20
-0.0441259842519685
 30
0.0
 10
-4.084149606299213
 20
-0.0441259842519685
 30
0.0
 10
-4.084149606299213
 20
-0.0441259842519685
 30
0.0
 10
-3.769188976377953
 20
-0.0441259842519685
 30
0.0
 10
-3.769188976377953
 20
-0.0441259842519685
 30
0.0
 10
-3.769188976377953
 20
-0.0441259842519685
 30
0.0
 10
-3.769188976377953
 20
-0.0441259842519685
 30
0.0
 10
-3.769188976377953
 20
0.1527244094488189
 30
0.0
 10
-3.769188976377953
 20
0.1527244094488189
 30
0.0
 10
-3.769188976377953
 20
0.1527244094488189
 30
0.0
 10
-3.769188976377953
 20
0.1527244094488189
 30
0.0
 10
-3.454228346456693
 20
0.1527244094488189
 30
0.0
 10
-3.454228346456693
 20
0.1527244094488189
 30
0.0
 10
-3.454228346456693
 20
0.1527244094488189
 30
0.0
 10
-3.454228346456693
 20
0.1527244094488189
 30
0.0
 10
-3.454228346456693
 20
-0.0441259842519685
 30
0.0
 10
-3.454228346456693
 20
-0.0441259842519685
 30
0.0
 10
-3.454228346456693
 20
-0.0441259842519685
 30
0.0
 10
-3.454228346456693
 20
-0.0441259842519685
 30
0.0
 10
-3.139267716535433
 20
-0.0441259842519685
 30
0.0
 10
-3.139267716535433
 20
-0.0441259842519685
 30
0.0
 10
-3.139267716535433
 20
-0.0441259842519685
 30
0.0
 10
-3.139267716535433
 20
-0.0441259842519685
 30
0.0
 10
-3.139267716535433
 20
0.1527244094488189
 30
0.0
 10
-3.139267716535433
 20
0.1527244094488189
 30
0.0
 10
-3.139267716535433
 20
0.1527244094488189
 30
0.0
 10
-3.139267716535433
 20
0.1527244094488189
 30
0.0
 10
-2.824307086614173
 20
0.1527244094488189
 30
0.0
 10
-2.824307086614173
 20
0.1527244094488189
 30
0.0
 10
-2.824307086614173
 20
0.1527244094488189
 30
0.0
 10
-2.824307086614173
 20
0.1527244094488189
 30
0.0
 10
-2.824307086614173
 20
-0.0441259842519685
 30
0.0
 10
-2.824307086614173
 20
-0.0441259842519685
 30
0.0
 10
-2.824307086614173
 20
-0.0441259842519685
 30
0.0
 10
-2.824307086614173
 20
-0.0441259842519685
 30
0.0
 10
-2.312496062992126
 20
-0.0441259842519685
 30
0.0
 10
-2.312496062992126
 20
-0.0441259842519685
 30
0.0
 10
-2.312496062992126
 20
-0.0441259842519685
 30
0.0
 10
-2.312496062992126
 20
-0.0441259842519685
 30
0.0
 10
-2.312496062992126
 20
0.1527244094488189
 30
0.0
 10
-2.312496062992126
 20
0.1527244094488189
 30
0.0
 10
-2.312496062992126
 20
0.1527244094488189
 30
0.0
 10
-2.312496062992126
 20
0.1527244094488189
 30
0.0
 10
-1.997535433070866
 20
0.1527244094488189
 30
0.0
 10
-1.997535433070866
 20
0.1527244094488189
 30
0.0
 10
-1.997535433070866
 20
0.1527244094488189
 30
0.0
 10
-1.997535433070866
 20
0.1527244094488189
 30
0.0
 10
-1.997535433070866
 20
-0.3000314960629921
 30
0.0
 10
-1.997535433070866
 20
-0.3000314960629921
 30
0.0
 10
-1.997535433070866
 20
-0.3000314960629921
 30
0.0
 10
-1.997535433070866
 20
-0.3000314960629921
 30
0.0
 10
-1.800685039370079
 20
-0.3000314960629921
 30
0.0
 10
-1.800685039370079
 20
-0.3000314960629921
 30
0.0
 10
-1.800685039370079
 20
-0.3000314960629921
 30
0.0
 10
-1.800685039370079
 20
-0.3000314960629921
 30
0.0
 10
-1.800685039370079
 20
-0.7527874015748032
 30
0.0
 10
-1.800685039370079
 20
-0.7527874015748032
 30
0.0
 10
-1.800685039370079
 20
-0.7527874015748032
 30
0.0
 10
-1.800685039370079
 20
-0.7527874015748032
 30
0.0
 10
-1.997535433070866
 20
-0.7527874015748032
 30
0.0
 10
-1.997535433070866
 20
-0.7527874015748032
 30
0.0
 10
-1.997535433070866
 20
-0.7527874015748032
 30
0.0
 10
-1.997535433070866
 20
-0.7527874015748032
 30
0.0
 10
-1.997535433070866
 20
-1.067748031496063
 30
0.0
 10
-1.997535433070866
 20
-1.067748031496063
 30
0.0
 10
-1.997535433070866
 20
-1.067748031496063
 30
0.0
 10
-1.997535433070866
 20
-1.067748031496063
 30
0.0
 10
-1.800685039370079
 20
-1.067748031496063
 30
0.0
 10
-1.800685039370079
 20
-1.067748031496063
 30
0.0
 10
-1.800685039370079
 20
-1.067748031496063
 30
0.0
 10
-1.800685039370079
 20
-1.067748031496063
 30
0.0
 10
-1.800685039370079
 20
-1.382708661417323
 30
0.0
 10
-1.800685039370079
 20
-1.382708661417323
 30
0.0
 10
-1.800685039370079
 20
-1.382708661417323
 30
0.0
 10
-1.800685039370079
 20
-1.382708661417323
 30
0.0
 10
-1.997535433070866
 20
-1.382708661417323
 30
0.0
 10
-1.997535433070866
 20
-1.382708661417323
 30
0.0
 10
-1.997535433070866
 20
-1.382708661417323
 30
0.0
 10
-1.997535433070866
 20
-1.382708661417323
 30
0.0
 10
-1.997535433070866
 20
-1.697669291338583
 30
0.0
 10
-1.997535433070866
 20
-1.697669291338583
 30
0.0
 10
-1.997535433070866
 20
-1.697669291338583
 30
0.0
 10
-1.997535433070866
 20
-1.697669291338583
 30
0.0
 10
-1.800685039370079
 20
-1.697669291338583
 30
0.0
 10
-1.800685039370079
 20
-1.697669291338583
 30
0.0
 10
-1.800685039370079
 20
-1.697669291338583
 30
0.0
 10
-1.800685039370079
 20
-1.697669291338583
 30
0.0
 10
-1.800685039370079
 20
-2.012629921259843
 30
0.0
 10
-1.800685039370079
 20
-2.012629921259843
 30
0.0
 10
-1.800685039370079
 20
-2.012629921259843
 30
0.0
 10
-1.800685039370079
 20
-2.012629921259843
 30
0.0
 10
-1.997535433070866
 20
-2.012629921259843
 30
0.0
 10
-1.997535433070866
 20
-2.012629921259843
 30
0.0
 10
-1.997535433070866
 20
-2.012629921259843
 30
0.0
 10
-1.997535433070866
 20
-2.012629921259843
 30
0.0
 10
-1.997535433070866
 20
-2.327590551181102
 30
0.0
 10
-1.997535433070866
 20
-2.327590551181102
 30
0.0
 10
-1.997535433070866
 20
-2.327590551181102
 30
0.0
 10
-1.997535433070866
 20
-2.327590551181102
 30
0.0
 10
-1.800685039370079
 20
-2.327590551181102
 30
0.0
 10
-1.800685039370079
 20
-2.327590551181102
 30
0.0
 10
-1.800685039370079
 20
-2.327590551181102
 30
0.0
 10
-1.800685039370079
 20
-2.327590551181102
 30
0.0
 10
-1.800685039370079
 20
-2.780346456692913
 30
0.0
 10
-1.800685039370079
 20
-2.780346456692913
 30
0.0
 10
-1.800685039370079
 20
-2.780346456692913
 30
0.0
 10
-1.800685039370079
 20
-2.780346456692913
 30
0.0
 10
-1.997535433070866
 20
-2.780346456692913
 30
0.0
 10
-1.997535433070866
 20
-2.780346456692913
 30
0.0
 10
-1.997535433070866
 20
-2.780346456692913
 30
0.0
 10
-1.997535433070866
 20
-2.780346456692913
 30
0.0
 10
-1.997535433070866
 20
-3.233102362204725
 30
0.0
 10
-1.997535433070866
 20
-3.233102362204725
 30
0.0
 10
-1.997535433070866
 20
-3.233102362204725
 30
0.0
 10
-1.997535433070866
 20
-3.233102362204725
 30
0.0
 10
-2.312496062992126
 20
-3.233102362204725
 30
0.0
 10
-2.312496062992126
 20
-3.233102362204725
 30
0.0
 10
-2.312496062992126
 20
-3.233102362204725
 30
0.0
 10
-2.312496062992126
 20
-3.233102362204725
 30
0.0
 10
-2.312496062992126
 20
-3.036251968503937
 30
0.0
 10
-2.312496062992126
 20
-3.036251968503937
 30
0.0
 10
-2.312496062992126
 20
-3.036251968503937
 30
0.0
 10
-2.312496062992126
 20
-3.036251968503937
 30
0.0
 10
-2.824307086614173
 20
-3.036251968503937
 30
0.0
 10
-2.824307086614173
 20
-3.036251968503937
 30
0.0
 10
-2.824307086614173
 20
-3.036251968503937
 30
0.0
 10
-2.824307086614173
 20
-3.036251968503937
 30
0.0
 10
-2.824307086614173
 20
-3.233102362204725
 30
0.0
 10
-2.824307086614173
 20
-3.233102362204725
 30
0.0
 10
-2.824307086614173
 20
-3.233102362204725
 30
0.0
 10
-2.824307086614173
 20
-3.233102362204725
 30
0.0
 10
-3.139267716535433
 20
-3.233102362204725
 30
0.0
 10
-3.139267716535433
 20
-3.233102362204725
 30
0.0
 10
-3.139267716535433
 20
-3.233102362204725
 30
0.0
 10
-3.139267716535433
 20
-3.233102362204725
 30
0.0
 10
-3.139267716535433
 20
-3.036251968503937
 30
0.0
 10
-3.139267716535433
 20
-3.036251968503937
 30
0.0
 10
-3.139267716535433
 20
-3.036251968503937
 30
0.0
 10
-3.139267716535433
 20
-3.036251968503937
 30
0.0
 10
-3.454228346456693
 20
-3.036251968503937
 30
0.0
 10
-3.454228346456693
 20
-3.036251968503937
 30
0.0
 10
-3.454228346456693
 20
-3.036251968503937
 30
0.0
 10
-3.454228346456693
 20
-3.036251968503937
 30
0.0
 10
-3.454228346456693
 20
-3.233102362204725
 30
0.0
 10
-3.454228346456693
 20
-3.233102362204725
 30
0.0
 10
-3.454228346456693
 20
-3.233102362204725
 30
0.0
 10
-3.454228346456693
 20
-3.233102362204725
 30
0.0
 10
-3.769188976377953
 20
-3.233102362204725
 30
0.0
 10
-3.769188976377953
 20
-3.233102362204725
 30
0.0
 10
-3.769188976377953
 20
-3.233102362204725
 30
0.0
 10
-3.769188976377953
 20
-3.233102362204725
 30
0.0
 10
-3.769188976377953
 20
-3.036251968503937
 30
0.0
 10
-3.769188976377953
 20
-3.036251968503937
 30
0.0
 10
-3.769188976377953
 20
-3.036251968503937
 30
0.0
 10
-3.769188976377953
 20
-3.036251968503937
 30
0.0
 10
-4.084149606299213
 20
-3.036251968503937
 30
0.0
 10
-4.084149606299213
 20
-3.036251968503937
 30
0.0
 10
-4.084149606299213
 20
-3.036251968503937
 30
0.0
 10
-4.084149606299213
 20
-3.036251968503937
 30
0.0
 10
-4.084149606299213
 20
-3.233102362204725
 30
0.0
 10
-4.084149606299213
 20
-3.233102362204725
 30
0.0
 10
-4.084149606299213
 20
-3.233102362204725
 30
0.0
 10
-4.084149606299213
 20
-3.233102362204725
 30
0.0
 10
-4.399110236220473
 20
-3.233102362204725
 30
0.0
 10
-4.399110236220473
 20
-3.233102362204725
 30
0.0
 10
-4.399110236220473
 20
-3.233102362204725
 30
0.0
 10
-4.399110236220473
 20
-3.233102362204725
 30
0.0
 10
-4.399110236220473
 20
-3.036251968503937
 30
0.0
 10
-4.399110236220473
 20
-3.036251968503937
 30
0.0
 10
-4.399110236220473
 20
-3.036251968503937
 30
0.0
 10
-4.399110236220473
 20
-3.036251968503937
 30
0.0
 10
-4.714070866141732
 20
-3.036251968503937
 30
0.0
 10
-4.714070866141732
 20
-3.036251968503937
 30
0.0
 10
-4.714070866141732
 20
-3.036251968503937
 30
0.0
 10
-4.714070866141732
 20
-3.036251968503937
 30
0.0
 10
-4.714070866141732
 20
-3.233102362204725
 30
0.0
 10
-4.714070866141732
 20
-3.233102362204725
 30
0.0
 10
-4.714070866141732
 20
-3.233102362204725
 30
0.0
 10
-4.714070866141732
 20
-3.233102362204725
 30
0.0
 10
-5.029031496062992
 20
-3.233102362204725
 30
0.0
 10
-5.029031496062992
 20
-3.233102362204725
 30
0.0
 10
-5.029031496062992
 20
-3.233102362204725
 30
0.0
 10
-5.029031496062992
 20
-3.233102362204725
 30
0.0
 10
-5.029031496062992
 20
-3.036251968503937
 30
0.0
 10
-5.029031496062992
 20
-3.036251968503937
 30
0.0
 10
-5.029031496062992
 20
-3.036251968503937
 30
0.0
 10
-5.029031496062992
 20
-3.036251968503937
 30
0.0
 10
-5.343992125984252
 20
-3.036251968503937
 30
0.0
 10
-5.343992125984252
 20
-3.036251968503937
 30
0.0
 10
-5.343992125984252
 20
-3.036251968503937
 30
0.0
 10
-5.343992125984252
 20
-3.036251968503937
 30
0.0
 10
-5.343992125984252
 20
-3.233102362204725
 30
0.0
 10
-5.343992125984252
 20
-3.233102362204725
 30
0.0
 10
-5.343992125984252
 20
-3.233102362204725
 30
0.0
 10
-5.343992125984252
 20
-3.233102362204725
 30
0.0
 10
-5.658952755905512
 20
-3.233102362204725
 30
0.0
 10
-5.658952755905512
 20
-3.233102362204725
 30
0.0
 10
-5.658952755905512
 20
-3.233102362204725
 30
0.0
 10
-5.658952755905512
 20
-3.233102362204725
 30
0.0
 10
-5.658952755905512
 20
-3.036251968503937
 30
0.0
 10
-5.658952755905512
 20
-3.036251968503937
 30
0.0
 10
-5.658952755905512
 20
-3.036251968503937
 30
0.0
 10
-5.658952755905512
 20
-3.036251968503937
 30
0.0
 10
-5.973913385826772
 20
-3.036251968503937
 30
0.0
 10
-5.973913385826772
 20
-3.036251968503937
 30
0.0
 10
-5.973913385826772
 20
-3.036251968503937
 30
0.0
 10
-5.973913385826772
 20
-3.036251968503937
 30
0.0
 10
-5.973913385826772
 20
-3.233102362204725
 30
0.0
 10
-5.973913385826772
 20
-3.233102362204725
 30
0.0
 10
-5.973913385826772
 20
-3.233102362204725
 30
0.0
 10
-5.973913385826772
 20
-3.233102362204725
 30
0.0
 10
-6.288874015748031
 20
-3.233102362204725
 30
0.0
 10
-6.288874015748031
 20
-3.233102362204725
 30
0.0
 10
-6.288874015748031
 20
-3.233102362204725
 30
0.0
 10
-6.288874015748031
 20
-3.233102362204725
 30
0.0
 10
-6.288874015748031
 20
-3.036251968503937
 30
0.0
 10
-6.288874015748031
 20
-3.036251968503937
 30
0.0
 10
-6.288874015748031
 20
-3.036251968503937
 30
0.0
 10
-6.288874015748031
 20
-3.036251968503937
 30
0.0
 10
-6.800685039370078
 20
-3.036251968503937
 30
0.0
 10
-6.800685039370078
 20
-3.036251968503937
 30
0.0
 10
-6.800685039370078
 20
-3.036251968503937
 30
0.0
 10
-6.800685039370078
 20
-3.036251968503937
 30
0.0
 10
-6.800685039370078
 20
-3.233102362204725
 30
0.0
 10
-6.800685039370078
 20
-3.233102362204725
 30
0.0
 10
-6.800685039370078
 20
-3.233102362204725
 30
0.0
 10
-6.800685039370078
 20
-3.233102362204725
 30
0.0
 10
-7.115645669291339
 20
-3.233102362204725
 30
0.0
 10
-7.115645669291339
 20
-3.233102362204725
 30
0.0
 10
-7.115645669291339
 20
-3.233102362204725
 30
0.0
 10
-7.115645669291339
 20
-3.233102362204725
 30
0.0
 10
-7.115645669291339
 20
-2.780346456692913
 30
0.0
 10
-7.115645669291339
 20
-2.780346456692913
 30
0.0
 10
-7.115645669291339
 20
-2.780346456692913
 30
0.0
 10
-7.115645669291339
 20
-2.780346456692913
 30
0.0
 10
-7.312496062992126
 20
-2.780346456692913
 30
0.0
 10
-7.312496062992126
 20
-2.780346456692913
 30
0.0
 10
-7.312496062992126
 20
-2.780346456692913
 30
0.0
 10
-7.312496062992126
 20
-2.780346456692913
 30
0.0
 10
-7.312496062992126
 20
-2.327590551181102
 30
0.0
 10
-7.312496062992126
 20
-2.327590551181102
 30
0.0
 10
-7.312496062992126
 20
-2.327590551181102
 30
0.0
 10
-7.312496062992126
 20
-2.327590551181102
 30
0.0
 10
-7.115645669291339
 20
-2.327590551181102
 30
0.0
 10
-7.115645669291339
 20
-2.327590551181102
 30
0.0
 10
-7.115645669291339
 20
-2.327590551181102
 30
0.0
 10
-7.115645669291339
 20
-2.327590551181102
 30
0.0
 10
-7.115645669291339
 20
-2.012629921259843
 30
0.0
 10
-7.115645669291339
 20
-2.012629921259843
 30
0.0
 10
-7.115645669291339
 20
-2.012629921259843
 30
0.0
 10
-7.115645669291339
 20
-2.012629921259843
 30
0.0
 10
-7.312496062992126
 20
-2.012629921259843
 30
0.0
 10
-7.312496062992126
 20
-2.012629921259843
 30
0.0
 10
-7.312496062992126
 20
-2.012629921259843
 30
0.0
 10
-7.312496062992126
 20
-2.012629921259843
 30
0.0
 10
-7.312496062992126
 20
-1.697669291338583
 30
0.0
 10
-7.312496062992126
 20
-1.697669291338583
 30
0.0
 10
-7.312496062992126
 20
-1.697669291338583
 30
0.0
 10
-7.312496062992126
 20
-1.697669291338583
 30
0.0
 10
-7.115645669291339
 20
-1.697669291338583
 30
0.0
 10
-7.115645669291339
 20
-1.697669291338583
 30
0.0
 10
-7.115645669291339
 20
-1.697669291338583
 30
0.0
 10
-7.115645669291339
 20
-1.697669291338583
 30
0.0
 10
-7.115645669291339
 20
-1.382708661417323
 30
0.0
 10
-7.115645669291339
 20
-1.382708661417323
 30
0.0
 10
-7.115645669291339
 20
-1.382708661417323
 30
0.0
 10
-7.115645669291339
 20
-1.382708661417323
 30
0.0
 10
-7.312496062992126
 20
-1.382708661417323
 30
0.0
 10
-7.312496062992126
 20
-1.382708661417323
 30
0.0
 10
-7.312496062992126
 20
-1.382708661417323
 30
0.0
 10
-7.312496062992126
 20
-1.382708661417323
 30
0.0
 10
-7.312496062992126
 20
-1.067748031496063
 30
0.0
 10
-7.312496062992126
 20
-1.067748031496063
 30
0.0
 10
-7.312496062992126
 20
-1.067748031496063
 30
0.0
 10
-7.312496062992126
 20
-1.067748031496063
 30
0.0
 10
-7.115645669291339
 20
-1.067748031496063
 30
0.0
 10
-7.115645669291339
 20
-1.067748031496063
 30
0.0
 10
-7.115645669291339
 20
-1.067748031496063
 30
0.0
 10
-7.115645669291339
 20
-1.067748031496063
 30
0.0
 10
-7.115645669291339
 20
-0.7527874015748032
 30
0.0
 10
-7.115645669291339
 20
-0.7527874015748032
 30
0.0
 10
-7.115645669291339
 20
-0.7527874015748032
 30
0.0
 10
-7.115645669291339
 20
-0.7527874015748032
 30
0.0
 10
-7.312496062992126
 20
-0.7527874015748032
 30
0.0
 10
-7.312496062992126
 20
-0.7527874015748032
 30
0.0
 10
-7.312496062992126
 20
-0.7527874015748032
 30
0.0
 10
-7.312496062992126
 20
-0.7527874015748032
 30
0.0
 10
-7.312496062992126
 20
-0.3000314960629921
 30
0.0
 10
-7.312496062992126
 20
-0.3000314960629921
 30
0.0
 10
-7.312496062992126
 20
-0.3000314960629921
 30
0.0
 10
-7.312496062992126
 20
-0.3000314960629921
 30
0.0
 10
-7.115645669291339
 20
-0.3000314960629921
 30
0.0
 10
-7.115645669291339
 20
-0.3000314960629921
 30
0.0
 10
-7.115645669291339
 20
-0.3000314960629921
 30
0.0
 10
-7.115645669291339
 20
-0.3000314960629921
 30
0.0
 10
-7.115645669291339
 20
0.1527244094488189
 30
0.0
 10
-7.115645669291339
 20
0.1527244094488189
 30
0.0
  0
SPLINE
  5
42
330
1F
100
AcDbEntity
  8
Layer 1
 62
   250
370
     9
100
AcDbSpline
210
0.0
220
0.0
230
1.0
 70
    11
 71
     3
 72
   468
 73
   464
 74
     0
 42
0.0000000001
 43
0.0000000001
 12
1.0
 22
0.0
 32
0.0
 13
1.0
 23
0.0
 33
0.0
 40
0.0
 40
0.0
 40
0.0
 40
0.0
 40
0.0085470085470085
 40
0.0085470085470085
 40
0.0085470085470085
 40
0.0085470085470085
 40
0.0170940170940171
 40
0.0170940170940171
 40
0.0170940170940171
 40
0.0170940170940171
 40
0.0256410256410256
 40
0.0256410256410256
 40
0.0256410256410256
 40
0.0256410256410256
 40
0.0341880341880342
 40
0.0341880341880342
 40
0.0341880341880342
 40
0.0341880341880342
 40
0.0427350427350427
 40
0.0427350427350427
 40
0.0427350427350427
 40
0.0427350427350427
 40
0.0512820512820513
 40
0.0512820512820513
 40
0.0512820512820513
 40
0.0512820512820513
 40
0.0598290598290598
 40
0.0598290598290598
 40
0.0598290598290598
 40
0.0598290598290598
 40
0.0683760683760684
 40
0.0683760683760684
 40
0.0683760683760684
 40
0.0683760683760684
 40
0.0769230769230769
 40
0.0769230769230769
 40
0.0769230769230769
 40
0.0769230769230769
 40
0.0854700854700855
 40
0.0854700854700855
 40
0.0854700854700855
 40
0.0854700854700855
 40
0.094017094017094
 40
0.094017094017094
 40
0.094017094017094
 40
0.094017094017094
 40
0.1025641025641026
 40
0.1025641025641026
 40
0.1025641025641026
 40
0.1025641025641026
 40
0.1111111111111111
 40
0.1111111111111111
 40
0.1111111111111111
 40
0.1111111111111111
 40
0.1196581196581197
 40
0.1196581196581197
 40
0.1196581196581197
 40
0.1196581196581197
 40
0.1282051282051282
 40
0.1282051282051282
 40
0.1282051282051282
 40
0.1282051282051282
 40
0.1367521367521368
 40
0.1367521367521368
 40
0.1367521367521368
 40
0.1367521367521368
 40
0.1452991452991453
 40
0.1452991452991453
 40
0.1452991452991453
 40
0.1452991452991453
 40
0.1538461538461539
 40
0.1538461538461539
 40
0.1538461538461539
 40
0.1538461538461539
 40
0.1623931623931624
 40
0.1623931623931624
 40
0.1623931623931624
 40
0.1623931623931624
 40
0.1709401709401709
 40
0.1709401709401709
 40
0.1709401709401709
 40
0.1709401709401709
 40
0.1794871794871795
 40
0.1794871794871795
 40
0.1794871794871795
 40
0.1794871794871795
 40
0.188034188034188
 40
0.188034188034188
 40
0.188034188034188
 40
0.188034188034188
 40
0.1965811965811966
 40
0.1965811965811966
 40
0.1965811965811966
 40
0.1965811965811966
 40
0.2051282051282051
 40
0.2051282051282051
 40
0.2051282051282051
 40
0.2051282051282051
 40
0.2136752136752137
 40
0.2136752136752137
 40
0.2136752136752137
 40
0.2136752136752137
 40
0.2222222222222222
 40
0.2222222222222222
 40
0.2222222222222222
 40
0.2222222222222222
 40
0.2307692307692308
 40
0.2307692307692308
 40
0.2307692307692308
 40
0.2307692307692308
 40
0.2393162393162393
 40
0.2393162393162393
 40
0.2393162393162393
 40
0.2393162393162393
 40
0.2478632478632479
 40
0.2478632478632479
 40
0.2478632478632479
 40
0.2478632478632479
 40
0.2564102564102564
 40
0.2564102564102564
 40
0.2564102564102564
 40
0.2564102564102564
 40
0.264957264957265
 40
0.264957264957265
 40
0.264957264957265
 40
0.264957264957265
 40
0.2735042735042735
 40
0.2735042735042735
 40
0.2735042735042735
 40
0.2735042735042735
 40
0.282051282051282
 40
0.282051282051282
 40
0.282051282051282
 40
0.282051282051282
 40
0.2905982905982906
 40
0.2905982905982906
 40
0.2905982905982906
 40
0.2905982905982906
 40
0.2991452991452991
 40
0.2991452991452991
 40
0.2991452991452991
 40
0.2991452991452991
 40
0.3076923076923077
 40
0.3076923076923077
 40
0.3076923076923077
 40
0.3076923076923077
 40
0.3162393162393162
 40
0.3162393162393162
 40
0.3162393162393162
 40
0.3162393162393162
 40
0.3247863247863248
 40
0.3247863247863248
 40
0.3247863247863248
 40
0.3247863247863248
 40
0.3333333333333333
 40
0.3333333333333333
 40
0.3333333333333333
 40
0.3333333333333333
 40
0.3418803418803419
 40
0.3418803418803419
 40
0.3418803418803419
 40
0.3418803418803419
 40
0.3504273504273504
 40
0.3504273504273504
 40
0.3504273504273504
 40
0.3504273504273504
 40
0.358974358974359
 40
0.358974358974359
 40
0.358974358974359
 40
0.358974358974359
 40
0.3675213675213675
 40
0.3675213675213675
 40
0.3675213675213675
 40
0.3675213675213675
 40
0.3760683760683761
 40
0.3760683760683761
 40
0.3760683760683761
 40
0.3760683760683761
 40
0.3846153846153846
 40
0.3846153846153846
 40
0.3846153846153846
 40
0.3846153846153846
 40
0.3931623931623932
 40
0.3931623931623932
 40
0.3931623931623932
 40
0.3931623931623932
 40
0.4017094017094017
 40
0.4017094017094017
 40
0.4017094017094017
 40
0.4017094017094017
 40
0.4102564102564102
 40
0.4102564102564102
 40
0.4102564102564102
 40
0.4102564102564102
 40
0.4188034188034188
 40
0.4188034188034188
 40
0.4188034188034188
 40
0.4188034188034188
 40
0.4273504273504273
 40
0.4273504273504273
 40
0.4273504273504273
 40
0.4273504273504273
 40
0.4358974358974359
 40
0.4358974358974359
 40
0.4358974358974359
 40
0.4358974358974359
 40
0.4444444444444444
 40
0.4444444444444444
 40
0.4444444444444444
 40
0.4444444444444444
 40
0.452991452991453
 40
0.452991452991453
 40
0.452991452991453
 40
0.452991452991453
 40
0.4615384615384616
 40
0.4615384615384616
 40
0.4615384615384616
 40
0.4615384615384616
 40
0.4700854700854701
 40
0.4700854700854701
 40
0.4700854700854701
 40
0.4700854700854701
 40
0.4786324786324787
 40
0.4786324786324787
 40
0.4786324786324787
 40
0.4786324786324787
 40
0.4871794871794872
 40
0.4871794871794872
 40
0.4871794871794872
 40
0.4871794871794872
 40
0.4957264957264957
 40
0.4957264957264957
 40
0.4957264957264957
 40
0.4957264957264957
 40
0.5042735042735043
 40
0.5042735042735043
 40
0.5042735042735043
 40
0.5042735042735043
 40
0.5128205128205128
 40
0.5128205128205128
 40
0.5128205128205128
 40
0.5128205128205128
 40
0.5213675213675214
 40
0.5213675213675214
 40
0.5213675213675214
 40
0.5213675213675214
 40
0.5299145299145299
 40
0.5299145299145299
 40
0.5299145299145299
 40
0.5299145299145299
 40
0.5384615384615384
 40
0.5384615384615384
 40
0.5384615384615384
 40
0.5384615384615384
 40
0.5470085470085471
 40
0.5470085470085471
 40
0.5470085470085471
 40
0.5470085470085471
 40
0.5555555555555556
 40
0.5555555555555556
 40
0.5555555555555556
 40
0.5555555555555556
 40
0.5641025641025641
 40
0.5641025641025641
 40
0.5641025641025641
 40
0.5641025641025641
 40
0.5726495726495726
 40
0.5726495726495726
 40
0.5726495726495726
 40
0.5726495726495726
 40
0.5811965811965812
 40
0.5811965811965812
 40
0.5811965811965812
 40
0.5811965811965812
 40
0.5897435897435898
 40
0.5897435897435898
 40
0.5897435897435898
 40
0.5897435897435898
 40
0.5982905982905983
 40
0.5982905982905983
 40
0.5982905982905983
 40
0.5982905982905983
 40
0.6068376068376068
 40
0.6068376068376068
 40
0.6068376068376068
 40
0.6068376068376068
 40
0.6153846153846154
 40
0.6153846153846154
 40
0.6153846153846154
 40
0.6153846153846154
 40
0.6239316239316239
 40
0.6239316239316239
 40
0.6239316239316239
 40
0.6239316239316239
 40
0.6324786324786325
 40
0.6324786324786325
 40
0.6324786324786325
 40
0.6324786324786325
 40
0.6410256410256411
 40
0.6410256410256411
 40
0.6410256410256411
 40
0.6410256410256411
 40
0.6495726495726496
 40
0.6495726495726496
 40
0.6495726495726496
 40
0.6495726495726496
 40
0.6581196581196581
 40
0.6581196581196581
 40
0.6581196581196581
 40
0.6581196581196581
 40
0.6666666666666666
 40
0.6666666666666666
 40
0.6666666666666666
 40
0.6666666666666666
 40
0.6752136752136753
 40
0.6752136752136753
 40
0.6752136752136753
 40
0.6752136752136753
 40
0.6837606837606838
 40
0.6837606837606838
 40
0.6837606837606838
 40
0.6837606837606838
 40
0.6923076923076923
 40
0.6923076923076923
 40
0.6923076923076923
 40
0.6923076923076923
 40
0.7008547008547008
 40
0.7008547008547008
 40
0.7008547008547008
 40
0.7008547008547008
 40
0.7094017094017094
 40
0.7094017094017094
 40
0.7094017094017094
 40
0.7094017094017094
 40
0.717948717948718
 40
0.717948717948718
 40
0.717948717948718
 40
0.717948717948718
 40
0.7264957264957265
 40
0.7264957264957265
 40
0.7264957264957265
 40
0.7264957264957265
 40
0.7350427350427351
 40
0.7350427350427351
 40
0.7350427350427351
 40
0.7350427350427351
 40
0.7435897435897436
 40
0.7435897435897436
 40
0.7435897435897436
 40
0.7435897435897436
 40
0.7521367521367521
 40
0.7521367521367521
 40
0.7521367521367521
 40
0.7521367521367521
 40
0.7606837606837606
 40
0.7606837606837606
 40
0.7606837606837606
 40
0.7606837606837606
 40
0.7692307692307693
 40
0.7692307692307693
 40
0.7692307692307693
 40
0.7692307692307693
 40
0.7777777777777778
 40
0.7777777777777778
 40
0.7777777777777778
 40
0.7777777777777778
 40
0.7863247863247863
 40
0.7863247863247863
 40
0.7863247863247863
 40
0.7863247863247863
 40
0.7948717948717948
 40
0.7948717948717948
 40
0.7948717948717948
 40
0.7948717948717948
 40
0.8034188034188035
 40
0.8034188034188035
 40
0.8034188034188035
 40
0.8034188034188035
 40
0.811965811965812
 40
0.811965811965812
 40
0.811965811965812
 40
0.811965811965812
 40
0.8205128205128205
 40
0.8205128205128205
 40
0.8205128205128205
 40
0.8205128205128205
 40
0.8290598290598291
 40
0.8290598290598291
 40
0.8290598290598291
 40
0.8290598290598291
 40
0.8376068376068376
 40
0.8376068376068376
 40
0.8376068376068376
 40
0.8376068376068376
 40
0.8461538461538461
 40
0.8461538461538461
 40
0.8461538461538461
 40
0.8461538461538461
 40
0.8547008547008547
 40
0.8547008547008547
 40
0.8547008547008547
 40
0.8547008547008547
 40
0.8632478632478633
 40
0.8632478632478633
 40
0.8632478632478633
 40
0.8632478632478633
 40
0.8717948717948718
 40
0.8717948717948718
 40
0.8717948717948718
 40
0.8717948717948718
 40
0.8803418803418803
 40
0.8803418803418803
 40
0.8803418803418803
 40
0.8803418803418803
 40
0.8888888888888888
 40
0.8888888888888888
 40
0.8888888888888888
 40
0.8888888888888888
 40
0.8974358974358975
 40
0.8974358974358975
 40
0.8974358974358975
 40
0.8974358974358975
 40
0.905982905982906
 40
0.905982905982906
 40
0.905982905982906
 40
0.905982905982906
 40
0.9145299145299145
 40
0.9145299145299145
 40
0.9145299145299145
 40
0.9145299145299145
 40
0.9230769230769231
 40
0.9230769230769231
 40
0.9230769230769231
 40
0.9230769230769231
 40
0.9316239316239316
 40
0.9316239316239316
 40
0.9316239316239316
 40
0.9316239316239316
 40
0.9401709401709402
 40
0.9401709401709402
 40
0.9401709401709402
 40
0.9401709401709402
 40
0.9487179487179487
 40
0.9487179487179487
 40
0.9487179487179487
 40
0.9487179487179487
 40
0.9572649572649573
 40
0.9572649572649573
 40
0.9572649572649573
 40
0.9572649572649573
 40
0.9658119658119658
 40
0.9658119658119658
 40
0.9658119658119658
 40
0.9658119658119658
 40
0.9743589743589743
 40
0.9743589743589743
 40
0.9743589743589743
 40
0.9743589743589743
 40
0.9829059829059829
 40
0.9829059829059829
 40
0.9829059829059829
 40
0.9829059829059829
 40
1.0
 40
1.0
 40
1.0
 40
1.0
 10
-1.997535433070866
 20
5.073984251968504
 30
0.0
 10
-1.997535433070866
 20
5.073984251968504
 30
0.0
 10
-1.997535433070866
 20
4.857448818897637
 30
0.0
 10
-1.997535433070866
 20
4.857448818897637
 30
0.0
 10
-1.997535433070866
 20
4.857448818897637
 30
0.0
 10
-1.997535433070866
 20
4.857448818897637
 30
0.0
 10
-1.800685039370079
 20
4.857448818897637
 30
0.0
 10
-1.800685039370079
 20
4.857448818897637
 30
0.0
 10
-1.800685039370079
 20
4.857448818897637
 30
0.0
 10
-1.800685039370079
 20
4.857448818897637
 30
0.0
 10
-1.800685039370079
 20
4.444062992125985
 30
0.0
 10
-1.800685039370079
 20
4.444062992125985
 30
0.0
 10
-1.800685039370079
 20
4.444062992125985
 30
0.0
 10
-1.800685039370079
 20
4.444062992125985
 30
0.0
 10
-1.997535433070866
 20
4.444062992125985
 30
0.0
 10
-1.997535433070866
 20
4.444062992125985
 30
0.0
 10
-1.997535433070866
 20
4.444062992125985
 30
0.0
 10
-1.997535433070866
 20
4.444062992125985
 30
0.0
 10
-1.997535433070866
 20
4.129102362204724
 30
0.0
 10
-1.997535433070866
 20
4.129102362204724
 30
0.0
 10
-1.997535433070866
 20
4.129102362204724
 30
0.0
 10
-1.997535433070866
 20
4.129102362204724
 30
0.0
 10
-1.800685039370079
 20
4.129102362204724
 30
0.0
 10
-1.800685039370079
 20
4.129102362204724
 30
0.0
 10
-1.800685039370079
 20
4.129102362204724
 30
0.0
 10
-1.800685039370079
 20
4.129102362204724
 30
0.0
 10
-1.800685039370079
 20
3.814141732283465
 30
0.0
 10
-1.800685039370079
 20
3.814141732283465
 30
0.0
 10
-1.800685039370079
 20
3.814141732283465
 30
0.0
 10
-1.800685039370079
 20
3.814141732283465
 30
0.0
 10
-1.997535433070866
 20
3.814141732283465
 30
0.0
 10
-1.997535433070866
 20
3.814141732283465
 30
0.0
 10
-1.997535433070866
 20
3.814141732283465
 30
0.0
 10
-1.997535433070866
 20
3.814141732283465
 30
0.0
 10
-1.997535433070866
 20
3.499181102362205
 30
0.0
 10
-1.997535433070866
 20
3.499181102362205
 30
0.0
 10
-1.997535433070866
 20
3.499181102362205
 30
0.0
 10
-1.997535433070866
 20
3.499181102362205
 30
0.0
 10
-1.800685039370079
 20
3.499181102362205
 30
0.0
 10
-1.800685039370079
 20
3.499181102362205
 30
0.0
 10
-1.800685039370079
 20
3.499181102362205
 30
0.0
 10
-1.800685039370079
 20
3.499181102362205
 30
0.0
 10
-1.800685039370079
 20
3.184220472440945
 30
0.0
 10
-1.800685039370079
 20
3.184220472440945
 30
0.0
 10
-1.800685039370079
 20
3.184220472440945
 30
0.0
 10
-1.800685039370079
 20
3.184220472440945
 30
0.0
 10
-1.997535433070866
 20
3.184220472440945
 30
0.0
 10
-1.997535433070866
 20
3.184220472440945
 30
0.0
 10
-1.997535433070866
 20
3.184220472440945
 30
0.0
 10
-1.997535433070866
 20
3.184220472440945
 30
0.0
 10
-1.997535433070866
 20
2.869259842519685
 30
0.0
 10
-1.997535433070866
 20
2.869259842519685
 30
0.0
 10
-1.997535433070866
 20
2.869259842519685
 30
0.0
 10
-1.997535433070866
 20
2.869259842519685
 30
0.0
 10
-1.800685039370079
 20
2.869259842519685
 30
0.0
 10
-1.800685039370079
 20
2.869259842519685
 30
0.0
 10
-1.800685039370079
 20
2.869259842519685
 30
0.0
 10
-1.800685039370079
 20
2.869259842519685
 30
0.0
 10
-1.800685039370079
 20
2.554299212598425
 30
0.0
 10
-1.800685039370079
 20
2.554299212598425
 30
0.0
 10
-1.800685039370079
 20
2.554299212598425
 30
0.0
 10
-1.800685039370079
 20
2.554299212598425
 30
0.0
 10
-1.997535433070866
 20
2.554299212598425
 30
0.0
 10
-1.997535433070866
 20
2.554299212598425
 30
0.0
 10
-1.997535433070866
 20
2.554299212598425
 30
0.0
 10
-1.997535433070866
 20
2.554299212598425
 30
0.0
 10
-1.997535433070866
 20
2.239338582677165
 30
0.0
 10
-1.997535433070866
 20
2.239338582677165
 30
0.0
 10
-1.997535433070866
 20
2.239338582677165
 30
0.0
 10
-1.997535433070866
 20
2.239338582677165
 30
0.0
 10
-1.800685039370079
 20
2.239338582677165
 30
0.0
 10
-1.800685039370079
 20
2.239338582677165
 30
0.0
 10
-1.800685039370079
 20
2.239338582677165
 30
0.0
 10
-1.800685039370079
 20
2.239338582677165
 30
0.0
 10
-1.800685039370079
 20
1.924377952755906
 30
0.0
 10
-1.800685039370079
 20
1.924377952755906
 30
0.0
 10
-1.800685039370079
 20
1.924377952755906
 30
0.0
 10
-1.800685039370079
 20
1.924377952755906
 30
0.0
 10
-1.997535433070866
 20
1.924377952755906
 30
0.0
 10
-1.997535433070866
 20
1.924377952755906
 30
0.0
 10
-1.997535433070866
 20
1.924377952755906
 30
0.0
 10
-1.997535433070866
 20
1.924377952755906
 30
0.0
 10
-1.997535433070866
 20
1.609417322834646
 30
0.0
 10
-1.997535433070866
 20
1.609417322834646
 30
0.0
 10
-1.997535433070866
 20
1.609417322834646
 30
0.0
 10
-1.997535433070866
 20
1.609417322834646
 30
0.0
 10
-1.800685039370079
 20
1.609417322834646
 30
0.0
 10
-1.800685039370079
 20
1.609417322834646
 30
0.0
 10
-1.800685039370079
 20
1.609417322834646
 30
0.0
 10
-1.800685039370079
 20
1.609417322834646
 30
0.0
 10
-1.800685039370079
 20
1.294456692913386
 30
0.0
 10
-1.800685039370079
 20
1.294456692913386
 30
0.0
 10
-1.800685039370079
 20
1.294456692913386
 30
0.0
 10
-1.800685039370079
 20
1.294456692913386
 30
0.0
 10
-1.997535433070866
 20
1.294456692913386
 30
0.0
 10
-1.997535433070866
 20
1.294456692913386
 30
0.0
 10
-1.997535433070866
 20
1.294456692913386
 30
0.0
 10
-1.997535433070866
 20
1.294456692913386
 30
0.0
 10
-1.997535433070866
 20
0.979496062992126
 30
0.0
 10
-1.997535433070866
 20
0.979496062992126
 30
0.0
 10
-1.997535433070866
 20
0.979496062992126
 30
0.0
 10
-1.997535433070866
 20
0.979496062992126
 30
0.0
 10
-1.800685039370079
 20
0.979496062992126
 30
0.0
 10
-1.800685039370079
 20
0.979496062992126
 30
0.0
 10
-1.800685039370079
 20
0.979496062992126
 30
0.0
 10
-1.800685039370079
 20
0.979496062992126
 30
0.0
 10
-1.800685039370079
 20
0.5661102362204724
 30
0.0
 10
-1.800685039370079
 20
0.5661102362204724
 30
0.0
 10
-1.800685039370079
 20
0.5661102362204724
 30
0.0
 10
-1.800685039370079
 20
0.5661102362204724
 30
0.0
 10
-1.997535433070866
 20
0.5661102362204724
 30
0.0
 10
-1.997535433070866
 20
0.5661102362204724
 30
0.0
 10
-1.997535433070866
 20
0.5661102362204724
 30
0.0
 10
-1.997535433070866
 20
0.5661102362204724
 30
0.0
 10
-1.997535433070866
 20
0.3495748031496063
 30
0.0
 10
-1.997535433070866
 20
0.3495748031496063
 30
0.0
 10
-1.997535433070866
 20
0.3495748031496063
 30
0.0
 10
-1.997535433070866
 20
0.3495748031496063
 30
0.0
 10
-2.312496062992126
 20
0.3495748031496063
 30
0.0
 10
-2.312496062992126
 20
0.3495748031496063
 30
0.0
 10
-2.312496062992126
 20
0.3495748031496063
 30
0.0
 10
-2.312496062992126
 20
0.3495748031496063
 30
0.0
 10
-2.312496062992126
 20
0.1527244094488189
 30
0.0
 10
-2.312496062992126
 20
0.1527244094488189
 30
0.0
 10
-2.312496062992126
 20
0.1527244094488189
 30
0.0
 10
-2.312496062992126
 20
0.1527244094488189
 30
0.0
 10
-2.824307086614173
 20
0.1527244094488189
 30
0.0
 10
-2.824307086614173
 20
0.1527244094488189
 30
0.0
 10
-2.824307086614173
 20
0.1527244094488189
 30
0.0
 10
-2.824307086614173
 20
0.1527244094488189
 30
0.0
 10
-2.824307086614173
 20
0.3495748031496063
 30
0.0
 10
-2.824307086614173
 20
0.3495748031496063
 30
0.0
 10
-2.824307086614173
 20
0.3495748031496063
 30
0.0
 10
-2.824307086614173
 20
0.3495748031496063
 30
0.0
 10
-3.139267716535433
 20
0.3495748031496063
 30
0.0
 10
-3.139267716535433
 20
0.3495748031496063
 30
0.0
 10
-3.139267716535433
 20
0.3495748031496063
 30
0.0
 10
-3.139267716535433
 20
0.3495748031496063
 30
0.0
 10
-3.139267716535433
 20
0.1527244094488189
 30
0.0
 10
-3.139267716535433
 20
0.1527244094488189
 30
0.0
 10
-3.139267716535433
 20
0.1527244094488189
 30
0.0
 10
-3.139267716535433
 20
0.1527244094488189
 30
0.0
 10
-3.454228346456693
 20
0.1527244094488189
 30
0.0
 10
-3.454228346456693
 20
0.1527244094488189
 30
0.0
 10
-3.454228346456693
 20
0.1527244094488189
 30
0.0
 10
-3.454228346456693
 20
0.1527244094488189
 30
0.0
 10
-3.454228346456693
 20
0.3495748031496063
 30
0.0
 10
-3.454228346456693
 20
0.3495748031496063
 30
0.0
 10
-3.454228346456693
 20
0.3495748031496063
 30
0.0
 10
-3.454228346456693
 20
0.3495748031496063
 30
0.0
 10
-3.769188976377953
 20
0.3495748031496063
 30
0.0
 10
-3.769188976377953
 20
0.3495748031496063
 30
0.0
 10
-3.769188976377953
 20
0.3495748031496063
 30
0.0
 10
-3.769188976377953
 20
0.3495748031496063
 30
0.0
 10
-3.769188976377953
 20
0.1527244094488189
 30
0.0
 10
-3.769188976377953
 20
0.1527244094488189
 30
0.0
 10
-3.769188976377953
 20
0.1527244094488189
 30
0.0
 10
-3.769188976377953
 20
0.1527244094488189
 30
0.0
 10
-4.084149606299213
 20
0.1527244094488189
 30
0.0
 10
-4.084149606299213
 20
0.1527244094488189
 30
0.0
 10
-4.084149606299213
 20
0.1527244094488189
 30
0.0
 10
-4.084149606299213
 20
0.1527244094488189
 30
0.0
 10
-4.084149606299213
 20
0.3495748031496063
 30
0.0
 10
-4.084149606299213
 20
0.3495748031496063
 30
0.0
 10
-4.084149606299213
 20
0.3495748031496063
 30
0.0
 10
-4.084149606299213
 20
0.3495748031496063
 30
0.0
 10
-4.399110236220473
 20
0.3495748031496063
 30
0.0
 10
-4.399110236220473
 20
0.3495748031496063
 30
0.0
 10
-4.399110236220473
 20
0.3495748031496063
 30
0.0
 10
-4.399110236220473
 20
0.3495748031496063
 30
0.0
 10
-4.399110236220473
 20
0.1527244094488189
 30
0.0
 10
-4.399110236220473
 20
0.1527244094488189
 30
0.0
 10
-4.399110236220473
 20
0.1527244094488189
 30
0.0
 10
-4.399110236220473
 20
0.1527244094488189
 30
0.0
 10
-4.714070866141732
 20
0.1527244094488189
 30
0.0
 10
-4.714070866141732
 20
0.1527244094488189
 30
0.0
 10
-4.714070866141732
 20
0.1527244094488189
 30
0.0
 10
-4.714070866141732
 20
0.1527244094488189
 30
0.0
 10
-4.714070866141732
 20
0.3495748031496063
 30
0.0
 10
-4.714070866141732
 20
0.3495748031496063
 30
0.0
 10
-4.714070866141732
 20
0.3495748031496063
 30
0.0
 10
-4.714070866141732
 20
0.3495748031496063
 30
0.0
 10
-5.029031496062992
 20
0.3495748031496063
 30
0.0
 10
-5.029031496062992
 20
0.3495748031496063
 30
0.0
 10
-5.029031496062992
 20
0.3495748031496063
 30
0.0
 10
-5.029031496062992
 20
0.3495748031496063
 30
0.0
 10
-5.029031496062992
 20
0.1527244094488189
 30
0.0
 10
-5.029031496062992
 20
0.1527244094488189
 30
0.0
 10
-5.029031496062992
 20
0.1527244094488189
 30
0.0
 10
-5.029031496062992
 20
0.1527244094488189
 30
0.0
 10
-5.343992125984252
 20
0.1527244094488189
 30
0.0
 10
-5.343992125984252
 20
0.1527244094488189
 30
0.0
 10
-5.343992125984252
 20
0.1527244094488189
 30
0.0
 10
-5.343992125984252
 20
0.1527244094488189
 30
0.0
 10
-5.343992125984252
 20
0.3495748031496063
 30
0.0
 10
-5.343992125984252
 20
0.3495748031496063
 30
0.0
 10
-5.343992125984252
 20
0.3495748031496063
 30
0.0
 10
-5.343992125984252
 20
0.3495748031496063
 30
0.0
 10
-5.658952755905512
 20
0.3495748031496063
 30
0.0
 10
-5.658952755905512
 20
0.3495748031496063
 30
0.0
 10
-5.658952755905512
 20
0.3495748031496063
 30
0.0
 10
-5.658952755905512
 20
0.3495748031496063
 30
0.0
 10
-5.658952755905512
 20
0.1527244094488189
 30
0.0
 10
-5.658952755905512
 20
0.1527244094488189
 30
0.0
 10
-5.658952755905512
 20
0.1527244094488189
 30
0.0
 10
-5.658952755905512
 20
0.1527244094488189
 30
0.0
 10
-5.973913385826772
 20
0.1527244094488189
 30
0.0
 10
-5.973913385826772
 20
0.1527244094488189
 30
0.0
 10
-5.973913385826772
 20
0.1527244094488189
 30
0.0
 10
-5.973913385826772
 20
0.1527244094488189
 30
0.0
 10
-5.973913385826772
 20
0.3495748031496063
 30
0.0
 10
-5.973913385826772
 20
0.3495748031496063
 30
0.0
 10
-5.973913385826772
 20
0.3495748031496063
 30
0.0
 10
-5.973913385826772
 20
0.3495748031496063
 30
0.0
 10
-6.288874015748031
 20
0.3495748031496063
 30
0.0
 10
-6.288874015748031
 20
0.3495748031496063
 30
0.0
 10
-6.288874015748031
 20
0.3495748031496063
 30
0.0
 10
-6.288874015748031
 20
0.3495748031496063
 30
0.0
 10
-6.288874015748031
 20
0.1527244094488189
 30
0.0
 10
-6.288874015748031
 20
0.1527244094488189
 30
0.0
 10
-6.288874015748031
 20
0.1527244094488189
 30
0.0
 10
-6.288874015748031
 20
0.1527244094488189
 30
0.0
 10
-6.800685039370078
 20
0.1527244094488189
 30
0.0
 10
-6.800685039370078
 20
0.1527244094488189
 30
0.0
 10
-6.800685039370078
 20
0.1527244094488189
 30
0.0
 10
-6.800685039370078
 20
0.1527244094488189
 30
0.0
 10
-6.800685039370078
 20
0.3495748031496063
 30
0.0
 10
-6.800685039370078
 20
0.3495748031496063
 30
0.0
 10
-6.800685039370078
 20
0.3495748031496063
 30
0.0
 10
-6.800685039370078
 20
0.3495748031496063
 30
0.0
 10
-7.115645669291339
 20
0.3495748031496063
 30
0.0
 10
-7.115645669291339
 20
0.3495748031496063
 30
0.0
 10
-7.115645669291339
 20
0.3495748031496063
 30
0.0
 10
-7.115645669291339
 20
0.3495748031496063
 30
0.0
 10
-7.115645669291339
 20
0.5661102362204724
 30
0.0
 10
-7.115645669291339
 20
0.5661102362204724
 30
0.0
 10
-7.115645669291339
 20
0.5661102362204724
 30
0.0
 10
-7.115645669291339
 20
0.5661102362204724
 30
0.0
 10
-7.312496062992126
 20
0.5661102362204724
 30
0.0
 10
-7.312496062992126
 20
0.5661102362204724
 30
0.0
 10
-7.312496062992126
 20
0.5661102362204724
 30
0.0
 10
-7.312496062992126
 20
0.5661102362204724
 30
0.0
 10
-7.312496062992126
 20
0.979496062992126
 30
0.0
 10
-7.312496062992126
 20
0.979496062992126
 30
0.0
 10
-7.312496062992126
 20
0.979496062992126
 30
0.0
 10
-7.312496062992126
 20
0.979496062992126
 30
0.0
 10
-7.115645669291339
 20
0.979496062992126
 30
0.0
 10
-7.115645669291339
 20
0.979496062992126
 30
0.0
 10
-7.115645669291339
 20
0.979496062992126
 30
0.0
 10
-7.115645669291339
 20
0.979496062992126
 30
0.0
 10
-7.115645669291339
 20
1.294456692913386
 30
0.0
 10
-7.115645669291339
 20
1.294456692913386
 30
0.0
 10
-7.115645669291339
 20
1.294456692913386
 30
0.0
 10
-7.115645669291339
 20
1.294456692913386
 30
0.0
 10
-7.312496062992126
 20
1.294456692913386
 30
0.0
 10
-7.312496062992126
 20
1.294456692913386
 30
0.0
 10
-7.312496062992126
 20
1.294456692913386
 30
0.0
 10
-7.312496062992126
 20
1.294456692913386
 30
0.0
 10
-7.312496062992126
 20
1.609417322834646
 30
0.0
 10
-7.312496062992126
 20
1.609417322834646
 30
0.0
 10
-7.312496062992126
 20
1.609417322834646
 30
0.0
 10
-7.312496062992126
 20
1.609417322834646
 30
0.0
 10
-7.115645669291339
 20
1.609417322834646
 30
0.0
 10
-7.115645669291339
 20
1.609417322834646
 30
0.0
 10
-7.115645669291339
 20
1.609417322834646
 30
0.0
 10
-7.115645669291339
 20
1.609417322834646
 30
0.0
 10
-7.115645669291339
 20
1.924377952755906
 30
0.0
 10
-7.115645669291339
 20
1.924377952755906
 30
0.0
 10
-7.115645669291339
 20
1.924377952755906
 30
0.0
 10
-7.115645669291339
 20
1.924377952755906
 30
0.0
 10
-7.312496062992126
 20
1.924377952755906
 30
0.0
 10
-7.312496062992126
 20
1.924377952755906
 30
0.0
 10
-7.312496062992126
 20
1.924377952755906
 30
0.0
 10
-7.312496062992126
 20
1.924377952755906
 30
0.0
 10
-7.312496062992126
 20
2.239338582677165
 30
0.0
 10
-7.312496062992126
 20
2.239338582677165
 30
0.0
 10
-7.312496062992126
 20
2.239338582677165
 30
0.0
 10
-7.312496062992126
 20
2.239338582677165
 30
0.0
 10
-7.115645669291339
 20
2.239338582677165
 30
0.0
 10
-7.115645669291339
 20
2.239338582677165
 30
0.0
 10
-7.115645669291339
 20
2.239338582677165
 30
0.0
 10
-7.115645669291339
 20
2.239338582677165
 30
0.0
 10
-7.115645669291339
 20
2.554299212598425
 30
0.0
 10
-7.115645669291339
 20
2.554299212598425
 30
0.0
 10
-7.115645669291339
 20
2.554299212598425
 30
0.0
 10
-7.115645669291339
 20
2.554299212598425
 30
0.0
 10
-7.312496062992126
 20
2.554299212598425
 30
0.0
 10
-7.312496062992126
 20
2.554299212598425
 30
0.0
 10
-7.312496062992126
 20
2.554299212598425
 30
0.0
 10
-7.312496062992126
 20
2.554299212598425
 30
0.0
 10
-7.312496062992126
 20
2.869259842519685
 30
0.0
 10
-7.312496062992126
 20
2.869259842519685
 30
0.0
 10
-7.312496062992126
 20
2.869259842519685
 30
0.0
 10
-7.312496062992126
 20
2.869259842519685
 30
0.0
 10
-7.115645669291339
 20
2.869259842519685
 30
0.0
 10
-7.115645669291339
 20
2.869259842519685
 30
0.0
 10
-7.115645669291339
 20
2.869259842519685
 30
0.0
 10
-7.115645669291339
 20
2.869259842519685
 30
0.0
 10
-7.115645669291339
 20
3.184220472440945
 30
0.0
 10
-7.115645669291339
 20
3.184220472440945
 30
0.0
 10
-7.115645669291339
 20
3.184220472440945
 30
0.0
 10
-7.115645669291339
 20
3.184220472440945
 30
0.0
 10
-7.312496062992126
 20
3.184220472440945
 30
0.0
 10
-7.312496062992126
 20
3.184220472440945
 30
0.0
 10
-7.312496062992126
 20
3.184220472440945
 30
0.0
 10
-7.312496062992126
 20
3.184220472440945
 30
0.0
 10
-7.312496062992126
 20
3.499181102362205
 30
0.0
 10
-7.312496062992126
 20
3.499181102362205
 30
0.0
 10
-7.312496062992126
 20
3.499181102362205
 30
0.0
 10
-7.312496062992126
 20
3.499181102362205
 30
0.0
 10
-7.115645669291339
 20
3.499181102362205
 30
0.0
 10
-7.115645669291339
 20
3.499181102362205
 30
0.0
 10
-7.115645669291339
 20
3.499181102362205
 30
0.0
 10
-7.115645669291339
 20
3.499181102362205
 30
0.0
 10
-7.115645669291339
 20
3.814141732283465
 30
0.0
 10
-7.115645669291339
 20
3.814141732283465
 30
0.0
 10
-7.115645669291339
 20
3.814141732283465
 30
0.0
 10
-7.115645669291339
 20
3.814141732283465
 30
0.0
 10
-7.312496062992126
 20
3.814141732283465
 30
0.0
 10
-7.312496062992126
 20
3.814141732283465
 30
0.0
 10
-7.312496062992126
 20
3.814141732283465
 30
0.0
 10
-7.312496062992126
 20
3.814141732283465
 30
0.0
 10
-7.312496062992126
 20
4.129102362204724
 30
0.0
 10
-7.312496062992126
 20
4.129102362204724
 30
0.0
 10
-7.312496062992126
 20
4.129102362204724
 30
0.0
 10
-7.312496062992126
 20
4.129102362204724
 30
0.0
 10
-7.115645669291339
 20
4.129102362204724
 30
0.0
 10
-7.115645669291339
 20
4.129102362204724
 30
0.0
 10
-7.115645669291339
 20
4.129102362204724
 30
0.0
 10
-7.115645669291339
 20
4.129102362204724
 30
0.0
 10
-7.115645669291339
 20
4.444062992125985
 30
0.0
 10
-7.115645669291339
 20
4.444062992125985
 30
0.0
 10
-7.115645669291339
 20
4.444062992125985
 30
0.0
 10
-7.115645669291339
 20
4.444062992125985
 30
0.0
 10
-7.312496062992126
 20
4.444062992125985
 30
0.0
 10
-7.312496062992126
 20
4.444062992125985
 30
0.0
 10
-7.312496062992126
 20
4.444062992125985
 30
0.0
 10
-7.312496062992126
 20
4.444062992125985
 30
0.0
 10
-7.312496062992126
 20
4.857448818897637
 30
0.0
 10
-7.312496062992126
 20
4.857448818897637
 30
0.0
 10
-7.312496062992126
 20
4.857448818897637
 30
0.0
 10
-7.312496062992126
 20
4.857448818897637
 30
0.0
 10
-7.115645669291339
 20
4.857448818897637
 30
0.0
 10
-7.115645669291339
 20
4.857448818897637
 30
0.0
 10
-7.115645669291339
 20
4.857448818897637
 30
0.0
 10
-7.115645669291339
 20
4.857448818897637
 30
0.0
 10
-7.115645669291339
 20
5.073984251968504
 30
0.0
 10
-7.115645669291339
 20
5.073984251968504
 30
0.0
 10
-7.115645669291339
 20
5.073984251968504
 30
0.0
 10
-7.115645669291339
 20
5.073984251968504
 30
0.0
 10
-6.800685039370078
 20
5.073984251968504
 30
0.0
 10
-6.800685039370078
 20
5.073984251968504
 30
0.0
 10
-6.800685039370078
 20
5.073984251968504
 30
0.0
 10
-6.800685039370078
 20
5.073984251968504
 30
0.0
 10
-6.800685039370078
 20
5.270834645669291
 30
0.0
 10
-6.800685039370078
 20
5.270834645669291
 30
0.0
 10
-6.800685039370078
 20
5.270834645669291
 30
0.0
 10
-6.800685039370078
 20
5.270834645669291
 30
0.0
 10
-6.288874015748031
 20
5.270834645669291
 30
0.0
 10
-6.288874015748031
 20
5.270834645669291
 30
0.0
 10
-6.288874015748031
 20
5.270834645669291
 30
0.0
 10
-6.288874015748031
 20
5.270834645669291
 30
0.0
 10
-6.288874015748031
 20
5.073984251968504
 30
0.0
 10
-6.288874015748031
 20
5.073984251968504
 30
0.0
 10
-6.288874015748031
 20
5.073984251968504
 30
0.0
 10
-6.288874015748031
 20
5.073984251968504
 30
0.0
 10
-5.973913385826772
 20
5.073984251968504
 30
0.0
 10
-5.973913385826772
 20
5.073984251968504
 30
0.0
 10
-5.973913385826772
 20
5.073984251968504
 30
0.0
 10
-5.973913385826772
 20
5.073984251968504
 30
0.0
 10
-5.973913385826772
 20
5.270834645669291
 30
0.0
 10
-5.973913385826772
 20
5.270834645669291
 30
0.0
 10
-5.973913385826772
 20
5.270834645669291
 30
0.0
 10
-5.973913385826772
 20
5.270834645669291
 30
0.0
 10
-5.658952755905512
 20
5.270834645669291
 30
0.0
 10
-5.658952755905512
 20
5.270834645669291
 30
0.0
 10
-5.658952755905512
 20
5.270834645669291
 30
0.0
 10
-5.658952755905512
 20
5.270834645669291
 30
0.0
 10
-5.658952755905512
 20
5.073984251968504
 30
0.0
 10
-5.658952755905512
 20
5.073984251968504
 30
0.0
 10
-5.658952755905512
 20
5.073984251968504
 30
0.0
 10
-5.658952755905512
 20
5.073984251968504
 30
0.0
 10
-5.343992125984252
 20
5.073984251968504
 30
0.0
 10
-5.343992125984252
 20
5.073984251968504
 30
0.0
 10
-5.343992125984252
 20
5.073984251968504
 30
0.0
 10
-5.343992125984252
 20
5.073984251968504
 30
0.0
 10
-5.343992125984252
 20
5.270834645669291
 30
0.0
 10
-5.343992125984252
 20
5.270834645669291
 30
0.0
 10
-5.343992125984252
 20
5.270834645669291
 30
0.0
 10
-5.343992125984252
 20
5.270834645669291
 30
0.0
 10
-5.029031496062992
 20
5.270834645669291
 30
0.0
 10
-5.029031496062992
 20
5.270834645669291
 30
0.0
 10
-5.029031496062992
 20
5.270834645669291
 30
0.0
 10
-5.029031496062992
 20
5.270834645669291
 30
0.0
 10
-5.029031496062992
 20
5.073984251968504
 30
0.0
 10
-5.029031496062992
 20
5.073984251968504
 30
0.0
 10
-5.029031496062992
 20
5.073984251968504
 30
0.0
 10
-5.029031496062992
 20
5.073984251968504
 30
0.0
 10
-4.714070866141732
 20
5.073984251968504
 30
0.0
 10
-4.714070866141732
 20
5.073984251968504
 30
0.0
 10
-4.714070866141732
 20
5.073984251968504
 30
0.0
 10
-4.714070866141732
 20
5.073984251968504
 30
0.0
 10
-4.714070866141732
 20
5.270834645669291
 30
0.0
 10
-4.714070866141732
 20
5.270834645669291
 30
0.0
 10
-4.714070866141732
 20
5.270834645669291
 30
0.0
 10
-4.714070866141732
 20
5.270834645669291
 30
0.0
 10
-4.399110236220473
 20
5.270834645669291
 30
0.0
 10
-4.399110236220473
 20
5.270834645669291
 30
0.0
 10
-4.399110236220473
 20
5.270834645669291
 30
0.0
 10
-4.399110236220473
 20
5.270834645669291
 30
0.0
 10
-4.399110236220473
 20
5.073984251968504
 30
0.0
 10
-4.399110236220473
 20
5.073984251968504
 30
0.0
 10
-4.399110236220473
 20
5.073984251968504
 30
0.0
 10
-4.399110236220473
 20
5.073984251968504
 30
0.0
 10
-4.084149606299213
 20
5.073984251968504
 30
0.0
 10
-4.084149606299213
 20
5.073984251968504
 30
0.0
 10
-4.084149606299213
 20
5.073984251968504
 30
0.0
 10
-4.084149606299213
 20
5.073984251968504
 30
0.0
 10
-4.084149606299213
 20
5.270834645669291
 30
0.0
 10
-4.084149606299213
 20
5.270834645669291
 30
0.0
 10
-4.084149606299213
 20
5.270834645669291
 30
0.0
 10
-4.084149606299213
 20
5.270834645669291
 30
0.0
 10
-3.769188976377953
 20
5.270834645669291
 30
0.0
 10
-3.769188976377953
 20
5.270834645669291
 30
0.0
 10
-3.769188976377953
 20
5.270834645669291
 30
0.0
 10
-3.769188976377953
 20
5.270834645669291
 30
0.0
 10
-3.769188976377953
 20
5.073984251968504
 30
0.0
 10
-3.769188976377953
 20
5.073984251968504
 30
0.0
 10
-3.769188976377953
 20
5.073984251968504
 30
0.0
 10
-3.769188976377953
 20
5.073984251968504
 30
0.0
 10
-3.454228346456693
 20
5.073984251968504
 30
0.0
 10
-3.454228346456693
 20
5.073984251968504
 30
0.0
 10
-3.454228346456693
 20
5.073984251968504
 30
0.0
 10
-3.454228346456693
 20
5.073984251968504
 30
0.0
 10
-3.454228346456693
 20
5.270834645669291
 30
0.0
 10
-3.454228346456693
 20
5.270834645669291
 30
0.0
 10
-3.454228346456693
 20
5.270834645669291
 30
0.0
 10
-3.454228346456693
 20
5.270834645669291
 30
0.0
 10
-3.139267716535433
 20
5.270834645669291
 30
0.0
 10
-3.139267716535433
 20
5.270834645669291
 30
0.0
 10
-3.139267716535433
 20
5.270834645669291
 30
0.0
 10
-3.139267716535433
 20
5.270834645669291
 30
0.0
 10
-3.139267716535433
 20
5.073984251968504
 30
0.0
 10
-3.139267716535433
 20
5.073984251968504
 30
0.0
 10
-3.139267716535433
 20
5.073984251968504
 30
0.0
 10
-3.139267716535433
 20
5.073984251968504
 30
0.0
 10
-2.824307086614173
 20
5.073984251968504
 30
0.0
 10
-2.824307086614173
 20
5.073984251968504
 30
0.0
 10
-2.824307086614173
 20
5.073984251968504
 30
0.0
 10
-2.824307086614173
 20
5.073984251968504
 30
0.0
 10
-2.824307086614173
 20
5.270834645669291
 30
0.0
 10
-2.824307086614173
 20
5.270834645669291
 30
0.0
 10
-2.824307086614173
 20
5.270834645669291
 30
0.0
 10
-2.824307086614173
 20
5.270834645669291
 30
0.0
 10
-2.312496062992126
 20
5.270834645669291
 30
0.0
 10
-2.312496062992126
 20
5.270834645669291
 30
0.0
 10
-2.312496062992126
 20
5.270834645669291
 30
0.0
 10
-2.312496062992126
 20
5.270834645669291
 30
0.0
 10
-2.312496062992126
 20
5.073984251968504
 30
0.0
 10
-2.312496062992126
 20
5.073984251968504
 30
0.0
 10
-2.312496062992126
 20
5.073984251968504
 30
0.0
 10
-2.312496062992126
 20
5.073984251968504
 30
0.0
 10
-1.997535433070866
 20
5.073984251968504
 30
0.0
 10
-1.997535433070866
 20
5.073984251968504
 30
0.0
  0
SPLINE
  5
43
330
1F
100
AcDbEntity
  8
Layer 1
370
     9
100
AcDbSpline
210
0.0
220
0.0
230
1.0
 70
     8
 71
     3
 72
    12
 73
     8
 74
     0
 42
0.0000000001
 43
0.0000000001
 12
1.0
 22
0.0
 32
0.0
 13
1.0
 23
0.0
 33
0.0
 40
0.0
 40
0.0
 40
0.0
 40
0.0
 40
0.3333333333333333
 40
0.3333333333333333
 40
0.3333333333333333
 40
0.3333333333333333
 40
1.0
 40
1.0
 40
1.0
 40
1.0
 10
-1.603834645669291
 20
0.3495748031496063
 30
0.0
 10
-1.603834645669291
 20
0.3495748031496063
 30
0.0
 10
-1.603834645669291
 20
0.5661102362204724
 30
0.0
 10
-1.603834645669291
 20
0.5661102362204724
 30
0.0
 10
-1.603834645669291
 20
0.5661102362204724
 30
0.0
 10
-1.603834645669291
 20
0.5661102362204724
 30
0.0
 10
-1.800685039370079
 20
0.5661102362204724
 30
0.0
 10
-1.800685039370079
 20
0.5661102362204724
 30
0.0
  0
SPLINE
  5
44
330
1F
100
AcDbEntity
  8
Layer 1
370
     9
100
AcDbSpline
210
0.0
220
0.0
230
1.0
 70
     8
 71
     3
 72
    16
 73
    12
 74
     0
 42
0.0000000001
 43
0.0000000001
 12
1.0
 22
0.0
 32
0.0
 13
1.0
 23
0.0
 33
0.0
 40
0.0
 40
0.0
 40
0.0
 40
0.0
 40
0.25
 40
0.25
 40
0.25
 40
0.25
 40
0.5
 40
0.5
 40
0.5
 40
0.5
 40
1.0
 40
1.0
 40
1.0
 40
1.0
 10
-1.800685039370079
 20
0.979496062992126
 30
0.0
 10
-1.800685039370079
 20
0.979496062992126
 30
0.0
 10
-1.603834645669291
 20
0.979496062992126
 30
0.0
 10
-1.603834645669291
 20
0.979496062992126
 30
0.0
 10
-1.603834645669291
 20
0.979496062992126
 30
0.0
 10
-1.603834645669291
 20
0.979496062992126
 30
0.0
 10
-1.603834645669291
 20
1.294456692913386
 30
0.0
 10
-1.603834645669291
 20
1.294456692913386
 30
0.0
 10
-1.603834645669291
 20
1.294456692913386
 30
0.0
 10
-1.603834645669291
 20
1.294456692913386
 30
0.0
 10
-1.800685039370079
 20
1.294456692913386
 30
0.0
 10
-1.800685039370079
 20
1.294456692913386
 30
0.0
  0
SPLINE
  5
45
330
1F
100
AcDbEntity
  8
Layer 1
370
     9
100
AcDbSpline
210
0.0
220
0.0
230
1.0
 70
     8
 71
     3
 72
    16
 73
    12
 74
     0
 42
0.0000000001
 43
0.0000000001
 12
1.0
 22
0.0
 32
0.0
 13
1.0
 23
0.0
 33
0.0
 40
0.0
 40
0.0
 40
0.0
 40
0.0
 40
0.25
 40
0.25
 40
0.25
 40
0.25
 40
0.5
 40
0.5
 40
0.5
 40
0.5
 40
1.0
 40
1.0
 40
1.0
 40
1.0
 10
-1.800685039370079
 20
1.609417322834646
 30
0.0
 10
-1.800685039370079
 20
1.609417322834646
 30
0.0
 10
-1.603834645669291
 20
1.609417322834646
 30
0.0
 10
-1.603834645669291
 20
1.609417322834646
 30
0.0
 10
-1.603834645669291
 20
1.609417322834646
 30
0.0
 10
-1.603834645669291
 20
1.609417322834646
 30
0.0
 10
-1.603834645669291
 20
1.924377952755906
 30
0.0
 10
-1.603834645669291
 20
1.924377952755906
 30
0.0
 10
-1.603834645669291
 20
1.924377952755906
 30
0.0
 10
-1.603834645669291
 20
1.924377952755906
 30
0.0
 10
-1.800685039370079
 20
1.924377952755906
 30
0.0
 10
-1.800685039370079
 20
1.924377952755906
 30
0.0
  0
SPLINE
  5
46
330
1F
100
AcDbEntity
  8
Layer 1
370
     9
100
AcDbSpline
210
0.0
220
0.0
230
1.0
 70
     8
 71
     3
 72
    16
 73
    12
 74
     0
 42
0.0000000001
 43
0.0000000001
 12
1.0
 22
0.0
 32
0.0
 13
1.0
 23
0.0
 33
0.0
 40
0.0
 40
0.0
 40
0.0
 40
0.0
 40
0.25
 40
0.25
 40
0.25
 40
0.25
 40
0.5
 40
0.5
 40
0.5
 40
0.5
 40
1.0
 40
1.0
 40
1.0
 40
1.0
 10
-1.800685039370079
 20
2.239338582677165
 30
0.0
 10
-1.800685039370079
 20
2.239338582677165
 30
0.0
 10
-1.603834645669291
 20
2.239338582677165
 30
0.0
 10
-1.603834645669291
 20
2.239338582677165
 30
0.0
 10
-1.603834645669291
 20
2.239338582677165
 30
0.0
 10
-1.603834645669291
 20
2.239338582677165
 30
0.0
 10
-1.603834645669291
 20
2.554299212598425
 30
0.0
 10
-1.603834645669291
 20
2.554299212598425
 30
0.0
 10
-1.603834645669291
 20
2.554299212598425
 30
0.0
 10
-1.603834645669291
 20
2.554299212598425
 30
0.0
 10
-1.800685039370079
 20
2.554299212598425
 30
0.0
 10
-1.800685039370079
 20
2.554299212598425
 30
0.0
  0
SPLINE
  5
47
330
1F
100
AcDbEntity
  8
Layer 1
370
     9
100
AcDbSpline
210
0.0
220
0.0
230
1.0
 70
     8
 71
     3
 72
    16
 73
    12
 74
     0
 42
0.0000000001
 43
0.0000000001
 12
1.0
 22
0.0
 32
0.0
 13
1.0
 23
0.0
 33
0.0
 40
0.0
 40
0.0
 40
0.0
 40
0.0
 40
0.25
 40
0.25
 40
0.25
 40
0.25
 40
0.5
 40
0.5
 40
0.5
 40
0.5
 40
1.0
 40
1.0
 40
1.0
 40
1.0
 10
-1.800685039370079
 20
2.869259842519685
 30
0.0
 10
-1.800685039370079
 20
2.869259842519685
 30
0.0
 10
-1.603834645669291
 20
2.869259842519685
 30
0.0
 10
-1.603834645669291
 20
2.869259842519685
 30
0.0
 10
-1.603834645669291
 20
2.869259842519685
 30
0.0
 10
-1.603834645669291
 20
2.869259842519685
 30
0.0
 10
-1.603834645669291
 20
3.184220472440945
 30
0.0
 10
-1.603834645669291
 20
3.184220472440945
 30
0.0
 10
-1.603834645669291
 20
3.184220472440945
 30
0.0
 10
-1.603834645669291
 20
3.184220472440945
 30
0.0
 10
-1.800685039370079
 20
3.184220472440945
 30
0.0
 10
-1.800685039370079
 20
3.184220472440945
 30
0.0
  0
SPLINE
  5
48
330
1F
100
AcDbEntity
  8
Layer 1
370
     9
100
AcDbSpline
210
0.0
220
0.0
230
1.0
 70
     8
 71
     3
 72
    16
 73
    12
 74
     0
 42
0.0000000001
 43
0.0000000001
 12
1.0
 22
0.0
 32
0.0
 13
1.0
 23
0.0
 33
0.0
 40
0.0
 40
0.0
 40
0.0
 40
0.0
 40
0.25
 40
0.25
 40
0.25
 40
0.25
 40
0.5
 40
0.5
 40
0.5
 40
0.5
 40
1.0
 40
1.0
 40
1.0
 40
1.0
 10
-1.800685039370079
 20
3.499181102362205
 30
0.0
 10
-1.800685039370079
 20
3.499181102362205
 30
0.0
 10
-1.603834645669291
 20
3.499181102362205
 30
0.0
 10
-1.603834645669291
 20
3.499181102362205
 30
0.0
 10
-1.603834645669291
 20
3.499181102362205
 30
0.0
 10
-1.603834645669291
 20
3.499181102362205
 30
0.0
 10
-1.603834645669291
 20
3.814141732283465
 30
0.0
 10
-1.603834645669291
 20
3.814141732283465
 30
0.0
 10
-1.603834645669291
 20
3.814141732283465
 30
0.0
 10
-1.603834645669291
 20
3.814141732283465
 30
0.0
 10
-1.800685039370079
 20
3.814141732283465
 30
0.0
 10
-1.800685039370079
 20
3.814141732283465
 30
0.0
  0
SPLINE
  5
49
330
1F
100
AcDbEntity
  8
Layer 1
370
     9
100
AcDbSpline
210
0.0
220
0.0
230
1.0
 70
     8
 71
     3
 72
    16
 73
    12
 74
     0
 42
0.0000000001
 43
0.0000000001
 12
1.0
 22
0.0
 32
0.0
 13
1.0
 23
0.0
 33
0.0
 40
0.0
 40
0.0
 40
0.0
 40
0.0
 40
0.25
 40
0.25
 40
0.25
 40
0.25
 40
0.5
 40
0.5
 40
0.5
 40
0.5
 40
1.0
 40
1.0
 40
1.0
 40
1.0
 10
-1.800685039370079
 20
4.129102362204724
 30
0.0
 10
-1.800685039370079
 20
4.129102362204724
 30
0.0
 10
-1.603834645669291
 20
4.129102362204724
 30
0.0
 10
-1.603834645669291
 20
4.129102362204724
 30
0.0
 10
-1.603834645669291
 20
4.129102362204724
 30
0.0
 10
-1.603834645669291
 20
4.129102362204724
 30
0.0
 10
-1.603834645669291
 20
4.444062992125985
 30
0.0
 10
-1.603834645669291
 20
4.444062992125985
 30
0.0
 10
-1.603834645669291
 20
4.444062992125985
 30
0.0
 10
-1.603834645669291
 20
4.444062992125985
 30
0.0
 10
-1.800685039370079
 20
4.444062992125985
 30
0.0
 10
-1.800685039370079
 20
4.444062992125985
 30
0.0
  0
SPLINE
  5
4A
330
1F
100
AcDbEntity
  8
Layer 1
370
     9
100
AcDbSpline
210
0.0
220
0.0
230
1.0
 70
     8
 71
     3
 72
   360
 73
   356
 74
     0
 42
0.0000000001
 43
0.0000000001
 12
1.0
 22
0.0
 32
0.0
 13
1.0
 23
0.0
 33
0.0
 40
0.0
 40
0.0
 40
0.0
 40
0.0
 40
0.0111111111111111
 40
0.0111111111111111
 40
0.0111111111111111
 40
0.0111111111111111
 40
0.0222222222222222
 40
0.0222222222222222
 40
0.0222222222222222
 40
0.0222222222222222
 40
0.0333333333333333
 40
0.0333333333333333
 40
0.0333333333333333
 40
0.0333333333333333
 40
0.0444444444444444
 40
0.0444444444444444
 40
0.0444444444444444
 40
0.0444444444444444
 40
0.0555555555555556
 40
0.0555555555555556
 40
0.0555555555555556
 40
0.0555555555555556
 40
0.0666666666666667
 40
0.0666666666666667
 40
0.0666666666666667
 40
0.0666666666666667
 40
0.0777777777777778
 40
0.0777777777777778
 40
0.0777777777777778
 40
0.0777777777777778
 40
0.0888888888888889
 40
0.0888888888888889
 40
0.0888888888888889
 40
0.0888888888888889
 40
0.1
 40
0.1
 40
0.1
 40
0.1
 40
0.1111111111111111
 40
0.1111111111111111
 40
0.1111111111111111
 40
0.1111111111111111
 40
0.1222222222222222
 40
0.1222222222222222
 40
0.1222222222222222
 40
0.1222222222222222
 40
0.1333333333333333
 40
0.1333333333333333
 40
0.1333333333333333
 40
0.1333333333333333
 40
0.1444444444444444
 40
0.1444444444444444
 40
0.1444444444444444
 40
0.1444444444444444
 40
0.1555555555555556
 40
0.1555555555555556
 40
0.1555555555555556
 40
0.1555555555555556
 40
0.1666666666666667
 40
0.1666666666666667
 40
0.1666666666666667
 40
0.1666666666666667
 40
0.1777777777777778
 40
0.1777777777777778
 40
0.1777777777777778
 40
0.1777777777777778
 40
0.1888888888888889
 40
0.1888888888888889
 40
0.1888888888888889
 40
0.1888888888888889
 40
0.2
 40
0.2
 40
0.2
 40
0.2
 40
0.2111111111111111
 40
0.2111111111111111
 40
0.2111111111111111
 40
0.2111111111111111
 40
0.2222222222222222
 40
0.2222222222222222
 40
0.2222222222222222
 40
0.2222222222222222
 40
0.2333333333333333
 40
0.2333333333333333
 40
0.2333333333333333
 40
0.2333333333333333
 40
0.2444444444444444
 40
0.2444444444444444
 40
0.2444444444444444
 40
0.2444444444444444
 40
0.2555555555555555
 40
0.2555555555555555
 40
0.2555555555555555
 40
0.2555555555555555
 40
0.2666666666666667
 40
0.2666666666666667
 40
0.2666666666666667
 40
0.2666666666666667
 40
0.2777777777777778
 40
0.2777777777777778
 40
0.2777777777777778
 40
0.2777777777777778
 40
0.2888888888888889
 40
0.2888888888888889
 40
0.2888888888888889
 40
0.2888888888888889
 40
0.3
 40
0.3
 40
0.3
 40
0.3
 40
0.3111111111111111
 40
0.3111111111111111
 40
0.3111111111111111
 40
0.3111111111111111
 40
0.3222222222222222
 40
0.3222222222222222
 40
0.3222222222222222
 40
0.3222222222222222
 40
0.3333333333333333
 40
0.3333333333333333
 40
0.3333333333333333
 40
0.3333333333333333
 40
0.3444444444444444
 40
0.3444444444444444
 40
0.3444444444444444
 40
0.3444444444444444
 40
0.3555555555555556
 40
0.3555555555555556
 40
0.3555555555555556
 40
0.3555555555555556
 40
0.3666666666666666
 40
0.3666666666666666
 40
0.3666666666666666
 40
0.3666666666666666
 40
0.3777777777777778
 40
0.3777777777777778
 40
0.3777777777777778
 40
0.3777777777777778
 40
0.3888888888888889
 40
0.3888888888888889
 40
0.3888888888888889
 40
0.3888888888888889
 40
0.4
 40
0.4
 40
0.4
 40
0.4
 40
0.4111111111111111
 40
0.4111111111111111
 40
0.4111111111111111
 40
0.4111111111111111
 40
0.4222222222222222
 40
0.4222222222222222
 40
0.4222222222222222
 40
0.4222222222222222
 40
0.4333333333333333
 40
0.4333333333333333
 40
0.4333333333333333
 40
0.4333333333333333
 40
0.4444444444444444
 40
0.4444444444444444
 40
0.4444444444444444
 40
0.4444444444444444
 40
0.4555555555555555
 40
0.4555555555555555
 40
0.4555555555555555
 40
0.4555555555555555
 40
0.4666666666666667
 40
0.4666666666666667
 40
0.4666666666666667
 40
0.4666666666666667
 40
0.4777777777777778
 40
0.4777777777777778
 40
0.4777777777777778
 40
0.4777777777777778
 40
0.4888888888888889
 40
0.4888888888888889
 40
0.4888888888888889
 40
0.4888888888888889
 40
0.5
 40
0.5
 40
0.5
 40
0.5
 40
0.5111111111111111
 40
0.5111111111111111
 40
0.5111111111111111
 40
0.5111111111111111
 40
0.5222222222222223
 40
0.5222222222222223
 40
0.5222222222222223
 40
0.5222222222222223
 40
0.5333333333333333
 40
0.5333333333333333
 40
0.5333333333333333
 40
0.5333333333333333
 40
0.5444444444444444
 40
0.5444444444444444
 40
0.5444444444444444
 40
0.5444444444444444
 40
0.5555555555555556
 40
0.5555555555555556
 40
0.5555555555555556
 40
0.5555555555555556
 40
0.5666666666666667
 40
0.5666666666666667
 40
0.5666666666666667
 40
0.5666666666666667
 40
0.5777777777777777
 40
0.5777777777777777
 40
0.5777777777777777
 40
0.5777777777777777
 40
0.5888888888888889
 40
0.5888888888888889
 40
0.5888888888888889
 40
0.5888888888888889
 40
0.6
 40
0.6
 40
0.6
 40
0.6
 40
0.6111111111111112
 40
0.6111111111111112
 40
0.6111111111111112
 40
0.6111111111111112
 40
0.6222222222222222
 40
0.6222222222222222
 40
0.6222222222222222
 40
0.6222222222222222
 40
0.6333333333333333
 40
0.6333333333333333
 40
0.6333333333333333
 40
0.6333333333333333
 40
0.6444444444444445
 40
0.6444444444444445
 40
0.6444444444444445
 40
0.6444444444444445
 40
0.6555555555555556
 40
0.6555555555555556
 40
0.6555555555555556
 40
0.6555555555555556
 40
0.6666666666666666
 40
0.6666666666666666
 40
0.6666666666666666
 40
0.6666666666666666
 40
0.6777777777777778
 40
0.6777777777777778
 40
0.6777777777777778
 40
0.6777777777777778
 40
0.6888888888888889
 40
0.6888888888888889
 40
0.6888888888888889
 40
0.6888888888888889
 40
0.7
 40
0.7
 40
0.7
 40
0.7
 40
0.7111111111111111
 40
0.7111111111111111
 40
0.7111111111111111
 40
0.7111111111111111
 40
0.7222222222222222
 40
0.7222222222222222
 40
0.7222222222222222
 40
0.7222222222222222
 40
0.7333333333333333
 40
0.7333333333333333
 40
0.7333333333333333
 40
0.7333333333333333
 40
0.7444444444444445
 40
0.7444444444444445
 40
0.7444444444444445
 40
0.7444444444444445
 40
0.7555555555555555
 40
0.7555555555555555
 40
0.7555555555555555
 40
0.7555555555555555
 40
0.7666666666666667
 40
0.7666666666666667
 40
0.7666666666666667
 40
0.7666666666666667
 40
0.7777777777777778
 40
0.7777777777777778
 40
0.7777777777777778
 40
0.7777777777777778
 40
0.7888888888888889
 40
0.7888888888888889
 40
0.7888888888888889
 40
0.7888888888888889
 40
0.8
 40
0.8
 40
0.8
 40
0.8
 40
0.8111111111111111
 40
0.8111111111111111
 40
0.8111111111111111
 40
0.8111111111111111
 40
0.8222222222222222
 40
0.8222222222222222
 40
0.8222222222222222
 40
0.8222222222222222
 40
0.8333333333333334
 40
0.8333333333333334
 40
0.8333333333333334
 40
0.8333333333333334
 40
0.8444444444444444
 40
0.8444444444444444
 40
0.8444444444444444
 40
0.8444444444444444
 40
0.8555555555555555
 40
0.8555555555555555
 40
0.8555555555555555
 40
0.8555555555555555
 40
0.8666666666666667
 40
0.8666666666666667
 40
0.8666666666666667
 40
0.8666666666666667
 40
0.8777777777777778
 40
0.8777777777777778
 40
0.8777777777777778
 40
0.8777777777777778
 40
0.8888888888888888
 40
0.8888888888888888
 40
0.8888888888888888
 40
0.8888888888888888
 40
0.9
 40
0.9
 40
0.9
 40
0.9
 40
0.9111111111111111
 40
0.9111111111111111
 40
0.9111111111111111
 40
0.9111111111111111
 40
0.9222222222222223
 40
0.9222222222222223
 40
0.9222222222222223
 40
0.9222222222222223
 40
0.9333333333333333
 40
0.9333333333333333
 40
0.9333333333333333
 40
0.9333333333333333
 40
0.9444444444444444
 40
0.9444444444444444
 40
0.9444444444444444
 40
0.9444444444444444
 40
0.9555555555555556
 40
0.9555555555555556
 40
0.9555555555555556
 40
0.9555555555555556
 40
0.9666666666666667
 40
0.9666666666666667
 40
0.9666666666666667
 40
0.9666666666666667
 40
0.9777777777777777
 40
0.9777777777777777
 40
0.9777777777777777
 40
0.9777777777777777
 40
1.0
 40
1.0
 40
1.0
 40
1.0
 10
-1.800685039370079
 20
4.857448818897637
 30
0.0
 10
-1.800685039370079
 20
4.857448818897637
 30
0.0
 10
-1.603834645669291
 20
4.857448818897637
 30
0.0
 10
-1.603834645669291
 20
4.857448818897637
 30
0.0
 10
-1.603834645669291
 20
4.857448818897637
 30
0.0
 10
-1.603834645669291
 20
4.857448818897637
 30
0.0
 10
-1.603834645669291
 20
5.073984251968504
 30
0.0
 10
-1.603834645669291
 20
5.073984251968504
 30
0.0
 10
-1.603834645669291
 20
5.073984251968504
 30
0.0
 10
-1.603834645669291
 20
5.073984251968504
 30
0.0
 10
-1.288874015748031
 20
5.073984251968504
 30
0.0
 10
-1.288874015748031
 20
5.073984251968504
 30
0.0
 10
-1.288874015748031
 20
5.073984251968504
 30
0.0
 10
-1.288874015748031
 20
5.073984251968504
 30
0.0
 10
-1.288874015748031
 20
5.270834645669291
 30
0.0
 10
-1.288874015748031
 20
5.270834645669291
 30
0.0
 10
-1.288874015748031
 20
5.270834645669291
 30
0.0
 10
-1.288874015748031
 20
5.270834645669291
 30
0.0
 10
-0.7770629921259843
 20
5.270834645669291
 30
0.0
 10
-0.7770629921259843
 20
5.270834645669291
 30
0.0
 10
-0.7770629921259843
 20
5.270834645669291
 30
0.0
 10
-0.7770629921259843
 20
5.270834645669291
 30
0.0
 10
-0.7770629921259843
 20
5.073984251968504
 30
0.0
 10
-0.7770629921259843
 20
5.073984251968504
 30
0.0
 10
-0.7770629921259843
 20
5.073984251968504
 30
0.0
 10
-0.7770629921259843
 20
5.073984251968504
 30
0.0
 10
-0.4621023622047244
 20
5.073984251968504
 30
0.0
 10
-0.4621023622047244
 20
5.073984251968504
 30
0.0
 10
-0.4621023622047244
 20
5.073984251968504
 30
0.0
 10
-0.4621023622047244
 20
5.073984251968504
 30
0.0
 10
-0.4621023622047244
 20
5.270834645669291
 30
0.0
 10
-0.4621023622047244
 20
5.270834645669291
 30
0.0
 10
-0.4621023622047244
 20
5.270834645669291
 30
0.0
 10
-0.4621023622047244
 20
5.270834645669291
 30
0.0
 10
-0.1471417322834646
 20
5.270834645669291
 30
0.0
 10
-0.1471417322834646
 20
5.270834645669291
 30
0.0
 10
-0.1471417322834646
 20
5.270834645669291
 30
0.0
 10
-0.1471417322834646
 20
5.270834645669291
 30
0.0
 10
-0.1471417322834646
 20
5.073984251968504
 30
0.0
 10
-0.1471417322834646
 20
5.073984251968504
 30
0.0
 10
-0.1471417322834646
 20
5.073984251968504
 30
0.0
 10
-0.1471417322834646
 20
5.073984251968504
 30
0.0
 10
0.1678188976377953
 20
5.073984251968504
 30
0.0
 10
0.1678188976377953
 20
5.073984251968504
 30
0.0
 10
0.1678188976377953
 20
5.073984251968504
 30
0.0
 10
0.1678188976377953
 20
5.073984251968504
 30
0.0
 10
0.1678188976377953
 20
5.270834645669291
 30
0.0
 10
0.1678188976377953
 20
5.270834645669291
 30
0.0
 10
0.1678188976377953
 20
5.270834645669291
 30
0.0
 10
0.1678188976377953
 20
5.270834645669291
 30
0.0
 10
0.4827795275590551
 20
5.270834645669291
 30
0.0
 10
0.4827795275590551
 20
5.270834645669291
 30
0.0
 10
0.4827795275590551
 20
5.270834645669291
 30
0.0
 10
0.4827795275590551
 20
5.270834645669291
 30
0.0
 10
0.4827795275590551
 20
5.073984251968504
 30
0.0
 10
0.4827795275590551
 20
5.073984251968504
 30
0.0
 10
0.4827795275590551
 20
5.073984251968504
 30
0.0
 10
0.4827795275590551
 20
5.073984251968504
 30
0.0
 10
0.797740157480315
 20
5.073984251968504
 30
0.0
 10
0.797740157480315
 20
5.073984251968504
 30
0.0
 10
0.797740157480315
 20
5.073984251968504
 30
0.0
 10
0.797740157480315
 20
5.073984251968504
 30
0.0
 10
0.797740157480315
 20
5.270834645669291
 30
0.0
 10
0.797740157480315
 20
5.270834645669291
 30
0.0
 10
0.797740157480315
 20
5.270834645669291
 30
0.0
 10
0.797740157480315
 20
5.270834645669291
 30
0.0
 10
1.112700787401575
 20
5.270834645669291
 30
0.0
 10
1.112700787401575
 20
5.270834645669291
 30
0.0
 10
1.112700787401575
 20
5.270834645669291
 30
0.0
 10
1.112700787401575
 20
5.270834645669291
 30
0.0
 10
1.112700787401575
 20
5.073984251968504
 30
0.0
 10
1.112700787401575
 20
5.073984251968504
 30
0.0
 10
1.112700787401575
 20
5.073984251968504
 30
0.0
 10
1.112700787401575
 20
5.073984251968504
 30
0.0
 10
1.427661417322835
 20
5.073984251968504
 30
0.0
 10
1.427661417322835
 20
5.073984251968504
 30
0.0
 10
1.427661417322835
 20
5.073984251968504
 30
0.0
 10
1.427661417322835
 20
5.073984251968504
 30
0.0
 10
1.427661417322835
 20
5.270834645669291
 30
0.0
 10
1.427661417322835
 20
5.270834645669291
 30
0.0
 10
1.427661417322835
 20
5.270834645669291
 30
0.0
 10
1.427661417322835
 20
5.270834645669291
 30
0.0
 10
1.742622047244095
 20
5.270834645669291
 30
0.0
 10
1.742622047244095
 20
5.270834645669291
 30
0.0
 10
1.742622047244095
 20
5.270834645669291
 30
0.0
 10
1.742622047244095
 20
5.270834645669291
 30
0.0
 10
1.742622047244095
 20
5.073984251968504
 30
0.0
 10
1.742622047244095
 20
5.073984251968504
 30
0.0
 10
1.742622047244095
 20
5.073984251968504
 30
0.0
 10
1.742622047244095
 20
5.073984251968504
 30
0.0
 10
2.057582677165354
 20
5.073984251968504
 30
0.0
 10
2.057582677165354
 20
5.073984251968504
 30
0.0
 10
2.057582677165354
 20
5.073984251968504
 30
0.0
 10
2.057582677165354
 20
5.073984251968504
 30
0.0
 10
2.057582677165354
 20
5.270834645669291
 30
0.0
 10
2.057582677165354
 20
5.270834645669291
 30
0.0
 10
2.057582677165354
 20
5.270834645669291
 30
0.0
 10
2.057582677165354
 20
5.270834645669291
 30
0.0
 10
2.372543307086614
 20
5.270834645669291
 30
0.0
 10
2.372543307086614
 20
5.270834645669291
 30
0.0
 10
2.372543307086614
 20
5.270834645669291
 30
0.0
 10
2.372543307086614
 20
5.270834645669291
 30
0.0
 10
2.372543307086614
 20
5.073984251968504
 30
0.0
 10
2.372543307086614
 20
5.073984251968504
 30
0.0
 10
2.372543307086614
 20
5.073984251968504
 30
0.0
 10
2.372543307086614
 20
5.073984251968504
 30
0.0
 10
2.687503937007874
 20
5.073984251968504
 30
0.0
 10
2.687503937007874
 20
5.073984251968504
 30
0.0
 10
2.687503937007874
 20
5.073984251968504
 30
0.0
 10
2.687503937007874
 20
5.073984251968504
 30
0.0
 10
2.687503937007874
 20
5.270834645669291
 30
0.0
 10
2.687503937007874
 20
5.270834645669291
 30
0.0
 10
2.687503937007874
 20
5.270834645669291
 30
0.0
 10
2.687503937007874
 20
5.270834645669291
 30
0.0
 10
3.199314960629921
 20
5.270834645669291
 30
0.0
 10
3.199314960629921
 20
5.270834645669291
 30
0.0
 10
3.199314960629921
 20
5.270834645669291
 30
0.0
 10
3.199314960629921
 20
5.270834645669291
 30
0.0
 10
3.199314960629921
 20
5.073984251968504
 30
0.0
 10
3.199314960629921
 20
5.073984251968504
 30
0.0
 10
3.199314960629921
 20
5.073984251968504
 30
0.0
 10
3.199314960629921
 20
5.073984251968504
 30
0.0
 10
3.514275590551181
 20
5.073984251968504
 30
0.0
 10
3.514275590551181
 20
5.073984251968504
 30
0.0
 10
3.514275590551181
 20
5.073984251968504
 30
0.0
 10
3.514275590551181
 20
5.073984251968504
 30
0.0
 10
3.514275590551181
 20
4.857448818897637
 30
0.0
 10
3.514275590551181
 20
4.857448818897637
 30
0.0
 10
3.514275590551181
 20
4.857448818897637
 30
0.0
 10
3.514275590551181
 20
4.857448818897637
 30
0.0
 10
3.711125984251968
 20
4.857448818897637
 30
0.0
 10
3.711125984251968
 20
4.857448818897637
 30
0.0
 10
3.711125984251968
 20
4.857448818897637
 30
0.0
 10
3.711125984251968
 20
4.857448818897637
 30
0.0
 10
3.711125984251968
 20
4.444062992125985
 30
0.0
 10
3.711125984251968
 20
4.444062992125985
 30
0.0
 10
3.711125984251968
 20
4.444062992125985
 30
0.0
 10
3.711125984251968
 20
4.444062992125985
 30
0.0
 10
3.514275590551181
 20
4.444062992125985
 30
0.0
 10
3.514275590551181
 20
4.444062992125985
 30
0.0
 10
3.514275590551181
 20
4.444062992125985
 30
0.0
 10
3.514275590551181
 20
4.444062992125985
 30
0.0
 10
3.514275590551181
 20
4.129102362204724
 30
0.0
 10
3.514275590551181
 20
4.129102362204724
 30
0.0
 10
3.514275590551181
 20
4.129102362204724
 30
0.0
 10
3.514275590551181
 20
4.129102362204724
 30
0.0
 10
3.711125984251968
 20
4.129102362204724
 30
0.0
 10
3.711125984251968
 20
4.129102362204724
 30
0.0
 10
3.711125984251968
 20
4.129102362204724
 30
0.0
 10
3.711125984251968
 20
4.129102362204724
 30
0.0
 10
3.711125984251968
 20
3.814141732283465
 30
0.0
 10
3.711125984251968
 20
3.814141732283465
 30
0.0
 10
3.711125984251968
 20
3.814141732283465
 30
0.0
 10
3.711125984251968
 20
3.814141732283465
 30
0.0
 10
3.514275590551181
 20
3.814141732283465
 30
0.0
 10
3.514275590551181
 20
3.814141732283465
 30
0.0
 10
3.514275590551181
 20
3.814141732283465
 30
0.0
 10
3.514275590551181
 20
3.814141732283465
 30
0.0
 10
3.514275590551181
 20
3.499181102362205
 30
0.0
 10
3.514275590551181
 20
3.499181102362205
 30
0.0
 10
3.514275590551181
 20
3.499181102362205
 30
0.0
 10
3.514275590551181
 20
3.499181102362205
 30
0.0
 10
3.711125984251968
 20
3.499181102362205
 30
0.0
 10
3.711125984251968
 20
3.499181102362205
 30
0.0
 10
3.711125984251968
 20
3.499181102362205
 30
0.0
 10
3.711125984251968
 20
3.499181102362205
 30
0.0
 10
3.711125984251968
 20
3.184220472440945
 30
0.0
 10
3.711125984251968
 20
3.184220472440945
 30
0.0
 10
3.711125984251968
 20
3.184220472440945
 30
0.0
 10
3.711125984251968
 20
3.184220472440945
 30
0.0
 10
3.514275590551181
 20
3.184220472440945
 30
0.0
 10
3.514275590551181
 20
3.184220472440945
 30
0.0
 10
3.514275590551181
 20
3.184220472440945
 30
0.0
 10
3.514275590551181
 20
3.184220472440945
 30
0.0
 10
3.514275590551181
 20
2.869259842519685
 30
0.0
 10
3.514275590551181
 20
2.869259842519685
 30
0.0
 10
3.514275590551181
 20
2.869259842519685
 30
0.0
 10
3.514275590551181
 20
2.869259842519685
 30
0.0
 10
3.711125984251968
 20
2.869259842519685
 30
0.0
 10
3.711125984251968
 20
2.869259842519685
 30
0.0
 10
3.711125984251968
 20
2.869259842519685
 30
0.0
 10
3.711125984251968
 20
2.869259842519685
 30
0.0
 10
3.711125984251968
 20
2.554299212598425
 30
0.0
 10
3.711125984251968
 20
2.554299212598425
 30
0.0
 10
3.711125984251968
 20
2.554299212598425
 30
0.0
 10
3.711125984251968
 20
2.554299212598425
 30
0.0
 10
3.514275590551181
 20
2.554299212598425
 30
0.0
 10
3.514275590551181
 20
2.554299212598425
 30
0.0
 10
3.514275590551181
 20
2.554299212598425
 30
0.0
 10
3.514275590551181
 20
2.554299212598425
 30
0.0
 10
3.514275590551181
 20
2.239338582677165
 30
0.0
 10
3.514275590551181
 20
2.239338582677165
 30
0.0
 10
3.514275590551181
 20
2.239338582677165
 30
0.0
 10
3.514275590551181
 20
2.239338582677165
 30
0.0
 10
3.711125984251968
 20
2.239338582677165
 30
0.0
 10
3.711125984251968
 20
2.239338582677165
 30
0.0
 10
3.711125984251968
 20
2.239338582677165
 30
0.0
 10
3.711125984251968
 20
2.239338582677165
 30
0.0
 10
3.711125984251968
 20
1.924377952755906
 30
0.0
 10
3.711125984251968
 20
1.924377952755906
 30
0.0
 10
3.711125984251968
 20
1.924377952755906
 30
0.0
 10
3.711125984251968
 20
1.924377952755906
 30
0.0
 10
3.514275590551181
 20
1.924377952755906
 30
0.0
 10
3.514275590551181
 20
1.924377952755906
 30
0.0
 10
3.514275590551181
 20
1.924377952755906
 30
0.0
 10
3.514275590551181
 20
1.924377952755906
 30
0.0
 10
3.514275590551181
 20
1.609417322834646
 30
0.0
 10
3.514275590551181
 20
1.609417322834646
 30
0.0
 10
3.514275590551181
 20
1.609417322834646
 30
0.0
 10
3.514275590551181
 20
1.609417322834646
 30
0.0
 10
3.711125984251968
 20
1.609417322834646
 30
0.0
 10
3.711125984251968
 20
1.609417322834646
 30
0.0
 10
3.711125984251968
 20
1.609417322834646
 30
0.0
 10
3.711125984251968
 20
1.609417322834646
 30
0.0
 10
3.711125984251968
 20
1.294456692913386
 30
0.0
 10
3.711125984251968
 20
1.294456692913386
 30
0.0
 10
3.711125984251968
 20
1.294456692913386
 30
0.0
 10
3.711125984251968
 20
1.294456692913386
 30
0.0
 10
3.514275590551181
 20
1.294456692913386
 30
0.0
 10
3.514275590551181
 20
1.294456692913386
 30
0.0
 10
3.514275590551181
 20
1.294456692913386
 30
0.0
 10
3.514275590551181
 20
1.294456692913386
 30
0.0
 10
3.514275590551181
 20
0.979496062992126
 30
0.0
 10
3.514275590551181
 20
0.979496062992126
 30
0.0
 10
3.514275590551181
 20
0.979496062992126
 30
0.0
 10
3.514275590551181
 20
0.979496062992126
 30
0.0
 10
3.711125984251968
 20
0.979496062992126
 30
0.0
 10
3.711125984251968
 20
0.979496062992126
 30
0.0
 10
3.711125984251968
 20
0.979496062992126
 30
0.0
 10
3.711125984251968
 20
0.979496062992126
 30
0.0
 10
3.711125984251968
 20
0.5661102362204724
 30
0.0
 10
3.711125984251968
 20
0.5661102362204724
 30
0.0
 10
3.711125984251968
 20
0.5661102362204724
 30
0.0
 10
3.711125984251968
 20
0.5661102362204724
 30
0.0
 10
3.514275590551181
 20
0.5661102362204724
 30
0.0
 10
3.514275590551181
 20
0.5661102362204724
 30
0.0
 10
3.514275590551181
 20
0.5661102362204724
 30
0.0
 10
3.514275590551181
 20
0.5661102362204724
 30
0.0
 10
3.514275590551181
 20
0.3495748031496063
 30
0.0
 10
3.514275590551181
 20
0.3495748031496063
 30
0.0
 10
3.514275590551181
 20
0.3495748031496063
 30
0.0
 10
3.514275590551181
 20
0.3495748031496063
 30
0.0
 10
3.199314960629921
 20
0.3495748031496063
 30
0.0
 10
3.199314960629921
 20
0.3495748031496063
 30
0.0
 10
3.199314960629921
 20
0.3495748031496063
 30
0.0
 10
3.199314960629921
 20
0.3495748031496063
 30
0.0
 10
3.199314960629921
 20
0.1527244094488189
 30
0.0
 10
3.199314960629921
 20
0.1527244094488189
 30
0.0
 10
3.199314960629921
 20
0.1527244094488189
 30
0.0
 10
3.199314960629921
 20
0.1527244094488189
 30
0.0
 10
2.687503937007874
 20
0.1527244094488189
 30
0.0
 10
2.687503937007874
 20
0.1527244094488189
 30
0.0
 10
2.687503937007874
 20
0.1527244094488189
 30
0.0
 10
2.687503937007874
 20
0.1527244094488189
 30
0.0
 10
2.687503937007874
 20
0.3495748031496063
 30
0.0
 10
2.687503937007874
 20
0.3495748031496063
 30
0.0
 10
2.687503937007874
 20
0.3495748031496063
 30
0.0
 10
2.687503937007874
 20
0.3495748031496063
 30
0.0
 10
2.372543307086614
 20
0.3495748031496063
 30
0.0
 10
2.372543307086614
 20
0.3495748031496063
 30
0.0
 10
2.372543307086614
 20
0.3495748031496063
 30
0.0
 10
2.372543307086614
 20
0.3495748031496063
 30
0.0
 10
2.372543307086614
 20
0.1527244094488189
 30
0.0
 10
2.372543307086614
 20
0.1527244094488189
 30
0.0
 10
2.372543307086614
 20
0.1527244094488189
 30
0.0
 10
2.372543307086614
 20
0.1527244094488189
 30
0.0
 10
2.057582677165354
 20
0.1527244094488189
 30
0.0
 10
2.057582677165354
 20
0.1527244094488189
 30
0.0
 10
2.057582677165354
 20
0.1527244094488189
 30
0.0
 10
2.057582677165354
 20
0.1527244094488189
 30
0.0
 10
2.057582677165354
 20
0.3495748031496063
 30
0.0
 10
2.057582677165354
 20
0.3495748031496063
 30
0.0
 10
2.057582677165354
 20
0.3495748031496063
 30
0.0
 10
2.057582677165354
 20
0.3495748031496063
 30
0.0
 10
1.742622047244095
 20
0.3495748031496063
 30
0.0
 10
1.742622047244095
 20
0.3495748031496063
 30
0.0
 10
1.742622047244095
 20
0.3495748031496063
 30
0.0
 10
1.742622047244095
 20
0.3495748031496063
 30
0.0
 10
1.742622047244095
 20
0.1527244094488189
 30
0.0
 10
1.742622047244095
 20
0.1527244094488189
 30
0.0
 10
1.742622047244095
 20
0.1527244094488189
 30
0.0
 10
1.742622047244095
 20
0.1527244094488189
 30
0.0
 10
1.427661417322835
 20
0.1527244094488189
 30
0.0
 10
1.427661417322835
 20
0.1527244094488189
 30
0.0
 10
1.427661417322835
 20
0.1527244094488189
 30
0.0
 10
1.427661417322835
 20
0.1527244094488189
 30
0.0
 10
1.427661417322835
 20
0.3495748031496063
 30
0.0
 10
1.427661417322835
 20
0.3495748031496063
 30
0.0
 10
1.427661417322835
 20
0.3495748031496063
 30
0.0
 10
1.427661417322835
 20
0.3495748031496063
 30
0.0
 10
1.112700787401575
 20
0.3495748031496063
 30
0.0
 10
1.112700787401575
 20
0.3495748031496063
 30
0.0
 10
1.112700787401575
 20
0.3495748031496063
 30
0.0
 10
1.112700787401575
 20
0.3495748031496063
 30
0.0
 10
1.112700787401575
 20
0.1527244094488189
 30
0.0
 10
1.112700787401575
 20
0.1527244094488189
 30
0.0
 10
1.112700787401575
 20
0.1527244094488189
 30
0.0
 10
1.112700787401575
 20
0.1527244094488189
 30
0.0
 10
0.797740157480315
 20
0.1527244094488189
 30
0.0
 10
0.797740157480315
 20
0.1527244094488189
 30
0.0
 10
0.797740157480315
 20
0.1527244094488189
 30
0.0
 10
0.797740157480315
 20
0.1527244094488189
 30
0.0
 10
0.797740157480315
 20
0.3495748031496063
 30
0.0
 10
0.797740157480315
 20
0.3495748031496063
 30
0.0
 10
0.797740157480315
 20
0.3495748031496063
 30
0.0
 10
0.797740157480315
 20
0.3495748031496063
 30
0.0
 10
0.4827795275590551
 20
0.3495748031496063
 30
0.0
 10
0.4827795275590551
 20
0.3495748031496063
 30
0.0
 10
0.4827795275590551
 20
0.3495748031496063
 30
0.0
 10
0.4827795275590551
 20
0.3495748031496063
 30
0.0
 10
0.4827795275590551
 20
0.1527244094488189
 30
0.0
 10
0.4827795275590551
 20
0.1527244094488189
 30
0.0
 10
0.4827795275590551
 20
0.1527244094488189
 30
0.0
 10
0.4827795275590551
 20
0.1527244094488189
 30
0.0
 10
0.1678188976377953
 20
0.1527244094488189
 30
0.0
 10
0.1678188976377953
 20
0.1527244094488189
 30
0.0
 10
0.1678188976377953
 20
0.1527244094488189
 30
0.0
 10
0.1678188976377953
 20
0.1527244094488189
 30
0.0
 10
0.1678188976377953
 20
0.3495748031496063
 30
0.0
 10
0.1678188976377953
 20
0.3495748031496063
 30
0.0
 10
0.1678188976377953
 20
0.3495748031496063
 30
0.0
 10
0.1678188976377953
 20
0.3495748031496063
 30
0.0
 10
-0.1471417322834646
 20
0.3495748031496063
 30
0.0
 10
-0.1471417322834646
 20
0.3495748031496063
 30
0.0
 10
-0.1471417322834646
 20
0.3495748031496063
 30
0.0
 10
-0.1471417322834646
 20
0.3495748031496063
 30
0.0
 10
-0.1471417322834646
 20
0.1527244094488189
 30
0.0
 10
-0.1471417322834646
 20
0.1527244094488189
 30
0.0
 10
-0.1471417322834646
 20
0.1527244094488189
 30
0.0
 10
-0.1471417322834646
 20
0.1527244094488189
 30
0.0
 10
-0.4621023622047244
 20
0.1527244094488189
 30
0.0
 10
-0.4621023622047244
 20
0.1527244094488189
 30
0.0
 10
-0.4621023622047244
 20
0.1527244094488189
 30
0.0
 10
-0.4621023622047244
 20
0.1527244094488189
 30
0.0
 10
-0.4621023622047244
 20
0.3495748031496063
 30
0.0
 10
-0.4621023622047244
 20
0.3495748031496063
 30
0.0
 10
-0.4621023622047244
 20
0.3495748031496063
 30
0.0
 10
-0.4621023622047244
 20
0.3495748031496063
 30
0.0
 10
-0.7770629921259843
 20
0.3495748031496063
 30
0.0
 10
-0.7770629921259843
 20
0.3495748031496063
 30
0.0
 10
-0.7770629921259843
 20
0.3495748031496063
 30
0.0
 10
-0.7770629921259843
 20
0.3495748031496063
 30
0.0
 10
-0.7770629921259843
 20
0.1527244094488189
 30
0.0
 10
-0.7770629921259843
 20
0.1527244094488189
 30
0.0
 10
-0.7770629921259843
 20
0.1527244094488189
 30
0.0
 10
-0.7770629921259843
 20
0.1527244094488189
 30
0.0
 10
-1.288874015748031
 20
0.1527244094488189
 30
0.0
 10
-1.288874015748031
 20
0.1527244094488189
 30
0.0
 10
-1.288874015748031
 20
0.1527244094488189
 30
0.0
 10
-1.288874015748031
 20
0.1527244094488189
 30
0.0
 10
-1.288874015748031
 20
0.3495748031496063
 30
0.0
 10
-1.288874015748031
 20
0.3495748031496063
 30
0.0
 10
-1.288874015748031
 20
0.3495748031496063
 30
0.0
 10
-1.288874015748031
 20
0.3495748031496063
 30
0.0
 10
-1.603834645669291
 20
0.3495748031496063
 30
0.0
 10
-1.603834645669291
 20
0.3495748031496063
 30
0.0
  0
ENDSEC
  0
SECTION
  2
OBJECTS
  0
DICTIONARY
  5
C
330
0
100
AcDbDictionary
281
     1
  3
ACAD_GROUP
350
D
  3
ACAD_LAYOUT
350
1A
  3
ACAD_MATERIAL
350
3B
  3
ACAD_MLEADERSTYLE
350
6C
  3
ACAD_MLINESTYLE
350
17
  3
ACAD_PLOTSETTINGS
350
19
  3
ACAD_PLOTSTYLENAME
350
E
  3
ACAD_TABLESTYLE
350
6B
  3
ACAD_VISUALSTYLE
350
2A
  0
DICTIONARY
  5
D
102
{ACAD_REACTORS
330
C
102
}
330
C
100
AcDbDictionary
281
     1
  0
DICTIONARY
  5
1A
102
{ACAD_REACTORS
330
C
102
}
330
C
100
AcDbDictionary
281
     1
  3
Layout1
350
1E
  3
Layout2
350
26
  3
Model
350
22
  0
DICTIONARY
  5
3B
102
{ACAD_REACTORS
330
C
102
}
330
C
100
AcDbDictionary
281
     1
  3
ByBlock
350
3D
  3
ByLayer
350
3C
  3
Global
350
3E
  0
DICTIONARY
  5
6C
102
{ACAD_REACTORS
330
C
102
}
330
C
100
AcDbDictionary
281
     1
  0
DICTIONARY
  5
17
102
{ACAD_REACTORS
330
C
102
}
330
C
100
AcDbDictionary
281
     1
  3
Standard
350
18
  0
DICTIONARY
  5
19
102
{ACAD_REACTORS
330
C
102
}
330
C
100
AcDbDictionary
281
     1
  0
ACDBDICTIONARYWDFLT
  5
E
102
{ACAD_REACTORS
330
C
102
}
330
C
100
AcDbDictionary
281
     1
  3
Normal
350
F
100
AcDbDictionaryWithDefault
340
F
  0
DICTIONARY
  5
6B
102
{ACAD_REACTORS
330
C
102
}
330
C
100
AcDbDictionary
281
     1
  0
DICTIONARY
  5
2A
102
{ACAD_REACTORS
330
C
102
}
330
C
100
AcDbDictionary
281
     1
  3
2dWireframe
350
2F
  3
3D Hidden
350
31
  3
3dWireframe
350
30
  3
Basic
350
32
  3
Brighten
350
36
  3
ColorChange
350
3A
  3
Conceptual
350
34
  3
Dim
350
35
  3
Facepattern
350
39
  3
Flat
350
2B
  3
FlatWithEdges
350
2C
  3
Gouraud
350
2D
  3
GouraudWithEdges
350
2E
  3
Linepattern
350
38
  3
Realistic
350
33
  3
Thicken
350
37
  0
LAYOUT
  5
1E
102
{ACAD_REACTORS
330
1A
102
}
330
1A
100
AcDbPlotSettings
  1

  2
none_device
  4

  6

 40
0.0
 41
0.0
 42
0.0
 43
0.0
 44
0.0
 45
0.0
 46
0.0
 47
0.0
 48
0.0
 49
0.0
140
0.0
141
0.0
142
1.0
143
1.0
 70
   688
 72
     0
 73
     0
 74
     5
  7

 75
    16
 76
     0
 77
     2
 78
   300
147
1.0
148
0.0
149
0.0
100
AcDbLayout
  1
Layout1
 70
     1
 71
     1
 10
0.0
 20
0.0
 11
12.0
 21
9.0
 12
0.0
 22
0.0
 32
0.0
 14
1.000000000000000E+20
 24
1.000000000000000E+20
 34
1.000000000000000E+20
 15
-1.000000000000000E+20
 25
-1.000000000000000E+20
 35
-1.000000000000000E+20
146
0.0
 13
0.0
 23
0.0
 33
0.0
 16
1.0
 26
0.0
 36
0.0
 17
0.0
 27
1.0
 37
0.0
 76
     0
330
1B
  0
LAYOUT
  5
26
102
{ACAD_REACTORS
330
1A
102
}
330
1A
100
AcDbPlotSettings
  1

  2
none_device
  4

  6

 40
0.0
 41
0.0
 42
0.0
 43
0.0
 44
0.0
 45
0.0
 46
0.0
 47
0.0
 48
0.0
 49
0.0
140
0.0
141
0.0
142
1.0
143
1.0
 70
   688
 72
     0
 73
     0
 74
     5
  7

 75
    16
 76
     0
 77
     2
 78
   300
147
1.0
148
0.0
149
0.0
100
AcDbLayout
  1
Layout2
 70
     1
 71
     2
 10
0.0
 20
0.0
 11
0.0
 21
0.0
 12
0.0
 22
0.0
 32
0.0
 14
0.0
 24
0.0
 34
0.0
 15
0.0
 25
0.0
 35
0.0
146
0.0
 13
0.0
 23
0.0
 33
0.0
 16
1.0
 26
0.0
 36
0.0
 17
0.0
 27
1.0
 37
0.0
 76
     0
330
23
  0
LAYOUT
  5
22
102
{ACAD_REACTORS
330
1A
102
}
330
1A
100
AcDbPlotSettings
  1

  2
none_device
  4

  6

 40
0.0
 41
0.0
 42
0.0
 43
0.0
 44
0.0
 45
0.0
 46
0.0
 47
0.0
 48
0.0
 49
0.0
140
0.0
141
0.0
142
1.0
143
1.0
 70
  1712
 72
     0
 73
     0
 74
     0
  7

 75
     0
 76
     0
 77
     2
 78
   300
147
1.0
148
0.0
149
0.0
100
AcDbLayout
  1
Model
 70
     1
 71
     0
 10
0.0
 20
0.0
 11
12.0
 21
9.0
 12
0.0
 22
0.0
 32
0.0
 14
-7.313996062992126
 24
-3.234602362204724
 34
0.0
 15
3.712625984251968
 25
5.272334645669291
 35
0.0
146
0.0
 13
0.0
 23
0.0
 33
0.0
 16
1.0
 26
0.0
 36
0.0
 17
0.0
 27
1.0
 37
0.0
 76
     0
330
1F
331
29
  0
MATERIAL
  5
3D
102
{ACAD_REACTORS
330
3B
102
}
330
3B
100
AcDbMaterial
  1
ByBlock
 72
     1
 94
      127
  0
MATERIAL
  5
3C
102
{ACAD_REACTORS
330
3B
102
}
330
3B
100
AcDbMaterial
  1
ByLayer
 72
     1
 94
      127
  0
MATERIAL
  5
3E
102
{ACAD_REACTORS
330
3B
102
}
330
3B
100
AcDbMaterial
  1
Global
 72
     1
 94
      127
  0
MLINESTYLE
  5
18
102
{ACAD_REACTORS
330
17
102
}
330
17
100
AcDbMlineStyle
  2
Standard
 70
     0
  3

 62
   256
 51
90.0
 52
90.0
 71
     2
 49
0.5
 62
   256
  6
BYLAYER
 49
-0.5
 62
   256
  6
BYLAYER
  0
ACDBPLACEHOLDER
  5
F
102
{ACAD_REACTORS
330
E
102
}
330
E
  0
VISUALSTYLE
  5
2F
102
{ACAD_REACTORS
330
2A
102
}
102
{ACAD_XDICTIONARY
360
53
102
}
330
2A
100
AcDbVisualStyle
  2
2dWireframe
 70
     4
 71
     0
 72
     2
 73
     0
 90
        0
 40
-0.6
 41
-30.0
 62
     5
 63
     7
421
 16777215
 74
     1
 91
        4
 64
     7
 65
   257
 75
     1
175
     1
 42
1.0
 92
        0
 66
   257
 43
1.0
 76
     1
 77
     6
 78
     2
 67
     7
 79
     5
170
     0
171
     0
290
     0
174
     0
 93
        1
 44
0.0
173
     0
291
     0
 45
0.0
  0
VISUALSTYLE
  5
31
102
{ACAD_REACTORS
330
2A
102
}
102
{ACAD_XDICTIONARY
360
57
102
}
330
2A
100
AcDbVisualStyle
  2
3D Hidden
 70
     6
 71
     1
 72
     2
 73
     2
 90
        0
 40
-0.6
 41
-30.0
 62
     5
 63
     7
421
 16777215
 74
     2
 91
        2
 64
     7
 65
   257
 75
     2
175
     1
 42
40.0
 92
        0
 66
   257
 43
1.0
 76
     1
 77
     6
 78
     2
 67
     7
 79
     3
170
     0
171
     0
290
     0
174
     0
 93
        1
 44
0.0
173
     0
291
     0
 45
0.0
  0
VISUALSTYLE
  5
30
102
{ACAD_REACTORS
330
2A
102
}
102
{ACAD_XDICTIONARY
360
55
102
}
330
2A
100
AcDbVisualStyle
  2
3dWireframe
 70
     5
 71
     0
 72
     2
 73
     0
 90
        0
 40
-0.6
 41
-30.0
 62
     5
 63
     7
421
 16777215
 74
     1
 91
        4
 64
     7
 65
   257
 75
     1
175
     1
 42
1.0
 92
        0
 66
   257
 43
1.0
 76
     1
 77
     6
 78
     2
 67
     7
 79
     5
170
     0
171
     0
290
     0
174
     0
 93
        1
 44
0.0
173
     0
291
     0
 45
0.0
  0
VISUALSTYLE
  5
32
102
{ACAD_REACTORS
330
2A
102
}
102
{ACAD_XDICTIONARY
360
59
102
}
330
2A
100
AcDbVisualStyle
  2
Basic
 70
     7
 71
     1
 72
     0
 73
     1
 90
        0
 40
-0.6
 41
-30.0
 62
     5
 63
     7
421
 16777215
 74
     0
 91
        4
 64
     7
 65
   257
 75
     1
175
     1
 42
1.0
 92
        8
 66
     7
 43
1.0
 76
     1
 77
     6
 78
     2
 67
     7
 79
     5
170
     0
171
     0
290
     0
174
     0
 93
        1
 44
0.0
173
     0
291
     1
 45
0.0
  0
VISUALSTYLE
  5
36
102
{ACAD_REACTORS
330
2A
102
}
102
{ACAD_XDICTIONARY
360
61
102
}
330
2A
100
AcDbVisualStyle
  2
Brighten
 70
    12
 71
     2
 72
     2
 73
     0
 90
        0
 40
-0.6
 41
-30.0
 62
     5
 63
     7
421
 16777215
 74
     1
 91
        4
 64
     7
 65
   257
 75
     1
175
     1
 42
1.0
 92
        8
 66
     7
 43
1.0
 76
     1
 77
     6
 78
     2
 67
     7
 79
     5
170
     0
171
     0
290
     0
174
     0
 93
        1
 44
50.0
173
     0
291
     1
 45
0.0
  0
VISUALSTYLE
  5
3A
102
{ACAD_REACTORS
330
2A
102
}
102
{ACAD_XDICTIONARY
360
69
102
}
330
2A
100
AcDbVisualStyle
  2
ColorChange
 70
    16
 71
     2
 72
     2
 73
     3
 90
        0
 40
-0.6
 41
-30.0
 62
     5
 63
     8
421
  8421504
 74
     1
 91
        4
 64
     7
 65
   257
 75
     1
175
     1
 42
1.0
 92
        8
 66
     8
424
  8421504
 43
1.0
 76
     1
 77
     6
 78
     2
 67
     7
 79
     5
170
     0
171
     0
290
     0
174
     0
 93
        1
 44
0.0
173
     0
291
     1
 45
0.0
  0
VISUALSTYLE
  5
34
102
{ACAD_REACTORS
330
2A
102
}
102
{ACAD_XDICTIONARY
360
5D
102
}
330
2A
100
AcDbVisualStyle
  2
Conceptual
 70
     9
 71
     3
 72
     2
 73
     0
 90
        0
 40
-0.6
 41
-30.0
 62
     5
 63
     7
421
 16777215
 74
     2
 91
        2
 64
     7
 65
   257
 75
     1
175
     1
 42
40.0
 92
        8
 66
     7
 43
1.0
 76
     1
 77
     6
 78
     2
 67
     7
 79
     3
170
     0
171
     0
290
     0
174
     0
 93
        1
 44
0.0
173
     0
291
     0
 45
0.0
  0
VISUALSTYLE
  5
35
102
{ACAD_REACTORS
330
2A
102
}
102
{ACAD_XDICTIONARY
360
5F
102
}
330
2A
100
AcDbVisualStyle
  2
Dim
 70
    11
 71
     2
 72
     2
 73
     0
 90
        0
 40
-0.6
 41
-30.0
 62
     5
 63
     7
421
 16777215
 74
     1
 91
        4
 64
     7
 65
   257
 75
     1
175
     1
 42
1.0
 92
        8
 66
     7
 43
1.0
 76
     1
 77
     6
 78
     2
 67
     7
 79
     5
170
     0
171
     0
290
     0
174
     0
 93
        1
 44
-50.0
173
     0
291
     1
 45
0.0
  0
VISUALSTYLE
  5
39
102
{ACAD_REACTORS
330
2A
102
}
102
{ACAD_XDICTIONARY
360
67
102
}
330
2A
100
AcDbVisualStyle
  2
Facepattern
 70
    15
 71
     2
 72
     2
 73
     0
 90
        0
 40
-0.6
 41
-30.0
 62
     5
 63
     7
421
 16777215
 74
     1
 91
        4
 64
     7
 65
   257
 75
     1
175
     1
 42
1.0
 92
        8
 66
     7
 43
1.0
 76
     1
 77
     6
 78
     2
 67
     7
 79
     5
170
     0
171
     0
290
     0
174
     0
 93
        1
 44
0.0
173
     0
291
     1
 45
0.0
  0
VISUALSTYLE
  5
2B
102
{ACAD_REACTORS
330
2A
102
}
102
{ACAD_XDICTIONARY
360
4B
102
}
330
2A
100
AcDbVisualStyle
  2
Flat
 70
     0
 71
     2
 72
     1
 73
     1
 90
        2
 40
-0.6
 41
30.0
 62
     5
 63
     7
421
 16777215
 74
     0
 91
        4
 64
     7
 65
   257
 75
     1
175
     1
 42
1.0
 92
        8
 66
     7
 43
1.0
 76
     1
 77
     6
 78
     2
 67
     7
 79
     5
170
     0
171
     0
290
     0
174
     0
 93
       13
 44
0.0
173
     0
291
     1
 45
0.0
  0
VISUALSTYLE
  5
2C
102
{ACAD_REACTORS
330
2A
102
}
102
{ACAD_XDICTIONARY
360
4D
102
}
330
2A
100
AcDbVisualStyle
  2
FlatWithEdges
 70
     1
 71
     2
 72
     1
 73
     1
 90
        2
 40
-0.6
 41
30.0
 62
     5
 63
     7
421
 16777215
 74
     1
 91
        4
 64
     7
 65
   257
 75
     1
175
     1
 42
1.0
 92
        0
 66
   257
 43
1.0
 76
     1
 77
     6
 78
     2
 67
     7
 79
     5
170
     0
171
     0
290
     0
174
     0
 93
       13
 44
0.0
173
     0
291
     1
 45
0.0
  0
VISUALSTYLE
  5
2D
102
{ACAD_REACTORS
330
2A
102
}
102
{ACAD_XDICTIONARY
360
4F
102
}
330
2A
100
AcDbVisualStyle
  2
Gouraud
 70
     2
 71
     2
 72
     2
 73
     1
 90
        2
 40
-0.6
 41
30.0
 62
     5
 63
     7
421
 16777215
 74
     0
 91
        4
 64
     7
 65
   257
 75
     1
175
     1
 42
1.0
 92
        0
 66
     7
 43
1.0
 76
     1
 77
     6
 78
     2
 67
     7
 79
     5
170
     0
171
     0
290
     0
174
     0
 93
       13
 44
0.0
173
     0
291
     1
 45
0.0
  0
VISUALSTYLE
  5
2E
102
{ACAD_REACTORS
330
2A
102
}
102
{ACAD_XDICTIONARY
360
51
102
}
330
2A
100
AcDbVisualStyle
  2
GouraudWithEdges
 70
     3
 71
     2
 72
     2
 73
     1
 90
        2
 40
-0.6
 41
30.0
 62
     5
 63
     7
421
 16777215
 74
     1
 91
        4
 64
     7
 65
   257
 75
     1
175
     1
 42
1.0
 92
        0
 66
   257
 43
1.0
 76
     1
 77
     6
 78
     2
 67
     7
 79
     5
170
     0
171
     0
290
     0
174
     0
 93
       13
 44
0.0
173
     0
291
     1
 45
0.0
  0
VISUALSTYLE
  5
38
102
{ACAD_REACTORS
330
2A
102
}
102
{ACAD_XDICTIONARY
360
65
102
}
330
2A
100
AcDbVisualStyle
  2
Linepattern
 70
    14
 71
     2
 72
     2
 73
     0
 90
        0
 40
-0.6
 41
-30.0
 62
     5
 63
     7
421
 16777215
 74
     1
 91
        4
 64
     7
 65
   257
 75
     7
175
     7
 42
1.0
 92
        8
 66
     7
 43
1.0
 76
     1
 77
     6
 78
     2
 67
     7
 79
     5
170
     0
171
     0
290
     0
174
     0
 93
        1
 44
0.0
173
     0
291
     1
 45
0.0
  0
VISUALSTYLE
  5
33
102
{ACAD_REACTORS
330
2A
102
}
102
{ACAD_XDICTIONARY
360
5B
102
}
330
2A
100
AcDbVisualStyle
  2
Realistic
 70
     8
 71
     2
 72
     2
 73
     0
 90
        0
 40
-0.6
 41
-30.0
 62
     5
 63
     7
421
 16777215
 74
     1
 91
        0
 64
     7
 65
   257
 75
     1
175
     1
 42
1.0
 92
        8
 66
     8
424
  7895160
 43
1.0
 76
     1
 77
     6
 78
     2
 67
     7
 79
     5
170
     0
171
     0
290
     0
174
     0
 93
       13
 44
0.0
173
     0
291
     0
 45
0.0
  0
VISUALSTYLE
  5
37
102
{ACAD_REACTORS
330
2A
102
}
102
{ACAD_XDICTIONARY
360
63
102
}
330
2A
100
AcDbVisualStyle
  2
Thicken
 70
    13
 71
     2
 72
     2
 73
     0
 90
        0
 40
-0.6
 41
-30.0
 62
     5
 63
     7
421
 16777215
 74
     1
 91
        4
 64
     7
 65
   257
 75
     1
175
     1
 42
1.0
 92
       12
 66
     7
 43
1.0
 76
     1
 77
     6
 78
     2
 67
     7
 79
     5
170
     0
171
     0
290
     0
174
     0
 93
        1
 44
0.0
173
     0
291
     1
 45
0.0
  0
DICTIONARY
  5
53
330
2F
100
AcDbDictionary
280
     1
281
     1
  3
ACAD_XREC_ROUNDTRIP
360
54
  0
DICTIONARY
  5
57
330
31
100
AcDbDictionary
280
     1
281
     1
  3
ACAD_XREC_ROUNDTRIP
360
58
  0
DICTIONARY
  5
55
330
30
100
AcDbDictionary
280
     1
281
     1
  3
ACAD_XREC_ROUNDTRIP
360
56
  0
DICTIONARY
  5
59
330
32
100
AcDbDictionary
280
     1
281
     1
  3
ACAD_XREC_ROUNDTRIP
360
5A
  0
DICTIONARY
  5
61
330
36
100
AcDbDictionary
280
     1
281
     1
  3
ACAD_XREC_ROUNDTRIP
360
62
  0
DICTIONARY
  5
69
330
3A
100
AcDbDictionary
280
     1
281
     1
  3
ACAD_XREC_ROUNDTRIP
360
6A
  0
DICTIONARY
  5
5D
330
34
100
AcDbDictionary
280
     1
281
     1
  3
ACAD_XREC_ROUNDTRIP
360
5E
  0
DICTIONARY
  5
5F
330
35
100
AcDbDictionary
280
     1
281
     1
  3
ACAD_XREC_ROUNDTRIP
360
60
  0
DICTIONARY
  5
67
330
39
100
AcDbDictionary
280
     1
281
     1
  3
ACAD_XREC_ROUNDTRIP
360
68
  0
DICTIONARY
  5
4B
330
2B
100
AcDbDictionary
280
     1
281
     1
  3
ACAD_XREC_ROUNDTRIP
360
4C
  0
DICTIONARY
  5
4D
330
2C
100
AcDbDictionary
280
     1
281
     1
  3
ACAD_XREC_ROUNDTRIP
360
4E
  0
DICTIONARY
  5
4F
330
2D
100
AcDbDictionary
280
     1
281
     1
  3
ACAD_XREC_ROUNDTRIP
360
50
  0
DICTIONARY
  5
51
330
2E
100
AcDbDictionary
280
     1
281
     1
  3
ACAD_XREC_ROUNDTRIP
360
52
  0
DICTIONARY
  5
65
330
38
100
AcDbDictionary
280
     1
281
     1
  3
ACAD_XREC_ROUNDTRIP
360
66
  0
DICTIONARY
  5
5B
330
33
100
AcDbDictionary
280
     1
281
     1
  3
ACAD_XREC_ROUNDTRIP
360
5C
  0
DICTIONARY
  5
63
330
37
100
AcDbDictionary
280
     1
281
     1
  3
ACAD_XREC_ROUNDTRIP
360
64
  0
XRECORD
  5
54
102
{ACAD_REACTORS
330
53
102
}
330
53
100
AcDbXrecord
280
     1
102
RTVSPropertyOp0
 70
     1
102
RTVSPropertyOp1
 70
     1
102
RTVSPropertyOp2
 70
     1
102
RTVSPropertyOp3
 70
     1
102
RTVSPropertyOp4
 70
     1
102
RTVSPropertyOp5
 70
     1
102
RTVSPropertyOp6
 70
     1
102
RTVSPropertyOp7
 70
     1
102
RTVSPropertyOp8
 70
     1
102
RTVSPropertyOp9
 70
     1
102
RTVSPropertyOp10
 70
     1
102
RTVSPropertyOp11
 70
     1
102
RTVSPropertyOp12
 70
     1
102
RTVSPropertyOp13
 70
     1
102
RTVSPropertyOp14
 70
     1
102
RTVSPropertyOp15
 70
     1
102
RTVSPropertyOp16
 70
     1
102
RTVSPropertyOp17
 70
     1
102
RTVSPropertyOp18
 70
     1
102
RTVSPropertyOp19
 70
     1
102
RTVSPropertyOp20
 70
     1
102
RTVSPropertyOp21
 70
     1
102
RTVSPropertyOp22
 70
     1
102
RTVSPropertyOp23
 70
     1
102
RTVSPropertyOp24
 70
     1
102
RTVSPropertyOp25
 70
     1
102
RTVSPropertyOp26
 70
     1
102
RTVSPropertyOp27
 70
     1
102
RTVSPropertyOp28
 70
     1
102
RTVSPropertyOp29
 70
     1
102
RTVSPropertyOp30
 70
     1
102
RTVSPropertyOp31
 70
     1
102
RTVSPropertyOp32
 70
     1
  0
XRECORD
  5
58
102
{ACAD_REACTORS
330
57
102
}
330
57
100
AcDbXrecord
280
     1
102
RTVSPropertyOp0
 70
     1
102
RTVSPropertyOp1
 70
     1
102
RTVSPropertyOp2
 70
     1
102
RTVSPropertyOp3
 70
     1
102
RTVSPropertyOp4
 70
     1
102
RTVSPropertyOp5
 70
     1
102
RTVSPropertyOp6
 70
     1
102
RTVSPropertyOp7
 70
     1
102
RTVSPropertyOp8
 70
     1
102
RTVSPropertyOp9
 70
     1
102
RTVSPropertyOp10
 70
     1
102
RTVSPropertyOp11
 70
     1
102
RTVSPropertyOp12
 70
     1
102
RTVSPropertyOp13
 70
     1
102
RTVSPropertyOp14
 70
     1
102
RTVSPropertyOp15
 70
     1
102
RTVSPropertyOp16
 70
     1
102
RTVSPropertyOp17
 70
     1
102
RTVSPropertyOp18
 70
     1
102
RTVSPropertyOp19
 70
     1
102
RTVSPropertyOp20
 70
     1
102
RTVSPropertyOp21
 70
     1
102
RTVSPropertyOp22
 70
     1
102
RTVSPropertyOp23
 70
     1
102
RTVSPropertyOp24
 70
     1
102
RTVSPropertyOp25
 70
     1
102
RTVSPropertyOp26
 70
     1
102
RTVSPropertyOp27
 70
     1
102
RTVSPropertyOp28
 70
     1
102
RTVSPropertyOp29
 70
     1
102
RTVSPropertyOp30
 70
     1
102
RTVSPropertyOp31
 70
     1
102
RTVSPropertyOp32
 70
     1
  0
XRECORD
  5
56
102
{ACAD_REACTORS
330
55
102
}
330
55
100
AcDbXrecord
280
     1
102
RTVSPropertyOp0
 70
     1
102
RTVSPropertyOp1
 70
     1
102
RTVSPropertyOp2
 70
     1
102
RTVSPropertyOp3
 70
     1
102
RTVSPropertyOp4
 70
     1
102
RTVSPropertyOp5
 70
     1
102
RTVSPropertyOp6
 70
     1
102
RTVSPropertyOp7
 70
     1
102
RTVSPropertyOp8
 70
     1
102
RTVSPropertyOp9
 70
     1
102
RTVSPropertyOp10
 70
     1
102
RTVSPropertyOp11
 70
     1
102
RTVSPropertyOp12
 70
     1
102
RTVSPropertyOp13
 70
     1
102
RTVSPropertyOp14
 70
     1
102
RTVSPropertyOp15
 70
     1
102
RTVSPropertyOp16
 70
     1
102
RTVSPropertyOp17
 70
     1
102
RTVSPropertyOp18
 70
     1
102
RTVSPropertyOp19
 70
     1
102
RTVSPropertyOp20
 70
     1
102
RTVSPropertyOp21
 70
     1
102
RTVSPropertyOp22
 70
     1
102
RTVSPropertyOp23
 70
     1
102
RTVSPropertyOp24
 70
     1
102
RTVSPropertyOp25
 70
     1
102
RTVSPropertyOp26
 70
     1
102
RTVSPropertyOp27
 70
     1
102
RTVSPropertyOp28
 70
     1
102
RTVSPropertyOp29
 70
     1
102
RTVSPropertyOp30
 70
     1
102
RTVSPropertyOp31
 70
     1
102
RTVSPropertyOp32
 70
     1
  0
XRECORD
  5
5A
102
{ACAD_REACTORS
330
59
102
}
330
59
100
AcDbXrecord
280
     1
102
RTVSPropertyOp0
 70
     1
102
RTVSPropertyOp1
 70
     1
102
RTVSPropertyOp2
 70
     1
102
RTVSPropertyOp3
 70
     1
102
RTVSPropertyOp4
 70
     1
102
RTVSPropertyOp5
 70
     1
102
RTVSPropertyOp6
 70
     1
102
RTVSPropertyOp7
 70
     1
102
RTVSPropertyOp8
 70
     1
102
RTVSPropertyOp9
 70
     1
102
RTVSPropertyOp10
 70
     1
102
RTVSPropertyOp11
 70
     1
102
RTVSPropertyOp12
 70
     1
102
RTVSPropertyOp13
 70
     1
102
RTVSPropertyOp14
 70
     1
102
RTVSPropertyOp15
 70
     1
102
RTVSPropertyOp16
 70
     1
102
RTVSPropertyOp17
 70
     1
102
RTVSPropertyOp18
 70
     1
102
RTVSPropertyOp19
 70
     1
102
RTVSPropertyOp20
 70
     1
102
RTVSPropertyOp21
 70
     1
102
RTVSPropertyOp22
 70
     1
102
RTVSPropertyOp23
 70
     1
102
RTVSPropertyOp24
 70
     1
102
RTVSPropertyOp25
 70
     1
102
RTVSPropertyOp26
 70
     1
102
RTVSPropertyOp27
 70
     1
102
RTVSPropertyOp28
 70
     1
102
RTVSPropertyOp29
 70
     1
102
RTVSPropertyOp30
 70
     1
102
RTVSPropertyOp31
 70
     1
102
RTVSPropertyOp32
 70
     1
  0
XRECORD
  5
62
102
{ACAD_REACTORS
330
61
102
}
330
61
100
AcDbXrecord
280
     1
102
RTVSPropertyOp0
 70
     1
102
RTVSPropertyOp1
 70
     1
102
RTVSPropertyOp2
 70
     1
102
RTVSPropertyOp3
 70
     1
102
RTVSPropertyOp4
 70
     1
102
RTVSPropertyOp5
 70
     1
102
RTVSPropertyOp6
 70
     1
102
RTVSPropertyOp7
 70
     1
102
RTVSPropertyOp8
 70
     1
102
RTVSPropertyOp9
 70
     1
102
RTVSPropertyOp10
 70
     1
102
RTVSPropertyOp11
 70
     1
102
RTVSPropertyOp12
 70
     1
102
RTVSPropertyOp13
 70
     1
102
RTVSPropertyOp14
 70
     1
102
RTVSPropertyOp15
 70
     1
102
RTVSPropertyOp16
 70
     1
102
RTVSPropertyOp17
 70
     1
102
RTVSPropertyOp18
 70
     1
102
RTVSPropertyOp19
 70
     1
102
RTVSPropertyOp20
 70
     1
102
RTVSPropertyOp21
 70
     1
102
RTVSPropertyOp22
 70
     1
102
RTVSPropertyOp23
 70
     1
102
RTVSPropertyOp24
 70
     1
102
RTVSPropertyOp25
 70
     1
102
RTVSPropertyOp26
 70
     1
102
RTVSPropertyOp27
 70
     1
102
RTVSPropertyOp28
 70
     1
102
RTVSPropertyOp29
 70
     1
102
RTVSPropertyOp30
 70
     1
102
RTVSPropertyOp31
 70
     1
102
RTVSPropertyOp32
 70
     1
  0
XRECORD
  5
6A
102
{ACAD_REACTORS
330
69
102
}
330
69
100
AcDbXrecord
280
     1
102
RTVSPropertyOp0
 70
     1
102
RTVSPropertyOp1
 70
     1
102
RTVSPropertyOp2
 70
     1
102
RTVSPropertyOp3
 70
     1
102
RTVSPropertyOp4
 70
     1
102
RTVSPropertyOp5
 70
     1
102
RTVSPropertyOp6
 70
     1
102
RTVSPropertyOp7
 70
     1
102
RTVSPropertyOp8
 70
     1
102
RTVSPropertyOp9
 70
     1
102
RTVSPropertyOp10
 70
     1
102
RTVSPropertyOp11
 70
     1
102
RTVSPropertyOp12
 70
     1
102
RTVSPropertyOp13
 70
     1
102
RTVSPropertyOp14
 70
     1
102
RTVSPropertyOp15
 70
     1
102
RTVSPropertyOp16
 70
     1
102
RTVSPropertyOp17
 70
     1
102
RTVSPropertyOp18
 70
     1
102
RTVSPropertyOp19
 70
     1
102
RTVSPropertyOp20
 70
     1
102
RTVSPropertyOp21
 70
     1
102
RTVSPropertyOp22
 70
     1
102
RTVSPropertyOp23
 70
     1
102
RTVSPropertyOp24
 70
     1
102
RTVSPropertyOp25
 70
     1
102
RTVSPropertyOp26
 70
     1
102
RTVSPropertyOp27
 70
     1
102
RTVSPropertyOp28
 70
     1
102
RTVSPropertyOp29
 70
     1
102
RTVSPropertyOp30
 70
     1
102
RTVSPropertyOp31
 70
     1
102
RTVSPropertyOp32
 70
     1
  0
XRECORD
  5
5E
102
{ACAD_REACTORS
330
5D
102
}
330
5D
100
AcDbXrecord
280
     1
102
RTVSPropertyOp0
 70
     1
102
RTVSPropertyOp1
 70
     1
102
RTVSPropertyOp2
 70
     1
102
RTVSPropertyOp3
 70
     1
102
RTVSPropertyOp4
 70
     1
102
RTVSPropertyOp5
 70
     1
102
RTVSPropertyOp6
 70
     1
102
RTVSPropertyOp7
 70
     1
102
RTVSPropertyOp8
 70
     1
102
RTVSPropertyOp9
 70
     1
102
RTVSPropertyOp10
 70
     1
102
RTVSPropertyOp11
 70
     1
102
RTVSPropertyOp12
 70
     1
102
RTVSPropertyOp13
 70
     1
102
RTVSPropertyOp14
 70
     1
102
RTVSPropertyOp15
 70
     1
102
RTVSPropertyOp16
 70
     1
102
RTVSPropertyOp17
 70
     1
102
RTVSPropertyOp18
 70
     1
102
RTVSPropertyOp19
 70
     1
102
RTVSPropertyOp20
 70
     1
102
RTVSPropertyOp21
 70
     1
102
RTVSPropertyOp22
 70
     1
102
RTVSPropertyOp23
 70
     1
102
RTVSPropertyOp24
 70
     1
102
RTVSPropertyOp25
 70
     1
102
RTVSPropertyOp26
 70
     1
102
RTVSPropertyOp27
 70
     1
102
RTVSPropertyOp28
 70
     1
102
RTVSPropertyOp29
 70
     1
102
RTVSPropertyOp30
 70
     1
102
RTVSPropertyOp31
 70
     1
102
RTVSPropertyOp32
 70
     1
  0
XRECORD
  5
60
102
{ACAD_REACTORS
330
5F
102
}
330
5F
100
AcDbXrecord
280
     1
102
RTVSPropertyOp0
 70
     1
102
RTVSPropertyOp1
 70
     1
102
RTVSPropertyOp2
 70
     1
102
RTVSPropertyOp3
 70
     1
102
RTVSPropertyOp4
 70
     1
102
RTVSPropertyOp5
 70
     1
102
RTVSPropertyOp6
 70
     1
102
RTVSPropertyOp7
 70
     1
102
RTVSPropertyOp8
 70
     1
102
RTVSPropertyOp9
 70
     1
102
RTVSPropertyOp10
 70
     1
102
RTVSPropertyOp11
 70
     1
102
RTVSPropertyOp12
 70
     1
102
RTVSPropertyOp13
 70
     1
102
RTVSPropertyOp14
 70
     1
102
RTVSPropertyOp15
 70
     1
102
RTVSPropertyOp16
 70
     1
102
RTVSPropertyOp17
 70
     1
102
RTVSPropertyOp18
 70
     1
102
RTVSPropertyOp19
 70
     1
102
RTVSPropertyOp20
 70
     1
102
RTVSPropertyOp21
 70
     1
102
RTVSPropertyOp22
 70
     1
102
RTVSPropertyOp23
 70
     1
102
RTVSPropertyOp24
 70
     1
102
RTVSPropertyOp25
 70
     1
102
RTVSPropertyOp26
 70
     1
102
RTVSPropertyOp27
 70
     1
102
RTVSPropertyOp28
 70
     1
102
RTVSPropertyOp29
 70
     1
102
RTVSPropertyOp30
 70
     1
102
RTVSPropertyOp31
 70
     1
102
RTVSPropertyOp32
 70
     1
  0
XRECORD
  5
68
102
{ACAD_REACTORS
330
67
102
}
330
67
100
AcDbXrecord
280
     1
102
RTVSPropertyOp0
 70
     1
102
RTVSPropertyOp1
 70
     1
102
RTVSPropertyOp2
 70
     1
102
RTVSPropertyOp3
 70
     1
102
RTVSPropertyOp4
 70
     1
102
RTVSPropertyOp5
 70
     1
102
RTVSPropertyOp6
 70
     1
102
RTVSPropertyOp7
 70
     1
102
RTVSPropertyOp8
 70
     1
102
RTVSPropertyOp9
 70
     1
102
RTVSPropertyOp10
 70
     1
102
RTVSPropertyOp11
 70
     1
102
RTVSPropertyOp12
 70
     1
102
RTVSPropertyOp13
 70
     1
102
RTVSPropertyOp14
 70
     1
102
RTVSPropertyOp15
 70
     1
102
RTVSPropertyOp16
 70
     1
102
RTVSPropertyOp17
 70
     1
102
RTVSPropertyOp18
 70
     1
102
RTVSPropertyOp19
 70
     1
102
RTVSPropertyOp20
 70
     1
102
RTVSPropertyOp21
 70
     1
102
RTVSPropertyOp22
 70
     1
102
RTVSPropertyOp23
 70
     1
102
RTVSPropertyOp24
 70
     1
102
RTVSPropertyOp25
 70
     1
102
RTVSPropertyOp26
 70
     1
102
RTVSPropertyOp27
 70
     1
102
RTVSPropertyOp28
 70
     1
102
RTVSPropertyOp29
 70
     1
102
RTVSPropertyOp30
 70
     1
102
RTVSPropertyOp31
 70
     1
102
RTVSPropertyOp32
 70
     1
  0
XRECORD
  5
4C
102
{ACAD_REACTORS
330
4B
102
}
330
4B
100
AcDbXrecord
280
     1
102
RTVSPropertyOp0
 70
     1
102
RTVSPropertyOp1
 70
     1
102
RTVSPropertyOp2
 70
     1
102
RTVSPropertyOp3
 70
     1
102
RTVSPropertyOp4
 70
     1
102
RTVSPropertyOp5
 70
     1
102
RTVSPropertyOp6
 70
     1
102
RTVSPropertyOp7
 70
     1
102
RTVSPropertyOp8
 70
     1
102
RTVSPropertyOp9
 70
     1
102
RTVSPropertyOp10
 70
     1
102
RTVSPropertyOp11
 70
     1
102
RTVSPropertyOp12
 70
     1
102
RTVSPropertyOp13
 70
     1
102
RTVSPropertyOp14
 70
     1
102
RTVSPropertyOp15
 70
     1
102
RTVSPropertyOp16
 70
     1
102
RTVSPropertyOp17
 70
     1
102
RTVSPropertyOp18
 70
     1
102
RTVSPropertyOp19
 70
     1
102
RTVSPropertyOp20
 70
     1
102
RTVSPropertyOp21
 70
     1
102
RTVSPropertyOp22
 70
     1
102
RTVSPropertyOp23
 70
     1
102
RTVSPropertyOp24
 70
     1
102
RTVSPropertyOp25
 70
     1
102
RTVSPropertyOp26
 70
     1
102
RTVSPropertyOp27
 70
     1
102
RTVSPropertyOp28
 70
     1
102
RTVSPropertyOp29
 70
     1
102
RTVSPropertyOp30
 70
     1
102
RTVSPropertyOp31
 70
     1
102
RTVSPropertyOp32
 70
     1
  0
XRECORD
  5
4E
102
{ACAD_REACTORS
330
4D
102
}
330
4D
100
AcDbXrecord
280
     1
102
RTVSPropertyOp0
 70
     1
102
RTVSPropertyOp1
 70
     1
102
RTVSPropertyOp2
 70
     1
102
RTVSPropertyOp3
 70
     1
102
RTVSPropertyOp4
 70
     1
102
RTVSPropertyOp5
 70
     1
102
RTVSPropertyOp6
 70
     1
102
RTVSPropertyOp7
 70
     1
102
RTVSPropertyOp8
 70
     1
102
RTVSPropertyOp9
 70
     1
102
RTVSPropertyOp10
 70
     1
102
RTVSPropertyOp11
 70
     1
102
RTVSPropertyOp12
 70
     1
102
RTVSPropertyOp13
 70
     1
102
RTVSPropertyOp14
 70
     1
102
RTVSPropertyOp15
 70
     1
102
RTVSPropertyOp16
 70
     1
102
RTVSPropertyOp17
 70
     1
102
RTVSPropertyOp18
 70
     1
102
RTVSPropertyOp19
 70
     1
102
RTVSPropertyOp20
 70
     1
102
RTVSPropertyOp21
 70
     1
102
RTVSPropertyOp22
 70
     1
102
RTVSPropertyOp23
 70
     1
102
RTVSPropertyOp24
 70
     1
102
RTVSPropertyOp25
 70
     1
102
RTVSPropertyOp26
 70
     1
102
RTVSPropertyOp27
 70
     1
102
RTVSPropertyOp28
 70
     1
102
RTVSPropertyOp29
 70
     1
102
RTVSPropertyOp30
 70
     1
102
RTVSPropertyOp31
 70
     1
102
RTVSPropertyOp32
 70
     1
  0
XRECORD
  5
50
102
{ACAD_REACTORS
330
4F
102
}
330
4F
100
AcDbXrecord
280
     1
102
RTVSPropertyOp0
 70
     1
102
RTVSPropertyOp1
 70
     1
102
RTVSPropertyOp2
 70
     1
102
RTVSPropertyOp3
 70
     1
102
RTVSPropertyOp4
 70
     1
102
RTVSPropertyOp5
 70
     1
102
RTVSPropertyOp6
 70
     1
102
RTVSPropertyOp7
 70
     1
102
RTVSPropertyOp8
 70
     1
102
RTVSPropertyOp9
 70
     1
102
RTVSPropertyOp10
 70
     1
102
RTVSPropertyOp11
 70
     1
102
RTVSPropertyOp12
 70
     1
102
RTVSPropertyOp13
 70
     1
102
RTVSPropertyOp14
 70
     1
102
RTVSPropertyOp15
 70
     1
102
RTVSPropertyOp16
 70
     1
102
RTVSPropertyOp17
 70
     1
102
RTVSPropertyOp18
 70
     1
102
RTVSPropertyOp19
 70
     1
102
RTVSPropertyOp20
 70
     1
102
RTVSPropertyOp21
 70
     1
102
RTVSPropertyOp22
 70
     1
102
RTVSPropertyOp23
 70
     1
102
RTVSPropertyOp24
 70
     1
102
RTVSPropertyOp25
 70
     1
102
RTVSPropertyOp26
 70
     1
102
RTVSPropertyOp27
 70
     1
102
RTVSPropertyOp28
 70
     1
102
RTVSPropertyOp29
 70
     1
102
RTVSPropertyOp30
 70
     1
102
RTVSPropertyOp31
 70
     1
102
RTVSPropertyOp32
 70
     1
  0
XRECORD
  5
52
102
{ACAD_REACTORS
330
51
102
}
330
51
100
AcDbXrecord
280
     1
102
RTVSPropertyOp0
 70
     1
102
RTVSPropertyOp1
 70
     1
102
RTVSPropertyOp2
 70
     1
102
RTVSPropertyOp3
 70
     1
102
RTVSPropertyOp4
 70
     1
102
RTVSPropertyOp5
 70
     1
102
RTVSPropertyOp6
 70
     1
102
RTVSPropertyOp7
 70
     1
102
RTVSPropertyOp8
 70
     1
102
RTVSPropertyOp9
 70
     1
102
RTVSPropertyOp10
 70
     1
102
RTVSPropertyOp11
 70
     1
102
RTVSPropertyOp12
 70
     1
102
RTVSPropertyOp13
 70
     1
102
RTVSPropertyOp14
 70
     1
102
RTVSPropertyOp15
 70
     1
102
RTVSPropertyOp16
 70
     1
102
RTVSPropertyOp17
 70
     1
102
RTVSPropertyOp18
 70
     1
102
RTVSPropertyOp19
 70
     1
102
RTVSPropertyOp20
 70
     1
102
RTVSPropertyOp21
 70
     1
102
RTVSPropertyOp22
 70
     1
102
RTVSPropertyOp23
 70
     1
102
RTVSPropertyOp24
 70
     1
102
RTVSPropertyOp25
 70
     1
102
RTVSPropertyOp26
 70
     1
102
RTVSPropertyOp27
 70
     1
102
RTVSPropertyOp28
 70
     1
102
RTVSPropertyOp29
 70
     1
102
RTVSPropertyOp30
 70
     1
102
RTVSPropertyOp31
 70
     1
102
RTVSPropertyOp32
 70
     1
  0
XRECORD
  5
66
102
{ACAD_REACTORS
330
65
102
}
330
65
100
AcDbXrecord
280
     1
102
RTVSPropertyOp0
 70
     1
102
RTVSPropertyOp1
 70
     1
102
RTVSPropertyOp2
 70
     1
102
RTVSPropertyOp3
 70
     1
102
RTVSPropertyOp4
 70
     1
102
RTVSPropertyOp5
 70
     1
102
RTVSPropertyOp6
 70
     1
102
RTVSPropertyOp7
 70
     1
102
RTVSPropertyOp8
 70
     1
102
RTVSPropertyOp9
 70
     1
102
RTVSPropertyOp10
 70
     1
102
RTVSPropertyOp11
 70
     1
102
RTVSPropertyOp12
 70
     1
102
RTVSPropertyOp13
 70
     1
102
RTVSPropertyOp14
 70
     1
102
RTVSPropertyOp15
 70
     1
102
RTVSPropertyOp16
 70
     1
102
RTVSPropertyOp17
 70
     1
102
RTVSPropertyOp18
 70
     1
102
RTVSPropertyOp19
 70
     1
102
RTVSPropertyOp20
 70
     1
102
RTVSPropertyOp21
 70
     1
102
RTVSPropertyOp22
 70
     1
102
RTVSPropertyOp23
 70
     1
102
RTVSPropertyOp24
 70
     1
102
RTVSPropertyOp25
 70
     1
102
RTVSPropertyOp26
 70
     1
102
RTVSPropertyOp27
 70
     1
102
RTVSPropertyOp28
 70
     1
102
RTVSPropertyOp29
 70
     1
102
RTVSPropertyOp30
 70
     1
102
RTVSPropertyOp31
 70
     1
102
RTVSPropertyOp32
 70
     1
  0
XRECORD
  5
5C
102
{ACAD_REACTORS
330
5B
102
}
330
5B
100
AcDbXrecord
280
     1
102
RTVSPropertyOp0
 70
     1
102
RTVSPropertyOp1
 70
     1
102
RTVSPropertyOp2
 70
     1
102
RTVSPropertyOp3
 70
     1
102
RTVSPropertyOp4
 70
     1
102
RTVSPropertyOp5
 70
     1
102
RTVSPropertyOp6
 70
     1
102
RTVSPropertyOp7
 70
     1
102
RTVSPropertyOp8
 70
     1
102
RTVSPropertyOp9
 70
     1
102
RTVSPropertyOp10
 70
     1
102
RTVSPropertyOp11
 70
     1
102
RTVSPropertyOp12
 70
     1
102
RTVSPropertyOp13
 70
     1
102
RTVSPropertyOp14
 70
     1
102
RTVSPropertyOp15
 70
     1
102
RTVSPropertyOp16
 70
     1
102
RTVSPropertyOp17
 70
     1
102
RTVSPropertyOp18
 70
     1
102
RTVSPropertyOp19
 70
     1
102
RTVSPropertyOp20
 70
     1
102
RTVSPropertyOp21
 70
     1
102
RTVSPropertyOp22
 70
     1
102
RTVSPropertyOp23
 70
     1
102
RTVSPropertyOp24
 70
     1
102
RTVSPropertyOp25
 70
     1
102
RTVSPropertyOp26
 70
     1
102
RTVSPropertyOp27
 70
     1
102
RTVSPropertyOp28
 70
     1
102
RTVSPropertyOp29
 70
     1
102
RTVSPropertyOp30
 70
     1
102
RTVSPropertyOp31
 70
     1
102
RTVSPropertyOp32
 70
     1
  0
XRECORD
  5
64
102
{ACAD_REACTORS
330
63
102
}
330
63
100
AcDbXrecord
280
     1
102
RTVSPropertyOp0
 70
     1
102
RTVSPropertyOp1
 70
     1
102
RTVSPropertyOp2
 70
     1
102
RTVSPropertyOp3
 70
     1
102
RTVSPropertyOp4
 70
     1
102
RTVSPropertyOp5
 70
     1
102
RTVSPropertyOp6
 70
     1
102
RTVSPropertyOp7
 70
     1
102
RTVSPropertyOp8
 70
     1
102
RTVSPropertyOp9
 70
     1
102
RTVSPropertyOp10
 70
     1
102
RTVSPropertyOp11
 70
     1
102
RTVSPropertyOp12
 70
     1
102
RTVSPropertyOp13
 70
     1
102
RTVSPropertyOp14
 70
     1
102
RTVSPropertyOp15
 70
     1
102
RTVSPropertyOp16
 70
     1
102
RTVSPropertyOp17
 70
     1
102
RTVSPropertyOp18
 70
     1
102
RTVSPropertyOp19
 70
     1
102
RTVSPropertyOp20
 70
     1
102
RTVSPropertyOp21
 70
     1
102
RTVSPropertyOp22
 70
     1
102
RTVSPropertyOp23
 70
     1
102
RTVSPropertyOp24
 70
     1
102
RTVSPropertyOp25
 70
     1
102
RTVSPropertyOp26
 70
     1
102
RTVSPropertyOp27
 70
     1
102
RTVSPropertyOp28
 70
     1
102
RTVSPropertyOp29
 70
     1
102
RTVSPropertyOp30
 70
     1
102
RTVSPropertyOp31
 70
     1
102
RTVSPropertyOp32
 70
     1
  0
ENDSEC
  0
EOF
