  0
SECTION
  2
HEADER
  9
$ACADVER
  1
AC1009
  9
$DWGCODEPAGE
  3
ansi_1252
  9
$INSBASE
 10
0.0
 20
0.0
 30
0.0
  9
$EXTMIN
 10
15.4772480334592
 20
48.89632442447783
 30
0.0
  9
$EXTMAX
 10
2484.485477103528
 20
1201.103675575522
 30
0.0
  9
$LIMMIN
 10
0.0
 20
0.0
  9
$LIMMAX
 10
12.0
 20
9.0
  9
$ORTHOMODE
 70
     0
  9
$REGENMODE
 70
     1
  9
$FILLMODE
 70
     1
  9
$QTEXTMODE
 70
     0
  9
$MIRRTEXT
 70
     1
  9
$DRAGMODE
 70
     2
  9
$LTSCALE
 40
1.0
  9
$OSMODE
 70
    37
  9
$ATTMODE
 70
     1
  9
$TEXTSIZE
 40
0.2
  9
$TRACEWID
 40
0.05
  9
$TEXTSTYLE
  7
STANDARD
  9
$CLAYER
  8
0
  9
$CELTYPE
  6
BYLAYER
  9
$CECOLOR
 62
   256
  9
$DIMSCALE
 40
1.0
  9
$DIMASZ
 40
0.18
  9
$DIMEXO
 40
0.0625
  9
$DIMDLI
 40
0.38
  9
$DIMRND
 40
0.0
  9
$DIMDLE
 40
0.0
  9
$DIMEXE
 40
0.18
  9
$DIMTP
 40
0.0
  9
$DIMTM
 40
0.0
  9
$DIMTXT
 40
0.18
  9
$DIMCEN
 40
0.09
  9
$DIMTSZ
 40
0.0
  9
$DIMTOL
 70
     0
  9
$DIMLIM
 70
     0
  9
$DIMTIH
 70
     1
  9
$DIMTOH
 70
     1
  9
$DIMSE1
 70
     0
  9
$DIMSE2
 70
     0
  9
$DIMTAD
 70
     0
  9
$DIMZIN
 70
     0
  9
$DIMBLK
  1

  9
$DIMASO
 70
     1
  9
$DIMSHO
 70
     1
  9
$DIMPOST
  1

  9
$DIMAPOST
  1

  9
$DIMALT
 70
     0
  9
$DIMALTD
 70
     2
  9
$DIMALTF
 40
25.4
  9
$DIMLFAC
 40
1.0
  9
$DIMTOFL
 70
     0
  9
$DIMTVP
 40
0.0
  9
$DIMTIX
 70
     0
  9
$DIMSOXD
 70
     0
  9
$DIMSAH
 70
     0
  9
$DIMBLK1
  1

  9
$DIMBLK2
  1

  9
$DIMSTYLE
  2
STANDARD
  9
$DIMCLRD
 70
     0
  9
$DIMCLRE
 70
     0
  9
$DIMCLRT
 70
     0
  9
$DIMTFAC
 40
1.0
  9
$DIMGAP
 40
0.09
  9
$LUNITS
 70
     2
  9
$LUPREC
 70
     4
  9
$SKETCHINC
 40
0.1
  9
$FILLETRAD
 40
0.5
  9
$AUNITS
 70
     0
  9
$AUPREC
 70
     0
  9
$MENU
  1
.
  9
$ELEVATION
 40
0.0
  9
$PELEVATION
 40
0.0
  9
$THICKNESS
 40
0.0
  9
$LIMCHECK
 70
     0
  9
$CHAMFERA
 40
0.0
  9
$CHAMFERB
 40
0.0
  9
$SKPOLY
 70
     0
  9
$TDCREATE
 40
2454910.5
  9
$TDUPDATE
 40
2460466.536375961
  9
$TDINDWG
 40
0.0000000116
  9
$TDUSRTIMER
 40
0.0000000116
  9
$USRTIMER
 70
     1
  9
$ANGBASE
 50
0.0
  9
$ANGDIR
 70
     0
  9
$PDMODE
 70
     0
  9
$PDSIZE
 40
0.0
  9
$PLINEWID
 40
0.0
  9
$COORDS
 70
     1
  9
$SPLFRAME
 70
     0
  9
$SPLINETYPE
 70
     6
  9
$SPLINESEGS
 70
     8
  9
$ATTDIA
 70
     0
  9
$ATTREQ
 70
     1
  9
$HANDLING
 70
     1
  9
$HANDSEED
  5
75B
  9
$SURFTAB1
 70
     6
  9
$SURFTAB2
 70
     6
  9
$SURFTYPE
 70
     6
  9
$SURFU
 70
     6
  9
$SURFV
 70
     6
  9
$UCSNAME
  2

  9
$UCSORG
 10
0.0
 20
0.0
 30
0.0
  9
$UCSXDIR
 10
1.0
 20
0.0
 30
0.0
  9
$UCSYDIR
 10
0.0
 20
1.0
 30
0.0
  9
$PUCSNAME
  2

  9
$PUCSORG
 10
0.0
 20
0.0
 30
0.0
  9
$PUCSXDIR
 10
1.0
 20
0.0
 30
0.0
  9
$PUCSYDIR
 10
0.0
 20
1.0
 30
0.0
  9
$USERI1
 70
     0
  9
$USERI2
 70
     0
  9
$USERI3
 70
     0
  9
$USERI4
 70
     0
  9
$USERI5
 70
     0
  9
$USERR1
 40
0.0
  9
$USERR2
 40
0.0
  9
$USERR3
 40
0.0
  9
$USERR4
 40
0.0
  9
$USERR5
 40
0.0
  9
$WORLDVIEW
 70
     1
  9
$SHADEDGE
 70
     3
  9
$SHADEDIF
 70
    70
  9
$TILEMODE
 70
     1
  9
$MAXACTVP
 70
    64
  9
$PLIMCHECK
 70
     0
  9
$PEXTMIN
 10
1.000000000000000E+20
 20
1.000000000000000E+20
 30
1.000000000000000E+20
  9
$PEXTMAX
 10
-1.000000000000000E+20
 20
-1.000000000000000E+20
 30
-1.000000000000000E+20
  9
$PLIMMIN
 10
0.0
 20
0.0
  9
$PLIMMAX
 10
12.0
 20
9.0
  9
$UNITMODE
 70
     0
  9
$VISRETAIN
 70
     1
  9
$PLINEGEN
 70
     0
  9
$PSLTSCALE
 70
     1
  0
ENDSEC
  0
SECTION
  2
TABLES
  0
TABLE
  2
VPORT
 70
     1
  0
VPORT
  2
*ACTIVE
 70
     0
 10
0.0
 20
0.0
 11
1.0
 21
1.0
 12
10.42990654205607
 22
4.5
 13
0.0
 23
0.0
 14
0.5
 24
0.5
 15
0.5
 25
0.5
 16
0.0
 26
0.0
 36
1.0
 17
0.0
 27
0.0
 37
0.0
 40
9.0
 41
1.972972972850329
 42
50.0
 43
0.0
 44
0.0
 50
0.0
 51
0.0
 71
     0
 72
   100
 73
     1
 74
     3
 75
     0
 76
     0
 77
     0
 78
     0
  0
ENDTAB
  0
TABLE
  2
LTYPE
 70
     2
  0
LTYPE
  2
CONTINUOUS
 70
     0
  3
Solid line
 72
    65
 73
     0
 40
0.0
  0
LTYPE
  2
CONTINUOUS2
 70
     0
  3
Solid Line
 72
    65
 73
     0
 40
0.0
  0
ENDTAB
  0
TABLE
  2
LAYER
 70
     2
  0
LAYER
  2
0
 70
     0
 62
     7
  6
CONTINUOUS
  0
LAYER
  2
LAYER0
 70
     0
 62
     7
  6
CONTINUOUS
  0
ENDTAB
  0
TABLE
  2
STYLE
 70
     1
  0
STYLE
  2
STANDARD
 70
     0
 40
0.0
 41
1.0
 50
0.0
 71
     0
 42
0.2
  3
txt
  4

  0
ENDTAB
  0
TABLE
  2
VIEW
 70
     0
  0
ENDTAB
  0
TABLE
  2
UCS
 70
     0
  0
ENDTAB
  0
TABLE
  2
APPID
 70
     1
  0
APPID
  2
ACAD
 70
     0
  0
ENDTAB
  0
TABLE
  2
DIMSTYLE
 70
     1
  0
DIMSTYLE
  2
STANDARD
 70
     0
  3

  4

  5

  6

  7

 40
1.0
 41
0.18
 42
0.0625
 43
0.38
 44
0.18
 45
0.0
 46
0.0
 47
0.0
 48
0.0
140
0.18
141
0.09
142
0.0
143
25.4
144
1.0
145
0.0
146
1.0
147
0.09
 71
     0
 72
     0
 73
     1
 74
     1
 75
     0
 76
     0
 77
     0
 78
     0
170
     0
171
     2
172
     0
173
     0
174
     0
175
     0
176
     0
177
     0
178
     0
  0
ENDTAB
  0
ENDSEC
  0
SECTION
  2
BLOCKS
  0
BLOCK
  8
0
  2
$MODEL_SPACE
 70
     0
 10
0.0
 20
0.0
 30
0.0
  3
$MODEL_SPACE
  1

  0
ENDBLK
  5
21
  8
0
  0
BLOCK
 67
     1
  8
0
  2
$PAPER_SPACE
 70
     0
 10
0.0
 20
0.0
 30
0.0
  3
$PAPER_SPACE
  1

  0
ENDBLK
  5
1D
 67
     1
  8
0
  0
ENDSEC
  0
SECTION
  2
ENTITIES
  0
POLYLINE
  5
70
  8
LAYER0
 66
     1
 10
0.0
 20
0.0
 30
0.0
 70
     1
  0
VERTEX
  5
107
  8
LAYER0
 10
630.4997731001577
 20
131.5101274360045
 30
0.0
  0
VERTEX
  5
108
  8
LAYER0
 10
330.4997731001577
 20
131.5101274360045
 30
0.0
 42
0.0541108387084387
  0
VERTEX
  5
109
  8
LAYER0
 10
287.9566962119718
 20
126.8925240286981
 30
0.0
 42
-0.2391904711746534
  0
VERTEX
  5
10A
  8
LAYER0
 10
270.4349595414308
 20
131.4286095198331
 30
0.0
 42
0.64720419566629
  0
VERTEX
  5
10B
  8
LAYER0
 10
220.4997735027633
 20
109.0101274360045
 30
0.0
 42
0.6466443801714588
  0
VERTEX
  5
10C
  8
LAYER0
 10
270.3995448938874
 20
86.56020360688035
 30
0.0
 42
-0.2389693793398022
  0
VERTEX
  5
10D
  8
LAYER0
 10
287.8941091085228
 20
91.14148975413536
 30
0.0
 42
0.0541918690306501
  0
VERTEX
  5
10E
  8
LAYER0
 10
330.4997731001577
 20
86.5101274360045
 30
0.0
  0
VERTEX
  5
10F
  8
LAYER0
 10
630.4997731001577
 20
86.5101274360045
 30
0.0
  0
VERTEX
  5
110
  8
LAYER0
 10
930.4997731001577
 20
86.51012743600404
 30
0.0
 42
0.0541108387047783
  0
VERTEX
  5
111
  8
LAYER0
 10
973.0428499883251
 20
91.12773084339506
 30
0.0
 42
-0.2391905097418181
  0
VERTEX
  5
112
  8
LAYER0
 10
990.5645888402642
 20
86.5916434253013
 30
0.0
 42
0.6472041608305722
  0
VERTEX
  5
113
  8
LAYER0
 10
1040.49977260847
 20
109.010127436004
 30
0.0
 42
0.646644379908574
  0
VERTEX
  5
114
  8
LAYER0
 10
990.6000013027592
 20
131.4600512489451
 30
0.0
 42
-0.2389693631815677
  0
VERTEX
  5
115
  8
LAYER0
 10
973.1054382864234
 20
126.8787648562884
 30
0.0
 42
0.054191870628649
  0
VERTEX
  5
116
  8
LAYER0
 10
930.4997731001577
 20
131.510127436004
 30
0.0
  0
SEQEND
  5
6CB
  8
LAYER0
  0
POLYLINE
  5
71
  8
LAYER0
 66
     1
 10
0.0
 20
0.0
 30
0.0
 70
     1
  0
VERTEX
  5
117
  8
LAYER0
 10
1094.501711115724
 20
160.9509653721764
 30
0.0
  0
VERTEX
  5
118
  8
LAYER0
 10
1094.499747580578
 20
108.9854297783381
 30
0.0
  0
VERTEX
  5
119
  8
LAYER0
 10
1094.497784044531
 20
57.01986996925757
 30
0.0
 42
-0.4153582021433403
  0
VERTEX
  5
11A
  8
LAYER0
 10
1086.466230149586
 20
49.02023448021384
 30
0.0
  0
VERTEX
  5
11B
  8
LAYER0
 10
174.4975123104715
 20
49.03844507268184
 30
0.0
 42
-0.4117017951700829
  0
VERTEX
  5
11C
  8
LAYER0
 10
166.497807002229
 20
56.96977936473911
 30
0.0
  0
VERTEX
  5
11D
  8
LAYER0
 10
166.4997731001573
 20
109.0042918617947
 30
0.0
  0
VERTEX
  5
11E
  8
LAYER0
 10
166.5017391980856
 20
161.0388043588498
 30
0.0
 42
-0.4154359537516408
  0
VERTEX
  5
11F
  8
LAYER0
 10
174.5354099423995
 20
169.0384362579719
 30
0.0
  0
VERTEX
  5
120
  8
LAYER0
 10
1086.502010932183
 20
169.0202255587863
 30
0.0
 42
-0.4167516033104176
  0
SEQEND
  5
6CC
  8
LAYER0
  0
POLYLINE
  5
72
  8
LAYER0
 66
     1
 10
0.0
 20
0.0
 30
0.0
 70
     1
  0
VERTEX
  5
121
  8
LAYER0
 10
1154.499739951263
 20
108.9917787773634
 30
0.0
 42
0.4142135623730951
  0
VERTEX
  5
122
  8
LAYER0
 10
1184.499739951263
 20
78.99177877736338
 30
0.0
 42
0.4142135623730951
  0
VERTEX
  5
123
  8
LAYER0
 10
1214.499739951263
 20
108.9917787773634
 30
0.0
 42
0.4142135623730951
  0
VERTEX
  5
124
  8
LAYER0
 10
1184.499739951263
 20
138.9917787773638
 30
0.0
 42
0.4142135623730951
  0
SEQEND
  5
6CD
  8
LAYER0
  0
POLYLINE
  5
73
  8
LAYER0
 66
     1
 10
0.0
 20
0.0
 30
0.0
 70
     1
  0
VERTEX
  5
125
  8
LAYER0
 10
1123.499747583265
 20
131.9815900129695
 30
0.0
  0
VERTEX
  5
126
  8
LAYER0
 10
1123.499743559511
 20
160.9918411526232
 30
0.0
 42
-0.4130466514026261
  0
VERTEX
  5
127
  8
LAYER0
 10
1131.46785672381
 20
168.9917787138377
 30
0.0
  0
VERTEX
  5
128
  8
LAYER0
 10
1237.499785541262
 20
168.991778713861
 30
0.0
 42
-0.4149335031909357
  0
VERTEX
  5
129
  8
LAYER0
 10
1245.499761385901
 20
160.9721194865044
 30
0.0
  0
VERTEX
  5
12A
  8
LAYER0
 10
1245.500238614099
 20
56.99178029346069
 30
0.0
 42
-0.415084829204063
  0
VERTEX
  5
12B
  8
LAYER0
 10
1237.476485170342
 20
48.9917788408668
 30
0.0
  0
VERTEX
  5
12C
  8
LAYER0
 10
1131.500173725309
 20
48.99177884093592
 30
0.0
 42
-0.4149171181821181
  0
VERTEX
  5
12D
  8
LAYER0
 10
1123.50019679396
 20
57.01099075958223
 30
0.0
  0
VERTEX
  5
12E
  8
LAYER0
 10
1123.499747579747
 20
85.99183871408036
 30
0.0
 42
0.4133306447548355
  0
VERTEX
  5
12F
  8
LAYER0
 10
1120.508747295527
 20
88.99177871375616
 30
0.0
  0
VERTEX
  5
130
  8
LAYER0
 10
1106.499752931201
 20
88.97925597715721
 30
0.0
 42
-0.4153917144750761
  0
VERTEX
  5
131
  8
LAYER0
 10
1103.499777181294
 20
91.99131830482713
 30
0.0
  0
VERTEX
  5
132
  8
LAYER0
 10
1103.499777181185
 20
125.9792859766638
 30
0.0
 42
-0.4129043099648541
  0
VERTEX
  5
133
  8
LAYER0
 10
1106.486360819174
 20
128.9792559767334
 30
0.0
  0
VERTEX
  5
134
  8
LAYER0
 10
1120.499764884986
 20
128.9917787137572
 30
0.0
 42
0.413219176143138
  0
SEQEND
  5
6CE
  8
LAYER0
  0
POLYLINE
  5
74
  8
LAYER0
 66
     1
 10
0.0
 20
0.0
 30
0.0
 70
     1
  0
VERTEX
  5
135
  8
LAYER0
 10
106.5150215593022
 20
109.0675761278083
 30
0.0
 42
0.4142135623730951
  0
VERTEX
  5
136
  8
LAYER0
 10
76.51502155930223
 20
139.0675761278083
 30
0.0
 42
0.4142135623730951
  0
VERTEX
  5
137
  8
LAYER0
 10
46.51502155930223
 20
109.0675761278083
 30
0.0
 42
0.4142135623730951
  0
VERTEX
  5
138
  8
LAYER0
 10
76.51502155930223
 20
79.0675761278078
 30
0.0
 42
0.4142135623730951
  0
SEQEND
  5
6CF
  8
LAYER0
  0
POLYLINE
  5
75
  8
LAYER0
 66
     1
 10
0.0
 20
0.0
 30
0.0
 70
     1
  0
VERTEX
  5
139
  8
LAYER0
 10
137.5150139301353
 20
86.05738545063718
 30
0.0
  0
VERTEX
  5
13A
  8
LAYER0
 10
137.5150179510521
 20
57.06756968640514
 30
0.0
 42
-0.4146177716983084
  0
VERTEX
  5
13B
  8
LAYER0
 10
129.5039801864797
 20
49.06757619133543
 30
0.0
  0
VERTEX
  5
13C
  8
LAYER0
 10
23.51495693169261
 20
49.06757619131065
 30
0.0
 42
-0.4132490734995759
  0
VERTEX
  5
13D
  8
LAYER0
 10
15.51500033584045
 20
57.04122349078557
 30
0.0
  0
VERTEX
  5
13E
  8
LAYER0
 10
15.51452289649535
 20
161.0675739028934
 30
0.0
 42
-0.4133542979318746
  0
VERTEX
  5
13F
  8
LAYER0
 10
23.49100938702793
 20
169.067576064312
 30
0.0
  0
VERTEX
  5
140
  8
LAYER0
 10
129.5146004157599
 20
169.0675760642125
 30
0.0
 42
-0.4133306440720861
  0
VERTEX
  5
141
  8
LAYER0
 10
137.5145640448997
 20
161.0916993265602
 30
0.0
  0
VERTEX
  5
142
  8
LAYER0
 10
137.5150139308367
 20
132.0675161911001
 30
0.0
 42
0.4150879474967574
  0
VERTEX
  5
143
  8
LAYER0
 10
140.524013661363
 20
129.0675761914229
 30
0.0
  0
VERTEX
  5
144
  8
LAYER0
 10
154.515038180036
 20
129.067576191273
 30
0.0
 42
-0.4153917146142018
  0
VERTEX
  5
145
  8
LAYER0
 10
157.5150139299391
 20
126.0555138621661
 30
0.0
  0
VERTEX
  5
146
  8
LAYER0
 10
157.5150139300362
 20
92.06754619175933
 30
0.0
 42
-0.4129043119791032
  0
VERTEX
  5
147
  8
LAYER0
 10
154.528430271646
 20
89.06757619169161
 30
0.0
  0
VERTEX
  5
148
  8
LAYER0
 10
140.514996621508
 20
89.06757619141922
 30
0.0
 42
0.4152088475752114
  0
SEQEND
  5
6D0
  8
LAYER0
  0
POLYLINE
  5
76
  8
LAYER0
 66
     1
 10
0.0
 20
0.0
 30
0.0
 70
     1
  0
VERTEX
  5
149
  8
LAYER0
 10
1869.485011589563
 20
131.4146730196155
 30
0.0
  0
VERTEX
  5
14A
  8
LAYER0
 10
1569.485011589563
 20
131.4146730196155
 30
0.0
 42
0.0541108387084387
  0
VERTEX
  5
14B
  8
LAYER0
 10
1526.941934701377
 20
126.7970696123091
 30
0.0
 42
-0.2391904711746534
  0
VERTEX
  5
14C
  8
LAYER0
 10
1509.420198030836
 20
131.3331551034441
 30
0.0
 42
0.64720419566629
  0
VERTEX
  5
14D
  8
LAYER0
 10
1459.485011992169
 20
108.9146730196155
 30
0.0
 42
0.6466443801714588
  0
VERTEX
  5
14E
  8
LAYER0
 10
1509.384783383293
 20
86.46474919049137
 30
0.0
 42
-0.2389693793398022
  0
VERTEX
  5
14F
  8
LAYER0
 10
1526.879347597928
 20
91.04603533774639
 30
0.0
 42
0.0541918690306501
  0
VERTEX
  5
150
  8
LAYER0
 10
1569.485011589563
 20
86.41467301961552
 30
0.0
  0
VERTEX
  5
151
  8
LAYER0
 10
1869.485011589563
 20
86.41467301961552
 30
0.0
  0
VERTEX
  5
152
  8
LAYER0
 10
2169.485011589563
 20
86.41467301961507
 30
0.0
 42
0.0541108387047783
  0
VERTEX
  5
153
  8
LAYER0
 10
2212.02808847773
 20
91.03227642700608
 30
0.0
 42
-0.2391905097418181
  0
VERTEX
  5
154
  8
LAYER0
 10
2229.54982732967
 20
86.49618900891232
 30
0.0
 42
0.6472041608305722
  0
VERTEX
  5
155
  8
LAYER0
 10
2279.485011097875
 20
108.9146730196151
 30
0.0
 42
0.646644379908574
  0
VERTEX
  5
156
  8
LAYER0
 10
2229.585239792164
 20
131.3645968325561
 30
0.0
 42
-0.2389693631815677
  0
VERTEX
  5
157
  8
LAYER0
 10
2212.090676775829
 20
126.7833104398994
 30
0.0
 42
0.054191870628649
  0
VERTEX
  5
158
  8
LAYER0
 10
2169.485011589563
 20
131.4146730196151
 30
0.0
  0
SEQEND
  5
6D1
  8
LAYER0
  0
POLYLINE
  5
77
  8
LAYER0
 66
     1
 10
0.0
 20
0.0
 30
0.0
 70
     1
  0
VERTEX
  5
159
  8
LAYER0
 10
2333.48694960513
 20
160.8555109557874
 30
0.0
  0
VERTEX
  5
15A
  8
LAYER0
 10
2333.484986069983
 20
108.8899753619492
 30
0.0
  0
VERTEX
  5
15B
  8
LAYER0
 10
2333.483022533936
 20
56.9244155528686
 30
0.0
 42
-0.4153582021433403
  0
VERTEX
  5
15C
  8
LAYER0
 10
2325.451468638992
 20
48.92478006382487
 30
0.0
  0
VERTEX
  5
15D
  8
LAYER0
 10
1413.482750799877
 20
48.94299065629286
 30
0.0
 42
-0.4117017951700829
  0
VERTEX
  5
15E
  8
LAYER0
 10
1405.483045491635
 20
56.87432494835014
 30
0.0
  0
VERTEX
  5
15F
  8
LAYER0
 10
1405.485011589563
 20
108.9088374454058
 30
0.0
  0
VERTEX
  5
160
  8
LAYER0
 10
1405.486977687491
 20
160.9433499424608
 30
0.0
 42
-0.4154359537516408
  0
VERTEX
  5
161
  8
LAYER0
 10
1413.520648431805
 20
168.9429818415829
 30
0.0
  0
VERTEX
  5
162
  8
LAYER0
 10
2325.487249421589
 20
168.9247711423973
 30
0.0
 42
-0.4167516033104176
  0
SEQEND
  5
6D2
  8
LAYER0
  0
POLYLINE
  5
78
  8
LAYER0
 66
     1
 10
0.0
 20
0.0
 30
0.0
 70
     1
  0
VERTEX
  5
163
  8
LAYER0
 10
2393.484978440669
 20
108.8963243609744
 30
0.0
 42
0.4142135623730951
  0
VERTEX
  5
164
  8
LAYER0
 10
2423.484978440669
 20
78.8963243609744
 30
0.0
 42
0.4142135623730951
  0
VERTEX
  5
165
  8
LAYER0
 10
2453.484978440669
 20
108.8963243609744
 30
0.0
 42
0.4142135623730951
  0
VERTEX
  5
166
  8
LAYER0
 10
2423.484978440669
 20
138.8963243609749
 30
0.0
 42
0.4142135623730951
  0
SEQEND
  5
6D3
  8
LAYER0
  0
POLYLINE
  5
79
  8
LAYER0
 66
     1
 10
0.0
 20
0.0
 30
0.0
 70
     1
  0
VERTEX
  5
167
  8
LAYER0
 10
2362.484986072671
 20
131.8861355965805
 30
0.0
  0
VERTEX
  5
168
  8
LAYER0
 10
2362.484982048916
 20
160.8963867362343
 30
0.0
 42
-0.4130466514026261
  0
VERTEX
  5
169
  8
LAYER0
 10
2370.453095213215
 20
168.8963242974487
 30
0.0
  0
VERTEX
  5
16A
  8
LAYER0
 10
2476.485024030668
 20
168.896324297472
 30
0.0
 42
-0.4149335031909357
  0
VERTEX
  5
16B
  8
LAYER0
 10
2484.484999875307
 20
160.8766650701155
 30
0.0
  0
VERTEX
  5
16C
  8
LAYER0
 10
2484.485477103504
 20
56.89632587707172
 30
0.0
 42
-0.415084829204063
  0
VERTEX
  5
16D
  8
LAYER0
 10
2476.461723659748
 20
48.89632442447783
 30
0.0
  0
VERTEX
  5
16E
  8
LAYER0
 10
2370.485412214714
 20
48.89632442454695
 30
0.0
 42
-0.4149171181821181
  0
VERTEX
  5
16F
  8
LAYER0
 10
2362.485435283366
 20
56.91553634319325
 30
0.0
  0
VERTEX
  5
170
  8
LAYER0
 10
2362.484986069152
 20
85.89638429769138
 30
0.0
 42
0.4133306447548355
  0
VERTEX
  5
171
  8
LAYER0
 10
2359.493985784932
 20
88.89632429736719
 30
0.0
  0
VERTEX
  5
172
  8
LAYER0
 10
2345.484991420606
 20
88.88380156076823
 30
0.0
 42
-0.4153917144750761
  0
VERTEX
  5
173
  8
LAYER0
 10
2342.4850156707
 20
91.89586388843816
 30
0.0
  0
VERTEX
  5
174
  8
LAYER0
 10
2342.485015670591
 20
125.8838315602749
 30
0.0
 42
-0.4129043099648541
  0
VERTEX
  5
175
  8
LAYER0
 10
2345.471599308579
 20
128.8838015603444
 30
0.0
  0
VERTEX
  5
176
  8
LAYER0
 10
2359.485003374391
 20
128.8963242973682
 30
0.0
 42
0.413219176143138
  0
SEQEND
  5
6D4
  8
LAYER0
  0
POLYLINE
  5
7A
  8
LAYER0
 66
     1
 10
0.0
 20
0.0
 30
0.0
 70
     1
  0
VERTEX
  5
177
  8
LAYER0
 10
1345.500260048708
 20
108.9721217114193
 30
0.0
 42
0.4142135623730951
  0
VERTEX
  5
178
  8
LAYER0
 10
1315.500260048708
 20
138.9721217114193
 30
0.0
 42
0.4142135623730951
  0
VERTEX
  5
179
  8
LAYER0
 10
1285.500260048708
 20
108.9721217114193
 30
0.0
 42
0.4142135623730951
  0
VERTEX
  5
17A
  8
LAYER0
 10
1315.500260048708
 20
78.97212171141882
 30
0.0
 42
0.4142135623730951
  0
SEQEND
  5
6D5
  8
LAYER0
  0
POLYLINE
  5
7B
  8
LAYER0
 66
     1
 10
0.0
 20
0.0
 30
0.0
 70
     1
  0
VERTEX
  5
17B
  8
LAYER0
 10
1376.500252419541
 20
85.96193103424821
 30
0.0
  0
VERTEX
  5
17C
  8
LAYER0
 10
1376.500256440458
 20
56.97211527001616
 30
0.0
 42
-0.4146177716983084
  0
VERTEX
  5
17D
  8
LAYER0
 10
1368.489218675885
 20
48.97212177494646
 30
0.0
  0
VERTEX
  5
17E
  8
LAYER0
 10
1262.500195421098
 20
48.97212177492167
 30
0.0
 42
-0.4132490734995759
  0
VERTEX
  5
17F
  8
LAYER0
 10
1254.500238825246
 20
56.94576907439659
 30
0.0
  0
VERTEX
  5
180
  8
LAYER0
 10
1254.499761385901
 20
160.9721194865044
 30
0.0
 42
-0.4133542979318746
  0
VERTEX
  5
181
  8
LAYER0
 10
1262.476247876433
 20
168.972121647923
 30
0.0
  0
VERTEX
  5
182
  8
LAYER0
 10
1368.499838905165
 20
168.9721216478235
 30
0.0
 42
-0.4133306440720861
  0
VERTEX
  5
183
  8
LAYER0
 10
1376.499802534305
 20
160.9962449101712
 30
0.0
  0
VERTEX
  5
184
  8
LAYER0
 10
1376.500252420243
 20
131.9720617747112
 30
0.0
 42
0.4150879474967574
  0
VERTEX
  5
185
  8
LAYER0
 10
1379.509252150769
 20
128.9721217750339
 30
0.0
  0
VERTEX
  5
186
  8
LAYER0
 10
1393.500276669442
 20
128.972121774884
 30
0.0
 42
-0.4153917146142018
  0
VERTEX
  5
187
  8
LAYER0
 10
1396.500252419345
 20
125.9600594457771
 30
0.0
  0
VERTEX
  5
188
  8
LAYER0
 10
1396.500252419442
 20
91.97209177537036
 30
0.0
 42
-0.4129043119791032
  0
VERTEX
  5
189
  8
LAYER0
 10
1393.513668761052
 20
88.97212177530264
 30
0.0
  0
VERTEX
  5
18A
  8
LAYER0
 10
1379.500235110914
 20
88.97212177503025
 30
0.0
 42
0.4152088475752114
  0
SEQEND
  5
6D6
  8
LAYER0
  0
POLYLINE
  5
7C
  8
LAYER0
 66
     1
 10
0.0
 20
0.0
 30
0.0
 70
     1
  0
VERTEX
  5
18B
  8
LAYER0
 10
630.4758255555499
 20
260.5101273090058
 30
0.0
  0
VERTEX
  5
18C
  8
LAYER0
 10
330.4758255555499
 20
260.5101273090058
 30
0.0
 42
0.0541108387084387
  0
VERTEX
  5
18D
  8
LAYER0
 10
287.9327486673641
 20
255.8925239016994
 30
0.0
 42
-0.2391904711746534
  0
VERTEX
  5
18E
  8
LAYER0
 10
270.411011996823
 20
260.4286093928345
 30
0.0
 42
0.64720419566629
  0
VERTEX
  5
18F
  8
LAYER0
 10
220.4758259581556
 20
238.0101273090058
 30
0.0
 42
0.6466443801714588
  0
VERTEX
  5
190
  8
LAYER0
 10
270.3755973492797
 20
215.5602034798817
 30
0.0
 42
-0.2389693793398022
  0
VERTEX
  5
191
  8
LAYER0
 10
287.8701615639151
 20
220.1414896271367
 30
0.0
 42
0.0541918690306501
  0
VERTEX
  5
192
  8
LAYER0
 10
330.4758255555499
 20
215.5101273090058
 30
0.0
  0
VERTEX
  5
193
  8
LAYER0
 10
630.4758255555499
 20
215.5101273090058
 30
0.0
  0
VERTEX
  5
194
  8
LAYER0
 10
930.4758255555499
 20
215.5101273090054
 30
0.0
 42
0.0541108387047783
  0
VERTEX
  5
195
  8
LAYER0
 10
973.0189024437174
 20
220.1277307163964
 30
0.0
 42
-0.2391905097418181
  0
VERTEX
  5
196
  8
LAYER0
 10
990.5406412956564
 20
215.5916432983026
 30
0.0
 42
0.6472041608305722
  0
VERTEX
  5
197
  8
LAYER0
 10
1040.475825063862
 20
238.0101273090054
 30
0.0
 42
0.646644379908574
  0
VERTEX
  5
198
  8
LAYER0
 10
990.5760537581515
 20
260.4600511219464
 30
0.0
 42
-0.2389693631815677
  0
VERTEX
  5
199
  8
LAYER0
 10
973.0814907418156
 20
255.8787647292897
 30
0.0
 42
0.054191870628649
  0
VERTEX
  5
19A
  8
LAYER0
 10
930.4758255555499
 20
260.5101273090054
 30
0.0
  0
SEQEND
  5
6D7
  8
LAYER0
  0
POLYLINE
  5
7D
  8
LAYER0
 66
     1
 10
0.0
 20
0.0
 30
0.0
 70
     1
  0
VERTEX
  5
19B
  8
LAYER0
 10
1094.477763571116
 20
289.9509652451777
 30
0.0
  0
VERTEX
  5
19C
  8
LAYER0
 10
1094.47580003597
 20
237.9854296513395
 30
0.0
  0
VERTEX
  5
19D
  8
LAYER0
 10
1094.473836499923
 20
186.0198698422589
 30
0.0
 42
-0.4153582021433403
  0
VERTEX
  5
19E
  8
LAYER0
 10
1086.442282604979
 20
178.0202343532152
 30
0.0
  0
VERTEX
  5
19F
  8
LAYER0
 10
174.4735647658638
 20
178.0384449456832
 30
0.0
 42
-0.4117017951700829
  0
VERTEX
  5
1A0
  8
LAYER0
 10
166.4738594576213
 20
185.9697792377405
 30
0.0
  0
VERTEX
  5
1A1
  8
LAYER0
 10
166.4758255555496
 20
238.0042917347961
 30
0.0
  0
VERTEX
  5
1A2
  8
LAYER0
 10
166.4777916534779
 20
290.0388042318511
 30
0.0
 42
-0.4154359537516408
  0
VERTEX
  5
1A3
  8
LAYER0
 10
174.5114623977918
 20
298.0384361309732
 30
0.0
  0
VERTEX
  5
1A4
  8
LAYER0
 10
1086.478063387575
 20
298.0202254317876
 30
0.0
 42
-0.4167516033104176
  0
SEQEND
  5
6D8
  8
LAYER0
  0
POLYLINE
  5
7E
  8
LAYER0
 66
     1
 10
0.0
 20
0.0
 30
0.0
 70
     1
  0
VERTEX
  5
1A5
  8
LAYER0
 10
1154.475792406656
 20
237.9917786503647
 30
0.0
 42
0.4142135623730951
  0
VERTEX
  5
1A6
  8
LAYER0
 10
1184.475792406656
 20
207.9917786503647
 30
0.0
 42
0.4142135623730951
  0
VERTEX
  5
1A7
  8
LAYER0
 10
1214.475792406656
 20
237.9917786503647
 30
0.0
 42
0.4142135623730951
  0
VERTEX
  5
1A8
  8
LAYER0
 10
1184.475792406656
 20
267.9917786503652
 30
0.0
 42
0.4142135623730951
  0
SEQEND
  5
6D9
  8
LAYER0
  0
POLYLINE
  5
7F
  8
LAYER0
 66
     1
 10
0.0
 20
0.0
 30
0.0
 70
     1
  0
VERTEX
  5
1A9
  8
LAYER0
 10
1123.475800038657
 20
260.9815898859708
 30
0.0
  0
VERTEX
  5
1AA
  8
LAYER0
 10
1123.475796014903
 20
289.9918410256246
 30
0.0
 42
-0.4130466514026261
  0
VERTEX
  5
1AB
  8
LAYER0
 10
1131.443909179202
 20
297.991778586839
 30
0.0
  0
VERTEX
  5
1AC
  8
LAYER0
 10
1237.475837996654
 20
297.9917785868623
 30
0.0
 42
-0.4149335031909357
  0
VERTEX
  5
1AD
  8
LAYER0
 10
1245.475813841294
 20
289.9721193595058
 30
0.0
  0
VERTEX
  5
1AE
  8
LAYER0
 10
1245.476291069491
 20
185.991780166462
 30
0.0
 42
-0.415084829204063
  0
VERTEX
  5
1AF
  8
LAYER0
 10
1237.452537625734
 20
177.9917787138681
 30
0.0
  0
VERTEX
  5
1B0
  8
LAYER0
 10
1131.476226180701
 20
177.9917787139373
 30
0.0
 42
-0.4149171181821181
  0
VERTEX
  5
1B1
  8
LAYER0
 10
1123.476249249353
 20
186.0109906325836
 30
0.0
  0
VERTEX
  5
1B2
  8
LAYER0
 10
1123.475800035139
 20
214.9918385870817
 30
0.0
 42
0.4133306447548355
  0
VERTEX
  5
1B3
  8
LAYER0
 10
1120.484799750919
 20
217.9917785867575
 30
0.0
  0
VERTEX
  5
1B4
  8
LAYER0
 10
1106.475805386593
 20
217.9792558501586
 30
0.0
 42
-0.4153917144750761
  0
VERTEX
  5
1B5
  8
LAYER0
 10
1103.475829636686
 20
220.9913181778285
 30
0.0
  0
VERTEX
  5
1B6
  8
LAYER0
 10
1103.475829636577
 20
254.9792858496652
 30
0.0
 42
-0.4129043099648541
  0
VERTEX
  5
1B7
  8
LAYER0
 10
1106.462413274566
 20
257.9792558497347
 30
0.0
  0
VERTEX
  5
1B8
  8
LAYER0
 10
1120.475817340378
 20
257.9917785867585
 30
0.0
 42
0.413219176143138
  0
SEQEND
  5
6DA
  8
LAYER0
  0
POLYLINE
  5
80
  8
LAYER0
 66
     1
 10
0.0
 20
0.0
 30
0.0
 70
     1
  0
VERTEX
  5
1B9
  8
LAYER0
 10
106.4910740146945
 20
238.0675760008096
 30
0.0
 42
0.4142135623730951
  0
VERTEX
  5
1BA
  8
LAYER0
 10
76.4910740146945
 20
268.0675760008096
 30
0.0
 42
0.4142135623730951
  0
VERTEX
  5
1BB
  8
LAYER0
 10
46.4910740146945
 20
238.0675760008096
 30
0.0
 42
0.4142135623730951
  0
VERTEX
  5
1BC
  8
LAYER0
 10
76.4910740146945
 20
208.0675760008091
 30
0.0
 42
0.4142135623730951
  0
SEQEND
  5
6DB
  8
LAYER0
  0
POLYLINE
  5
81
  8
LAYER0
 66
     1
 10
0.0
 20
0.0
 30
0.0
 70
     1
  0
VERTEX
  5
1BD
  8
LAYER0
 10
137.4910663855276
 20
215.0573853236385
 30
0.0
  0
VERTEX
  5
1BE
  8
LAYER0
 10
137.4910704064444
 20
186.0675695594065
 30
0.0
 42
-0.4146177716983084
  0
VERTEX
  5
1BF
  8
LAYER0
 10
129.480032641872
 20
178.0675760643368
 30
0.0
  0
VERTEX
  5
1C0
  8
LAYER0
 10
23.49100938708489
 20
178.067576064312
 30
0.0
 42
-0.4132490734995759
  0
VERTEX
  5
1C1
  8
LAYER0
 10
15.49105279123273
 20
186.0412233637869
 30
0.0
  0
VERTEX
  5
1C2
  8
LAYER0
 10
15.49057535188763
 20
290.0675737758947
 30
0.0
 42
-0.4133542979318746
  0
VERTEX
  5
1C3
  8
LAYER0
 10
23.46706184242021
 20
298.0675759373133
 30
0.0
  0
VERTEX
  5
1C4
  8
LAYER0
 10
129.4906528711522
 20
298.0675759372139
 30
0.0
 42
-0.4133306440720861
  0
VERTEX
  5
1C5
  8
LAYER0
 10
137.4906165002919
 20
290.0916991995615
 30
0.0
  0
VERTEX
  5
1C6
  8
LAYER0
 10
137.491066386229
 20
261.0675160641015
 30
0.0
 42
0.4150879474967574
  0
VERTEX
  5
1C7
  8
LAYER0
 10
140.5000661167553
 20
258.0675760644242
 30
0.0
  0
VERTEX
  5
1C8
  8
LAYER0
 10
154.4910906354282
 20
258.0675760642744
 30
0.0
 42
-0.4153917146142018
  0
VERTEX
  5
1C9
  8
LAYER0
 10
157.4910663853314
 20
255.0555137351674
 30
0.0
  0
VERTEX
  5
1CA
  8
LAYER0
 10
157.4910663854284
 20
221.0675460647607
 30
0.0
 42
-0.4129043119791032
  0
VERTEX
  5
1CB
  8
LAYER0
 10
154.5044827270383
 20
218.067576064693
 30
0.0
  0
VERTEX
  5
1CC
  8
LAYER0
 10
140.4910490769003
 20
218.0675760644206
 30
0.0
 42
0.4152088475752114
  0
SEQEND
  5
6DC
  8
LAYER0
  0
POLYLINE
  5
82
  8
LAYER0
 66
     1
 10
0.0
 20
0.0
 30
0.0
 70
     1
  0
VERTEX
  5
1CD
  8
LAYER0
 10
1869.461064044955
 20
260.4146728926169
 30
0.0
  0
VERTEX
  5
1CE
  8
LAYER0
 10
1569.461064044955
 20
260.4146728926169
 30
0.0
 42
0.0541108387084387
  0
VERTEX
  5
1CF
  8
LAYER0
 10
1526.91798715677
 20
255.7970694853104
 30
0.0
 42
-0.2391904711746534
  0
VERTEX
  5
1D0
  8
LAYER0
 10
1509.396250486229
 20
260.3331549764455
 30
0.0
 42
0.64720419566629
  0
VERTEX
  5
1D1
  8
LAYER0
 10
1459.461064447562
 20
237.9146728926169
 30
0.0
 42
0.6466443801714588
  0
VERTEX
  5
1D2
  8
LAYER0
 10
1509.360835838685
 20
215.4647490634927
 30
0.0
 42
-0.2389693793398022
  0
VERTEX
  5
1D3
  8
LAYER0
 10
1526.855400053321
 20
220.0460352107477
 30
0.0
 42
0.0541918690306501
  0
VERTEX
  5
1D4
  8
LAYER0
 10
1569.461064044955
 20
215.4146728926169
 30
0.0
  0
VERTEX
  5
1D5
  8
LAYER0
 10
1869.461064044955
 20
215.4146728926169
 30
0.0
  0
VERTEX
  5
1D6
  8
LAYER0
 10
2169.461064044955
 20
215.4146728926164
 30
0.0
 42
0.0541108387047783
  0
VERTEX
  5
1D7
  8
LAYER0
 10
2212.004140933122
 20
220.0322763000074
 30
0.0
 42
-0.2391905097418181
  0
VERTEX
  5
1D8
  8
LAYER0
 10
2229.525879785062
 20
215.4961888819137
 30
0.0
 42
0.6472041608305722
  0
VERTEX
  5
1D9
  8
LAYER0
 10
2279.461063553267
 20
237.9146728926164
 30
0.0
 42
0.646644379908574
  0
VERTEX
  5
1DA
  8
LAYER0
 10
2229.561292247557
 20
260.3645967055575
 30
0.0
 42
-0.2389693631815677
  0
VERTEX
  5
1DB
  8
LAYER0
 10
2212.066729231221
 20
255.7833103129008
 30
0.0
 42
0.054191870628649
  0
VERTEX
  5
1DC
  8
LAYER0
 10
2169.461064044955
 20
260.4146728926164
 30
0.0
  0
SEQEND
  5
6DD
  8
LAYER0
  0
POLYLINE
  5
83
  8
LAYER0
 66
     1
 10
0.0
 20
0.0
 30
0.0
 70
     1
  0
VERTEX
  5
1DD
  8
LAYER0
 10
2333.463002060522
 20
289.8555108287887
 30
0.0
  0
VERTEX
  5
1DE
  8
LAYER0
 10
2333.461038525375
 20
237.8899752349505
 30
0.0
  0
VERTEX
  5
1DF
  8
LAYER0
 10
2333.459074989329
 20
185.9244154258699
 30
0.0
 42
-0.4153582021433403
  0
VERTEX
  5
1E0
  8
LAYER0
 10
2325.427521094384
 20
177.9247799368262
 30
0.0
  0
VERTEX
  5
1E1
  8
LAYER0
 10
1413.45880325527
 20
177.9429905292942
 30
0.0
 42
-0.4117017951700829
  0
VERTEX
  5
1E2
  8
LAYER0
 10
1405.459097947027
 20
185.8743248213515
 30
0.0
  0
VERTEX
  5
1E3
  8
LAYER0
 10
1405.461064044955
 20
237.9088373184071
 30
0.0
  0
VERTEX
  5
1E4
  8
LAYER0
 10
1405.463030142884
 20
289.9433498154622
 30
0.0
 42
-0.4154359537516408
  0
VERTEX
  5
1E5
  8
LAYER0
 10
1413.496700887198
 20
297.9429817145842
 30
0.0
  0
VERTEX
  5
1E6
  8
LAYER0
 10
2325.463301876981
 20
297.9247710153986
 30
0.0
 42
-0.4167516033104176
  0
SEQEND
  5
6DE
  8
LAYER0
  0
POLYLINE
  5
84
  8
LAYER0
 66
     1
 10
0.0
 20
0.0
 30
0.0
 70
     1
  0
VERTEX
  5
1E7
  8
LAYER0
 10
2393.461030896061
 20
237.8963242339757
 30
0.0
 42
0.4142135623730951
  0
VERTEX
  5
1E8
  8
LAYER0
 10
2423.461030896061
 20
207.8963242339757
 30
0.0
 42
0.4142135623730951
  0
VERTEX
  5
1E9
  8
LAYER0
 10
2453.461030896061
 20
237.8963242339757
 30
0.0
 42
0.4142135623730951
  0
VERTEX
  5
1EA
  8
LAYER0
 10
2423.461030896061
 20
267.8963242339762
 30
0.0
 42
0.4142135623730951
  0
SEQEND
  5
6DF
  8
LAYER0
  0
POLYLINE
  5
85
  8
LAYER0
 66
     1
 10
0.0
 20
0.0
 30
0.0
 70
     1
  0
VERTEX
  5
1EB
  8
LAYER0
 10
2362.461038528063
 20
260.8861354695819
 30
0.0
  0
VERTEX
  5
1EC
  8
LAYER0
 10
2362.461034504308
 20
289.8963866092356
 30
0.0
 42
-0.4130466514026261
  0
VERTEX
  5
1ED
  8
LAYER0
 10
2370.429147668608
 20
297.89632417045
 30
0.0
  0
VERTEX
  5
1EE
  8
LAYER0
 10
2476.46107648606
 20
297.8963241704733
 30
0.0
 42
-0.4149335031909357
  0
VERTEX
  5
1EF
  8
LAYER0
 10
2484.461052330699
 20
289.8766649431168
 30
0.0
  0
VERTEX
  5
1F0
  8
LAYER0
 10
2484.461529558896
 20
185.8963257500731
 30
0.0
 42
-0.415084829204063
  0
VERTEX
  5
1F1
  8
LAYER0
 10
2476.43777611514
 20
177.8963242974792
 30
0.0
  0
VERTEX
  5
1F2
  8
LAYER0
 10
2370.461464670107
 20
177.8963242975483
 30
0.0
 42
-0.4149171181821181
  0
VERTEX
  5
1F3
  8
LAYER0
 10
2362.461487738758
 20
185.9155362161946
 30
0.0
  0
VERTEX
  5
1F4
  8
LAYER0
 10
2362.461038524544
 20
214.8963841706927
 30
0.0
 42
0.4133306447548355
  0
VERTEX
  5
1F5
  8
LAYER0
 10
2359.470038240324
 20
217.8963241703685
 30
0.0
  0
VERTEX
  5
1F6
  8
LAYER0
 10
2345.461043875998
 20
217.8838014337696
 30
0.0
 42
-0.4153917144750761
  0
VERTEX
  5
1F7
  8
LAYER0
 10
2342.461068126092
 20
220.8958637614395
 30
0.0
  0
VERTEX
  5
1F8
  8
LAYER0
 10
2342.461068125983
 20
254.8838314332762
 30
0.0
 42
-0.4129043099648541
  0
VERTEX
  5
1F9
  8
LAYER0
 10
2345.447651763971
 20
257.8838014333458
 30
0.0
  0
VERTEX
  5
1FA
  8
LAYER0
 10
2359.461055829784
 20
257.8963241703696
 30
0.0
 42
0.413219176143138
  0
SEQEND
  5
6E0
  8
LAYER0
  0
POLYLINE
  5
86
  8
LAYER0
 66
     1
 10
0.0
 20
0.0
 30
0.0
 70
     1
  0
VERTEX
  5
1FB
  8
LAYER0
 10
1345.4763125041
 20
237.9721215844206
 30
0.0
 42
0.4142135623730951
  0
VERTEX
  5
1FC
  8
LAYER0
 10
1315.4763125041
 20
267.9721215844206
 30
0.0
 42
0.4142135623730951
  0
VERTEX
  5
1FD
  8
LAYER0
 10
1285.4763125041
 20
237.9721215844206
 30
0.0
 42
0.4142135623730951
  0
VERTEX
  5
1FE
  8
LAYER0
 10
1315.4763125041
 20
207.9721215844202
 30
0.0
 42
0.4142135623730951
  0
SEQEND
  5
6E1
  8
LAYER0
  0
POLYLINE
  5
87
  8
LAYER0
 66
     1
 10
0.0
 20
0.0
 30
0.0
 70
     1
  0
VERTEX
  5
1FF
  8
LAYER0
 10
1376.476304874933
 20
214.9619309072496
 30
0.0
  0
VERTEX
  5
200
  8
LAYER0
 10
1376.47630889585
 20
185.9721151430175
 30
0.0
 42
-0.4146177716983084
  0
VERTEX
  5
201
  8
LAYER0
 10
1368.465271131278
 20
177.9721216479478
 30
0.0
  0
VERTEX
  5
202
  8
LAYER0
 10
1262.476247876491
 20
177.972121647923
 30
0.0
 42
-0.4132490734995759
  0
VERTEX
  5
203
  8
LAYER0
 10
1254.476291280639
 20
185.9457689473979
 30
0.0
  0
VERTEX
  5
204
  8
LAYER0
 10
1254.475813841294
 20
289.9721193595058
 30
0.0
 42
-0.4133542979318746
  0
VERTEX
  5
205
  8
LAYER0
 10
1262.452300331826
 20
297.9721215209244
 30
0.0
  0
VERTEX
  5
206
  8
LAYER0
 10
1368.475891360558
 20
297.9721215208249
 30
0.0
 42
-0.4133306440720861
  0
VERTEX
  5
207
  8
LAYER0
 10
1376.475854989698
 20
289.9962447831725
 30
0.0
  0
VERTEX
  5
208
  8
LAYER0
 10
1376.476304875635
 20
260.9720616477125
 30
0.0
 42
0.4150879474967574
  0
VERTEX
  5
209
  8
LAYER0
 10
1379.485304606161
 20
257.9721216480352
 30
0.0
  0
VERTEX
  5
20A
  8
LAYER0
 10
1393.476329124834
 20
257.9721216478854
 30
0.0
 42
-0.4153917146142018
  0
VERTEX
  5
20B
  8
LAYER0
 10
1396.476304874737
 20
254.9600593187785
 30
0.0
  0
VERTEX
  5
20C
  8
LAYER0
 10
1396.476304874834
 20
220.9720916483717
 30
0.0
 42
-0.4129043119791032
  0
VERTEX
  5
20D
  8
LAYER0
 10
1393.489721216444
 20
217.972121648304
 30
0.0
  0
VERTEX
  5
20E
  8
LAYER0
 10
1379.476287566306
 20
217.9721216480316
 30
0.0
 42
0.4152088475752114
  0
SEQEND
  5
6E2
  8
LAYER0
  0
POLYLINE
  5
88
  8
LAYER0
 66
     1
 10
0.0
 20
0.0
 30
0.0
 70
     1
  0
VERTEX
  5
20F
  8
LAYER0
 10
630.4997731001811
 20
389.5281774456756
 30
0.0
  0
VERTEX
  5
210
  8
LAYER0
 10
330.4997731001811
 20
389.5281774456756
 30
0.0
 42
0.0541108387084387
  0
VERTEX
  5
211
  8
LAYER0
 10
287.9566962119952
 20
384.9105740383692
 30
0.0
 42
-0.2391904711746534
  0
VERTEX
  5
212
  8
LAYER0
 10
270.4349595414542
 20
389.4466595295042
 30
0.0
 42
0.64720419566629
  0
VERTEX
  5
213
  8
LAYER0
 10
220.4997735027868
 20
367.0281774456756
 30
0.0
 42
0.6466443801714588
  0
VERTEX
  5
214
  8
LAYER0
 10
270.3995448939108
 20
344.5782536165515
 30
0.0
 42
-0.2389693793398022
  0
VERTEX
  5
215
  8
LAYER0
 10
287.8941091085462
 20
349.1595397638065
 30
0.0
 42
0.0541918690306501
  0
VERTEX
  5
216
  8
LAYER0
 10
330.4997731001811
 20
344.5281774456756
 30
0.0
  0
VERTEX
  5
217
  8
LAYER0
 10
630.4997731001811
 20
344.5281774456756
 30
0.0
  0
VERTEX
  5
218
  8
LAYER0
 10
930.4997731001811
 20
344.5281774456752
 30
0.0
 42
0.0541108387047783
  0
VERTEX
  5
219
  8
LAYER0
 10
973.0428499883485
 20
349.1457808530662
 30
0.0
 42
-0.2391905097418181
  0
VERTEX
  5
21A
  8
LAYER0
 10
990.5645888402876
 20
344.6096934349724
 30
0.0
 42
0.6472041608305722
  0
VERTEX
  5
21B
  8
LAYER0
 10
1040.499772608493
 20
367.0281774456752
 30
0.0
 42
0.646644379908574
  0
VERTEX
  5
21C
  8
LAYER0
 10
990.6000013027826
 20
389.4781012586162
 30
0.0
 42
-0.2389693631815677
  0
VERTEX
  5
21D
  8
LAYER0
 10
973.1054382864468
 20
384.8968148659595
 30
0.0
 42
0.054191870628649
  0
VERTEX
  5
21E
  8
LAYER0
 10
930.4997731001811
 20
389.5281774456752
 30
0.0
  0
SEQEND
  5
6E3
  8
LAYER0
  0
POLYLINE
  5
89
  8
LAYER0
 66
     1
 10
0.0
 20
0.0
 30
0.0
 70
     1
  0
VERTEX
  5
21F
  8
LAYER0
 10
1094.501711115747
 20
418.9690153818475
 30
0.0
  0
VERTEX
  5
220
  8
LAYER0
 10
1094.499747580601
 20
367.0034797880093
 30
0.0
  0
VERTEX
  5
221
  8
LAYER0
 10
1094.497784044554
 20
315.0379199789287
 30
0.0
 42
-0.4153582021433403
  0
VERTEX
  5
222
  8
LAYER0
 10
1086.46623014961
 20
307.038284489885
 30
0.0
  0
VERTEX
  5
223
  8
LAYER0
 10
174.4975123104949
 20
307.056495082353
 30
0.0
 42
-0.4117017951700829
  0
VERTEX
  5
224
  8
LAYER0
 10
166.4978070022524
 20
314.9878293744102
 30
0.0
  0
VERTEX
  5
225
  8
LAYER0
 10
166.4997731001807
 20
367.0223418714659
 30
0.0
  0
VERTEX
  5
226
  8
LAYER0
 10
166.501739198109
 20
419.0568543685209
 30
0.0
 42
-0.4154359537516408
  0
VERTEX
  5
227
  8
LAYER0
 10
174.5354099424229
 20
427.056486267643
 30
0.0
  0
VERTEX
  5
228
  8
LAYER0
 10
1086.502010932206
 20
427.0382755684574
 30
0.0
 42
-0.4167516033104176
  0
SEQEND
  5
6E4
  8
LAYER0
  0
POLYLINE
  5
8A
  8
LAYER0
 66
     1
 10
0.0
 20
0.0
 30
0.0
 70
     1
  0
VERTEX
  5
229
  8
LAYER0
 10
1154.499739951287
 20
367.0098287870345
 30
0.0
 42
0.4142135623730951
  0
VERTEX
  5
22A
  8
LAYER0
 10
1184.499739951287
 20
337.0098287870345
 30
0.0
 42
0.4142135623730951
  0
VERTEX
  5
22B
  8
LAYER0
 10
1214.499739951287
 20
367.0098287870345
 30
0.0
 42
0.4142135623730951
  0
VERTEX
  5
22C
  8
LAYER0
 10
1184.499739951287
 20
397.009828787035
 30
0.0
 42
0.4142135623730951
  0
SEQEND
  5
6E5
  8
LAYER0
  0
POLYLINE
  5
8B
  8
LAYER0
 66
     1
 10
0.0
 20
0.0
 30
0.0
 70
     1
  0
VERTEX
  5
22D
  8
LAYER0
 10
1123.499747583288
 20
389.9996400226406
 30
0.0
  0
VERTEX
  5
22E
  8
LAYER0
 10
1123.499743559534
 20
419.0098911622944
 30
0.0
 42
-0.4130466514026261
  0
VERTEX
  5
22F
  8
LAYER0
 10
1131.467856723833
 20
427.0098287235088
 30
0.0
  0
VERTEX
  5
230
  8
LAYER0
 10
1237.499785541285
 20
427.0098287235321
 30
0.0
 42
-0.4149335031909357
  0
VERTEX
  5
231
  8
LAYER0
 10
1245.499761385925
 20
418.9901694961756
 30
0.0
  0
VERTEX
  5
232
  8
LAYER0
 10
1245.500238614122
 20
315.0098303031318
 30
0.0
 42
-0.415084829204063
  0
VERTEX
  5
233
  8
LAYER0
 10
1237.476485170365
 20
307.0098288505379
 30
0.0
  0
VERTEX
  5
234
  8
LAYER0
 10
1131.500173725332
 20
307.0098288506071
 30
0.0
 42
-0.4149171181821181
  0
VERTEX
  5
235
  8
LAYER0
 10
1123.500196793984
 20
315.0290407692534
 30
0.0
  0
VERTEX
  5
236
  8
LAYER0
 10
1123.49974757977
 20
344.0098887237515
 30
0.0
 42
0.4133306447548355
  0
VERTEX
  5
237
  8
LAYER0
 10
1120.50874729555
 20
347.0098287234273
 30
0.0
  0
VERTEX
  5
238
  8
LAYER0
 10
1106.499752931224
 20
346.9973059868283
 30
0.0
 42
-0.4153917144750761
  0
VERTEX
  5
239
  8
LAYER0
 10
1103.499777181318
 20
350.0093683144983
 30
0.0
  0
VERTEX
  5
23A
  8
LAYER0
 10
1103.499777181208
 20
383.997335986335
 30
0.0
 42
-0.4129043099648541
  0
VERTEX
  5
23B
  8
LAYER0
 10
1106.486360819197
 20
386.9973059864045
 30
0.0
  0
VERTEX
  5
23C
  8
LAYER0
 10
1120.499764885009
 20
387.0098287234283
 30
0.0
 42
0.413219176143138
  0
SEQEND
  5
6E6
  8
LAYER0
  0
POLYLINE
  5
8C
  8
LAYER0
 66
     1
 10
0.0
 20
0.0
 30
0.0
 70
     1
  0
VERTEX
  5
23D
  8
LAYER0
 10
106.5150215593256
 20
367.0856261374794
 30
0.0
 42
0.4142135623730951
  0
VERTEX
  5
23E
  8
LAYER0
 10
76.51502155932565
 20
397.0856261374794
 30
0.0
 42
0.4142135623730951
  0
VERTEX
  5
23F
  8
LAYER0
 10
46.51502155932565
 20
367.0856261374794
 30
0.0
 42
0.4142135623730951
  0
VERTEX
  5
240
  8
LAYER0
 10
76.51502155932565
 20
337.0856261374789
 30
0.0
 42
0.4142135623730951
  0
SEQEND
  5
6E7
  8
LAYER0
  0
POLYLINE
  5
8D
  8
LAYER0
 66
     1
 10
0.0
 20
0.0
 30
0.0
 70
     1
  0
VERTEX
  5
241
  8
LAYER0
 10
137.5150139301587
 20
344.0754354603083
 30
0.0
  0
VERTEX
  5
242
  8
LAYER0
 10
137.5150179510755
 20
315.0856196960763
 30
0.0
 42
-0.4146177716983084
  0
VERTEX
  5
243
  8
LAYER0
 10
129.5039801865031
 20
307.0856262010066
 30
0.0
  0
VERTEX
  5
244
  8
LAYER0
 10
23.51495693171603
 20
307.0856262009818
 30
0.0
 42
-0.4132490734995759
  0
VERTEX
  5
245
  8
LAYER0
 10
15.51500033586387
 20
315.0592735004567
 30
0.0
  0
VERTEX
  5
246
  8
LAYER0
 10
15.51452289651877
 20
419.0856239125645
 30
0.0
 42
-0.4133542979318746
  0
VERTEX
  5
247
  8
LAYER0
 10
23.49100938705135
 20
427.0856260739831
 30
0.0
  0
VERTEX
  5
248
  8
LAYER0
 10
129.5146004157833
 20
427.0856260738836
 30
0.0
 42
-0.4133306440720861
  0
VERTEX
  5
249
  8
LAYER0
 10
137.5145640449231
 20
419.1097493362313
 30
0.0
  0
VERTEX
  5
24A
  8
LAYER0
 10
137.5150139308602
 20
390.0855662007713
 30
0.0
 42
0.4150879474967574
  0
VERTEX
  5
24B
  8
LAYER0
 10
140.5240136613864
 20
387.085626201094
 30
0.0
  0
VERTEX
  5
24C
  8
LAYER0
 10
154.5150381800594
 20
387.0856262009441
 30
0.0
 42
-0.4153917146142018
  0
VERTEX
  5
24D
  8
LAYER0
 10
157.5150139299625
 20
384.0735638718372
 30
0.0
  0
VERTEX
  5
24E
  8
LAYER0
 10
157.5150139300596
 20
350.0855962014305
 30
0.0
 42
-0.4129043119791032
  0
VERTEX
  5
24F
  8
LAYER0
 10
154.5284302716694
 20
347.0856262013627
 30
0.0
  0
VERTEX
  5
250
  8
LAYER0
 10
140.5149966215314
 20
347.0856262010903
 30
0.0
 42
0.4152088475752114
  0
SEQEND
  5
6E8
  8
LAYER0
  0
POLYLINE
  5
8E
  8
LAYER0
 66
     1
 10
0.0
 20
0.0
 30
0.0
 70
     1
  0
VERTEX
  5
251
  8
LAYER0
 10
1869.485011589587
 20
389.4327230292866
 30
0.0
  0
VERTEX
  5
252
  8
LAYER0
 10
1569.485011589587
 20
389.4327230292866
 30
0.0
 42
0.0541108387084387
  0
VERTEX
  5
253
  8
LAYER0
 10
1526.941934701401
 20
384.8151196219802
 30
0.0
 42
-0.2391904711746534
  0
VERTEX
  5
254
  8
LAYER0
 10
1509.42019803086
 20
389.3512051131153
 30
0.0
 42
0.64720419566629
  0
VERTEX
  5
255
  8
LAYER0
 10
1459.485011992193
 20
366.9327230292866
 30
0.0
 42
0.6466443801714588
  0
VERTEX
  5
256
  8
LAYER0
 10
1509.384783383317
 20
344.4827992001625
 30
0.0
 42
-0.2389693793398022
  0
VERTEX
  5
257
  8
LAYER0
 10
1526.879347597952
 20
349.0640853474175
 30
0.0
 42
0.0541918690306501
  0
VERTEX
  5
258
  8
LAYER0
 10
1569.485011589587
 20
344.4327230292866
 30
0.0
  0
VERTEX
  5
259
  8
LAYER0
 10
1869.485011589587
 20
344.4327230292866
 30
0.0
  0
VERTEX
  5
25A
  8
LAYER0
 10
2169.485011589587
 20
344.4327230292862
 30
0.0
 42
0.0541108387047783
  0
VERTEX
  5
25B
  8
LAYER0
 10
2212.028088477754
 20
349.0503264366772
 30
0.0
 42
-0.2391905097418181
  0
VERTEX
  5
25C
  8
LAYER0
 10
2229.549827329693
 20
344.5142390185835
 30
0.0
 42
0.6472041608305722
  0
VERTEX
  5
25D
  8
LAYER0
 10
2279.485011097899
 20
366.9327230292862
 30
0.0
 42
0.646644379908574
  0
VERTEX
  5
25E
  8
LAYER0
 10
2229.585239792188
 20
389.3826468422272
 30
0.0
 42
-0.2389693631815677
  0
VERTEX
  5
25F
  8
LAYER0
 10
2212.090676775852
 20
384.8013604495706
 30
0.0
 42
0.054191870628649
  0
VERTEX
  5
260
  8
LAYER0
 10
2169.485011589587
 20
389.4327230292862
 30
0.0
  0
SEQEND
  5
6E9
  8
LAYER0
  0
POLYLINE
  5
8F
  8
LAYER0
 66
     1
 10
0.0
 20
0.0
 30
0.0
 70
     1
  0
VERTEX
  5
261
  8
LAYER0
 10
2333.486949605153
 20
418.8735609654585
 30
0.0
  0
VERTEX
  5
262
  8
LAYER0
 10
2333.484986070007
 20
366.9080253716203
 30
0.0
  0
VERTEX
  5
263
  8
LAYER0
 10
2333.48302253396
 20
314.9424655625397
 30
0.0
 42
-0.4153582021433403
  0
VERTEX
  5
264
  8
LAYER0
 10
2325.451468639016
 20
306.942830073496
 30
0.0
  0
VERTEX
  5
265
  8
LAYER0
 10
1413.482750799901
 20
306.961040665964
 30
0.0
 42
-0.4117017951700829
  0
VERTEX
  5
266
  8
LAYER0
 10
1405.483045491658
 20
314.8923749580213
 30
0.0
  0
VERTEX
  5
267
  8
LAYER0
 10
1405.485011589587
 20
366.9268874550769
 30
0.0
  0
VERTEX
  5
268
  8
LAYER0
 10
1405.486977687515
 20
418.961399952132
 30
0.0
 42
-0.4154359537516408
  0
VERTEX
  5
269
  8
LAYER0
 10
1413.520648431829
 20
426.961031851254
 30
0.0
  0
VERTEX
  5
26A
  8
LAYER0
 10
2325.487249421612
 20
426.9428211520684
 30
0.0
 42
-0.4167516033104176
  0
SEQEND
  5
6EA
  8
LAYER0
  0
POLYLINE
  5
90
  8
LAYER0
 66
     1
 10
0.0
 20
0.0
 30
0.0
 70
     1
  0
VERTEX
  5
26B
  8
LAYER0
 10
2393.484978440692
 20
366.9143743706455
 30
0.0
 42
0.4142135623730951
  0
VERTEX
  5
26C
  8
LAYER0
 10
2423.484978440692
 20
336.9143743706455
 30
0.0
 42
0.4142135623730951
  0
VERTEX
  5
26D
  8
LAYER0
 10
2453.484978440692
 20
366.9143743706455
 30
0.0
 42
0.4142135623730951
  0
VERTEX
  5
26E
  8
LAYER0
 10
2423.484978440692
 20
396.914374370646
 30
0.0
 42
0.4142135623730951
  0
SEQEND
  5
6EB
  8
LAYER0
  0
POLYLINE
  5
91
  8
LAYER0
 66
     1
 10
0.0
 20
0.0
 30
0.0
 70
     1
  0
VERTEX
  5
26F
  8
LAYER0
 10
2362.484986072694
 20
389.9041856062516
 30
0.0
  0
VERTEX
  5
270
  8
LAYER0
 10
2362.48498204894
 20
418.9144367459054
 30
0.0
 42
-0.4130466514026261
  0
VERTEX
  5
271
  8
LAYER0
 10
2370.453095213239
 20
426.9143743071198
 30
0.0
  0
VERTEX
  5
272
  8
LAYER0
 10
2476.485024030691
 20
426.9143743071431
 30
0.0
 42
-0.4149335031909357
  0
VERTEX
  5
273
  8
LAYER0
 10
2484.484999875331
 20
418.8947150797866
 30
0.0
  0
VERTEX
  5
274
  8
LAYER0
 10
2484.485477103528
 20
314.9143758867428
 30
0.0
 42
-0.415084829204063
  0
VERTEX
  5
275
  8
LAYER0
 10
2476.461723659771
 20
306.914374434149
 30
0.0
  0
VERTEX
  5
276
  8
LAYER0
 10
2370.485412214738
 20
306.9143744342181
 30
0.0
 42
-0.4149171181821181
  0
VERTEX
  5
277
  8
LAYER0
 10
2362.48543528339
 20
314.9335863528644
 30
0.0
  0
VERTEX
  5
278
  8
LAYER0
 10
2362.484986069176
 20
343.9144343073625
 30
0.0
 42
0.4133306447548355
  0
VERTEX
  5
279
  8
LAYER0
 10
2359.493985784956
 20
346.9143743070383
 30
0.0
  0
VERTEX
  5
27A
  8
LAYER0
 10
2345.48499142063
 20
346.9018515704394
 30
0.0
 42
-0.4153917144750761
  0
VERTEX
  5
27B
  8
LAYER0
 10
2342.485015670723
 20
349.9139138981093
 30
0.0
  0
VERTEX
  5
27C
  8
LAYER0
 10
2342.485015670614
 20
383.901881569946
 30
0.0
 42
-0.4129043099648541
  0
VERTEX
  5
27D
  8
LAYER0
 10
2345.471599308603
 20
386.9018515700155
 30
0.0
  0
VERTEX
  5
27E
  8
LAYER0
 10
2359.485003374415
 20
386.9143743070393
 30
0.0
 42
0.413219176143138
  0
SEQEND
  5
6EC
  8
LAYER0
  0
POLYLINE
  5
92
  8
LAYER0
 66
     1
 10
0.0
 20
0.0
 30
0.0
 70
     1
  0
VERTEX
  5
27F
  8
LAYER0
 10
1345.500260048731
 20
366.9901717210904
 30
0.0
 42
0.4142135623730951
  0
VERTEX
  5
280
  8
LAYER0
 10
1315.500260048731
 20
396.9901717210904
 30
0.0
 42
0.4142135623730951
  0
VERTEX
  5
281
  8
LAYER0
 10
1285.500260048731
 20
366.9901717210904
 30
0.0
 42
0.4142135623730951
  0
VERTEX
  5
282
  8
LAYER0
 10
1315.500260048731
 20
336.99017172109
 30
0.0
 42
0.4142135623730951
  0
SEQEND
  5
6ED
  8
LAYER0
  0
POLYLINE
  5
93
  8
LAYER0
 66
     1
 10
0.0
 20
0.0
 30
0.0
 70
     1
  0
VERTEX
  5
283
  8
LAYER0
 10
1376.500252419564
 20
343.9799810439193
 30
0.0
  0
VERTEX
  5
284
  8
LAYER0
 10
1376.500256440481
 20
314.9901652796873
 30
0.0
 42
-0.4146177716983084
  0
VERTEX
  5
285
  8
LAYER0
 10
1368.489218675909
 20
306.9901717846176
 30
0.0
  0
VERTEX
  5
286
  8
LAYER0
 10
1262.500195421122
 20
306.9901717845928
 30
0.0
 42
-0.4132490734995759
  0
VERTEX
  5
287
  8
LAYER0
 10
1254.50023882527
 20
314.9638190840677
 30
0.0
  0
VERTEX
  5
288
  8
LAYER0
 10
1254.499761385925
 20
418.9901694961756
 30
0.0
 42
-0.4133542979318746
  0
VERTEX
  5
289
  8
LAYER0
 10
1262.476247876457
 20
426.9901716575941
 30
0.0
  0
VERTEX
  5
28A
  8
LAYER0
 10
1368.499838905189
 20
426.9901716574947
 30
0.0
 42
-0.4133306440720861
  0
VERTEX
  5
28B
  8
LAYER0
 10
1376.499802534329
 20
419.0142949198423
 30
0.0
  0
VERTEX
  5
28C
  8
LAYER0
 10
1376.500252420266
 20
389.9901117843823
 30
0.0
 42
0.4150879474967574
  0
VERTEX
  5
28D
  8
LAYER0
 10
1379.509252150792
 20
386.990171784705
 30
0.0
  0
VERTEX
  5
28E
  8
LAYER0
 10
1393.500276669465
 20
386.9901717845552
 30
0.0
 42
-0.4153917146142018
  0
VERTEX
  5
28F
  8
LAYER0
 10
1396.500252419368
 20
383.9781094554482
 30
0.0
  0
VERTEX
  5
290
  8
LAYER0
 10
1396.500252419465
 20
349.9901417850415
 30
0.0
 42
-0.4129043119791032
  0
VERTEX
  5
291
  8
LAYER0
 10
1393.513668761075
 20
346.9901717849738
 30
0.0
  0
VERTEX
  5
292
  8
LAYER0
 10
1379.500235110937
 20
346.9901717847014
 30
0.0
 42
0.4152088475752114
  0
SEQEND
  5
6EE
  8
LAYER0
  0
POLYLINE
  5
94
  8
LAYER0
 66
     1
 10
0.0
 20
0.0
 30
0.0
 70
     1
  0
VERTEX
  5
293
  8
LAYER0
 10
630.4758255555734
 20
518.528177318677
 30
0.0
  0
VERTEX
  5
294
  8
LAYER0
 10
330.4758255555734
 20
518.528177318677
 30
0.0
 42
0.0541108387084387
  0
VERTEX
  5
295
  8
LAYER0
 10
287.9327486673875
 20
513.9105739113705
 30
0.0
 42
-0.2391904711746534
  0
VERTEX
  5
296
  8
LAYER0
 10
270.4110119968465
 20
518.4466594025056
 30
0.0
 42
0.64720419566629
  0
VERTEX
  5
297
  8
LAYER0
 10
220.475825958179
 20
496.028177318677
 30
0.0
 42
0.6466443801714588
  0
VERTEX
  5
298
  8
LAYER0
 10
270.3755973493031
 20
473.5782534895528
 30
0.0
 42
-0.2389693793398022
  0
VERTEX
  5
299
  8
LAYER0
 10
287.8701615639385
 20
478.1595396368078
 30
0.0
 42
0.0541918690306501
  0
VERTEX
  5
29A
  8
LAYER0
 10
330.4758255555734
 20
473.528177318677
 30
0.0
  0
VERTEX
  5
29B
  8
LAYER0
 10
630.4758255555734
 20
473.528177318677
 30
0.0
  0
VERTEX
  5
29C
  8
LAYER0
 10
930.4758255555734
 20
473.5281773186765
 30
0.0
 42
0.0541108387047783
  0
VERTEX
  5
29D
  8
LAYER0
 10
973.0189024437408
 20
478.1457807260675
 30
0.0
 42
-0.2391905097418181
  0
VERTEX
  5
29E
  8
LAYER0
 10
990.5406412956798
 20
473.6096933079738
 30
0.0
 42
0.6472041608305722
  0
VERTEX
  5
29F
  8
LAYER0
 10
1040.475825063885
 20
496.0281773186765
 30
0.0
 42
0.646644379908574
  0
VERTEX
  5
2A0
  8
LAYER0
 10
990.5760537581749
 20
518.4781011316176
 30
0.0
 42
-0.2389693631815677
  0
VERTEX
  5
2A1
  8
LAYER0
 10
973.081490741839
 20
513.8968147389609
 30
0.0
 42
0.054191870628649
  0
VERTEX
  5
2A2
  8
LAYER0
 10
930.4758255555734
 20
518.5281773186765
 30
0.0
  0
SEQEND
  5
6EF
  8
LAYER0
  0
POLYLINE
  5
95
  8
LAYER0
 66
     1
 10
0.0
 20
0.0
 30
0.0
 70
     1
  0
VERTEX
  5
2A3
  8
LAYER0
 10
1094.47776357114
 20
547.9690152548488
 30
0.0
  0
VERTEX
  5
2A4
  8
LAYER0
 10
1094.475800035994
 20
496.0034796610106
 30
0.0
  0
VERTEX
  5
2A5
  8
LAYER0
 10
1094.473836499946
 20
444.03791985193
 30
0.0
 42
-0.4153582021433403
  0
VERTEX
  5
2A6
  8
LAYER0
 10
1086.442282605002
 20
436.0382843628863
 30
0.0
  0
VERTEX
  5
2A7
  8
LAYER0
 10
174.4735647658872
 20
436.0564949553543
 30
0.0
 42
-0.4117017951700829
  0
VERTEX
  5
2A8
  8
LAYER0
 10
166.4738594576447
 20
443.9878292474116
 30
0.0
  0
VERTEX
  5
2A9
  8
LAYER0
 10
166.475825555573
 20
496.0223417444672
 30
0.0
  0
VERTEX
  5
2AA
  8
LAYER0
 10
166.4777916535013
 20
548.0568542415223
 30
0.0
 42
-0.4154359537516408
  0
VERTEX
  5
2AB
  8
LAYER0
 10
174.5114623978152
 20
556.0564861406443
 30
0.0
  0
VERTEX
  5
2AC
  8
LAYER0
 10
1086.478063387599
 20
556.0382754414587
 30
0.0
 42
-0.4167516033104176
  0
SEQEND
  5
6F0
  8
LAYER0
  0
POLYLINE
  5
96
  8
LAYER0
 66
     1
 10
0.0
 20
0.0
 30
0.0
 70
     1
  0
VERTEX
  5
2AD
  8
LAYER0
 10
1154.475792406679
 20
496.0098286600359
 30
0.0
 42
0.4142135623730951
  0
VERTEX
  5
2AE
  8
LAYER0
 10
1184.475792406679
 20
466.0098286600359
 30
0.0
 42
0.4142135623730951
  0
VERTEX
  5
2AF
  8
LAYER0
 10
1214.475792406679
 20
496.0098286600359
 30
0.0
 42
0.4142135623730951
  0
VERTEX
  5
2B0
  8
LAYER0
 10
1184.475792406679
 20
526.0098286600363
 30
0.0
 42
0.4142135623730951
  0
SEQEND
  5
6F1
  8
LAYER0
  0
POLYLINE
  5
97
  8
LAYER0
 66
     1
 10
0.0
 20
0.0
 30
0.0
 70
     1
  0
VERTEX
  5
2B1
  8
LAYER0
 10
1123.475800038681
 20
518.999639895642
 30
0.0
  0
VERTEX
  5
2B2
  8
LAYER0
 10
1123.475796014927
 20
548.0098910352957
 30
0.0
 42
-0.4130466514026261
  0
VERTEX
  5
2B3
  8
LAYER0
 10
1131.443909179226
 20
556.0098285965101
 30
0.0
  0
VERTEX
  5
2B4
  8
LAYER0
 10
1237.475837996678
 20
556.0098285965335
 30
0.0
 42
-0.4149335031909357
  0
VERTEX
  5
2B5
  8
LAYER0
 10
1245.475813841317
 20
547.9901693691769
 30
0.0
  0
VERTEX
  5
2B6
  8
LAYER0
 10
1245.476291069514
 20
444.0098301761332
 30
0.0
 42
-0.415084829204063
  0
VERTEX
  5
2B7
  8
LAYER0
 10
1237.452537625758
 20
436.0098287235393
 30
0.0
  0
VERTEX
  5
2B8
  8
LAYER0
 10
1131.476226180724
 20
436.0098287236084
 30
0.0
 42
-0.4149171181821181
  0
VERTEX
  5
2B9
  8
LAYER0
 10
1123.476249249376
 20
444.0290406422547
 30
0.0
  0
VERTEX
  5
2BA
  8
LAYER0
 10
1123.475800035162
 20
473.0098885967528
 30
0.0
 42
0.4133306447548355
  0
VERTEX
  5
2BB
  8
LAYER0
 10
1120.484799750942
 20
476.0098285964286
 30
0.0
  0
VERTEX
  5
2BC
  8
LAYER0
 10
1106.475805386616
 20
475.9973058598297
 30
0.0
 42
-0.4153917144750761
  0
VERTEX
  5
2BD
  8
LAYER0
 10
1103.47582963671
 20
479.0093681874996
 30
0.0
  0
VERTEX
  5
2BE
  8
LAYER0
 10
1103.475829636601
 20
512.9973358593363
 30
0.0
 42
-0.4129043099648541
  0
VERTEX
  5
2BF
  8
LAYER0
 10
1106.46241327459
 20
515.9973058594059
 30
0.0
  0
VERTEX
  5
2C0
  8
LAYER0
 10
1120.475817340402
 20
516.0098285964297
 30
0.0
 42
0.413219176143138
  0
SEQEND
  5
6F2
  8
LAYER0
  0
POLYLINE
  5
98
  8
LAYER0
 66
     1
 10
0.0
 20
0.0
 30
0.0
 70
     1
  0
VERTEX
  5
2C1
  8
LAYER0
 10
106.4910740147179
 20
496.0856260104807
 30
0.0
 42
0.4142135623730951
  0
VERTEX
  5
2C2
  8
LAYER0
 10
76.49107401471792
 20
526.0856260104807
 30
0.0
 42
0.4142135623730951
  0
VERTEX
  5
2C3
  8
LAYER0
 10
46.49107401471792
 20
496.0856260104807
 30
0.0
 42
0.4142135623730951
  0
VERTEX
  5
2C4
  8
LAYER0
 10
76.49107401471792
 20
466.0856260104803
 30
0.0
 42
0.4142135623730951
  0
SEQEND
  5
6F3
  8
LAYER0
  0
POLYLINE
  5
99
  8
LAYER0
 66
     1
 10
0.0
 20
0.0
 30
0.0
 70
     1
  0
VERTEX
  5
2C5
  8
LAYER0
 10
137.491066385551
 20
473.0754353333097
 30
0.0
  0
VERTEX
  5
2C6
  8
LAYER0
 10
137.4910704064678
 20
444.0856195690776
 30
0.0
 42
-0.4146177716983084
  0
VERTEX
  5
2C7
  8
LAYER0
 10
129.4800326418954
 20
436.0856260740079
 30
0.0
  0
VERTEX
  5
2C8
  8
LAYER0
 10
23.49100938710831
 20
436.0856260739831
 30
0.0
 42
-0.4132490734995759
  0
VERTEX
  5
2C9
  8
LAYER0
 10
15.49105279125615
 20
444.059273373458
 30
0.0
  0
VERTEX
  5
2CA
  8
LAYER0
 10
15.49057535191105
 20
548.0856237855659
 30
0.0
 42
-0.4133542979318746
  0
VERTEX
  5
2CB
  8
LAYER0
 10
23.46706184244363
 20
556.0856259469845
 30
0.0
  0
VERTEX
  5
2CC
  8
LAYER0
 10
129.4906528711756
 20
556.085625946885
 30
0.0
 42
-0.4133306440720861
  0
VERTEX
  5
2CD
  8
LAYER0
 10
137.4906165003154
 20
548.1097492092326
 30
0.0
  0
VERTEX
  5
2CE
  8
LAYER0
 10
137.4910663862524
 20
519.0855660737726
 30
0.0
 42
0.4150879474967574
  0
VERTEX
  5
2CF
  8
LAYER0
 10
140.5000661167787
 20
516.0856260740953
 30
0.0
  0
VERTEX
  5
2D0
  8
LAYER0
 10
154.4910906354517
 20
516.0856260739455
 30
0.0
 42
-0.4153917146142018
  0
VERTEX
  5
2D1
  8
LAYER0
 10
157.4910663853548
 20
513.0735637448386
 30
0.0
  0
VERTEX
  5
2D2
  8
LAYER0
 10
157.4910663854519
 20
479.0855960744318
 30
0.0
 42
-0.4129043119791032
  0
VERTEX
  5
2D3
  8
LAYER0
 10
154.5044827270617
 20
476.0856260743641
 30
0.0
  0
VERTEX
  5
2D4
  8
LAYER0
 10
140.4910490769237
 20
476.0856260740917
 30
0.0
 42
0.4152088475752114
  0
SEQEND
  5
6F4
  8
LAYER0
  0
POLYLINE
  5
9A
  8
LAYER0
 66
     1
 10
0.0
 20
0.0
 30
0.0
 70
     1
  0
VERTEX
  5
2D5
  8
LAYER0
 10
1869.461064044979
 20
518.432722902288
 30
0.0
  0
VERTEX
  5
2D6
  8
LAYER0
 10
1569.461064044979
 20
518.432722902288
 30
0.0
 42
0.0541108387084387
  0
VERTEX
  5
2D7
  8
LAYER0
 10
1526.917987156793
 20
513.8151194949816
 30
0.0
 42
-0.2391904711746534
  0
VERTEX
  5
2D8
  8
LAYER0
 10
1509.396250486252
 20
518.3512049861166
 30
0.0
 42
0.64720419566629
  0
VERTEX
  5
2D9
  8
LAYER0
 10
1459.461064447585
 20
495.932722902288
 30
0.0
 42
0.6466443801714588
  0
VERTEX
  5
2DA
  8
LAYER0
 10
1509.360835838709
 20
473.4827990731638
 30
0.0
 42
-0.2389693793398022
  0
VERTEX
  5
2DB
  8
LAYER0
 10
1526.855400053344
 20
478.0640852204189
 30
0.0
 42
0.0541918690306501
  0
VERTEX
  5
2DC
  8
LAYER0
 10
1569.461064044979
 20
473.432722902288
 30
0.0
  0
VERTEX
  5
2DD
  8
LAYER0
 10
1869.461064044979
 20
473.432722902288
 30
0.0
  0
VERTEX
  5
2DE
  8
LAYER0
 10
2169.461064044979
 20
473.4327229022875
 30
0.0
 42
0.0541108387047783
  0
VERTEX
  5
2DF
  8
LAYER0
 10
2212.004140933146
 20
478.0503263096786
 30
0.0
 42
-0.2391905097418181
  0
VERTEX
  5
2E0
  8
LAYER0
 10
2229.525879785086
 20
473.5142388915848
 30
0.0
 42
0.6472041608305722
  0
VERTEX
  5
2E1
  8
LAYER0
 10
2279.461063553291
 20
495.9327229022875
 30
0.0
 42
0.646644379908574
  0
VERTEX
  5
2E2
  8
LAYER0
 10
2229.56129224758
 20
518.3826467152286
 30
0.0
 42
-0.2389693631815677
  0
VERTEX
  5
2E3
  8
LAYER0
 10
2212.066729231245
 20
513.8013603225719
 30
0.0
 42
0.054191870628649
  0
VERTEX
  5
2E4
  8
LAYER0
 10
2169.461064044979
 20
518.4327229022875
 30
0.0
  0
SEQEND
  5
6F5
  8
LAYER0
  0
POLYLINE
  5
9B
  8
LAYER0
 66
     1
 10
0.0
 20
0.0
 30
0.0
 70
     1
  0
VERTEX
  5
2E5
  8
LAYER0
 10
2333.463002060545
 20
547.8735608384599
 30
0.0
  0
VERTEX
  5
2E6
  8
LAYER0
 10
2333.461038525399
 20
495.9080252446216
 30
0.0
  0
VERTEX
  5
2E7
  8
LAYER0
 10
2333.459074989352
 20
443.9424654355411
 30
0.0
 42
-0.4153582021433403
  0
VERTEX
  5
2E8
  8
LAYER0
 10
2325.427521094408
 20
435.9428299464973
 30
0.0
  0
VERTEX
  5
2E9
  8
LAYER0
 10
1413.458803255293
 20
435.9610405389653
 30
0.0
 42
-0.4117017951700829
  0
VERTEX
  5
2EA
  8
LAYER0
 10
1405.459097947051
 20
443.8923748310226
 30
0.0
  0
VERTEX
  5
2EB
  8
LAYER0
 10
1405.461064044979
 20
495.9268873280782
 30
0.0
  0
VERTEX
  5
2EC
  8
LAYER0
 10
1405.463030142907
 20
547.9613998251333
 30
0.0
 42
-0.4154359537516408
  0
VERTEX
  5
2ED
  8
LAYER0
 10
1413.496700887221
 20
555.9610317242553
 30
0.0
  0
VERTEX
  5
2EE
  8
LAYER0
 10
2325.463301877005
 20
555.9428210250697
 30
0.0
 42
-0.4167516033104176
  0
SEQEND
  5
6F6
  8
LAYER0
  0
POLYLINE
  5
9C
  8
LAYER0
 66
     1
 10
0.0
 20
0.0
 30
0.0
 70
     1
  0
VERTEX
  5
2EF
  8
LAYER0
 10
2393.461030896085
 20
495.9143742436469
 30
0.0
 42
0.4142135623730951
  0
VERTEX
  5
2F0
  8
LAYER0
 10
2423.461030896085
 20
465.9143742436469
 30
0.0
 42
0.4142135623730951
  0
VERTEX
  5
2F1
  8
LAYER0
 10
2453.461030896085
 20
495.9143742436469
 30
0.0
 42
0.4142135623730951
  0
VERTEX
  5
2F2
  8
LAYER0
 10
2423.461030896085
 20
525.9143742436473
 30
0.0
 42
0.4142135623730951
  0
SEQEND
  5
6F7
  8
LAYER0
  0
POLYLINE
  5
9D
  8
LAYER0
 66
     1
 10
0.0
 20
0.0
 30
0.0
 70
     1
  0
VERTEX
  5
2F3
  8
LAYER0
 10
2362.461038528087
 20
518.904185479253
 30
0.0
  0
VERTEX
  5
2F4
  8
LAYER0
 10
2362.461034504332
 20
547.9144366189067
 30
0.0
 42
-0.4130466514026261
  0
VERTEX
  5
2F5
  8
LAYER0
 10
2370.429147668631
 20
555.9143741801212
 30
0.0
  0
VERTEX
  5
2F6
  8
LAYER0
 10
2476.461076486084
 20
555.9143741801445
 30
0.0
 42
-0.4149335031909357
  0
VERTEX
  5
2F7
  8
LAYER0
 10
2484.461052330723
 20
547.8947149527879
 30
0.0
  0
VERTEX
  5
2F8
  8
LAYER0
 10
2484.46152955892
 20
443.9143757597442
 30
0.0
 42
-0.415084829204063
  0
VERTEX
  5
2F9
  8
LAYER0
 10
2476.437776115164
 20
435.9143743071503
 30
0.0
  0
VERTEX
  5
2FA
  8
LAYER0
 10
2370.46146467013
 20
435.9143743072194
 30
0.0
 42
-0.4149171181821181
  0
VERTEX
  5
2FB
  8
LAYER0
 10
2362.461487738782
 20
443.9335862258657
 30
0.0
  0
VERTEX
  5
2FC
  8
LAYER0
 10
2362.461038524568
 20
472.9144341803639
 30
0.0
 42
0.4133306447548355
  0
VERTEX
  5
2FD
  8
LAYER0
 10
2359.470038240348
 20
475.9143741800397
 30
0.0
  0
VERTEX
  5
2FE
  8
LAYER0
 10
2345.461043876022
 20
475.9018514434407
 30
0.0
 42
-0.4153917144750761
  0
VERTEX
  5
2FF
  8
LAYER0
 10
2342.461068126116
 20
478.9139137711106
 30
0.0
  0
VERTEX
  5
300
  8
LAYER0
 10
2342.461068126006
 20
512.9018814429473
 30
0.0
 42
-0.4129043099648541
  0
VERTEX
  5
301
  8
LAYER0
 10
2345.447651763995
 20
515.9018514430169
 30
0.0
  0
VERTEX
  5
302
  8
LAYER0
 10
2359.461055829807
 20
515.9143741800407
 30
0.0
 42
0.413219176143138
  0
SEQEND
  5
6F8
  8
LAYER0
  0
POLYLINE
  5
9E
  8
LAYER0
 66
     1
 10
0.0
 20
0.0
 30
0.0
 70
     1
  0
VERTEX
  5
303
  8
LAYER0
 10
1345.476312504124
 20
495.9901715940917
 30
0.0
 42
0.4142135623730951
  0
VERTEX
  5
304
  8
LAYER0
 10
1315.476312504124
 20
525.9901715940917
 30
0.0
 42
0.4142135623730951
  0
VERTEX
  5
305
  8
LAYER0
 10
1285.476312504124
 20
495.9901715940917
 30
0.0
 42
0.4142135623730951
  0
VERTEX
  5
306
  8
LAYER0
 10
1315.476312504124
 20
465.9901715940913
 30
0.0
 42
0.4142135623730951
  0
SEQEND
  5
6F9
  8
LAYER0
  0
POLYLINE
  5
9F
  8
LAYER0
 66
     1
 10
0.0
 20
0.0
 30
0.0
 70
     1
  0
VERTEX
  5
307
  8
LAYER0
 10
1376.476304874957
 20
472.9799809169207
 30
0.0
  0
VERTEX
  5
308
  8
LAYER0
 10
1376.476308895874
 20
443.9901651526886
 30
0.0
 42
-0.4146177716983084
  0
VERTEX
  5
309
  8
LAYER0
 10
1368.465271131301
 20
435.9901716576189
 30
0.0
  0
VERTEX
  5
30A
  8
LAYER0
 10
1262.476247876514
 20
435.9901716575941
 30
0.0
 42
-0.4132490734995759
  0
VERTEX
  5
30B
  8
LAYER0
 10
1254.476291280662
 20
443.9638189570691
 30
0.0
  0
VERTEX
  5
30C
  8
LAYER0
 10
1254.475813841317
 20
547.9901693691769
 30
0.0
 42
-0.4133542979318746
  0
VERTEX
  5
30D
  8
LAYER0
 10
1262.452300331849
 20
555.9901715305955
 30
0.0
  0
VERTEX
  5
30E
  8
LAYER0
 10
1368.475891360581
 20
555.990171530496
 30
0.0
 42
-0.4133306440720861
  0
VERTEX
  5
30F
  8
LAYER0
 10
1376.475854989721
 20
548.0142947928437
 30
0.0
  0
VERTEX
  5
310
  8
LAYER0
 10
1376.476304875658
 20
518.9901116573836
 30
0.0
 42
0.4150879474967574
  0
VERTEX
  5
311
  8
LAYER0
 10
1379.485304606185
 20
515.9901716577064
 30
0.0
  0
VERTEX
  5
312
  8
LAYER0
 10
1393.476329124858
 20
515.9901716575565
 30
0.0
 42
-0.4153917146142018
  0
VERTEX
  5
313
  8
LAYER0
 10
1396.476304874761
 20
512.9781093284496
 30
0.0
  0
VERTEX
  5
314
  8
LAYER0
 10
1396.476304874858
 20
478.9901416580428
 30
0.0
 42
-0.4129043119791032
  0
VERTEX
  5
315
  8
LAYER0
 10
1393.489721216468
 20
475.9901716579751
 30
0.0
  0
VERTEX
  5
316
  8
LAYER0
 10
1379.476287566329
 20
475.9901716577027
 30
0.0
 42
0.4152088475752114
  0
SEQEND
  5
6FA
  8
LAYER0
  0
POLYLINE
  5
A0
  8
LAYER0
 66
     1
 10
0.0
 20
0.0
 30
0.0
 70
     1
  0
VERTEX
  5
317
  8
LAYER0
 10
630.4864457817292
 20
647.528177191554
 30
0.0
  0
VERTEX
  5
318
  8
LAYER0
 10
330.4864457817292
 20
647.528177191554
 30
0.0
 42
0.0541108387084387
  0
VERTEX
  5
319
  8
LAYER0
 10
287.9433688935434
 20
642.9105737842476
 30
0.0
 42
-0.2391904711746534
  0
VERTEX
  5
31A
  8
LAYER0
 10
270.4216322230023
 20
647.4466592753827
 30
0.0
 42
0.64720419566629
  0
VERTEX
  5
31B
  8
LAYER0
 10
220.4864461843349
 20
625.028177191554
 30
0.0
 42
0.6466443801714588
  0
VERTEX
  5
31C
  8
LAYER0
 10
270.386217575459
 20
602.5782533624299
 30
0.0
 42
-0.2389693793398022
  0
VERTEX
  5
31D
  8
LAYER0
 10
287.8807817900944
 20
607.1595395096849
 30
0.0
 42
0.0541918690306501
  0
VERTEX
  5
31E
  8
LAYER0
 10
330.4864457817292
 20
602.528177191554
 30
0.0
  0
VERTEX
  5
31F
  8
LAYER0
 10
630.4864457817292
 20
602.528177191554
 30
0.0
  0
VERTEX
  5
320
  8
LAYER0
 10
930.4864457817292
 20
602.5281771915536
 30
0.0
 42
0.0541108387047783
  0
VERTEX
  5
321
  8
LAYER0
 10
973.0295226698967
 20
607.1457805989446
 30
0.0
 42
-0.2391905097418181
  0
VERTEX
  5
322
  8
LAYER0
 10
990.5512615218357
 20
602.6096931808509
 30
0.0
 42
0.6472041608305722
  0
VERTEX
  5
323
  8
LAYER0
 10
1040.486445290042
 20
625.0281771915536
 30
0.0
 42
0.646644379908574
  0
VERTEX
  5
324
  8
LAYER0
 10
990.5866739843308
 20
647.4781010044946
 30
0.0
 42
-0.2389693631815677
  0
VERTEX
  5
325
  8
LAYER0
 10
973.0921109679949
 20
642.896814611838
 30
0.0
 42
0.054191870628649
  0
VERTEX
  5
326
  8
LAYER0
 10
930.4864457817292
 20
647.5281771915536
 30
0.0
  0
SEQEND
  5
6FB
  8
LAYER0
  0
POLYLINE
  5
A1
  8
LAYER0
 66
     1
 10
0.0
 20
0.0
 30
0.0
 70
     1
  0
VERTEX
  5
327
  8
LAYER0
 10
1094.488383797296
 20
676.9690151277259
 30
0.0
  0
VERTEX
  5
328
  8
LAYER0
 10
1094.486420262149
 20
625.0034795338877
 30
0.0
  0
VERTEX
  5
329
  8
LAYER0
 10
1094.484456726103
 20
573.0379197248071
 30
0.0
 42
-0.4153582021433403
  0
VERTEX
  5
32A
  8
LAYER0
 10
1086.452902831158
 20
565.0382842357633
 30
0.0
  0
VERTEX
  5
32B
  8
LAYER0
 10
174.4841849920431
 20
565.0564948282313
 30
0.0
 42
-0.4117017951700829
  0
VERTEX
  5
32C
  8
LAYER0
 10
166.4844796838006
 20
572.9878291202886
 30
0.0
  0
VERTEX
  5
32D
  8
LAYER0
 10
166.4864457817289
 20
625.0223416173442
 30
0.0
  0
VERTEX
  5
32E
  8
LAYER0
 10
166.4884118796572
 20
677.0568541143994
 30
0.0
 42
-0.4154359537516408
  0
VERTEX
  5
32F
  8
LAYER0
 10
174.5220826239711
 20
685.0564860135214
 30
0.0
  0
VERTEX
  5
330
  8
LAYER0
 10
1086.488683613754
 20
685.0382753143358
 30
0.0
 42
-0.4167516033104176
  0
SEQEND
  5
6FC
  8
LAYER0
  0
POLYLINE
  5
A2
  8
LAYER0
 66
     1
 10
0.0
 20
0.0
 30
0.0
 70
     1
  0
VERTEX
  5
331
  8
LAYER0
 10
1154.486412632835
 20
625.0098285329129
 30
0.0
 42
0.4142135623730951
  0
VERTEX
  5
332
  8
LAYER0
 10
1184.486412632835
 20
595.0098285329129
 30
0.0
 42
0.4142135623730951
  0
VERTEX
  5
333
  8
LAYER0
 10
1214.486412632835
 20
625.0098285329129
 30
0.0
 42
0.4142135623730951
  0
VERTEX
  5
334
  8
LAYER0
 10
1184.486412632835
 20
655.0098285329134
 30
0.0
 42
0.4142135623730951
  0
SEQEND
  5
6FD
  8
LAYER0
  0
POLYLINE
  5
A3
  8
LAYER0
 66
     1
 10
0.0
 20
0.0
 30
0.0
 70
     1
  0
VERTEX
  5
335
  8
LAYER0
 10
1123.486420264836
 20
647.999639768519
 30
0.0
  0
VERTEX
  5
336
  8
LAYER0
 10
1123.486416241083
 20
677.0098909081728
 30
0.0
 42
-0.4130466514026261
  0
VERTEX
  5
337
  8
LAYER0
 10
1131.454529405381
 20
685.0098284693872
 30
0.0
  0
VERTEX
  5
338
  8
LAYER0
 10
1237.486458222833
 20
685.0098284694104
 30
0.0
 42
-0.4149335031909357
  0
VERTEX
  5
339
  8
LAYER0
 10
1245.486434067473
 20
676.990169242054
 30
0.0
  0
VERTEX
  5
33A
  8
LAYER0
 10
1245.48691129567
 20
573.0098300490101
 30
0.0
 42
-0.415084829204063
  0
VERTEX
  5
33B
  8
LAYER0
 10
1237.463157851913
 20
565.0098285964164
 30
0.0
  0
VERTEX
  5
33C
  8
LAYER0
 10
1131.48684640688
 20
565.0098285964855
 30
0.0
 42
-0.4149171181821181
  0
VERTEX
  5
33D
  8
LAYER0
 10
1123.486869475532
 20
573.0290405151318
 30
0.0
  0
VERTEX
  5
33E
  8
LAYER0
 10
1123.486420261318
 20
602.0098884696299
 30
0.0
 42
0.4133306447548355
  0
VERTEX
  5
33F
  8
LAYER0
 10
1120.495419977098
 20
605.0098284693056
 30
0.0
  0
VERTEX
  5
340
  8
LAYER0
 10
1106.486425612773
 20
604.9973057327068
 30
0.0
 42
-0.4153917144750761
  0
VERTEX
  5
341
  8
LAYER0
 10
1103.486449862866
 20
608.0093680603766
 30
0.0
  0
VERTEX
  5
342
  8
LAYER0
 10
1103.486449862756
 20
641.9973357322133
 30
0.0
 42
-0.4129043099648541
  0
VERTEX
  5
343
  8
LAYER0
 10
1106.473033500746
 20
644.9973057322829
 30
0.0
  0
VERTEX
  5
344
  8
LAYER0
 10
1120.486437566557
 20
645.0098284693067
 30
0.0
 42
0.413219176143138
  0
SEQEND
  5
6FE
  8
LAYER0
  0
POLYLINE
  5
A4
  8
LAYER0
 66
     1
 10
0.0
 20
0.0
 30
0.0
 70
     1
  0
VERTEX
  5
345
  8
LAYER0
 10
106.5016942408738
 20
625.0856258833578
 30
0.0
 42
0.4142135623730951
  0
VERTEX
  5
346
  8
LAYER0
 10
76.5016942408738
 20
655.0856258833578
 30
0.0
 42
0.4142135623730951
  0
VERTEX
  5
347
  8
LAYER0
 10
46.5016942408738
 20
625.0856258833578
 30
0.0
 42
0.4142135623730951
  0
VERTEX
  5
348
  8
LAYER0
 10
76.5016942408738
 20
595.0856258833574
 30
0.0
 42
0.4142135623730951
  0
SEQEND
  5
6FF
  8
LAYER0
  0
POLYLINE
  5
A5
  8
LAYER0
 66
     1
 10
0.0
 20
0.0
 30
0.0
 70
     1
  0
VERTEX
  5
349
  8
LAYER0
 10
137.5016866117069
 20
602.0754352061867
 30
0.0
  0
VERTEX
  5
34A
  8
LAYER0
 10
137.5016906326236
 20
573.0856194419546
 30
0.0
 42
-0.4146177716983084
  0
VERTEX
  5
34B
  8
LAYER0
 10
129.4906528680513
 20
565.0856259468849
 30
0.0
  0
VERTEX
  5
34C
  8
LAYER0
 10
23.50162961326419
 20
565.0856259468601
 30
0.0
 42
-0.4132490734995759
  0
VERTEX
  5
34D
  8
LAYER0
 10
15.50167301741203
 20
573.0592732463351
 30
0.0
  0
VERTEX
  5
34E
  8
LAYER0
 10
15.50119557806693
 20
677.085623658443
 30
0.0
 42
-0.4133542979318746
  0
VERTEX
  5
34F
  8
LAYER0
 10
23.47768206859951
 20
685.0856258198614
 30
0.0
  0
VERTEX
  5
350
  8
LAYER0
 10
129.5012730973315
 20
685.0856258197621
 30
0.0
 42
-0.4133306440720861
  0
VERTEX
  5
351
  8
LAYER0
 10
137.5012367264712
 20
677.1097490821096
 30
0.0
  0
VERTEX
  5
352
  8
LAYER0
 10
137.5016866124083
 20
648.0855659466497
 30
0.0
 42
0.4150879474967574
  0
VERTEX
  5
353
  8
LAYER0
 10
140.5106863429346
 20
645.0856259469724
 30
0.0
  0
VERTEX
  5
354
  8
LAYER0
 10
154.5017108616075
 20
645.0856259468226
 30
0.0
 42
-0.4153917146142018
  0
VERTEX
  5
355
  8
LAYER0
 10
157.5016866115106
 20
642.0735636177155
 30
0.0
  0
VERTEX
  5
356
  8
LAYER0
 10
157.5016866116077
 20
608.0855959473088
 30
0.0
 42
-0.4129043119791032
  0
VERTEX
  5
357
  8
LAYER0
 10
154.5151029532176
 20
605.0856259472412
 30
0.0
  0
VERTEX
  5
358
  8
LAYER0
 10
140.5016693030796
 20
605.0856259469688
 30
0.0
 42
0.4152088475752114
  0
SEQEND
  5
700
  8
LAYER0
  0
POLYLINE
  5
A6
  8
LAYER0
 66
     1
 10
0.0
 20
0.0
 30
0.0
 70
     1
  0
VERTEX
  5
359
  8
LAYER0
 10
1869.471684271135
 20
647.4327227751651
 30
0.0
  0
VERTEX
  5
35A
  8
LAYER0
 10
1569.471684271135
 20
647.4327227751651
 30
0.0
 42
0.0541108387084387
  0
VERTEX
  5
35B
  8
LAYER0
 10
1526.928607382949
 20
642.8151193678586
 30
0.0
 42
-0.2391904711746534
  0
VERTEX
  5
35C
  8
LAYER0
 10
1509.406870712408
 20
647.3512048589937
 30
0.0
 42
0.64720419566629
  0
VERTEX
  5
35D
  8
LAYER0
 10
1459.471684673741
 20
624.9327227751651
 30
0.0
 42
0.6466443801714588
  0
VERTEX
  5
35E
  8
LAYER0
 10
1509.371456064865
 20
602.4827989460409
 30
0.0
 42
-0.2389693793398022
  0
VERTEX
  5
35F
  8
LAYER0
 10
1526.8660202795
 20
607.064085093296
 30
0.0
 42
0.0541918690306501
  0
VERTEX
  5
360
  8
LAYER0
 10
1569.471684271135
 20
602.4327227751651
 30
0.0
  0
VERTEX
  5
361
  8
LAYER0
 10
1869.471684271135
 20
602.4327227751651
 30
0.0
  0
VERTEX
  5
362
  8
LAYER0
 10
2169.471684271135
 20
602.4327227751646
 30
0.0
 42
0.0541108387047783
  0
VERTEX
  5
363
  8
LAYER0
 10
2212.014761159302
 20
607.0503261825556
 30
0.0
 42
-0.2391905097418181
  0
VERTEX
  5
364
  8
LAYER0
 10
2229.536500011242
 20
602.5142387644619
 30
0.0
 42
0.6472041608305722
  0
VERTEX
  5
365
  8
LAYER0
 10
2279.471683779447
 20
624.9327227751646
 30
0.0
 42
0.646644379908574
  0
VERTEX
  5
366
  8
LAYER0
 10
2229.571912473736
 20
647.3826465881057
 30
0.0
 42
-0.2389693631815677
  0
VERTEX
  5
367
  8
LAYER0
 10
2212.0773494574
 20
642.801360195449
 30
0.0
 42
0.054191870628649
  0
VERTEX
  5
368
  8
LAYER0
 10
2169.471684271135
 20
647.4327227751646
 30
0.0
  0
SEQEND
  5
701
  8
LAYER0
  0
POLYLINE
  5
A7
  8
LAYER0
 66
     1
 10
0.0
 20
0.0
 30
0.0
 70
     1
  0
VERTEX
  5
369
  8
LAYER0
 10
2333.473622286701
 20
676.873560711337
 30
0.0
  0
VERTEX
  5
36A
  8
LAYER0
 10
2333.471658751555
 20
624.9080251174987
 30
0.0
  0
VERTEX
  5
36B
  8
LAYER0
 10
2333.469695215508
 20
572.9424653084182
 30
0.0
 42
-0.4153582021433403
  0
VERTEX
  5
36C
  8
LAYER0
 10
2325.438141320564
 20
564.9428298193743
 30
0.0
  0
VERTEX
  5
36D
  8
LAYER0
 10
1413.469423481449
 20
564.9610404118423
 30
0.0
 42
-0.4117017951700829
  0
VERTEX
  5
36E
  8
LAYER0
 10
1405.469718173206
 20
572.8923747038996
 30
0.0
  0
VERTEX
  5
36F
  8
LAYER0
 10
1405.471684271135
 20
624.9268872009552
 30
0.0
  0
VERTEX
  5
370
  8
LAYER0
 10
1405.473650369063
 20
676.9613996980104
 30
0.0
 42
-0.4154359537516408
  0
VERTEX
  5
371
  8
LAYER0
 10
1413.507321113377
 20
684.9610315971324
 30
0.0
  0
VERTEX
  5
372
  8
LAYER0
 10
2325.47392210316
 20
684.9428208979468
 30
0.0
 42
-0.4167516033104176
  0
SEQEND
  5
702
  8
LAYER0
  0
POLYLINE
  5
A8
  8
LAYER0
 66
     1
 10
0.0
 20
0.0
 30
0.0
 70
     1
  0
VERTEX
  5
373
  8
LAYER0
 10
2393.47165112224
 20
624.914374116524
 30
0.0
 42
0.4142135623730951
  0
VERTEX
  5
374
  8
LAYER0
 10
2423.47165112224
 20
594.914374116524
 30
0.0
 42
0.4142135623730951
  0
VERTEX
  5
375
  8
LAYER0
 10
2453.47165112224
 20
624.914374116524
 30
0.0
 42
0.4142135623730951
  0
VERTEX
  5
376
  8
LAYER0
 10
2423.47165112224
 20
654.9143741165244
 30
0.0
 42
0.4142135623730951
  0
SEQEND
  5
703
  8
LAYER0
  0
POLYLINE
  5
A9
  8
LAYER0
 66
     1
 10
0.0
 20
0.0
 30
0.0
 70
     1
  0
VERTEX
  5
377
  8
LAYER0
 10
2362.471658754243
 20
647.9041853521301
 30
0.0
  0
VERTEX
  5
378
  8
LAYER0
 10
2362.471654730488
 20
676.9144364917838
 30
0.0
 42
-0.4130466514026261
  0
VERTEX
  5
379
  8
LAYER0
 10
2370.439767894787
 20
684.9143740529983
 30
0.0
  0
VERTEX
  5
37A
  8
LAYER0
 10
2476.471696712239
 20
684.9143740530214
 30
0.0
 42
-0.4149335031909357
  0
VERTEX
  5
37B
  8
LAYER0
 10
2484.471672556879
 20
676.894714825665
 30
0.0
  0
VERTEX
  5
37C
  8
LAYER0
 10
2484.472149785076
 20
572.9143756326212
 30
0.0
 42
-0.415084829204063
  0
VERTEX
  5
37D
  8
LAYER0
 10
2476.448396341319
 20
564.9143741800274
 30
0.0
  0
VERTEX
  5
37E
  8
LAYER0
 10
2370.472084896286
 20
564.9143741800965
 30
0.0
 42
-0.4149171181821181
  0
VERTEX
  5
37F
  8
LAYER0
 10
2362.472107964938
 20
572.9335860987428
 30
0.0
  0
VERTEX
  5
380
  8
LAYER0
 10
2362.471658750724
 20
601.9144340532409
 30
0.0
 42
0.4133306447548355
  0
VERTEX
  5
381
  8
LAYER0
 10
2359.480658466504
 20
604.9143740529166
 30
0.0
  0
VERTEX
  5
382
  8
LAYER0
 10
2345.471664102178
 20
604.9018513163178
 30
0.0
 42
-0.4153917144750761
  0
VERTEX
  5
383
  8
LAYER0
 10
2342.471688352271
 20
607.9139136439876
 30
0.0
  0
VERTEX
  5
384
  8
LAYER0
 10
2342.471688352162
 20
641.9018813158243
 30
0.0
 42
-0.4129043099648541
  0
VERTEX
  5
385
  8
LAYER0
 10
2345.458271990151
 20
644.901851315894
 30
0.0
  0
VERTEX
  5
386
  8
LAYER0
 10
2359.471676055963
 20
644.9143740529178
 30
0.0
 42
0.413219176143138
  0
SEQEND
  5
704
  8
LAYER0
  0
POLYLINE
  5
AA
  8
LAYER0
 66
     1
 10
0.0
 20
0.0
 30
0.0
 70
     1
  0
VERTEX
  5
387
  8
LAYER0
 10
1345.486932730279
 20
624.9901714669688
 30
0.0
 42
0.4142135623730951
  0
VERTEX
  5
388
  8
LAYER0
 10
1315.486932730279
 20
654.9901714669688
 30
0.0
 42
0.4142135623730951
  0
VERTEX
  5
389
  8
LAYER0
 10
1285.486932730279
 20
624.9901714669688
 30
0.0
 42
0.4142135623730951
  0
VERTEX
  5
38A
  8
LAYER0
 10
1315.486932730279
 20
594.9901714669684
 30
0.0
 42
0.4142135623730951
  0
SEQEND
  5
705
  8
LAYER0
  0
POLYLINE
  5
AB
  8
LAYER0
 66
     1
 10
0.0
 20
0.0
 30
0.0
 70
     1
  0
VERTEX
  5
38B
  8
LAYER0
 10
1376.486925101112
 20
601.9799807897978
 30
0.0
  0
VERTEX
  5
38C
  8
LAYER0
 10
1376.486929122029
 20
572.9901650255656
 30
0.0
 42
-0.4146177716983084
  0
VERTEX
  5
38D
  8
LAYER0
 10
1368.475891357457
 20
564.9901715304959
 30
0.0
  0
VERTEX
  5
38E
  8
LAYER0
 10
1262.48686810267
 20
564.9901715304711
 30
0.0
 42
-0.4132490734995759
  0
VERTEX
  5
38F
  8
LAYER0
 10
1254.486911506818
 20
572.9638188299461
 30
0.0
  0
VERTEX
  5
390
  8
LAYER0
 10
1254.486434067473
 20
676.990169242054
 30
0.0
 42
-0.4133542979318746
  0
VERTEX
  5
391
  8
LAYER0
 10
1262.462920558005
 20
684.9901714034725
 30
0.0
  0
VERTEX
  5
392
  8
LAYER0
 10
1368.486511586737
 20
684.9901714033731
 30
0.0
 42
-0.4133306440720861
  0
VERTEX
  5
393
  8
LAYER0
 10
1376.486475215877
 20
677.0142946657206
 30
0.0
  0
VERTEX
  5
394
  8
LAYER0
 10
1376.486925101814
 20
647.9901115302607
 30
0.0
 42
0.4150879474967574
  0
VERTEX
  5
395
  8
LAYER0
 10
1379.49592483234
 20
644.9901715305834
 30
0.0
  0
VERTEX
  5
396
  8
LAYER0
 10
1393.486949351013
 20
644.9901715304336
 30
0.0
 42
-0.4153917146142018
  0
VERTEX
  5
397
  8
LAYER0
 10
1396.486925100916
 20
641.9781092013266
 30
0.0
  0
VERTEX
  5
398
  8
LAYER0
 10
1396.486925101013
 20
607.9901415309198
 30
0.0
 42
-0.4129043119791032
  0
VERTEX
  5
399
  8
LAYER0
 10
1393.500341442623
 20
604.9901715308522
 30
0.0
  0
VERTEX
  5
39A
  8
LAYER0
 10
1379.486907792485
 20
604.9901715305798
 30
0.0
 42
0.4152088475752114
  0
SEQEND
  5
706
  8
LAYER0
  0
POLYLINE
  5
AC
  8
LAYER0
 66
     1
 10
0.0
 20
0.0
 30
0.0
 70
     1
  0
VERTEX
  5
39B
  8
LAYER0
 10
630.4624982371215
 20
776.5281770645554
 30
0.0
  0
VERTEX
  5
39C
  8
LAYER0
 10
330.4624982371215
 20
776.5281770645554
 30
0.0
 42
0.0541108387084387
  0
VERTEX
  5
39D
  8
LAYER0
 10
287.9194213489357
 20
771.910573657249
 30
0.0
 42
-0.2391904711746534
  0
VERTEX
  5
39E
  8
LAYER0
 10
270.3976846783946
 20
776.446659148384
 30
0.0
 42
0.64720419566629
  0
VERTEX
  5
39F
  8
LAYER0
 10
220.4624986397272
 20
754.0281770645554
 30
0.0
 42
0.6466443801714588
  0
VERTEX
  5
3A0
  8
LAYER0
 10
270.3622700308513
 20
731.5782532354312
 30
0.0
 42
-0.2389693793398022
  0
VERTEX
  5
3A1
  8
LAYER0
 10
287.8568342454867
 20
736.1595393826863
 30
0.0
 42
0.0541918690306501
  0
VERTEX
  5
3A2
  8
LAYER0
 10
330.4624982371215
 20
731.5281770645554
 30
0.0
  0
VERTEX
  5
3A3
  8
LAYER0
 10
630.4624982371215
 20
731.5281770645554
 30
0.0
  0
VERTEX
  5
3A4
  8
LAYER0
 10
930.4624982371215
 20
731.5281770645549
 30
0.0
 42
0.0541108387047783
  0
VERTEX
  5
3A5
  8
LAYER0
 10
973.0055751252889
 20
736.145780471946
 30
0.0
 42
-0.2391905097418181
  0
VERTEX
  5
3A6
  8
LAYER0
 10
990.527313977228
 20
731.6096930538522
 30
0.0
 42
0.6472041608305722
  0
VERTEX
  5
3A7
  8
LAYER0
 10
1040.462497745434
 20
754.0281770645549
 30
0.0
 42
0.646644379908574
  0
VERTEX
  5
3A8
  8
LAYER0
 10
990.5627264397231
 20
776.478100877496
 30
0.0
 42
-0.2389693631815677
  0
VERTEX
  5
3A9
  8
LAYER0
 10
973.0681634233872
 20
771.8968144848393
 30
0.0
 42
0.054191870628649
  0
VERTEX
  5
3AA
  8
LAYER0
 10
930.4624982371215
 20
776.5281770645549
 30
0.0
  0
SEQEND
  5
707
  8
LAYER0
  0
POLYLINE
  5
AD
  8
LAYER0
 66
     1
 10
0.0
 20
0.0
 30
0.0
 70
     1
  0
VERTEX
  5
3AB
  8
LAYER0
 10
1094.464436252688
 20
805.9690150007273
 30
0.0
  0
VERTEX
  5
3AC
  8
LAYER0
 10
1094.462472717542
 20
754.003479406889
 30
0.0
  0
VERTEX
  5
3AD
  8
LAYER0
 10
1094.460509181495
 20
702.0379195978085
 30
0.0
 42
-0.4153582021433403
  0
VERTEX
  5
3AE
  8
LAYER0
 10
1086.42895528655
 20
694.0382841087646
 30
0.0
  0
VERTEX
  5
3AF
  8
LAYER0
 10
174.4602374474354
 20
694.0564947012326
 30
0.0
 42
-0.4117017951700829
  0
VERTEX
  5
3B0
  8
LAYER0
 10
166.4605321391929
 20
701.9878289932899
 30
0.0
  0
VERTEX
  5
3B1
  8
LAYER0
 10
166.4624982371212
 20
754.0223414903455
 30
0.0
  0
VERTEX
  5
3B2
  8
LAYER0
 10
166.4644643350495
 20
806.0568539874007
 30
0.0
 42
-0.4154359537516408
  0
VERTEX
  5
3B3
  8
LAYER0
 10
174.4981350793634
 20
814.0564858865228
 30
0.0
  0
VERTEX
  5
3B4
  8
LAYER0
 10
1086.464736069147
 20
814.0382751873371
 30
0.0
 42
-0.4167516033104176
  0
SEQEND
  5
708
  8
LAYER0
  0
POLYLINE
  5
AE
  8
LAYER0
 66
     1
 10
0.0
 20
0.0
 30
0.0
 70
     1
  0
VERTEX
  5
3B5
  8
LAYER0
 10
1154.462465088227
 20
754.0098284059143
 30
0.0
 42
0.4142135623730951
  0
VERTEX
  5
3B6
  8
LAYER0
 10
1184.462465088227
 20
724.0098284059143
 30
0.0
 42
0.4142135623730951
  0
VERTEX
  5
3B7
  8
LAYER0
 10
1214.462465088227
 20
754.0098284059143
 30
0.0
 42
0.4142135623730951
  0
VERTEX
  5
3B8
  8
LAYER0
 10
1184.462465088227
 20
784.0098284059147
 30
0.0
 42
0.4142135623730951
  0
SEQEND
  5
709
  8
LAYER0
  0
POLYLINE
  5
AF
  8
LAYER0
 66
     1
 10
0.0
 20
0.0
 30
0.0
 70
     1
  0
VERTEX
  5
3B9
  8
LAYER0
 10
1123.462472720229
 20
776.9996396415204
 30
0.0
  0
VERTEX
  5
3BA
  8
LAYER0
 10
1123.462468696475
 20
806.0098907811741
 30
0.0
 42
-0.4130466514026261
  0
VERTEX
  5
3BB
  8
LAYER0
 10
1131.430581860774
 20
814.0098283423886
 30
0.0
  0
VERTEX
  5
3BC
  8
LAYER0
 10
1237.462510678226
 20
814.0098283424118
 30
0.0
 42
-0.4149335031909357
  0
VERTEX
  5
3BD
  8
LAYER0
 10
1245.462486522865
 20
805.9901691150553
 30
0.0
  0
VERTEX
  5
3BE
  8
LAYER0
 10
1245.462963751062
 20
702.0098299220115
 30
0.0
 42
-0.415084829204063
  0
VERTEX
  5
3BF
  8
LAYER0
 10
1237.439210307306
 20
694.0098284694177
 30
0.0
  0
VERTEX
  5
3C0
  8
LAYER0
 10
1131.462898862273
 20
694.0098284694868
 30
0.0
 42
-0.4149171181821181
  0
VERTEX
  5
3C1
  8
LAYER0
 10
1123.462921930924
 20
702.0290403881331
 30
0.0
  0
VERTEX
  5
3C2
  8
LAYER0
 10
1123.462472716711
 20
731.0098883426313
 30
0.0
 42
0.4133306447548355
  0
VERTEX
  5
3C3
  8
LAYER0
 10
1120.47147243249
 20
734.009828342307
 30
0.0
  0
VERTEX
  5
3C4
  8
LAYER0
 10
1106.462478068165
 20
733.9973056057081
 30
0.0
 42
-0.4153917144750761
  0
VERTEX
  5
3C5
  8
LAYER0
 10
1103.462502318258
 20
737.0093679333779
 30
0.0
  0
VERTEX
  5
3C6
  8
LAYER0
 10
1103.462502318149
 20
770.9973356052146
 30
0.0
 42
-0.4129043099648541
  0
VERTEX
  5
3C7
  8
LAYER0
 10
1106.449085956138
 20
773.9973056052843
 30
0.0
  0
VERTEX
  5
3C8
  8
LAYER0
 10
1120.46249002195
 20
774.0098283423081
 30
0.0
 42
0.413219176143138
  0
SEQEND
  5
70A
  8
LAYER0
  0
POLYLINE
  5
B0
  8
LAYER0
 66
     1
 10
0.0
 20
0.0
 30
0.0
 70
     1
  0
VERTEX
  5
3C9
  8
LAYER0
 10
106.4777466962661
 20
754.0856257563591
 30
0.0
 42
0.4142135623730951
  0
VERTEX
  5
3CA
  8
LAYER0
 10
76.47774669626608
 20
784.0856257563591
 30
0.0
 42
0.4142135623730951
  0
VERTEX
  5
3CB
  8
LAYER0
 10
46.47774669626608
 20
754.0856257563591
 30
0.0
 42
0.4142135623730951
  0
VERTEX
  5
3CC
  8
LAYER0
 10
76.47774669626608
 20
724.0856257563587
 30
0.0
 42
0.4142135623730951
  0
SEQEND
  5
70B
  8
LAYER0
  0
POLYLINE
  5
B1
  8
LAYER0
 66
     1
 10
0.0
 20
0.0
 30
0.0
 70
     1
  0
VERTEX
  5
3CD
  8
LAYER0
 10
137.4777390670992
 20
731.0754350791881
 30
0.0
  0
VERTEX
  5
3CE
  8
LAYER0
 10
137.4777430880159
 20
702.0856193149559
 30
0.0
 42
-0.4146177716983084
  0
VERTEX
  5
3CF
  8
LAYER0
 10
129.4667053234435
 20
694.0856258198862
 30
0.0
  0
VERTEX
  5
3D0
  8
LAYER0
 10
23.47768206865646
 20
694.0856258198614
 30
0.0
 42
-0.4132490734995759
  0
VERTEX
  5
3D1
  8
LAYER0
 10
15.47772547280431
 20
702.0592731193365
 30
0.0
  0
VERTEX
  5
3D2
  8
LAYER0
 10
15.4772480334592
 20
806.0856235314443
 30
0.0
 42
-0.4133542979318746
  0
VERTEX
  5
3D3
  8
LAYER0
 10
23.45373452399178
 20
814.0856256928628
 30
0.0
  0
VERTEX
  5
3D4
  8
LAYER0
 10
129.4773255527238
 20
814.0856256927634
 30
0.0
 42
-0.4133306440720861
  0
VERTEX
  5
3D5
  8
LAYER0
 10
137.4772891818635
 20
806.109748955111
 30
0.0
  0
VERTEX
  5
3D6
  8
LAYER0
 10
137.4777390678006
 20
777.085565819651
 30
0.0
 42
0.4150879474967574
  0
VERTEX
  5
3D7
  8
LAYER0
 10
140.4867387983269
 20
774.0856258199738
 30
0.0
  0
VERTEX
  5
3D8
  8
LAYER0
 10
154.4777633169998
 20
774.0856258198239
 30
0.0
 42
-0.4153917146142018
  0
VERTEX
  5
3D9
  8
LAYER0
 10
157.4777390669029
 20
771.0735634907169
 30
0.0
  0
VERTEX
  5
3DA
  8
LAYER0
 10
157.477739067
 20
737.0855958203101
 30
0.0
 42
-0.4129043119791032
  0
VERTEX
  5
3DB
  8
LAYER0
 10
154.4911554086099
 20
734.0856258202425
 30
0.0
  0
VERTEX
  5
3DC
  8
LAYER0
 10
140.4777217584718
 20
734.0856258199701
 30
0.0
 42
0.4152088475752114
  0
SEQEND
  5
70C
  8
LAYER0
  0
POLYLINE
  5
B2
  8
LAYER0
 66
     1
 10
0.0
 20
0.0
 30
0.0
 70
     1
  0
VERTEX
  5
3DD
  8
LAYER0
 10
1869.447736726527
 20
776.4327226481664
 30
0.0
  0
VERTEX
  5
3DE
  8
LAYER0
 10
1569.447736726527
 20
776.4327226481664
 30
0.0
 42
0.0541108387084387
  0
VERTEX
  5
3DF
  8
LAYER0
 10
1526.904659838342
 20
771.81511924086
 30
0.0
 42
-0.2391904711746534
  0
VERTEX
  5
3E0
  8
LAYER0
 10
1509.382923167801
 20
776.351204731995
 30
0.0
 42
0.64720419566629
  0
VERTEX
  5
3E1
  8
LAYER0
 10
1459.447737129133
 20
753.9327226481664
 30
0.0
 42
0.6466443801714588
  0
VERTEX
  5
3E2
  8
LAYER0
 10
1509.347508520257
 20
731.4827988190423
 30
0.0
 42
-0.2389693793398022
  0
VERTEX
  5
3E3
  8
LAYER0
 10
1526.842072734893
 20
736.0640849662973
 30
0.0
 42
0.0541918690306501
  0
VERTEX
  5
3E4
  8
LAYER0
 10
1569.447736726527
 20
731.4327226481664
 30
0.0
  0
VERTEX
  5
3E5
  8
LAYER0
 10
1869.447736726527
 20
731.4327226481664
 30
0.0
  0
VERTEX
  5
3E6
  8
LAYER0
 10
2169.447736726527
 20
731.432722648166
 30
0.0
 42
0.0541108387047783
  0
VERTEX
  5
3E7
  8
LAYER0
 10
2211.990813614694
 20
736.050326055557
 30
0.0
 42
-0.2391905097418181
  0
VERTEX
  5
3E8
  8
LAYER0
 10
2229.512552466634
 20
731.5142386374632
 30
0.0
 42
0.6472041608305722
  0
VERTEX
  5
3E9
  8
LAYER0
 10
2279.447736234839
 20
753.932722648166
 30
0.0
 42
0.646644379908574
  0
VERTEX
  5
3EA
  8
LAYER0
 10
2229.547964929128
 20
776.382646461107
 30
0.0
 42
-0.2389693631815677
  0
VERTEX
  5
3EB
  8
LAYER0
 10
2212.053401912793
 20
771.8013600684503
 30
0.0
 42
0.054191870628649
  0
VERTEX
  5
3EC
  8
LAYER0
 10
2169.447736726527
 20
776.432722648166
 30
0.0
  0
SEQEND
  5
70D
  8
LAYER0
  0
POLYLINE
  5
B3
  8
LAYER0
 66
     1
 10
0.0
 20
0.0
 30
0.0
 70
     1
  0
VERTEX
  5
3ED
  8
LAYER0
 10
2333.449674742094
 20
805.8735605843383
 30
0.0
  0
VERTEX
  5
3EE
  8
LAYER0
 10
2333.447711206947
 20
753.9080249905
 30
0.0
  0
VERTEX
  5
3EF
  8
LAYER0
 10
2333.4457476709
 20
701.9424651814195
 30
0.0
 42
-0.4153582021433403
  0
VERTEX
  5
3F0
  8
LAYER0
 10
2325.414193775956
 20
693.9428296923757
 30
0.0
  0
VERTEX
  5
3F1
  8
LAYER0
 10
1413.445475936841
 20
693.9610402848436
 30
0.0
 42
-0.4117017951700829
  0
VERTEX
  5
3F2
  8
LAYER0
 10
1405.445770628599
 20
701.8923745769009
 30
0.0
  0
VERTEX
  5
3F3
  8
LAYER0
 10
1405.447736726527
 20
753.9268870739566
 30
0.0
  0
VERTEX
  5
3F4
  8
LAYER0
 10
1405.449702824455
 20
805.9613995710117
 30
0.0
 42
-0.4154359537516408
  0
VERTEX
  5
3F5
  8
LAYER0
 10
1413.483373568769
 20
813.9610314701338
 30
0.0
  0
VERTEX
  5
3F6
  8
LAYER0
 10
2325.449974558553
 20
813.9428207709482
 30
0.0
 42
-0.4167516033104176
  0
SEQEND
  5
70E
  8
LAYER0
  0
POLYLINE
  5
B4
  8
LAYER0
 66
     1
 10
0.0
 20
0.0
 30
0.0
 70
     1
  0
VERTEX
  5
3F7
  8
LAYER0
 10
2393.447703577633
 20
753.9143739895253
 30
0.0
 42
0.4142135623730951
  0
VERTEX
  5
3F8
  8
LAYER0
 10
2423.447703577633
 20
723.9143739895253
 30
0.0
 42
0.4142135623730951
  0
VERTEX
  5
3F9
  8
LAYER0
 10
2453.447703577633
 20
753.9143739895253
 30
0.0
 42
0.4142135623730951
  0
VERTEX
  5
3FA
  8
LAYER0
 10
2423.447703577633
 20
783.9143739895258
 30
0.0
 42
0.4142135623730951
  0
SEQEND
  5
70F
  8
LAYER0
  0
POLYLINE
  5
B5
  8
LAYER0
 66
     1
 10
0.0
 20
0.0
 30
0.0
 70
     1
  0
VERTEX
  5
3FB
  8
LAYER0
 10
2362.447711209635
 20
776.9041852251314
 30
0.0
  0
VERTEX
  5
3FC
  8
LAYER0
 10
2362.44770718588
 20
805.9144363647852
 30
0.0
 42
-0.4130466514026261
  0
VERTEX
  5
3FD
  8
LAYER0
 10
2370.415820350179
 20
813.9143739259996
 30
0.0
  0
VERTEX
  5
3FE
  8
LAYER0
 10
2476.447749167632
 20
813.9143739260228
 30
0.0
 42
-0.4149335031909357
  0
VERTEX
  5
3FF
  8
LAYER0
 10
2484.447725012271
 20
805.8947146986663
 30
0.0
  0
VERTEX
  5
400
  8
LAYER0
 10
2484.448202240468
 20
701.9143755056225
 30
0.0
 42
-0.415084829204063
  0
VERTEX
  5
401
  8
LAYER0
 10
2476.424448796712
 20
693.9143740530287
 30
0.0
  0
VERTEX
  5
402
  8
LAYER0
 10
2370.448137351678
 20
693.9143740530978
 30
0.0
 42
-0.4149171181821181
  0
VERTEX
  5
403
  8
LAYER0
 10
2362.44816042033
 20
701.9335859717442
 30
0.0
  0
VERTEX
  5
404
  8
LAYER0
 10
2362.447711206116
 20
730.9144339262423
 30
0.0
 42
0.4133306447548355
  0
VERTEX
  5
405
  8
LAYER0
 10
2359.456710921896
 20
733.914373925918
 30
0.0
  0
VERTEX
  5
406
  8
LAYER0
 10
2345.44771655757
 20
733.9018511893191
 30
0.0
 42
-0.4153917144750761
  0
VERTEX
  5
407
  8
LAYER0
 10
2342.447740807664
 20
736.9139135169889
 30
0.0
  0
VERTEX
  5
408
  8
LAYER0
 10
2342.447740807555
 20
770.9018811888257
 30
0.0
 42
-0.4129043099648541
  0
VERTEX
  5
409
  8
LAYER0
 10
2345.434324445543
 20
773.9018511888953
 30
0.0
  0
VERTEX
  5
40A
  8
LAYER0
 10
2359.447728511355
 20
773.9143739259191
 30
0.0
 42
0.413219176143138
  0
SEQEND
  5
710
  8
LAYER0
  0
POLYLINE
  5
B6
  8
LAYER0
 66
     1
 10
0.0
 20
0.0
 30
0.0
 70
     1
  0
VERTEX
  5
40B
  8
LAYER0
 10
1345.462985185672
 20
753.9901713399702
 30
0.0
 42
0.4142135623730951
  0
VERTEX
  5
40C
  8
LAYER0
 10
1315.462985185672
 20
783.9901713399702
 30
0.0
 42
0.4142135623730951
  0
VERTEX
  5
40D
  8
LAYER0
 10
1285.462985185672
 20
753.9901713399702
 30
0.0
 42
0.4142135623730951
  0
VERTEX
  5
40E
  8
LAYER0
 10
1315.462985185672
 20
723.9901713399697
 30
0.0
 42
0.4142135623730951
  0
SEQEND
  5
711
  8
LAYER0
  0
POLYLINE
  5
B7
  8
LAYER0
 66
     1
 10
0.0
 20
0.0
 30
0.0
 70
     1
  0
VERTEX
  5
40F
  8
LAYER0
 10
1376.462977556505
 20
730.9799806627991
 30
0.0
  0
VERTEX
  5
410
  8
LAYER0
 10
1376.462981577422
 20
701.990164898567
 30
0.0
 42
-0.4146177716983084
  0
VERTEX
  5
411
  8
LAYER0
 10
1368.45194381285
 20
693.9901714034972
 30
0.0
  0
VERTEX
  5
412
  8
LAYER0
 10
1262.462920558062
 20
693.9901714034725
 30
0.0
 42
-0.4132490734995759
  0
VERTEX
  5
413
  8
LAYER0
 10
1254.46296396221
 20
701.9638187029475
 30
0.0
  0
VERTEX
  5
414
  8
LAYER0
 10
1254.462486522865
 20
805.9901691150553
 30
0.0
 42
-0.4133542979318746
  0
VERTEX
  5
415
  8
LAYER0
 10
1262.438973013398
 20
813.9901712764738
 30
0.0
  0
VERTEX
  5
416
  8
LAYER0
 10
1368.46256404213
 20
813.9901712763744
 30
0.0
 42
-0.4133306440720861
  0
VERTEX
  5
417
  8
LAYER0
 10
1376.46252767127
 20
806.014294538722
 30
0.0
  0
VERTEX
  5
418
  8
LAYER0
 10
1376.462977557207
 20
776.9901114032621
 30
0.0
 42
0.4150879474967574
  0
VERTEX
  5
419
  8
LAYER0
 10
1379.471977287733
 20
773.9901714035848
 30
0.0
  0
VERTEX
  5
41A
  8
LAYER0
 10
1393.463001806406
 20
773.9901714034349
 30
0.0
 42
-0.4153917146142018
  0
VERTEX
  5
41B
  8
LAYER0
 10
1396.462977556309
 20
770.9781090743279
 30
0.0
  0
VERTEX
  5
41C
  8
LAYER0
 10
1396.462977556406
 20
736.9901414039211
 30
0.0
 42
-0.4129043119791032
  0
VERTEX
  5
41D
  8
LAYER0
 10
1393.476393898016
 20
733.9901714038535
 30
0.0
  0
VERTEX
  5
41E
  8
LAYER0
 10
1379.462960247878
 20
733.9901714035811
 30
0.0
 42
0.4152088475752114
  0
SEQEND
  5
712
  8
LAYER0
  0
POLYLINE
  5
B8
  8
LAYER0
 66
     1
 10
0.0
 20
0.0
 30
0.0
 70
     1
  0
VERTEX
  5
41F
  8
LAYER0
 10
630.4864457817526
 20
905.5462272012251
 30
0.0
  0
VERTEX
  5
420
  8
LAYER0
 10
330.4864457817526
 20
905.5462272012251
 30
0.0
 42
0.0541108387084387
  0
VERTEX
  5
421
  8
LAYER0
 10
287.9433688935668
 20
900.9286237939186
 30
0.0
 42
-0.2391904711746534
  0
VERTEX
  5
422
  8
LAYER0
 10
270.4216322230258
 20
905.4647092850537
 30
0.0
 42
0.64720419566629
  0
VERTEX
  5
423
  8
LAYER0
 10
220.4864461843583
 20
883.0462272012251
 30
0.0
 42
0.6466443801714588
  0
VERTEX
  5
424
  8
LAYER0
 10
270.3862175754824
 20
860.5963033721009
 30
0.0
 42
-0.2389693793398022
  0
VERTEX
  5
425
  8
LAYER0
 10
287.8807817901178
 20
865.1775895193559
 30
0.0
 42
0.0541918690306501
  0
VERTEX
  5
426
  8
LAYER0
 10
330.4864457817526
 20
860.5462272012251
 30
0.0
  0
VERTEX
  5
427
  8
LAYER0
 10
630.4864457817526
 20
860.5462272012251
 30
0.0
  0
VERTEX
  5
428
  8
LAYER0
 10
930.4864457817526
 20
860.5462272012246
 30
0.0
 42
0.0541108387047783
  0
VERTEX
  5
429
  8
LAYER0
 10
973.0295226699201
 20
865.1638306086156
 30
0.0
 42
-0.2391905097418181
  0
VERTEX
  5
42A
  8
LAYER0
 10
990.5512615218591
 20
860.6277431905219
 30
0.0
 42
0.6472041608305722
  0
VERTEX
  5
42B
  8
LAYER0
 10
1040.486445290065
 20
883.0462272012246
 30
0.0
 42
0.646644379908574
  0
VERTEX
  5
42C
  8
LAYER0
 10
990.5866739843542
 20
905.4961510141657
 30
0.0
 42
-0.2389693631815677
  0
VERTEX
  5
42D
  8
LAYER0
 10
973.0921109680183
 20
900.914864621509
 30
0.0
 42
0.054191870628649
  0
VERTEX
  5
42E
  8
LAYER0
 10
930.4864457817526
 20
905.5462272012246
 30
0.0
  0
SEQEND
  5
713
  8
LAYER0
  0
POLYLINE
  5
B9
  8
LAYER0
 66
     1
 10
0.0
 20
0.0
 30
0.0
 70
     1
  0
VERTEX
  5
42F
  8
LAYER0
 10
1094.488383797319
 20
934.9870651373969
 30
0.0
  0
VERTEX
  5
430
  8
LAYER0
 10
1094.486420262173
 20
883.0215295435587
 30
0.0
  0
VERTEX
  5
431
  8
LAYER0
 10
1094.484456726126
 20
831.0559697344781
 30
0.0
 42
-0.4153582021433403
  0
VERTEX
  5
432
  8
LAYER0
 10
1086.452902831181
 20
823.0563342454345
 30
0.0
  0
VERTEX
  5
433
  8
LAYER0
 10
174.4841849920665
 20
823.0745448379025
 30
0.0
 42
-0.4117017951700829
  0
VERTEX
  5
434
  8
LAYER0
 10
166.484479683824
 20
831.0058791299598
 30
0.0
  0
VERTEX
  5
435
  8
LAYER0
 10
166.4864457817523
 20
883.0403916270154
 30
0.0
  0
VERTEX
  5
436
  8
LAYER0
 10
166.4884118796806
 20
935.0749041240704
 30
0.0
 42
-0.4154359537516408
  0
VERTEX
  5
437
  8
LAYER0
 10
174.5220826239945
 20
943.0745360231924
 30
0.0
  0
VERTEX
  5
438
  8
LAYER0
 10
1086.488683613778
 20
943.0563253240068
 30
0.0
 42
-0.4167516033104176
  0
SEQEND
  5
714
  8
LAYER0
  0
POLYLINE
  5
BA
  8
LAYER0
 66
     1
 10
0.0
 20
0.0
 30
0.0
 70
     1
  0
VERTEX
  5
439
  8
LAYER0
 10
1154.486412632858
 20
883.027878542584
 30
0.0
 42
0.4142135623730951
  0
VERTEX
  5
43A
  8
LAYER0
 10
1184.486412632858
 20
853.027878542584
 30
0.0
 42
0.4142135623730951
  0
VERTEX
  5
43B
  8
LAYER0
 10
1214.486412632858
 20
883.027878542584
 30
0.0
 42
0.4142135623730951
  0
VERTEX
  5
43C
  8
LAYER0
 10
1184.486412632858
 20
913.0278785425844
 30
0.0
 42
0.4142135623730951
  0
SEQEND
  5
715
  8
LAYER0
  0
POLYLINE
  5
BB
  8
LAYER0
 66
     1
 10
0.0
 20
0.0
 30
0.0
 70
     1
  0
VERTEX
  5
43D
  8
LAYER0
 10
1123.48642026486
 20
906.0176897781901
 30
0.0
  0
VERTEX
  5
43E
  8
LAYER0
 10
1123.486416241106
 20
935.0279409178438
 30
0.0
 42
-0.4130466514026261
  0
VERTEX
  5
43F
  8
LAYER0
 10
1131.454529405405
 20
943.0278784790582
 30
0.0
  0
VERTEX
  5
440
  8
LAYER0
 10
1237.486458222857
 20
943.0278784790817
 30
0.0
 42
-0.4149335031909357
  0
VERTEX
  5
441
  8
LAYER0
 10
1245.486434067496
 20
935.008219251725
 30
0.0
  0
VERTEX
  5
442
  8
LAYER0
 10
1245.486911295694
 20
831.0278800586814
 30
0.0
 42
-0.415084829204063
  0
VERTEX
  5
443
  8
LAYER0
 10
1237.463157851937
 20
823.0278786060874
 30
0.0
  0
VERTEX
  5
444
  8
LAYER0
 10
1131.486846406904
 20
823.0278786061565
 30
0.0
 42
-0.4149171181821181
  0
VERTEX
  5
445
  8
LAYER0
 10
1123.486869475556
 20
831.0470905248028
 30
0.0
  0
VERTEX
  5
446
  8
LAYER0
 10
1123.486420261342
 20
860.0279384793009
 30
0.0
 42
0.4133306447548355
  0
VERTEX
  5
447
  8
LAYER0
 10
1120.495419977121
 20
863.0278784789768
 30
0.0
  0
VERTEX
  5
448
  8
LAYER0
 10
1106.486425612796
 20
863.0153557423778
 30
0.0
 42
-0.4153917144750761
  0
VERTEX
  5
449
  8
LAYER0
 10
1103.486449862889
 20
866.0274180700478
 30
0.0
  0
VERTEX
  5
44A
  8
LAYER0
 10
1103.48644986278
 20
900.0153857418845
 30
0.0
 42
-0.4129043099648541
  0
VERTEX
  5
44B
  8
LAYER0
 10
1106.473033500769
 20
903.015355741954
 30
0.0
  0
VERTEX
  5
44C
  8
LAYER0
 10
1120.486437566581
 20
903.0278784789778
 30
0.0
 42
0.413219176143138
  0
SEQEND
  5
716
  8
LAYER0
  0
POLYLINE
  5
BC
  8
LAYER0
 66
     1
 10
0.0
 20
0.0
 30
0.0
 70
     1
  0
VERTEX
  5
44D
  8
LAYER0
 10
106.5016942408972
 20
883.1036758930288
 30
0.0
 42
0.4142135623730951
  0
VERTEX
  5
44E
  8
LAYER0
 10
76.50169424089722
 20
913.1036758930288
 30
0.0
 42
0.4142135623730951
  0
VERTEX
  5
44F
  8
LAYER0
 10
46.50169424089722
 20
883.1036758930288
 30
0.0
 42
0.4142135623730951
  0
VERTEX
  5
450
  8
LAYER0
 10
76.50169424089722
 20
853.1036758930284
 30
0.0
 42
0.4142135623730951
  0
SEQEND
  5
717
  8
LAYER0
  0
POLYLINE
  5
BD
  8
LAYER0
 66
     1
 10
0.0
 20
0.0
 30
0.0
 70
     1
  0
VERTEX
  5
451
  8
LAYER0
 10
137.5016866117303
 20
860.0934852158578
 30
0.0
  0
VERTEX
  5
452
  8
LAYER0
 10
137.5016906326471
 20
831.1036694516258
 30
0.0
 42
-0.4146177716983084
  0
VERTEX
  5
453
  8
LAYER0
 10
129.4906528680747
 20
823.1036759565561
 30
0.0
  0
VERTEX
  5
454
  8
LAYER0
 10
23.50162961328761
 20
823.1036759565313
 30
0.0
 42
-0.4132490734995759
  0
VERTEX
  5
455
  8
LAYER0
 10
15.50167301743545
 20
831.0773232560061
 30
0.0
  0
VERTEX
  5
456
  8
LAYER0
 10
15.50119557809035
 20
935.103673668114
 30
0.0
 42
-0.4133542979318746
  0
VERTEX
  5
457
  8
LAYER0
 10
23.47768206862293
 20
943.1036758295327
 30
0.0
  0
VERTEX
  5
458
  8
LAYER0
 10
129.5012730973549
 20
943.1036758294331
 30
0.0
 42
-0.4133306440720861
  0
VERTEX
  5
459
  8
LAYER0
 10
137.5012367264947
 20
935.1277990917808
 30
0.0
  0
VERTEX
  5
45A
  8
LAYER0
 10
137.5016866124317
 20
906.1036159563207
 30
0.0
 42
0.4150879474967574
  0
VERTEX
  5
45B
  8
LAYER0
 10
140.510686342958
 20
903.1036759566434
 30
0.0
  0
VERTEX
  5
45C
  8
LAYER0
 10
154.501710861631
 20
903.1036759564936
 30
0.0
 42
-0.4153917146142018
  0
VERTEX
  5
45D
  8
LAYER0
 10
157.5016866115341
 20
900.0916136273868
 30
0.0
  0
VERTEX
  5
45E
  8
LAYER0
 10
157.5016866116312
 20
866.10364595698
 30
0.0
 42
-0.4129043119791032
  0
VERTEX
  5
45F
  8
LAYER0
 10
154.515102953241
 20
863.1036759569122
 30
0.0
  0
VERTEX
  5
460
  8
LAYER0
 10
140.501669303103
 20
863.1036759566398
 30
0.0
 42
0.4152088475752114
  0
SEQEND
  5
718
  8
LAYER0
  0
POLYLINE
  5
BE
  8
LAYER0
 66
     1
 10
0.0
 20
0.0
 30
0.0
 70
     1
  0
VERTEX
  5
461
  8
LAYER0
 10
1869.471684271158
 20
905.4507727848361
 30
0.0
  0
VERTEX
  5
462
  8
LAYER0
 10
1569.471684271158
 20
905.4507727848361
 30
0.0
 42
0.0541108387084387
  0
VERTEX
  5
463
  8
LAYER0
 10
1526.928607382973
 20
900.8331693775297
 30
0.0
 42
-0.2391904711746534
  0
VERTEX
  5
464
  8
LAYER0
 10
1509.406870712432
 20
905.3692548686647
 30
0.0
 42
0.64720419566629
  0
VERTEX
  5
465
  8
LAYER0
 10
1459.471684673764
 20
882.9507727848361
 30
0.0
 42
0.6466443801714588
  0
VERTEX
  5
466
  8
LAYER0
 10
1509.371456064888
 20
860.500848955712
 30
0.0
 42
-0.2389693793398022
  0
VERTEX
  5
467
  8
LAYER0
 10
1526.866020279524
 20
865.082135102967
 30
0.0
 42
0.0541918690306501
  0
VERTEX
  5
468
  8
LAYER0
 10
1569.471684271158
 20
860.4507727848361
 30
0.0
  0
VERTEX
  5
469
  8
LAYER0
 10
1869.471684271158
 20
860.4507727848361
 30
0.0
  0
VERTEX
  5
46A
  8
LAYER0
 10
2169.471684271159
 20
860.4507727848356
 30
0.0
 42
0.0541108387047783
  0
VERTEX
  5
46B
  8
LAYER0
 10
2212.014761159326
 20
865.0683761922267
 30
0.0
 42
-0.2391905097418181
  0
VERTEX
  5
46C
  8
LAYER0
 10
2229.536500011265
 20
860.5322887741329
 30
0.0
 42
0.6472041608305722
  0
VERTEX
  5
46D
  8
LAYER0
 10
2279.47168377947
 20
882.9507727848356
 30
0.0
 42
0.646644379908574
  0
VERTEX
  5
46E
  8
LAYER0
 10
2229.57191247376
 20
905.4006965977767
 30
0.0
 42
-0.2389693631815677
  0
VERTEX
  5
46F
  8
LAYER0
 10
2212.077349457424
 20
900.81941020512
 30
0.0
 42
0.054191870628649
  0
VERTEX
  5
470
  8
LAYER0
 10
2169.471684271159
 20
905.4507727848356
 30
0.0
  0
SEQEND
  5
719
  8
LAYER0
  0
POLYLINE
  5
BF
  8
LAYER0
 66
     1
 10
0.0
 20
0.0
 30
0.0
 70
     1
  0
VERTEX
  5
471
  8
LAYER0
 10
2333.473622286725
 20
934.891610721008
 30
0.0
  0
VERTEX
  5
472
  8
LAYER0
 10
2333.471658751579
 20
882.9260751271697
 30
0.0
  0
VERTEX
  5
473
  8
LAYER0
 10
2333.469695215532
 20
830.9605153180892
 30
0.0
 42
-0.4153582021433403
  0
VERTEX
  5
474
  8
LAYER0
 10
2325.438141320587
 20
822.9608798290456
 30
0.0
  0
VERTEX
  5
475
  8
LAYER0
 10
1413.469423481472
 20
822.9790904215135
 30
0.0
 42
-0.4117017951700829
  0
VERTEX
  5
476
  8
LAYER0
 10
1405.46971817323
 20
830.9104247135708
 30
0.0
  0
VERTEX
  5
477
  8
LAYER0
 10
1405.471684271158
 20
882.9449372106264
 30
0.0
  0
VERTEX
  5
478
  8
LAYER0
 10
1405.473650369086
 20
934.9794497076814
 30
0.0
 42
-0.4154359537516408
  0
VERTEX
  5
479
  8
LAYER0
 10
1413.5073211134
 20
942.9790816068034
 30
0.0
  0
VERTEX
  5
47A
  8
LAYER0
 10
2325.473922103184
 20
942.9608709076178
 30
0.0
 42
-0.4167516033104176
  0
SEQEND
  5
71A
  8
LAYER0
  0
POLYLINE
  5
C0
  8
LAYER0
 66
     1
 10
0.0
 20
0.0
 30
0.0
 70
     1
  0
VERTEX
  5
47B
  8
LAYER0
 10
2393.471651122264
 20
882.932424126195
 30
0.0
 42
0.4142135623730951
  0
VERTEX
  5
47C
  8
LAYER0
 10
2423.471651122264
 20
852.932424126195
 30
0.0
 42
0.4142135623730951
  0
VERTEX
  5
47D
  8
LAYER0
 10
2453.471651122264
 20
882.932424126195
 30
0.0
 42
0.4142135623730951
  0
VERTEX
  5
47E
  8
LAYER0
 10
2423.471651122264
 20
912.9324241261954
 30
0.0
 42
0.4142135623730951
  0
SEQEND
  5
71B
  8
LAYER0
  0
POLYLINE
  5
C1
  8
LAYER0
 66
     1
 10
0.0
 20
0.0
 30
0.0
 70
     1
  0
VERTEX
  5
47F
  8
LAYER0
 10
2362.471658754266
 20
905.9222353618011
 30
0.0
  0
VERTEX
  5
480
  8
LAYER0
 10
2362.471654730512
 20
934.9324865014548
 30
0.0
 42
-0.4130466514026261
  0
VERTEX
  5
481
  8
LAYER0
 10
2370.439767894811
 20
942.9324240626693
 30
0.0
  0
VERTEX
  5
482
  8
LAYER0
 10
2476.471696712263
 20
942.9324240626927
 30
0.0
 42
-0.4149335031909357
  0
VERTEX
  5
483
  8
LAYER0
 10
2484.471672556902
 20
934.912764835336
 30
0.0
  0
VERTEX
  5
484
  8
LAYER0
 10
2484.4721497851
 20
830.9324256422924
 30
0.0
 42
-0.415084829204063
  0
VERTEX
  5
485
  8
LAYER0
 10
2476.448396341343
 20
822.9324241896984
 30
0.0
  0
VERTEX
  5
486
  8
LAYER0
 10
2370.47208489631
 20
822.9324241897675
 30
0.0
 42
-0.4149171181821181
  0
VERTEX
  5
487
  8
LAYER0
 10
2362.472107964962
 20
830.9516361084138
 30
0.0
  0
VERTEX
  5
488
  8
LAYER0
 10
2362.471658750747
 20
859.932484062912
 30
0.0
 42
0.4133306447548355
  0
VERTEX
  5
489
  8
LAYER0
 10
2359.480658466528
 20
862.9324240625879
 30
0.0
  0
VERTEX
  5
48A
  8
LAYER0
 10
2345.471664102201
 20
862.9199013259888
 30
0.0
 42
-0.4153917144750761
  0
VERTEX
  5
48B
  8
LAYER0
 10
2342.471688352295
 20
865.9319636536588
 30
0.0
  0
VERTEX
  5
48C
  8
LAYER0
 10
2342.471688352186
 20
899.9199313254956
 30
0.0
 42
-0.4129043099648541
  0
VERTEX
  5
48D
  8
LAYER0
 10
2345.458271990175
 20
902.919901325565
 30
0.0
  0
VERTEX
  5
48E
  8
LAYER0
 10
2359.471676055987
 20
902.9324240625888
 30
0.0
 42
0.413219176143138
  0
SEQEND
  5
71C
  8
LAYER0
  0
POLYLINE
  5
C2
  8
LAYER0
 66
     1
 10
0.0
 20
0.0
 30
0.0
 70
     1
  0
VERTEX
  5
48F
  8
LAYER0
 10
1345.486932730303
 20
883.0082214766398
 30
0.0
 42
0.4142135623730951
  0
VERTEX
  5
490
  8
LAYER0
 10
1315.486932730303
 20
913.0082214766398
 30
0.0
 42
0.4142135623730951
  0
VERTEX
  5
491
  8
LAYER0
 10
1285.486932730303
 20
883.0082214766398
 30
0.0
 42
0.4142135623730951
  0
VERTEX
  5
492
  8
LAYER0
 10
1315.486932730303
 20
853.0082214766394
 30
0.0
 42
0.4142135623730951
  0
SEQEND
  5
71D
  8
LAYER0
  0
POLYLINE
  5
C3
  8
LAYER0
 66
     1
 10
0.0
 20
0.0
 30
0.0
 70
     1
  0
VERTEX
  5
493
  8
LAYER0
 10
1376.486925101136
 20
859.9980307994688
 30
0.0
  0
VERTEX
  5
494
  8
LAYER0
 10
1376.486929122053
 20
831.0082150352368
 30
0.0
 42
-0.4146177716983084
  0
VERTEX
  5
495
  8
LAYER0
 10
1368.475891357481
 20
823.0082215401671
 30
0.0
  0
VERTEX
  5
496
  8
LAYER0
 10
1262.486868102693
 20
823.0082215401424
 30
0.0
 42
-0.4132490734995759
  0
VERTEX
  5
497
  8
LAYER0
 10
1254.486911506841
 20
830.9818688396172
 30
0.0
  0
VERTEX
  5
498
  8
LAYER0
 10
1254.486434067496
 20
935.008219251725
 30
0.0
 42
-0.4133542979318746
  0
VERTEX
  5
499
  8
LAYER0
 10
1262.462920558029
 20
943.0082214131437
 30
0.0
  0
VERTEX
  5
49A
  8
LAYER0
 10
1368.486511586761
 20
943.0082214130441
 30
0.0
 42
-0.4133306440720861
  0
VERTEX
  5
49B
  8
LAYER0
 10
1376.486475215901
 20
935.0323446753919
 30
0.0
  0
VERTEX
  5
49C
  8
LAYER0
 10
1376.486925101838
 20
906.0081615399317
 30
0.0
 42
0.4150879474967574
  0
VERTEX
  5
49D
  8
LAYER0
 10
1379.495924832364
 20
903.0082215402545
 30
0.0
  0
VERTEX
  5
49E
  8
LAYER0
 10
1393.486949351037
 20
903.0082215401046
 30
0.0
 42
-0.4153917146142018
  0
VERTEX
  5
49F
  8
LAYER0
 10
1396.48692510094
 20
899.9961592109978
 30
0.0
  0
VERTEX
  5
4A0
  8
LAYER0
 10
1396.486925101037
 20
866.008191540591
 30
0.0
 42
-0.4129043119791032
  0
VERTEX
  5
4A1
  8
LAYER0
 10
1393.500341442647
 20
863.0082215405232
 30
0.0
  0
VERTEX
  5
4A2
  8
LAYER0
 10
1379.486907792509
 20
863.0082215402508
 30
0.0
 42
0.4152088475752114
  0
SEQEND
  5
71E
  8
LAYER0
  0
POLYLINE
  5
C4
  8
LAYER0
 66
     1
 10
0.0
 20
0.0
 30
0.0
 70
     1
  0
VERTEX
  5
4A3
  8
LAYER0
 10
630.4624982371449
 20
1034.546227074226
 30
0.0
  0
VERTEX
  5
4A4
  8
LAYER0
 10
330.4624982371449
 20
1034.546227074226
 30
0.0
 42
0.0541108387084387
  0
VERTEX
  5
4A5
  8
LAYER0
 10
287.9194213489591
 20
1029.92862366692
 30
0.0
 42
-0.2391904711746534
  0
VERTEX
  5
4A6
  8
LAYER0
 10
270.397684678418
 20
1034.464709158055
 30
0.0
 42
0.64720419566629
  0
VERTEX
  5
4A7
  8
LAYER0
 10
220.4624986397506
 20
1012.046227074226
 30
0.0
 42
0.6466443801714588
  0
VERTEX
  5
4A8
  8
LAYER0
 10
270.3622700308747
 20
989.5963032451023
 30
0.0
 42
-0.2389693793398022
  0
VERTEX
  5
4A9
  8
LAYER0
 10
287.8568342455101
 20
994.1775893923573
 30
0.0
 42
0.0541918690306501
  0
VERTEX
  5
4AA
  8
LAYER0
 10
330.4624982371449
 20
989.5462270742264
 30
0.0
  0
VERTEX
  5
4AB
  8
LAYER0
 10
630.4624982371449
 20
989.5462270742264
 30
0.0
  0
VERTEX
  5
4AC
  8
LAYER0
 10
930.4624982371449
 20
989.546227074226
 30
0.0
 42
0.0541108387047783
  0
VERTEX
  5
4AD
  8
LAYER0
 10
973.0055751253124
 20
994.163830481617
 30
0.0
 42
-0.2391905097418181
  0
VERTEX
  5
4AE
  8
LAYER0
 10
990.5273139772514
 20
989.6277430635232
 30
0.0
 42
0.6472041608305722
  0
VERTEX
  5
4AF
  8
LAYER0
 10
1040.462497745457
 20
1012.046227074226
 30
0.0
 42
0.646644379908574
  0
VERTEX
  5
4B0
  8
LAYER0
 10
990.5627264397465
 20
1034.496150887167
 30
0.0
 42
-0.2389693631815677
  0
VERTEX
  5
4B1
  8
LAYER0
 10
973.0681634234106
 20
1029.91486449451
 30
0.0
 42
0.054191870628649
  0
VERTEX
  5
4B2
  8
LAYER0
 10
930.4624982371449
 20
1034.546227074226
 30
0.0
  0
SEQEND
  5
71F
  8
LAYER0
  0
POLYLINE
  5
C5
  8
LAYER0
 66
     1
 10
0.0
 20
0.0
 30
0.0
 70
     1
  0
VERTEX
  5
4B3
  8
LAYER0
 10
1094.464436252711
 20
1063.987065010398
 30
0.0
  0
VERTEX
  5
4B4
  8
LAYER0
 10
1094.462472717565
 20
1012.02152941656
 30
0.0
  0
VERTEX
  5
4B5
  8
LAYER0
 10
1094.460509181518
 20
960.0559696074795
 30
0.0
 42
-0.4153582021433403
  0
VERTEX
  5
4B6
  8
LAYER0
 10
1086.428955286573
 20
952.0563341184359
 30
0.0
  0
VERTEX
  5
4B7
  8
LAYER0
 10
174.4602374474588
 20
952.0745447109039
 30
0.0
 42
-0.4117017951700829
  0
VERTEX
  5
4B8
  8
LAYER0
 10
166.4605321392163
 20
960.0058790029611
 30
0.0
  0
VERTEX
  5
4B9
  8
LAYER0
 10
166.4624982371446
 20
1012.040391500017
 30
0.0
  0
VERTEX
  5
4BA
  8
LAYER0
 10
166.4644643350729
 20
1064.074903997072
 30
0.0
 42
-0.4154359537516408
  0
VERTEX
  5
4BB
  8
LAYER0
 10
174.4981350793868
 20
1072.074535896194
 30
0.0
  0
VERTEX
  5
4BC
  8
LAYER0
 10
1086.46473606917
 20
1072.056325197008
 30
0.0
 42
-0.4167516033104176
  0
SEQEND
  5
720
  8
LAYER0
  0
POLYLINE
  5
C6
  8
LAYER0
 66
     1
 10
0.0
 20
0.0
 30
0.0
 70
     1
  0
VERTEX
  5
4BD
  8
LAYER0
 10
1154.462465088251
 20
1012.027878415585
 30
0.0
 42
0.4142135623730951
  0
VERTEX
  5
4BE
  8
LAYER0
 10
1184.462465088251
 20
982.0278784155853
 30
0.0
 42
0.4142135623730951
  0
VERTEX
  5
4BF
  8
LAYER0
 10
1214.462465088251
 20
1012.027878415585
 30
0.0
 42
0.4142135623730951
  0
VERTEX
  5
4C0
  8
LAYER0
 10
1184.462465088251
 20
1042.027878415586
 30
0.0
 42
0.4142135623730951
  0
SEQEND
  5
721
  8
LAYER0
  0
POLYLINE
  5
C7
  8
LAYER0
 66
     1
 10
0.0
 20
0.0
 30
0.0
 70
     1
  0
VERTEX
  5
4C1
  8
LAYER0
 10
1123.462472720252
 20
1035.017689651191
 30
0.0
  0
VERTEX
  5
4C2
  8
LAYER0
 10
1123.462468696498
 20
1064.027940790845
 30
0.0
 42
-0.4130466514026261
  0
VERTEX
  5
4C3
  8
LAYER0
 10
1131.430581860797
 20
1072.02787835206
 30
0.0
  0
VERTEX
  5
4C4
  8
LAYER0
 10
1237.462510678249
 20
1072.027878352083
 30
0.0
 42
-0.4149335031909357
  0
VERTEX
  5
4C5
  8
LAYER0
 10
1245.462486522888
 20
1064.008219124726
 30
0.0
  0
VERTEX
  5
4C6
  8
LAYER0
 10
1245.462963751086
 20
960.0278799316827
 30
0.0
 42
-0.415084829204063
  0
VERTEX
  5
4C7
  8
LAYER0
 10
1237.439210307329
 20
952.0278784790887
 30
0.0
  0
VERTEX
  5
4C8
  8
LAYER0
 10
1131.462898862296
 20
952.0278784791578
 30
0.0
 42
-0.4149171181821181
  0
VERTEX
  5
4C9
  8
LAYER0
 10
1123.462921930948
 20
960.0470903978041
 30
0.0
  0
VERTEX
  5
4CA
  8
LAYER0
 10
1123.462472716734
 20
989.0279383523023
 30
0.0
 42
0.4133306447548355
  0
VERTEX
  5
4CB
  8
LAYER0
 10
1120.471472432514
 20
992.0278783519782
 30
0.0
  0
VERTEX
  5
4CC
  8
LAYER0
 10
1106.462478068188
 20
992.0153556153791
 30
0.0
 42
-0.4153917144750761
  0
VERTEX
  5
4CD
  8
LAYER0
 10
1103.462502318281
 20
995.0274179430492
 30
0.0
  0
VERTEX
  5
4CE
  8
LAYER0
 10
1103.462502318172
 20
1029.015385614886
 30
0.0
 42
-0.4129043099648541
  0
VERTEX
  5
4CF
  8
LAYER0
 10
1106.449085956161
 20
1032.015355614955
 30
0.0
  0
VERTEX
  5
4D0
  8
LAYER0
 10
1120.462490021973
 20
1032.027878351979
 30
0.0
 42
0.413219176143138
  0
SEQEND
  5
722
  8
LAYER0
  0
POLYLINE
  5
C8
  8
LAYER0
 66
     1
 10
0.0
 20
0.0
 30
0.0
 70
     1
  0
VERTEX
  5
4D1
  8
LAYER0
 10
106.4777466962895
 20
1012.10367576603
 30
0.0
 42
0.4142135623730951
  0
VERTEX
  5
4D2
  8
LAYER0
 10
76.4777466962895
 20
1042.10367576603
 30
0.0
 42
0.4142135623730951
  0
VERTEX
  5
4D3
  8
LAYER0
 10
46.4777466962895
 20
1012.10367576603
 30
0.0
 42
0.4142135623730951
  0
VERTEX
  5
4D4
  8
LAYER0
 10
76.4777466962895
 20
982.1036757660297
 30
0.0
 42
0.4142135623730951
  0
SEQEND
  5
723
  8
LAYER0
  0
POLYLINE
  5
C9
  8
LAYER0
 66
     1
 10
0.0
 20
0.0
 30
0.0
 70
     1
  0
VERTEX
  5
4D5
  8
LAYER0
 10
137.4777390671226
 20
989.0934850888591
 30
0.0
  0
VERTEX
  5
4D6
  8
LAYER0
 10
137.4777430880393
 20
960.1036693246272
 30
0.0
 42
-0.4146177716983084
  0
VERTEX
  5
4D7
  8
LAYER0
 10
129.466705323467
 20
952.1036758295575
 30
0.0
  0
VERTEX
  5
4D8
  8
LAYER0
 10
23.47768206867988
 20
952.1036758295327
 30
0.0
 42
-0.4132490734995759
  0
VERTEX
  5
4D9
  8
LAYER0
 10
15.47772547282773
 20
960.0773231290075
 30
0.0
  0
VERTEX
  5
4DA
  8
LAYER0
 10
15.47724803348262
 20
1064.103673541115
 30
0.0
 42
-0.4133542979318746
  0
VERTEX
  5
4DB
  8
LAYER0
 10
23.4537345240152
 20
1072.103675702534
 30
0.0
  0
VERTEX
  5
4DC
  8
LAYER0
 10
129.4773255527472
 20
1072.103675702434
 30
0.0
 42
-0.4133306440720861
  0
VERTEX
  5
4DD
  8
LAYER0
 10
137.4772891818869
 20
1064.127798964782
 30
0.0
  0
VERTEX
  5
4DE
  8
LAYER0
 10
137.477739067824
 20
1035.103615829322
 30
0.0
 42
0.4150879474967574
  0
VERTEX
  5
4DF
  8
LAYER0
 10
140.4867387983503
 20
1032.103675829645
 30
0.0
  0
VERTEX
  5
4E0
  8
LAYER0
 10
154.4777633170232
 20
1032.103675829495
 30
0.0
 42
-0.4153917146142018
  0
VERTEX
  5
4E1
  8
LAYER0
 10
157.4777390669263
 20
1029.091613500388
 30
0.0
  0
VERTEX
  5
4E2
  8
LAYER0
 10
157.4777390670234
 20
995.1036458299814
 30
0.0
 42
-0.4129043119791032
  0
VERTEX
  5
4E3
  8
LAYER0
 10
154.4911554086333
 20
992.1036758299135
 30
0.0
  0
VERTEX
  5
4E4
  8
LAYER0
 10
140.4777217584952
 20
992.1036758296411
 30
0.0
 42
0.4152088475752114
  0
SEQEND
  5
724
  8
LAYER0
  0
POLYLINE
  5
CA
  8
LAYER0
 66
     1
 10
0.0
 20
0.0
 30
0.0
 70
     1
  0
VERTEX
  5
4E5
  8
LAYER0
 10
1869.44773672655
 20
1034.450772657837
 30
0.0
  0
VERTEX
  5
4E6
  8
LAYER0
 10
1569.44773672655
 20
1034.450772657837
 30
0.0
 42
0.0541108387084387
  0
VERTEX
  5
4E7
  8
LAYER0
 10
1526.904659838365
 20
1029.833169250531
 30
0.0
 42
-0.2391904711746534
  0
VERTEX
  5
4E8
  8
LAYER0
 10
1509.382923167824
 20
1034.369254741666
 30
0.0
 42
0.64720419566629
  0
VERTEX
  5
4E9
  8
LAYER0
 10
1459.447737129156
 20
1011.950772657837
 30
0.0
 42
0.6466443801714588
  0
VERTEX
  5
4EA
  8
LAYER0
 10
1509.34750852028
 20
989.5008488287133
 30
0.0
 42
-0.2389693793398022
  0
VERTEX
  5
4EB
  8
LAYER0
 10
1526.842072734916
 20
994.0821349759683
 30
0.0
 42
0.0541918690306501
  0
VERTEX
  5
4EC
  8
LAYER0
 10
1569.44773672655
 20
989.4507726578374
 30
0.0
  0
VERTEX
  5
4ED
  8
LAYER0
 10
1869.44773672655
 20
989.4507726578374
 30
0.0
  0
VERTEX
  5
4EE
  8
LAYER0
 10
2169.447736726551
 20
989.450772657837
 30
0.0
 42
0.0541108387047783
  0
VERTEX
  5
4EF
  8
LAYER0
 10
2211.990813614718
 20
994.068376065228
 30
0.0
 42
-0.2391905097418181
  0
VERTEX
  5
4F0
  8
LAYER0
 10
2229.512552466657
 20
989.5322886471342
 30
0.0
 42
0.6472041608305722
  0
VERTEX
  5
4F1
  8
LAYER0
 10
2279.447736234863
 20
1011.950772657837
 30
0.0
 42
0.646644379908574
  0
VERTEX
  5
4F2
  8
LAYER0
 10
2229.547964929152
 20
1034.400696470778
 30
0.0
 42
-0.2389693631815677
  0
VERTEX
  5
4F3
  8
LAYER0
 10
2212.053401912816
 20
1029.819410078121
 30
0.0
 42
0.054191870628649
  0
VERTEX
  5
4F4
  8
LAYER0
 10
2169.447736726551
 20
1034.450772657837
 30
0.0
  0
SEQEND
  5
725
  8
LAYER0
  0
POLYLINE
  5
CB
  8
LAYER0
 66
     1
 10
0.0
 20
0.0
 30
0.0
 70
     1
  0
VERTEX
  5
4F5
  8
LAYER0
 10
2333.449674742117
 20
1063.891610594009
 30
0.0
  0
VERTEX
  5
4F6
  8
LAYER0
 10
2333.447711206971
 20
1011.926075000171
 30
0.0
  0
VERTEX
  5
4F7
  8
LAYER0
 10
2333.445747670924
 20
959.9605151910905
 30
0.0
 42
-0.4153582021433403
  0
VERTEX
  5
4F8
  8
LAYER0
 10
2325.41419377598
 20
951.9608797020469
 30
0.0
  0
VERTEX
  5
4F9
  8
LAYER0
 10
1413.445475936865
 20
951.9790902945149
 30
0.0
 42
-0.4117017951700829
  0
VERTEX
  5
4FA
  8
LAYER0
 10
1405.445770628622
 20
959.9104245865722
 30
0.0
  0
VERTEX
  5
4FB
  8
LAYER0
 10
1405.44773672655
 20
1011.944937083628
 30
0.0
  0
VERTEX
  5
4FC
  8
LAYER0
 10
1405.449702824479
 20
1063.979449580683
 30
0.0
 42
-0.4154359537516408
  0
VERTEX
  5
4FD
  8
LAYER0
 10
1413.483373568793
 20
1071.979081479805
 30
0.0
  0
VERTEX
  5
4FE
  8
LAYER0
 10
2325.449974558576
 20
1071.960870780619
 30
0.0
 42
-0.4167516033104176
  0
SEQEND
  5
726
  8
LAYER0
  0
POLYLINE
  5
CC
  8
LAYER0
 66
     1
 10
0.0
 20
0.0
 30
0.0
 70
     1
  0
VERTEX
  5
4FF
  8
LAYER0
 10
2393.447703577656
 20
1011.932423999196
 30
0.0
 42
0.4142135623730951
  0
VERTEX
  5
500
  8
LAYER0
 10
2423.447703577656
 20
981.9324239991963
 30
0.0
 42
0.4142135623730951
  0
VERTEX
  5
501
  8
LAYER0
 10
2453.447703577656
 20
1011.932423999196
 30
0.0
 42
0.4142135623730951
  0
VERTEX
  5
502
  8
LAYER0
 10
2423.447703577656
 20
1041.932423999197
 30
0.0
 42
0.4142135623730951
  0
SEQEND
  5
727
  8
LAYER0
  0
POLYLINE
  5
CD
  8
LAYER0
 66
     1
 10
0.0
 20
0.0
 30
0.0
 70
     1
  0
VERTEX
  5
503
  8
LAYER0
 10
2362.447711209658
 20
1034.922235234802
 30
0.0
  0
VERTEX
  5
504
  8
LAYER0
 10
2362.447707185904
 20
1063.932486374456
 30
0.0
 42
-0.4130466514026261
  0
VERTEX
  5
505
  8
LAYER0
 10
2370.415820350203
 20
1071.932423935671
 30
0.0
  0
VERTEX
  5
506
  8
LAYER0
 10
2476.447749167655
 20
1071.932423935694
 30
0.0
 42
-0.4149335031909357
  0
VERTEX
  5
507
  8
LAYER0
 10
2484.447725012295
 20
1063.912764708337
 30
0.0
  0
VERTEX
  5
508
  8
LAYER0
 10
2484.448202240492
 20
959.9324255152937
 30
0.0
 42
-0.415084829204063
  0
VERTEX
  5
509
  8
LAYER0
 10
2476.424448796735
 20
951.9324240626997
 30
0.0
  0
VERTEX
  5
50A
  8
LAYER0
 10
2370.448137351702
 20
951.9324240627689
 30
0.0
 42
-0.4149171181821181
  0
VERTEX
  5
50B
  8
LAYER0
 10
2362.448160420354
 20
959.9516359814152
 30
0.0
  0
VERTEX
  5
50C
  8
LAYER0
 10
2362.44771120614
 20
988.9324839359133
 30
0.0
 42
0.4133306447548355
  0
VERTEX
  5
50D
  8
LAYER0
 10
2359.45671092192
 20
991.9324239355892
 30
0.0
  0
VERTEX
  5
50E
  8
LAYER0
 10
2345.447716557594
 20
991.9199011989901
 30
0.0
 42
-0.4153917144750761
  0
VERTEX
  5
50F
  8
LAYER0
 10
2342.447740807687
 20
994.9319635266602
 30
0.0
  0
VERTEX
  5
510
  8
LAYER0
 10
2342.447740807578
 20
1028.919931198497
 30
0.0
 42
-0.4129043099648541
  0
VERTEX
  5
511
  8
LAYER0
 10
2345.434324445567
 20
1031.919901198566
 30
0.0
  0
VERTEX
  5
512
  8
LAYER0
 10
2359.447728511379
 20
1031.93242393559
 30
0.0
 42
0.413219176143138
  0
SEQEND
  5
728
  8
LAYER0
  0
POLYLINE
  5
CE
  8
LAYER0
 66
     1
 10
0.0
 20
0.0
 30
0.0
 70
     1
  0
VERTEX
  5
513
  8
LAYER0
 10
1345.462985185695
 20
1012.008221349641
 30
0.0
 42
0.4142135623730951
  0
VERTEX
  5
514
  8
LAYER0
 10
1315.462985185695
 20
1042.008221349641
 30
0.0
 42
0.4142135623730951
  0
VERTEX
  5
515
  8
LAYER0
 10
1285.462985185695
 20
1012.008221349641
 30
0.0
 42
0.4142135623730951
  0
VERTEX
  5
516
  8
LAYER0
 10
1315.462985185695
 20
982.0082213496407
 30
0.0
 42
0.4142135623730951
  0
SEQEND
  5
729
  8
LAYER0
  0
POLYLINE
  5
CF
  8
LAYER0
 66
     1
 10
0.0
 20
0.0
 30
0.0
 70
     1
  0
VERTEX
  5
517
  8
LAYER0
 10
1376.462977556528
 20
988.9980306724701
 30
0.0
  0
VERTEX
  5
518
  8
LAYER0
 10
1376.462981577445
 20
960.0082149082382
 30
0.0
 42
-0.4146177716983084
  0
VERTEX
  5
519
  8
LAYER0
 10
1368.451943812873
 20
952.0082214131685
 30
0.0
  0
VERTEX
  5
51A
  8
LAYER0
 10
1262.462920558085
 20
952.0082214131437
 30
0.0
 42
-0.4132490734995759
  0
VERTEX
  5
51B
  8
LAYER0
 10
1254.462963962234
 20
959.9818687126185
 30
0.0
  0
VERTEX
  5
51C
  8
LAYER0
 10
1254.462486522888
 20
1064.008219124726
 30
0.0
 42
-0.4133542979318746
  0
VERTEX
  5
51D
  8
LAYER0
 10
1262.438973013421
 20
1072.008221286145
 30
0.0
  0
VERTEX
  5
51E
  8
LAYER0
 10
1368.462564042153
 20
1072.008221286045
 30
0.0
 42
-0.4133306440720861
  0
VERTEX
  5
51F
  8
LAYER0
 10
1376.462527671293
 20
1064.032344548393
 30
0.0
  0
VERTEX
  5
520
  8
LAYER0
 10
1376.46297755723
 20
1035.008161412933
 30
0.0
 42
0.4150879474967574
  0
VERTEX
  5
521
  8
LAYER0
 10
1379.471977287756
 20
1032.008221413256
 30
0.0
  0
VERTEX
  5
522
  8
LAYER0
 10
1393.463001806429
 20
1032.008221413106
 30
0.0
 42
-0.4153917146142018
  0
VERTEX
  5
523
  8
LAYER0
 10
1396.462977556332
 20
1028.996159083999
 30
0.0
  0
VERTEX
  5
524
  8
LAYER0
 10
1396.462977556429
 20
995.0081914135924
 30
0.0
 42
-0.4129043119791032
  0
VERTEX
  5
525
  8
LAYER0
 10
1393.476393898039
 20
992.0082214135246
 30
0.0
  0
VERTEX
  5
526
  8
LAYER0
 10
1379.462960247901
 20
992.0082214132522
 30
0.0
 42
0.4152088475752114
  0
SEQEND
  5
72A
  8
LAYER0
  0
POLYLINE
  5
D0
  8
LAYER0
 66
     1
 10
0.0
 20
0.0
 30
0.0
 70
     1
  0
VERTEX
  5
527
  8
LAYER0
 10
630.4624982371449
 20
1163.546226947215
 30
0.0
  0
VERTEX
  5
528
  8
LAYER0
 10
330.4624982371449
 20
1163.546226947215
 30
0.0
 42
0.0541108387084387
  0
VERTEX
  5
529
  8
LAYER0
 10
287.9194213489591
 20
1158.928623539908
 30
0.0
 42
-0.2391904711746534
  0
VERTEX
  5
52A
  8
LAYER0
 10
270.397684678418
 20
1163.464709031043
 30
0.0
 42
0.64720419566629
  0
VERTEX
  5
52B
  8
LAYER0
 10
220.4624986397506
 20
1141.046226947215
 30
0.0
 42
0.6466443801714588
  0
VERTEX
  5
52C
  8
LAYER0
 10
270.3622700308747
 20
1118.59630311809
 30
0.0
 42
-0.2389693793398022
  0
VERTEX
  5
52D
  8
LAYER0
 10
287.8568342455101
 20
1123.177589265345
 30
0.0
 42
0.0541918690306501
  0
VERTEX
  5
52E
  8
LAYER0
 10
330.4624982371449
 20
1118.546226947215
 30
0.0
  0
VERTEX
  5
52F
  8
LAYER0
 10
630.4624982371449
 20
1118.546226947215
 30
0.0
  0
VERTEX
  5
530
  8
LAYER0
 10
930.4624982371449
 20
1118.546226947214
 30
0.0
 42
0.0541108387047783
  0
VERTEX
  5
531
  8
LAYER0
 10
973.0055751253124
 20
1123.163830354605
 30
0.0
 42
-0.2391905097418181
  0
VERTEX
  5
532
  8
LAYER0
 10
990.5273139772514
 20
1118.627742936511
 30
0.0
 42
0.6472041608305722
  0
VERTEX
  5
533
  8
LAYER0
 10
1040.462497745457
 20
1141.046226947214
 30
0.0
 42
0.646644379908574
  0
VERTEX
  5
534
  8
LAYER0
 10
990.5627264397465
 20
1163.496150760155
 30
0.0
 42
-0.2389693631815677
  0
VERTEX
  5
535
  8
LAYER0
 10
973.0681634234106
 20
1158.914864367498
 30
0.0
 42
0.054191870628649
  0
VERTEX
  5
536
  8
LAYER0
 10
930.4624982371449
 20
1163.546226947214
 30
0.0
  0
SEQEND
  5
72B
  8
LAYER0
  0
POLYLINE
  5
D1
  8
LAYER0
 66
     1
 10
0.0
 20
0.0
 30
0.0
 70
     1
  0
VERTEX
  5
537
  8
LAYER0
 10
1094.464436252711
 20
1192.987064883387
 30
0.0
  0
VERTEX
  5
538
  8
LAYER0
 10
1094.462472717565
 20
1141.021529289548
 30
0.0
  0
VERTEX
  5
539
  8
LAYER0
 10
1094.460509181518
 20
1089.055969480468
 30
0.0
 42
-0.4153582021433403
  0
VERTEX
  5
53A
  8
LAYER0
 10
1086.428955286573
 20
1081.056333991424
 30
0.0
  0
VERTEX
  5
53B
  8
LAYER0
 10
174.4602374474588
 20
1081.074544583892
 30
0.0
 42
-0.4117017951700829
  0
VERTEX
  5
53C
  8
LAYER0
 10
166.4605321392163
 20
1089.005878875949
 30
0.0
  0
VERTEX
  5
53D
  8
LAYER0
 10
166.4624982371446
 20
1141.040391373005
 30
0.0
  0
VERTEX
  5
53E
  8
LAYER0
 10
166.4644643350729
 20
1193.07490387006
 30
0.0
 42
-0.4154359537516408
  0
VERTEX
  5
53F
  8
LAYER0
 10
174.4981350793868
 20
1201.074535769182
 30
0.0
  0
VERTEX
  5
540
  8
LAYER0
 10
1086.46473606917
 20
1201.056325069997
 30
0.0
 42
-0.4167516033104176
  0
SEQEND
  5
72C
  8
LAYER0
  0
POLYLINE
  5
D2
  8
LAYER0
 66
     1
 10
0.0
 20
0.0
 30
0.0
 70
     1
  0
VERTEX
  5
541
  8
LAYER0
 10
1154.462465088251
 20
1141.027878288573
 30
0.0
 42
0.4142135623730951
  0
VERTEX
  5
542
  8
LAYER0
 10
1184.462465088251
 20
1111.027878288573
 30
0.0
 42
0.4142135623730951
  0
VERTEX
  5
543
  8
LAYER0
 10
1214.462465088251
 20
1141.027878288573
 30
0.0
 42
0.4142135623730951
  0
VERTEX
  5
544
  8
LAYER0
 10
1184.462465088251
 20
1171.027878288574
 30
0.0
 42
0.4142135623730951
  0
SEQEND
  5
72D
  8
LAYER0
  0
POLYLINE
  5
D3
  8
LAYER0
 66
     1
 10
0.0
 20
0.0
 30
0.0
 70
     1
  0
VERTEX
  5
545
  8
LAYER0
 10
1123.462472720252
 20
1164.01768952418
 30
0.0
  0
VERTEX
  5
546
  8
LAYER0
 10
1123.462468696498
 20
1193.027940663833
 30
0.0
 42
-0.4130466514026261
  0
VERTEX
  5
547
  8
LAYER0
 10
1131.430581860797
 20
1201.027878225048
 30
0.0
  0
VERTEX
  5
548
  8
LAYER0
 10
1237.462510678249
 20
1201.027878225071
 30
0.0
 42
-0.4149335031909357
  0
VERTEX
  5
549
  8
LAYER0
 10
1245.462486522888
 20
1193.008218997715
 30
0.0
  0
VERTEX
  5
54A
  8
LAYER0
 10
1245.462963751086
 20
1089.027879804671
 30
0.0
 42
-0.415084829204063
  0
VERTEX
  5
54B
  8
LAYER0
 10
1237.439210307329
 20
1081.027878352077
 30
0.0
  0
VERTEX
  5
54C
  8
LAYER0
 10
1131.462898862296
 20
1081.027878352146
 30
0.0
 42
-0.4149171181821181
  0
VERTEX
  5
54D
  8
LAYER0
 10
1123.462921930948
 20
1089.047090270793
 30
0.0
  0
VERTEX
  5
54E
  8
LAYER0
 10
1123.462472716734
 20
1118.027938225291
 30
0.0
 42
0.4133306447548355
  0
VERTEX
  5
54F
  8
LAYER0
 10
1120.471472432514
 20
1121.027878224967
 30
0.0
  0
VERTEX
  5
550
  8
LAYER0
 10
1106.462478068188
 20
1121.015355488367
 30
0.0
 42
-0.4153917144750761
  0
VERTEX
  5
551
  8
LAYER0
 10
1103.462502318281
 20
1124.027417816038
 30
0.0
  0
VERTEX
  5
552
  8
LAYER0
 10
1103.462502318172
 20
1158.015385487874
 30
0.0
 42
-0.4129043099648541
  0
VERTEX
  5
553
  8
LAYER0
 10
1106.449085956161
 20
1161.015355487943
 30
0.0
  0
VERTEX
  5
554
  8
LAYER0
 10
1120.462490021973
 20
1161.027878224967
 30
0.0
 42
0.413219176143138
  0
SEQEND
  5
72E
  8
LAYER0
  0
POLYLINE
  5
D4
  8
LAYER0
 66
     1
 10
0.0
 20
0.0
 30
0.0
 70
     1
  0
VERTEX
  5
555
  8
LAYER0
 10
106.4777466962895
 20
1141.103675639019
 30
0.0
 42
0.4142135623730951
  0
VERTEX
  5
556
  8
LAYER0
 10
76.4777466962895
 20
1171.103675639019
 30
0.0
 42
0.4142135623730951
  0
VERTEX
  5
557
  8
LAYER0
 10
46.4777466962895
 20
1141.103675639019
 30
0.0
 42
0.4142135623730951
  0
VERTEX
  5
558
  8
LAYER0
 10
76.4777466962895
 20
1111.103675639018
 30
0.0
 42
0.4142135623730951
  0
SEQEND
  5
72F
  8
LAYER0
  0
POLYLINE
  5
D5
  8
LAYER0
 66
     1
 10
0.0
 20
0.0
 30
0.0
 70
     1
  0
VERTEX
  5
559
  8
LAYER0
 10
137.4777390671226
 20
1118.093484961847
 30
0.0
  0
VERTEX
  5
55A
  8
LAYER0
 10
137.4777430880393
 20
1089.103669197616
 30
0.0
 42
-0.4146177716983084
  0
VERTEX
  5
55B
  8
LAYER0
 10
129.466705323467
 20
1081.103675702546
 30
0.0
  0
VERTEX
  5
55C
  8
LAYER0
 10
23.47768206867988
 20
1081.103675702521
 30
0.0
 42
-0.4132490734995759
  0
VERTEX
  5
55D
  8
LAYER0
 10
15.47772547282773
 20
1089.077323001996
 30
0.0
  0
VERTEX
  5
55E
  8
LAYER0
 10
15.47724803348262
 20
1193.103673414103
 30
0.0
 42
-0.4133542979318746
  0
VERTEX
  5
55F
  8
LAYER0
 10
23.4537345240152
 20
1201.103675575522
 30
0.0
  0
VERTEX
  5
560
  8
LAYER0
 10
129.4773255527472
 20
1201.103675575423
 30
0.0
 42
-0.4133306440720861
  0
VERTEX
  5
561
  8
LAYER0
 10
137.4772891818869
 20
1193.127798837771
 30
0.0
  0
VERTEX
  5
562
  8
LAYER0
 10
137.477739067824
 20
1164.10361570231
 30
0.0
 42
0.4150879474967574
  0
VERTEX
  5
563
  8
LAYER0
 10
140.4867387983503
 20
1161.103675702633
 30
0.0
  0
VERTEX
  5
564
  8
LAYER0
 10
154.4777633170232
 20
1161.103675702483
 30
0.0
 42
-0.4153917146142018
  0
VERTEX
  5
565
  8
LAYER0
 10
157.4777390669263
 20
1158.091613373376
 30
0.0
  0
VERTEX
  5
566
  8
LAYER0
 10
157.4777390670234
 20
1124.10364570297
 30
0.0
 42
-0.4129043119791032
  0
VERTEX
  5
567
  8
LAYER0
 10
154.4911554086333
 20
1121.103675702902
 30
0.0
  0
VERTEX
  5
568
  8
LAYER0
 10
140.4777217584952
 20
1121.10367570263
 30
0.0
 42
0.4152088475752114
  0
SEQEND
  5
730
  8
LAYER0
  0
POLYLINE
  5
D6
  8
LAYER0
 66
     1
 10
0.0
 20
0.0
 30
0.0
 70
     1
  0
VERTEX
  5
569
  8
LAYER0
 10
1869.44773672655
 20
1163.450772530826
 30
0.0
  0
VERTEX
  5
56A
  8
LAYER0
 10
1569.44773672655
 20
1163.450772530826
 30
0.0
 42
0.0541108387084387
  0
VERTEX
  5
56B
  8
LAYER0
 10
1526.904659838365
 20
1158.833169123519
 30
0.0
 42
-0.2391904711746534
  0
VERTEX
  5
56C
  8
LAYER0
 10
1509.382923167824
 20
1163.369254614654
 30
0.0
 42
0.64720419566629
  0
VERTEX
  5
56D
  8
LAYER0
 10
1459.447737129156
 20
1140.950772530826
 30
0.0
 42
0.6466443801714588
  0
VERTEX
  5
56E
  8
LAYER0
 10
1509.34750852028
 20
1118.500848701702
 30
0.0
 42
-0.2389693793398022
  0
VERTEX
  5
56F
  8
LAYER0
 10
1526.842072734916
 20
1123.082134848957
 30
0.0
 42
0.0541918690306501
  0
VERTEX
  5
570
  8
LAYER0
 10
1569.44773672655
 20
1118.450772530826
 30
0.0
  0
VERTEX
  5
571
  8
LAYER0
 10
1869.44773672655
 20
1118.450772530826
 30
0.0
  0
VERTEX
  5
572
  8
LAYER0
 10
2169.447736726551
 20
1118.450772530825
 30
0.0
 42
0.0541108387047783
  0
VERTEX
  5
573
  8
LAYER0
 10
2211.990813614718
 20
1123.068375938216
 30
0.0
 42
-0.2391905097418181
  0
VERTEX
  5
574
  8
LAYER0
 10
2229.512552466657
 20
1118.532288520123
 30
0.0
 42
0.6472041608305722
  0
VERTEX
  5
575
  8
LAYER0
 10
2279.447736234863
 20
1140.950772530825
 30
0.0
 42
0.646644379908574
  0
VERTEX
  5
576
  8
LAYER0
 10
2229.547964929152
 20
1163.400696343766
 30
0.0
 42
-0.2389693631815677
  0
VERTEX
  5
577
  8
LAYER0
 10
2212.053401912816
 20
1158.81940995111
 30
0.0
 42
0.054191870628649
  0
VERTEX
  5
578
  8
LAYER0
 10
2169.447736726551
 20
1163.450772530825
 30
0.0
  0
SEQEND
  5
731
  8
LAYER0
  0
POLYLINE
  5
D7
  8
LAYER0
 66
     1
 10
0.0
 20
0.0
 30
0.0
 70
     1
  0
VERTEX
  5
579
  8
LAYER0
 10
2333.449674742117
 20
1192.891610466997
 30
0.0
  0
VERTEX
  5
57A
  8
LAYER0
 10
2333.447711206971
 20
1140.926074873159
 30
0.0
  0
VERTEX
  5
57B
  8
LAYER0
 10
2333.445747670924
 20
1088.960515064079
 30
0.0
 42
-0.4153582021433403
  0
VERTEX
  5
57C
  8
LAYER0
 10
2325.41419377598
 20
1080.960879575035
 30
0.0
  0
VERTEX
  5
57D
  8
LAYER0
 10
1413.445475936865
 20
1080.979090167503
 30
0.0
 42
-0.4117017951700829
  0
VERTEX
  5
57E
  8
LAYER0
 10
1405.445770628622
 20
1088.910424459561
 30
0.0
  0
VERTEX
  5
57F
  8
LAYER0
 10
1405.44773672655
 20
1140.944936956616
 30
0.0
  0
VERTEX
  5
580
  8
LAYER0
 10
1405.449702824479
 20
1192.979449453671
 30
0.0
 42
-0.4154359537516408
  0
VERTEX
  5
581
  8
LAYER0
 10
1413.483373568793
 20
1200.979081352793
 30
0.0
  0
VERTEX
  5
582
  8
LAYER0
 10
2325.449974558576
 20
1200.960870653607
 30
0.0
 42
-0.4167516033104176
  0
SEQEND
  5
732
  8
LAYER0
  0
POLYLINE
  5
D8
  8
LAYER0
 66
     1
 10
0.0
 20
0.0
 30
0.0
 70
     1
  0
VERTEX
  5
583
  8
LAYER0
 10
2393.447703577656
 20
1140.932423872185
 30
0.0
 42
0.4142135623730951
  0
VERTEX
  5
584
  8
LAYER0
 10
2423.447703577656
 20
1110.932423872185
 30
0.0
 42
0.4142135623730951
  0
VERTEX
  5
585
  8
LAYER0
 10
2453.447703577656
 20
1140.932423872185
 30
0.0
 42
0.4142135623730951
  0
VERTEX
  5
586
  8
LAYER0
 10
2423.447703577656
 20
1170.932423872185
 30
0.0
 42
0.4142135623730951
  0
SEQEND
  5
733
  8
LAYER0
  0
POLYLINE
  5
D9
  8
LAYER0
 66
     1
 10
0.0
 20
0.0
 30
0.0
 70
     1
  0
VERTEX
  5
587
  8
LAYER0
 10
2362.447711209658
 20
1163.922235107791
 30
0.0
  0
VERTEX
  5
588
  8
LAYER0
 10
2362.447707185904
 20
1192.932486247445
 30
0.0
 42
-0.4130466514026261
  0
VERTEX
  5
589
  8
LAYER0
 10
2370.415820350203
 20
1200.932423808659
 30
0.0
  0
VERTEX
  5
58A
  8
LAYER0
 10
2476.447749167655
 20
1200.932423808682
 30
0.0
 42
-0.4149335031909357
  0
VERTEX
  5
58B
  8
LAYER0
 10
2484.447725012295
 20
1192.912764581326
 30
0.0
  0
VERTEX
  5
58C
  8
LAYER0
 10
2484.448202240492
 20
1088.932425388282
 30
0.0
 42
-0.415084829204063
  0
VERTEX
  5
58D
  8
LAYER0
 10
2476.424448796735
 20
1080.932423935688
 30
0.0
  0
VERTEX
  5
58E
  8
LAYER0
 10
2370.448137351702
 20
1080.932423935757
 30
0.0
 42
-0.4149171181821181
  0
VERTEX
  5
58F
  8
LAYER0
 10
2362.448160420354
 20
1088.951635854403
 30
0.0
  0
VERTEX
  5
590
  8
LAYER0
 10
2362.44771120614
 20
1117.932483808901
 30
0.0
 42
0.4133306447548355
  0
VERTEX
  5
591
  8
LAYER0
 10
2359.45671092192
 20
1120.932423808577
 30
0.0
  0
VERTEX
  5
592
  8
LAYER0
 10
2345.447716557594
 20
1120.919901071979
 30
0.0
 42
-0.4153917144750761
  0
VERTEX
  5
593
  8
LAYER0
 10
2342.447740807687
 20
1123.931963399648
 30
0.0
  0
VERTEX
  5
594
  8
LAYER0
 10
2342.447740807578
 20
1157.919931071485
 30
0.0
 42
-0.4129043099648541
  0
VERTEX
  5
595
  8
LAYER0
 10
2345.434324445567
 20
1160.919901071555
 30
0.0
  0
VERTEX
  5
596
  8
LAYER0
 10
2359.447728511379
 20
1160.932423808578
 30
0.0
 42
0.413219176143138
  0
SEQEND
  5
734
  8
LAYER0
  0
POLYLINE
  5
DA
  8
LAYER0
 66
     1
 10
0.0
 20
0.0
 30
0.0
 70
     1
  0
VERTEX
  5
597
  8
LAYER0
 10
1345.462985185695
 20
1141.008221222629
 30
0.0
 42
0.4142135623730951
  0
VERTEX
  5
598
  8
LAYER0
 10
1315.462985185695
 20
1171.008221222629
 30
0.0
 42
0.4142135623730951
  0
VERTEX
  5
599
  8
LAYER0
 10
1285.462985185695
 20
1141.008221222629
 30
0.0
 42
0.4142135623730951
  0
VERTEX
  5
59A
  8
LAYER0
 10
1315.462985185695
 20
1111.008221222629
 30
0.0
 42
0.4142135623730951
  0
SEQEND
  5
735
  8
LAYER0
  0
POLYLINE
  5
DB
  8
LAYER0
 66
     1
 10
0.0
 20
0.0
 30
0.0
 70
     1
  0
VERTEX
  5
59B
  8
LAYER0
 10
1376.462977556528
 20
1117.998030545458
 30
0.0
  0
VERTEX
  5
59C
  8
LAYER0
 10
1376.462981577445
 20
1089.008214781226
 30
0.0
 42
-0.4146177716983084
  0
VERTEX
  5
59D
  8
LAYER0
 10
1368.451943812873
 20
1081.008221286157
 30
0.0
  0
VERTEX
  5
59E
  8
LAYER0
 10
1262.462920558085
 20
1081.008221286132
 30
0.0
 42
-0.4132490734995759
  0
VERTEX
  5
59F
  8
LAYER0
 10
1254.462963962234
 20
1088.981868585607
 30
0.0
  0
VERTEX
  5
5A0
  8
LAYER0
 10
1254.462486522888
 20
1193.008218997715
 30
0.0
 42
-0.4133542979318746
  0
VERTEX
  5
5A1
  8
LAYER0
 10
1262.438973013421
 20
1201.008221159133
 30
0.0
  0
VERTEX
  5
5A2
  8
LAYER0
 10
1368.462564042153
 20
1201.008221159034
 30
0.0
 42
-0.4133306440720861
  0
VERTEX
  5
5A3
  8
LAYER0
 10
1376.462527671293
 20
1193.032344421381
 30
0.0
  0
VERTEX
  5
5A4
  8
LAYER0
 10
1376.46297755723
 20
1164.008161285921
 30
0.0
 42
0.4150879474967574
  0
VERTEX
  5
5A5
  8
LAYER0
 10
1379.471977287756
 20
1161.008221286244
 30
0.0
  0
VERTEX
  5
5A6
  8
LAYER0
 10
1393.463001806429
 20
1161.008221286094
 30
0.0
 42
-0.4153917146142018
  0
VERTEX
  5
5A7
  8
LAYER0
 10
1396.462977556332
 20
1157.996158956988
 30
0.0
  0
VERTEX
  5
5A8
  8
LAYER0
 10
1396.462977556429
 20
1124.008191286581
 30
0.0
 42
-0.4129043119791032
  0
VERTEX
  5
5A9
  8
LAYER0
 10
1393.476393898039
 20
1121.008221286513
 30
0.0
  0
VERTEX
  5
5AA
  8
LAYER0
 10
1379.462960247901
 20
1121.00822128624
 30
0.0
 42
0.4152088475752114
  0
SEQEND
  5
736
  8
LAYER0
  0
POLYLINE
  5
DC
  8
LAYER0
 66
     1
 10
0.0
 20
0.0
 30
0.0
 70
     1
  0
VERTEX
  5
5AB
  8
LAYER0
 10
2297.04773672644
 20
1158.449792836887
 30
0.0
  0
VERTEX
  5
5AC
  8
LAYER0
 10
2297.047736726441
 20
1123.454371213953
 30
0.0
 42
0.4136171717885634
  0
VERTEX
  5
5AD
  8
LAYER0
 10
2299.938172955687
 20
1120.550772530955
 30
0.0
  0
VERTEX
  5
5AE
  8
LAYER0
 10
2312.94444600439
 20
1120.550772530954
 30
0.0
 42
0.4157509058906733
  0
VERTEX
  5
5AF
  8
LAYER0
 10
2315.847736726602
 20
1123.462714988447
 30
0.0
  0
VERTEX
  5
5B0
  8
LAYER0
 10
2315.847736726684
 20
1158.447474075352
 30
0.0
 42
0.4148797205795606
  0
VERTEX
  5
5B1
  8
LAYER0
 10
2312.944431894274
 20
1161.350772530719
 30
0.0
  0
VERTEX
  5
5B2
  8
LAYER0
 10
2299.951371151094
 20
1161.350772530719
 30
0.0
 42
0.4146794777514348
  0
SEQEND
  5
737
  8
LAYER0
  0
POLYLINE
  5
DD
  8
LAYER0
 66
     1
 10
0.0
 20
0.0
 30
0.0
 70
     1
  0
VERTEX
  5
5B3
  8
LAYER0
 10
1058.062498237034
 20
1029.545247380288
 30
0.0
  0
VERTEX
  5
5B4
  8
LAYER0
 10
1058.062498237035
 20
994.5498257573536
 30
0.0
 42
0.4136171717887437
  0
VERTEX
  5
5B5
  8
LAYER0
 10
1060.952934466282
 20
991.6462270743557
 30
0.0
  0
VERTEX
  5
5B6
  8
LAYER0
 10
1073.959207514984
 20
991.6462270743541
 30
0.0
 42
0.4157509058907124
  0
VERTEX
  5
5B7
  8
LAYER0
 10
1076.862498237196
 20
994.5581695318481
 30
0.0
  0
VERTEX
  5
5B8
  8
LAYER0
 10
1076.862498237278
 20
1029.542928618753
 30
0.0
 42
0.4148797205793714
  0
VERTEX
  5
5B9
  8
LAYER0
 10
1073.959193404868
 20
1032.446227074119
 30
0.0
  0
VERTEX
  5
5BA
  8
LAYER0
 10
1060.966132661688
 20
1032.44622707412
 30
0.0
 42
0.4146794777515588
  0
SEQEND
  5
738
  8
LAYER0
  0
POLYLINE
  5
DE
  8
LAYER0
 66
     1
 10
0.0
 20
0.0
 30
0.0
 70
     1
  0
VERTEX
  5
5BB
  8
LAYER0
 10
2297.04773672644
 20
1029.449792963899
 30
0.0
  0
VERTEX
  5
5BC
  8
LAYER0
 10
2297.047736726441
 20
994.4543713409646
 30
0.0
 42
0.4136171717886498
  0
VERTEX
  5
5BD
  8
LAYER0
 10
2299.938172955687
 20
991.5507726579668
 30
0.0
  0
VERTEX
  5
5BE
  8
LAYER0
 10
2312.94444600439
 20
991.5507726579651
 30
0.0
 42
0.4157509058907433
  0
VERTEX
  5
5BF
  8
LAYER0
 10
2315.847736726602
 20
994.4627151154592
 30
0.0
  0
VERTEX
  5
5C0
  8
LAYER0
 10
2315.847736726684
 20
1029.447474202364
 30
0.0
 42
0.4148797205797173
  0
VERTEX
  5
5C1
  8
LAYER0
 10
2312.944431894274
 20
1032.35077265773
 30
0.0
  0
VERTEX
  5
5C2
  8
LAYER0
 10
2299.951371151094
 20
1032.35077265773
 30
0.0
 42
0.4146794777515456
  0
SEQEND
  5
739
  8
LAYER0
  0
POLYLINE
  5
DF
  8
LAYER0
 66
     1
 10
0.0
 20
0.0
 30
0.0
 70
     1
  0
VERTEX
  5
5C3
  8
LAYER0
 10
2297.047736726416
 20
771.431742954228
 30
0.0
  0
VERTEX
  5
5C4
  8
LAYER0
 10
2297.047736726417
 20
736.4363213312934
 30
0.0
 42
0.4136171717886498
  0
VERTEX
  5
5C5
  8
LAYER0
 10
2299.938172955664
 20
733.5327226482956
 30
0.0
  0
VERTEX
  5
5C6
  8
LAYER0
 10
2312.944446004366
 20
733.5327226482942
 30
0.0
 42
0.4157509058909081
  0
VERTEX
  5
5C7
  8
LAYER0
 10
2315.847736726578
 20
736.4446651057882
 30
0.0
  0
VERTEX
  5
5C8
  8
LAYER0
 10
2315.847736726661
 20
771.4294241926925
 30
0.0
 42
0.4148797205795657
  0
VERTEX
  5
5C9
  8
LAYER0
 10
2312.94443189425
 20
774.3327226480591
 30
0.0
  0
VERTEX
  5
5CA
  8
LAYER0
 10
2299.95137115107
 20
774.3327226480595
 30
0.0
 42
0.4146794777515671
  0
SEQEND
  5
73A
  8
LAYER0
  0
POLYLINE
  5
E0
  8
LAYER0
 66
     1
 10
0.0
 20
0.0
 30
0.0
 70
     1
  0
VERTEX
  5
5CB
  8
LAYER0
 10
1058.075825555439
 20
255.5091476150674
 30
0.0
  0
VERTEX
  5
5CC
  8
LAYER0
 10
1058.07582555544
 20
220.5137259921329
 30
0.0
 42
0.4136171717887713
  0
VERTEX
  5
5CD
  8
LAYER0
 10
1060.966261784687
 20
217.6101273091351
 30
0.0
  0
VERTEX
  5
5CE
  8
LAYER0
 10
1073.97253483339
 20
217.6101273091336
 30
0.0
 42
0.4157509058907515
  0
VERTEX
  5
5CF
  8
LAYER0
 10
1076.875825555601
 20
220.5220697666276
 30
0.0
  0
VERTEX
  5
5D0
  8
LAYER0
 10
1076.875825555684
 20
255.5068288535321
 30
0.0
 42
0.4148797205794302
  0
VERTEX
  5
5D1
  8
LAYER0
 10
1073.972520723273
 20
258.4101273088986
 30
0.0
  0
VERTEX
  5
5D2
  8
LAYER0
 10
1060.979459980093
 20
258.410127308899
 30
0.0
 42
0.4146794777515048
  0
SEQEND
  5
73B
  8
LAYER0
  0
POLYLINE
  5
E1
  8
LAYER0
 66
     1
 10
0.0
 20
0.0
 30
0.0
 70
     1
  0
VERTEX
  5
5D3
  8
LAYER0
 10
2297.085011589452
 20
126.4136933256771
 30
0.0
  0
VERTEX
  5
5D4
  8
LAYER0
 10
2297.085011589454
 20
91.41827170274257
 30
0.0
 42
0.413617171788797
  0
VERTEX
  5
5D5
  8
LAYER0
 10
2299.9754478187
 20
88.51467301974469
 30
0.0
  0
VERTEX
  5
5D6
  8
LAYER0
 10
2312.981720867403
 20
88.51467301974333
 30
0.0
 42
0.4157509058907465
  0
VERTEX
  5
5D7
  8
LAYER0
 10
2315.885011589614
 20
91.4266154772373
 30
0.0
  0
VERTEX
  5
5D8
  8
LAYER0
 10
2315.885011589697
 20
126.4113745641417
 30
0.0
 42
0.4148797205796192
  0
VERTEX
  5
5D9
  8
LAYER0
 10
2312.981706757286
 20
129.3146730195083
 30
0.0
  0
VERTEX
  5
5DA
  8
LAYER0
 10
2299.988646014106
 20
129.3146730195087
 30
0.0
 42
0.4146794777514339
  0
SEQEND
  5
73C
  8
LAYER0
  0
POLYLINE
  5
E2
  8
LAYER0
 66
     1
 10
0.0
 20
0.0
 30
0.0
 70
     1
  0
VERTEX
  5
5DB
  8
LAYER0
 10
1058.062498237034
 20
1158.545247253276
 30
0.0
  0
VERTEX
  5
5DC
  8
LAYER0
 10
1058.062498237035
 20
1123.549825630342
 30
0.0
 42
0.4136171717887044
  0
VERTEX
  5
5DD
  8
LAYER0
 10
1060.952934466282
 20
1120.646226947344
 30
0.0
  0
VERTEX
  5
5DE
  8
LAYER0
 10
1073.959207514984
 20
1120.646226947342
 30
0.0
 42
0.4157509058907515
  0
VERTEX
  5
5DF
  8
LAYER0
 10
1076.862498237196
 20
1123.558169404836
 30
0.0
  0
VERTEX
  5
5E0
  8
LAYER0
 10
1076.862498237278
 20
1158.542928491741
 30
0.0
 42
0.4148797205793554
  0
VERTEX
  5
5E1
  8
LAYER0
 10
1073.959193404867
 20
1161.446226947108
 30
0.0
  0
VERTEX
  5
5E2
  8
LAYER0
 10
1060.966132661688
 20
1161.446226947108
 30
0.0
 42
0.4146794777516372
  0
SEQEND
  5
73D
  8
LAYER0
  0
POLYLINE
  5
E3
  8
LAYER0
 66
     1
 10
0.0
 20
0.0
 30
0.0
 70
     1
  0
VERTEX
  5
5E3
  8
LAYER0
 10
1058.062498237011
 20
771.5271973706169
 30
0.0
  0
VERTEX
  5
5E4
  8
LAYER0
 10
1058.062498237012
 20
736.5317757476823
 30
0.0
 42
0.4136171717887908
  0
VERTEX
  5
5E5
  8
LAYER0
 10
1060.952934466259
 20
733.6281770646846
 30
0.0
  0
VERTEX
  5
5E6
  8
LAYER0
 10
1073.959207514961
 20
733.6281770646832
 30
0.0
 42
0.4157509058907515
  0
VERTEX
  5
5E7
  8
LAYER0
 10
1076.862498237173
 20
736.5401195221772
 30
0.0
  0
VERTEX
  5
5E8
  8
LAYER0
 10
1076.862498237255
 20
771.5248786090816
 30
0.0
 42
0.4148797205793944
  0
VERTEX
  5
5E9
  8
LAYER0
 10
1073.959193404844
 20
774.428177064448
 30
0.0
  0
VERTEX
  5
5EA
  8
LAYER0
 10
1060.966132661664
 20
774.4281770644485
 30
0.0
 42
0.4146794777515048
  0
SEQEND
  5
73E
  8
LAYER0
  0
POLYLINE
  5
E4
  8
LAYER0
 66
     1
 10
0.0
 20
0.0
 30
0.0
 70
     1
  0
VERTEX
  5
5EB
  8
LAYER0
 10
1058.086445781618
 20
642.5271974976156
 30
0.0
  0
VERTEX
  5
5EC
  8
LAYER0
 10
1058.08644578162
 20
607.531775874681
 30
0.0
 42
0.413617171788712
  0
VERTEX
  5
5ED
  8
LAYER0
 10
1060.976882010866
 20
604.6281771916832
 30
0.0
  0
VERTEX
  5
5EE
  8
LAYER0
 10
1073.983155059569
 20
604.6281771916819
 30
0.0
 42
0.4157509058907515
  0
VERTEX
  5
5EF
  8
LAYER0
 10
1076.88644578178
 20
607.5401196491758
 30
0.0
  0
VERTEX
  5
5F0
  8
LAYER0
 10
1076.886445781863
 20
642.5248787360803
 30
0.0
 42
0.4148797205793944
  0
VERTEX
  5
5F1
  8
LAYER0
 10
1073.983140949452
 20
645.4281771914467
 30
0.0
  0
VERTEX
  5
5F2
  8
LAYER0
 10
1060.990080206272
 20
645.4281771914472
 30
0.0
 42
0.4146794777515048
  0
SEQEND
  5
73F
  8
LAYER0
  0
POLYLINE
  5
E5
  8
LAYER0
 66
     1
 10
0.0
 20
0.0
 30
0.0
 70
     1
  0
VERTEX
  5
5F3
  8
LAYER0
 10
1058.099773100047
 20
126.509147742066
 30
0.0
  0
VERTEX
  5
5F4
  8
LAYER0
 10
1058.099773100048
 20
91.51372611913155
 30
0.0
 42
0.4136171717887138
  0
VERTEX
  5
5F5
  8
LAYER0
 10
1060.990209329294
 20
88.61012743613378
 30
0.0
  0
VERTEX
  5
5F6
  8
LAYER0
 10
1073.996482377997
 20
88.6101274361323
 30
0.0
 42
0.4157509058908412
  0
VERTEX
  5
5F7
  8
LAYER0
 10
1076.899773100209
 20
91.52206989362628
 30
0.0
  0
VERTEX
  5
5F8
  8
LAYER0
 10
1076.899773100291
 20
126.5068289805307
 30
0.0
 42
0.4148797205795085
  0
VERTEX
  5
5F9
  8
LAYER0
 10
1073.99646826788
 20
129.4101274358973
 30
0.0
  0
VERTEX
  5
5FA
  8
LAYER0
 10
1061.0034075247
 20
129.4101274358976
 30
0.0
 42
0.4146794777516041
  0
SEQEND
  5
740
  8
LAYER0
  0
POLYLINE
  5
E6
  8
LAYER0
 66
     1
 10
0.0
 20
0.0
 30
0.0
 70
     1
  0
VERTEX
  5
5FB
  8
LAYER0
 10
1058.086445781642
 20
900.5452475072866
 30
0.0
  0
VERTEX
  5
5FC
  8
LAYER0
 10
1058.086445781643
 20
865.5498258843522
 30
0.0
 42
0.4136171717887908
  0
VERTEX
  5
5FD
  8
LAYER0
 10
1060.97688201089
 20
862.6462272013545
 30
0.0
  0
VERTEX
  5
5FE
  8
LAYER0
 10
1073.983155059592
 20
862.6462272013529
 30
0.0
 42
0.4157509058907515
  0
VERTEX
  5
5FF
  8
LAYER0
 10
1076.886445781804
 20
865.5581696588469
 30
0.0
  0
VERTEX
  5
600
  8
LAYER0
 10
1076.886445781886
 20
900.5429287457513
 30
0.0
 42
0.4148797205794335
  0
VERTEX
  5
601
  8
LAYER0
 10
1073.983140949475
 20
903.446227201118
 30
0.0
  0
VERTEX
  5
602
  8
LAYER0
 10
1060.990080206295
 20
903.4462272011182
 30
0.0
 42
0.4146794777515048
  0
SEQEND
  5
741
  8
LAYER0
  0
POLYLINE
  5
E7
  8
LAYER0
 66
     1
 10
0.0
 20
0.0
 30
0.0
 70
     1
  0
VERTEX
  5
603
  8
LAYER0
 10
1058.075825555463
 20
513.5271976247385
 30
0.0
  0
VERTEX
  5
604
  8
LAYER0
 10
1058.075825555464
 20
478.531776001804
 30
0.0
 42
0.4136171717886926
  0
VERTEX
  5
605
  8
LAYER0
 10
1060.96626178471
 20
475.6281773188063
 30
0.0
  0
VERTEX
  5
606
  8
LAYER0
 10
1073.972534833413
 20
475.6281773188048
 30
0.0
 42
0.4157509058907515
  0
VERTEX
  5
607
  8
LAYER0
 10
1076.875825555625
 20
478.5401197762988
 30
0.0
  0
VERTEX
  5
608
  8
LAYER0
 10
1076.875825555707
 20
513.5248788632032
 30
0.0
 42
0.414879720579559
  0
VERTEX
  5
609
  8
LAYER0
 10
1073.972520723296
 20
516.4281773185697
 30
0.0
  0
VERTEX
  5
60A
  8
LAYER0
 10
1060.979459980116
 20
516.4281773185701
 30
0.0
 42
0.4146794777516223
  0
SEQEND
  5
742
  8
LAYER0
  0
POLYLINE
  5
E8
  8
LAYER0
 66
     1
 10
0.0
 20
0.0
 30
0.0
 70
     1
  0
VERTEX
  5
60B
  8
LAYER0
 10
2297.085011589476
 20
384.4317433353482
 30
0.0
  0
VERTEX
  5
60C
  8
LAYER0
 10
2297.085011589477
 20
349.4363217124137
 30
0.0
 42
0.4136171717888198
  0
VERTEX
  5
60D
  8
LAYER0
 10
2299.975447818723
 20
346.5327230294159
 30
0.0
  0
VERTEX
  5
60E
  8
LAYER0
 10
2312.981720867426
 20
346.5327230294145
 30
0.0
 42
0.4157509058907515
  0
VERTEX
  5
60F
  8
LAYER0
 10
2315.885011589638
 20
349.4446654869084
 30
0.0
  0
VERTEX
  5
610
  8
LAYER0
 10
2315.885011589721
 20
384.4294245738129
 30
0.0
 42
0.4148797205795542
  0
VERTEX
  5
611
  8
LAYER0
 10
2312.981706757309
 20
387.3327230291794
 30
0.0
  0
VERTEX
  5
612
  8
LAYER0
 10
2299.98864601413
 20
387.3327230291798
 30
0.0
 42
0.4146794777516321
  0
SEQEND
  5
743
  8
LAYER0
  0
POLYLINE
  5
E9
  8
LAYER0
 66
     1
 10
0.0
 20
0.0
 30
0.0
 70
     1
  0
VERTEX
  5
613
  8
LAYER0
 10
1058.09977310007
 20
384.5271977517372
 30
0.0
  0
VERTEX
  5
614
  8
LAYER0
 10
1058.099773100072
 20
349.5317761288027
 30
0.0
 42
0.413617171788771
  0
VERTEX
  5
615
  8
LAYER0
 10
1060.990209329318
 20
346.6281774458049
 30
0.0
  0
VERTEX
  5
616
  8
LAYER0
 10
1073.996482378021
 20
346.6281774458034
 30
0.0
 42
0.4157509058907473
  0
VERTEX
  5
617
  8
LAYER0
 10
1076.899773100232
 20
349.5401199032975
 30
0.0
  0
VERTEX
  5
618
  8
LAYER0
 10
1076.899773100315
 20
384.5248789902018
 30
0.0
 42
0.4148797205794139
  0
VERTEX
  5
619
  8
LAYER0
 10
1073.996468267904
 20
387.4281774455684
 30
0.0
  0
VERTEX
  5
61A
  8
LAYER0
 10
1061.003407524724
 20
387.4281774455687
 30
0.0
 42
0.4146794777515048
  0
SEQEND
  5
744
  8
LAYER0
  0
POLYLINE
  5
EA
  8
LAYER0
 66
     1
 10
0.0
 20
0.0
 30
0.0
 70
     1
  0
VERTEX
  5
61B
  8
LAYER0
 10
2297.071684271024
 20
642.4317430812266
 30
0.0
  0
VERTEX
  5
61C
  8
LAYER0
 10
2297.071684271025
 20
607.436321458292
 30
0.0
 42
0.4136171717886498
  0
VERTEX
  5
61D
  8
LAYER0
 10
2299.962120500271
 20
604.5327227752942
 30
0.0
  0
VERTEX
  5
61E
  8
LAYER0
 10
2312.968393548974
 20
604.5327227752929
 30
0.0
 42
0.4157509058907515
  0
VERTEX
  5
61F
  8
LAYER0
 10
2315.871684271186
 20
607.4446652327869
 30
0.0
  0
VERTEX
  5
620
  8
LAYER0
 10
2315.871684271269
 20
642.4294243196913
 30
0.0
 42
0.4148797205795348
  0
VERTEX
  5
621
  8
LAYER0
 10
2312.968379438857
 20
645.3327227750577
 30
0.0
  0
VERTEX
  5
622
  8
LAYER0
 10
2299.975318695678
 20
645.3327227750582
 30
0.0
 42
0.4146794777516321
  0
SEQEND
  5
745
  8
LAYER0
  0
POLYLINE
  5
EB
  8
LAYER0
 66
     1
 10
0.0
 20
0.0
 30
0.0
 70
     1
  0
VERTEX
  5
623
  8
LAYER0
 10
2297.071684271048
 20
900.4497930908976
 30
0.0
  0
VERTEX
  5
624
  8
LAYER0
 10
2297.071684271049
 20
865.4543714679633
 30
0.0
 42
0.4136171717886498
  0
VERTEX
  5
625
  8
LAYER0
 10
2299.962120500295
 20
862.5507727849655
 30
0.0
  0
VERTEX
  5
626
  8
LAYER0
 10
2312.968393548998
 20
862.5507727849639
 30
0.0
 42
0.4157509058909405
  0
VERTEX
  5
627
  8
LAYER0
 10
2315.871684271209
 20
865.4627152424579
 30
0.0
  0
VERTEX
  5
628
  8
LAYER0
 10
2315.871684271292
 20
900.4474743293622
 30
0.0
 42
0.4148797205795657
  0
VERTEX
  5
629
  8
LAYER0
 10
2312.968379438881
 20
903.350772784729
 30
0.0
  0
VERTEX
  5
62A
  8
LAYER0
 10
2299.975318695701
 20
903.3507727847292
 30
0.0
 42
0.4146794777516321
  0
SEQEND
  5
746
  8
LAYER0
  0
POLYLINE
  5
EC
  8
LAYER0
 66
     1
 10
0.0
 20
0.0
 30
0.0
 70
     1
  0
VERTEX
  5
62B
  8
LAYER0
 10
2297.061064044868
 20
513.4317432083495
 30
0.0
  0
VERTEX
  5
62C
  8
LAYER0
 10
2297.061064044869
 20
478.436321585415
 30
0.0
 42
0.4136171717886303
  0
VERTEX
  5
62D
  8
LAYER0
 10
2299.951500274115
 20
475.5327229024173
 30
0.0
  0
VERTEX
  5
62E
  8
LAYER0
 10
2312.957773322818
 20
475.5327229024158
 30
0.0
 42
0.4157509058909081
  0
VERTEX
  5
62F
  8
LAYER0
 10
2315.86106404503
 20
478.4446653599098
 30
0.0
  0
VERTEX
  5
630
  8
LAYER0
 10
2315.861064045113
 20
513.4294244468142
 30
0.0
 42
0.4148797205796211
  0
VERTEX
  5
631
  8
LAYER0
 10
2312.957759212702
 20
516.3327229021808
 30
0.0
  0
VERTEX
  5
632
  8
LAYER0
 10
2299.964698469522
 20
516.3327229021811
 30
0.0
 42
0.4146794777514821
  0
SEQEND
  5
747
  8
LAYER0
  0
POLYLINE
  5
ED
  8
LAYER0
 66
     1
 10
0.0
 20
0.0
 30
0.0
 70
     1
  0
VERTEX
  5
633
  8
LAYER0
 10
2297.061064044845
 20
255.4136931986784
 30
0.0
  0
VERTEX
  5
634
  8
LAYER0
 10
2297.061064044845
 20
220.4182715757439
 30
0.0
 42
0.4136171717886303
  0
VERTEX
  5
635
  8
LAYER0
 10
2299.951500274092
 20
217.5146728927461
 30
0.0
  0
VERTEX
  5
636
  8
LAYER0
 10
2312.957773322795
 20
217.5146728927447
 30
0.0
 42
0.4157509058909405
  0
VERTEX
  5
637
  8
LAYER0
 10
2315.861064045006
 20
220.4266153502386
 30
0.0
  0
VERTEX
  5
638
  8
LAYER0
 10
2315.861064045089
 20
255.411374437143
 30
0.0
 42
0.4148797205795699
  0
VERTEX
  5
639
  8
LAYER0
 10
2312.957759212678
 20
258.3146728925096
 30
0.0
  0
VERTEX
  5
63A
  8
LAYER0
 10
2299.964698469498
 20
258.31467289251
 30
0.0
 42
0.4146794777516083
  0
SEQEND
  5
748
  8
LAYER0
  0
POLYLINE
  5
EE
  8
LAYER0
 66
     1
 10
0.0
 20
0.0
 30
0.0
 70
     1
  0
VERTEX
  5
63B
  8
LAYER0
 10
184.1016610919582
 20
900.585399000177
 30
0.0
  0
VERTEX
  5
63C
  8
LAYER0
 10
184.1016610918691
 20
865.5886035250348
 30
0.0
 42
0.4162106770906079
  0
VERTEX
  5
63D
  8
LAYER0
 10
187.0181599213465
 20
862.6853272344889
 30
0.0
  0
VERTEX
  5
63E
  8
LAYER0
 10
199.9983766492549
 20
862.6853272344941
 30
0.0
 42
0.4159794140784419
  0
VERTEX
  5
63F
  8
LAYER0
 10
202.9016610921137
 20
865.599534416202
 30
0.0
  0
VERTEX
  5
640
  8
LAYER0
 10
202.9016610921137
 20
900.5820287814349
 30
0.0
 42
0.4148792893408304
  0
VERTEX
  5
641
  8
LAYER0
 10
199.9983605366619
 20
903.4853272342588
 30
0.0
  0
VERTEX
  5
642
  8
LAYER0
 10
187.0052936707175
 20
903.4853272342556
 30
0.0
 42
0.4145735027357819
  0
SEQEND
  5
749
  8
LAYER0
  0
POLYLINE
  5
EF
  8
LAYER0
 66
     1
 10
0.0
 20
0.0
 30
0.0
 70
     1
  0
VERTEX
  5
643
  8
LAYER0
 10
184.0910408657787
 20
513.5673491176287
 30
0.0
  0
VERTEX
  5
644
  8
LAYER0
 10
184.0910408656898
 20
478.5705536424867
 30
0.0
 42
0.4162106770905464
  0
VERTEX
  5
645
  8
LAYER0
 10
187.007539695167
 20
475.6672773519407
 30
0.0
  0
VERTEX
  5
646
  8
LAYER0
 10
199.9877564230756
 20
475.6672773519459
 30
0.0
 42
0.4159794140784778
  0
VERTEX
  5
647
  8
LAYER0
 10
202.8910408659342
 20
478.5814845336538
 30
0.0
  0
VERTEX
  5
648
  8
LAYER0
 10
202.8910408659342
 20
513.5639788988867
 30
0.0
 42
0.4148792893408776
  0
VERTEX
  5
649
  8
LAYER0
 10
199.9877403104826
 20
516.4672773517107
 30
0.0
  0
VERTEX
  5
64A
  8
LAYER0
 10
186.9946734445382
 20
516.4672773517074
 30
0.0
 42
0.4145735027357265
  0
SEQEND
  5
74A
  8
LAYER0
  0
POLYLINE
  5
F0
  8
LAYER0
 66
     1
 10
0.0
 20
0.0
 30
0.0
 70
     1
  0
VERTEX
  5
64B
  8
LAYER0
 10
184.1016610919348
 20
642.5673489905057
 30
0.0
  0
VERTEX
  5
64C
  8
LAYER0
 10
184.1016610918457
 20
607.5705535153637
 30
0.0
 42
0.416210677090554
  0
VERTEX
  5
64D
  8
LAYER0
 10
187.0181599213229
 20
604.6672772248177
 30
0.0
  0
VERTEX
  5
64E
  8
LAYER0
 10
199.9983766492317
 20
604.6672772248229
 30
0.0
 42
0.4159794140784188
  0
VERTEX
  5
64F
  8
LAYER0
 10
202.9016610920903
 20
607.5814844065308
 30
0.0
  0
VERTEX
  5
650
  8
LAYER0
 10
202.9016610920903
 20
642.5639787717637
 30
0.0
 42
0.4148792893408697
  0
VERTEX
  5
651
  8
LAYER0
 10
199.9983605366385
 20
645.4672772245877
 30
0.0
  0
VERTEX
  5
652
  8
LAYER0
 10
187.0052936706938
 20
645.4672772245843
 30
0.0
 42
0.414573502735759
  0
SEQEND
  5
74B
  8
LAYER0
  0
POLYLINE
  5
F1
  8
LAYER0
 66
     1
 10
0.0
 20
0.0
 30
0.0
 70
     1
  0
VERTEX
  5
653
  8
LAYER0
 10
1423.062952036756
 20
1029.489944456789
 30
0.0
  0
VERTEX
  5
654
  8
LAYER0
 10
1423.062952036667
 20
994.4931489816472
 30
0.0
 42
0.4162106770905659
  0
VERTEX
  5
655
  8
LAYER0
 10
1425.979450866144
 20
991.5898726911013
 30
0.0
  0
VERTEX
  5
656
  8
LAYER0
 10
1438.959667594053
 20
991.5898726911065
 30
0.0
 42
0.4159794140784516
  0
VERTEX
  5
657
  8
LAYER0
 10
1441.862952036912
 20
994.5040798728144
 30
0.0
  0
VERTEX
  5
658
  8
LAYER0
 10
1441.862952036912
 20
1029.486574238047
 30
0.0
 42
0.4148792893408419
  0
VERTEX
  5
659
  8
LAYER0
 10
1438.95965148146
 20
1032.389872690871
 30
0.0
  0
VERTEX
  5
65A
  8
LAYER0
 10
1425.966584615515
 20
1032.389872690868
 30
0.0
 42
0.414573502735725
  0
SEQEND
  5
74C
  8
LAYER0
  0
POLYLINE
  5
F2
  8
LAYER0
 66
     1
 10
0.0
 20
0.0
 30
0.0
 70
     1
  0
VERTEX
  5
65B
  8
LAYER0
 10
1423.062952036756
 20
1158.489944329778
 30
0.0
  0
VERTEX
  5
65C
  8
LAYER0
 10
1423.062952036667
 20
1123.493148854635
 30
0.0
 42
0.4162106770905572
  0
VERTEX
  5
65D
  8
LAYER0
 10
1425.979450866144
 20
1120.58987256409
 30
0.0
  0
VERTEX
  5
65E
  8
LAYER0
 10
1438.959667594053
 20
1120.589872564095
 30
0.0
 42
0.4159794140783033
  0
VERTEX
  5
65F
  8
LAYER0
 10
1441.862952036912
 20
1123.504079745803
 30
0.0
  0
VERTEX
  5
660
  8
LAYER0
 10
1441.862952036912
 20
1158.486574111036
 30
0.0
 42
0.4148792893408419
  0
VERTEX
  5
661
  8
LAYER0
 10
1438.95965148146
 20
1161.38987256386
 30
0.0
  0
VERTEX
  5
662
  8
LAYER0
 10
1425.966584615515
 20
1161.389872563856
 30
0.0
 42
0.4145735027357087
  0
SEQEND
  5
74D
  8
LAYER0
  0
POLYLINE
  5
F3
  8
LAYER0
 66
     1
 10
0.0
 20
0.0
 30
0.0
 70
     1
  0
VERTEX
  5
663
  8
LAYER0
 10
184.077713547327
 20
771.567348863507
 30
0.0
  0
VERTEX
  5
664
  8
LAYER0
 10
184.0777135472379
 20
736.570553388365
 30
0.0
 42
0.4162106770905377
  0
VERTEX
  5
665
  8
LAYER0
 10
186.9942123767153
 20
733.667277097819
 30
0.0
  0
VERTEX
  5
666
  8
LAYER0
 10
199.9744291046238
 20
733.6672770978242
 30
0.0
 42
0.4159794140784581
  0
VERTEX
  5
667
  8
LAYER0
 10
202.8777135474825
 20
736.5814842795321
 30
0.0
  0
VERTEX
  5
668
  8
LAYER0
 10
202.8777135474825
 20
771.563978644765
 30
0.0
 42
0.4148792893409088
  0
VERTEX
  5
669
  8
LAYER0
 10
199.9744129920307
 20
774.4672770975891
 30
0.0
  0
VERTEX
  5
66A
  8
LAYER0
 10
186.9813461260862
 20
774.4672770975857
 30
0.0
 42
0.4145735027357428
  0
SEQEND
  5
74E
  8
LAYER0
  0
POLYLINE
  5
F4
  8
LAYER0
 66
     1
 10
0.0
 20
0.0
 30
0.0
 70
     1
  0
VERTEX
  5
66B
  8
LAYER0
 10
184.1149884103866
 20
384.5673492446273
 30
0.0
  0
VERTEX
  5
66C
  8
LAYER0
 10
184.1149884102979
 20
349.5705537694853
 30
0.0
 42
0.4162106770906064
  0
VERTEX
  5
66D
  8
LAYER0
 10
187.0314872397746
 20
346.6672774789394
 30
0.0
  0
VERTEX
  5
66E
  8
LAYER0
 10
200.0117039676832
 20
346.6672774789445
 30
0.0
 42
0.4159794140784419
  0
VERTEX
  5
66F
  8
LAYER0
 10
202.914988410542
 20
349.5814846606524
 30
0.0
  0
VERTEX
  5
670
  8
LAYER0
 10
202.914988410542
 20
384.5639790258854
 30
0.0
 42
0.4148792893408901
  0
VERTEX
  5
671
  8
LAYER0
 10
200.0116878550905
 20
387.4672774787093
 30
0.0
  0
VERTEX
  5
672
  8
LAYER0
 10
187.0186209891458
 20
387.467277478706
 30
0.0
 42
0.4145735027357739
  0
SEQEND
  5
74F
  8
LAYER0
  0
POLYLINE
  5
F5
  8
LAYER0
 66
     1
 10
0.0
 20
0.0
 30
0.0
 70
     1
  0
VERTEX
  5
673
  8
LAYER0
 10
1423.100226899769
 20
126.4538448185672
 30
0.0
  0
VERTEX
  5
674
  8
LAYER0
 10
1423.10022689968
 20
91.45704934342518
 30
0.0
 42
0.4162106770905507
  0
VERTEX
  5
675
  8
LAYER0
 10
1426.016725729157
 20
88.55377305287925
 30
0.0
  0
VERTEX
  5
676
  8
LAYER0
 10
1438.996942457066
 20
88.55377305288448
 30
0.0
 42
0.4159794140784499
  0
VERTEX
  5
677
  8
LAYER0
 10
1441.900226899925
 20
91.46798023459246
 30
0.0
  0
VERTEX
  5
678
  8
LAYER0
 10
1441.900226899925
 20
126.4504745998253
 30
0.0
 42
0.4148792893408934
  0
VERTEX
  5
679
  8
LAYER0
 10
1438.996926344473
 20
129.3537730526492
 30
0.0
  0
VERTEX
  5
67A
  8
LAYER0
 10
1426.003859478528
 20
129.353773052646
 30
0.0
 42
0.4145735027357284
  0
SEQEND
  5
750
  8
LAYER0
  0
POLYLINE
  5
F6
  8
LAYER0
 66
     1
 10
0.0
 20
0.0
 30
0.0
 70
     1
  0
VERTEX
  5
67B
  8
LAYER0
 10
1423.100226899792
 20
384.4718948282384
 30
0.0
  0
VERTEX
  5
67C
  8
LAYER0
 10
1423.100226899703
 20
349.4750993530964
 30
0.0
 42
0.4162106770905497
  0
VERTEX
  5
67D
  8
LAYER0
 10
1426.016725729181
 20
346.5718230625504
 30
0.0
  0
VERTEX
  5
67E
  8
LAYER0
 10
1438.996942457089
 20
346.5718230625556
 30
0.0
 42
0.4159794140784475
  0
VERTEX
  5
67F
  8
LAYER0
 10
1441.900226899948
 20
349.4860302442635
 30
0.0
  0
VERTEX
  5
680
  8
LAYER0
 10
1441.900226899948
 20
384.4685246094964
 30
0.0
 42
0.414879289340909
  0
VERTEX
  5
681
  8
LAYER0
 10
1438.996926344496
 20
387.3718230623203
 30
0.0
  0
VERTEX
  5
682
  8
LAYER0
 10
1426.003859478551
 20
387.371823062317
 30
0.0
 42
0.4145735027357519
  0
SEQEND
  5
751
  8
LAYER0
  0
POLYLINE
  5
F7
  8
LAYER0
 66
     1
 10
0.0
 20
0.0
 30
0.0
 70
     1
  0
VERTEX
  5
683
  8
LAYER0
 10
1423.062952036733
 20
771.4718944471181
 30
0.0
  0
VERTEX
  5
684
  8
LAYER0
 10
1423.062952036644
 20
736.4750989719762
 30
0.0
 42
0.4162106770905653
  0
VERTEX
  5
685
  8
LAYER0
 10
1425.979450866121
 20
733.57182268143
 30
0.0
  0
VERTEX
  5
686
  8
LAYER0
 10
1438.95966759403
 20
733.5718226814353
 30
0.0
 42
0.4159794140784516
  0
VERTEX
  5
687
  8
LAYER0
 10
1441.862952036889
 20
736.4860298631431
 30
0.0
  0
VERTEX
  5
688
  8
LAYER0
 10
1441.862952036889
 20
771.468524228376
 30
0.0
 42
0.4148792893408501
  0
VERTEX
  5
689
  8
LAYER0
 10
1438.959651481437
 20
774.3718226812001
 30
0.0
  0
VERTEX
  5
68A
  8
LAYER0
 10
1425.966584615492
 20
774.3718226811967
 30
0.0
 42
0.4145735027357168
  0
SEQEND
  5
752
  8
LAYER0
  0
POLYLINE
  5
F8
  8
LAYER0
 66
     1
 10
0.0
 20
0.0
 30
0.0
 70
     1
  0
VERTEX
  5
68B
  8
LAYER0
 10
1423.076279355185
 20
513.4718947012398
 30
0.0
  0
VERTEX
  5
68C
  8
LAYER0
 10
1423.076279355095
 20
478.4750992260977
 30
0.0
 42
0.4162106770905497
  0
VERTEX
  5
68D
  8
LAYER0
 10
1425.992778184573
 20
475.5718229355517
 30
0.0
  0
VERTEX
  5
68E
  8
LAYER0
 10
1438.972994912482
 20
475.571822935557
 30
0.0
 42
0.41597941407848
  0
VERTEX
  5
68F
  8
LAYER0
 10
1441.87627935534
 20
478.4860301172649
 30
0.0
  0
VERTEX
  5
690
  8
LAYER0
 10
1441.87627935534
 20
513.4685244824977
 30
0.0
 42
0.4148792893409365
  0
VERTEX
  5
691
  8
LAYER0
 10
1438.972978799888
 20
516.3718229353217
 30
0.0
  0
VERTEX
  5
692
  8
LAYER0
 10
1425.979911933944
 20
516.3718229353184
 30
0.0
 42
0.4145735027357168
  0
SEQEND
  5
753
  8
LAYER0
  0
POLYLINE
  5
F9
  8
LAYER0
 66
     1
 10
0.0
 20
0.0
 30
0.0
 70
     1
  0
VERTEX
  5
693
  8
LAYER0
 10
1423.076279355161
 20
255.4538446915686
 30
0.0
  0
VERTEX
  5
694
  8
LAYER0
 10
1423.076279355072
 20
220.4570492164266
 30
0.0
 42
0.41621067709054
  0
VERTEX
  5
695
  8
LAYER0
 10
1425.992778184549
 20
217.5537729258806
 30
0.0
  0
VERTEX
  5
696
  8
LAYER0
 10
1438.972994912458
 20
217.5537729258858
 30
0.0
 42
0.4159794140784084
  0
VERTEX
  5
697
  8
LAYER0
 10
1441.876279355317
 20
220.4679801075937
 30
0.0
  0
VERTEX
  5
698
  8
LAYER0
 10
1441.876279355317
 20
255.4504744728267
 30
0.0
 42
0.4148792893409031
  0
VERTEX
  5
699
  8
LAYER0
 10
1438.972978799865
 20
258.3537729256506
 30
0.0
  0
VERTEX
  5
69A
  8
LAYER0
 10
1425.97991193392
 20
258.3537729256473
 30
0.0
 42
0.4145735027357284
  0
SEQEND
  5
754
  8
LAYER0
  0
POLYLINE
  5
FA
  8
LAYER0
 66
     1
 10
0.0
 20
0.0
 30
0.0
 70
     1
  0
VERTEX
  5
69B
  8
LAYER0
 10
1423.08689958134
 20
642.4718945741166
 30
0.0
  0
VERTEX
  5
69C
  8
LAYER0
 10
1423.086899581251
 20
607.4750990989747
 30
0.0
 42
0.4162106770905733
  0
VERTEX
  5
69D
  8
LAYER0
 10
1426.003398410729
 20
604.5718228084287
 30
0.0
  0
VERTEX
  5
69E
  8
LAYER0
 10
1438.983615138637
 20
604.5718228084339
 30
0.0
 42
0.4159794140784516
  0
VERTEX
  5
69F
  8
LAYER0
 10
1441.886899581496
 20
607.4860299901418
 30
0.0
  0
VERTEX
  5
6A0
  8
LAYER0
 10
1441.886899581496
 20
642.4685243553747
 30
0.0
 42
0.4148792893408501
  0
VERTEX
  5
6A1
  8
LAYER0
 10
1438.983599026044
 20
645.3718228081988
 30
0.0
  0
VERTEX
  5
6A2
  8
LAYER0
 10
1425.9905321601
 20
645.3718228081954
 30
0.0
 42
0.4145735027357479
  0
SEQEND
  5
755
  8
LAYER0
  0
POLYLINE
  5
FB
  8
LAYER0
 66
     1
 10
0.0
 20
0.0
 30
0.0
 70
     1
  0
VERTEX
  5
6A3
  8
LAYER0
 10
184.1149884103634
 20
126.5492992349562
 30
0.0
  0
VERTEX
  5
6A4
  8
LAYER0
 10
184.1149884102742
 20
91.55250375981427
 30
0.0
 42
0.4162106770905575
  0
VERTEX
  5
6A5
  8
LAYER0
 10
187.0314872397514
 20
88.64922746926811
 30
0.0
  0
VERTEX
  5
6A6
  8
LAYER0
 10
200.01170396766
 20
88.64922746927346
 30
0.0
 42
0.4159794140783735
  0
VERTEX
  5
6A7
  8
LAYER0
 10
202.9149884105188
 20
91.56343465098132
 30
0.0
  0
VERTEX
  5
6A8
  8
LAYER0
 10
202.9149884105188
 20
126.5459290162143
 30
0.0
 42
0.414879289340838
  0
VERTEX
  5
6A9
  8
LAYER0
 10
200.0116878550668
 20
129.4492274690382
 30
0.0
  0
VERTEX
  5
6AA
  8
LAYER0
 10
187.0186209891222
 20
129.449227469035
 30
0.0
 42
0.4145735027357869
  0
SEQEND
  5
756
  8
LAYER0
  0
POLYLINE
  5
FC
  8
LAYER0
 66
     1
 10
0.0
 20
0.0
 30
0.0
 70
     1
  0
VERTEX
  5
6AB
  8
LAYER0
 10
184.0910408657553
 20
255.5492991079576
 30
0.0
  0
VERTEX
  5
6AC
  8
LAYER0
 10
184.0910408656664
 20
220.5525036328156
 30
0.0
 42
0.4162106770905633
  0
VERTEX
  5
6AD
  8
LAYER0
 10
187.0075396951438
 20
217.6492273422696
 30
0.0
  0
VERTEX
  5
6AE
  8
LAYER0
 10
199.9877564230521
 20
217.6492273422747
 30
0.0
 42
0.4159794140784541
  0
VERTEX
  5
6AF
  8
LAYER0
 10
202.8910408659108
 20
220.5634345239827
 30
0.0
  0
VERTEX
  5
6B0
  8
LAYER0
 10
202.8910408659108
 20
255.5459288892157
 30
0.0
 42
0.4148792893408802
  0
VERTEX
  5
6B1
  8
LAYER0
 10
199.9877403104592
 20
258.4492273420396
 30
0.0
  0
VERTEX
  5
6B2
  8
LAYER0
 10
186.9946734445148
 20
258.4492273420362
 30
0.0
 42
0.4145735027357617
  0
SEQEND
  5
757
  8
LAYER0
  0
POLYLINE
  5
FD
  8
LAYER0
 66
     1
 10
0.0
 20
0.0
 30
0.0
 70
     1
  0
VERTEX
  5
6B3
  8
LAYER0
 10
1423.086899581364
 20
900.489944583788
 30
0.0
  0
VERTEX
  5
6B4
  8
LAYER0
 10
1423.086899581275
 20
865.4931491086459
 30
0.0
 42
0.4162106770905659
  0
VERTEX
  5
6B5
  8
LAYER0
 10
1426.003398410752
 20
862.5898728180999
 30
0.0
  0
VERTEX
  5
6B6
  8
LAYER0
 10
1438.983615138661
 20
862.5898728181052
 30
0.0
 42
0.4159794140784516
  0
VERTEX
  5
6B7
  8
LAYER0
 10
1441.88689958152
 20
865.504079999813
 30
0.0
  0
VERTEX
  5
6B8
  8
LAYER0
 10
1441.88689958152
 20
900.486574365046
 30
0.0
 42
0.4148792893408419
  0
VERTEX
  5
6B9
  8
LAYER0
 10
1438.983599026068
 20
903.3898728178699
 30
0.0
  0
VERTEX
  5
6BA
  8
LAYER0
 10
1425.990532160123
 20
903.3898728178666
 30
0.0
 42
0.4145735027357168
  0
SEQEND
  5
758
  8
LAYER0
  0
POLYLINE
  5
FE
  8
LAYER0
 66
     1
 10
0.0
 20
0.0
 30
0.0
 70
     1
  0
VERTEX
  5
6BB
  8
LAYER0
 10
184.0777135473502
 20
1158.585398746166
 30
0.0
  0
VERTEX
  5
6BC
  8
LAYER0
 10
184.0777135472615
 20
1123.588603271025
 30
0.0
 42
0.4162106770905148
  0
VERTEX
  5
6BD
  8
LAYER0
 10
186.9942123767385
 20
1120.685326980478
 30
0.0
  0
VERTEX
  5
6BE
  8
LAYER0
 10
199.974429104647
 20
1120.685326980484
 30
0.0
 42
0.4159794140784501
  0
VERTEX
  5
6BF
  8
LAYER0
 10
202.8777135475057
 20
1123.599534162192
 30
0.0
  0
VERTEX
  5
6C0
  8
LAYER0
 10
202.8777135475057
 20
1158.582028527424
 30
0.0
 42
0.414879289340933
  0
VERTEX
  5
6C1
  8
LAYER0
 10
199.9744129920543
 20
1161.485326980248
 30
0.0
  0
VERTEX
  5
6C2
  8
LAYER0
 10
186.9813461261097
 20
1161.485326980245
 30
0.0
 42
0.4145735027357185
  0
SEQEND
  5
759
  8
LAYER0
  0
POLYLINE
  5
FF
  8
LAYER0
 66
     1
 10
0.0
 20
0.0
 30
0.0
 70
     1
  0
VERTEX
  5
6C3
  8
LAYER0
 10
184.0777135473502
 20
1029.585398873178
 30
0.0
  0
VERTEX
  5
6C4
  8
LAYER0
 10
184.0777135472615
 20
994.5886033980361
 30
0.0
 42
0.4162106770905231
  0
VERTEX
  5
6C5
  8
LAYER0
 10
186.9942123767385
 20
991.6853271074901
 30
0.0
  0
VERTEX
  5
6C6
  8
LAYER0
 10
199.974429104647
 20
991.6853271074955
 30
0.0
 42
0.4159794140785363
  0
VERTEX
  5
6C7
  8
LAYER0
 10
202.8777135475057
 20
994.5995342892033
 30
0.0
  0
VERTEX
  5
6C8
  8
LAYER0
 10
202.8777135475057
 20
1029.582028654436
 30
0.0
 42
0.414879289340933
  0
VERTEX
  5
6C9
  8
LAYER0
 10
199.9744129920543
 20
1032.48532710726
 30
0.0
  0
VERTEX
  5
6CA
  8
LAYER0
 10
186.9813461261097
 20
1032.485327107257
 30
0.0
 42
0.4145735027357185
  0
SEQEND
  5
75A
  8
LAYER0
  0
ENDSEC
  0
EOF
