  0
SECTION
  2
HEADER
  9
$ACADVER
  1
AC1032
  9
$ACADMAINTVER
 90
      228
  9
$DWGCODEPAGE
  3
ANSI_1252
  9
$REQUIREDVERSIONS
160
                 0
  9
$INSBASE
 10
0.0
 20
0.0
 30
0.0
  9
$EXTMIN
 10
1.000000000000000E+20
 20
1.000000000000000E+20
 30
1.000000000000000E+20
  9
$EXTMAX
 10
-1.000000000000000E+20
 20
-1.000000000000000E+20
 30
-1.000000000000000E+20
  9
$LIMMIN
 10
0.0
 20
0.0
  9
$LIMMAX
 10
12.0
 20
9.0
  9
$ORTHOMODE
 70
     0
  9
$REGENMODE
 70
     1
  9
$FILLMODE
 70
     1
  9
$QTEXTMODE
 70
     0
  9
$MIRRTEXT
 70
     0
  9
$LTSCALE
 40
1.0
  9
$ATTMODE
 70
     1
  9
$TEXTSIZE
 40
0.2
  9
$TRACEWID
 40
0.05
  9
$TEXTSTYLE
  7
Standard
  9
$CLAYER
  8
0
  9
$CELTYPE
  6
ByLayer
  9
$CECOLOR
 62
   256
  9
$CELTSCALE
 40
1.0
  9
$DISPSILH
 70
     0
  9
$DIMSCALE
 40
1.0
  9
$DIMASZ
 40
0.18
  9
$DIMEXO
 40
0.0625
  9
$DIMDLI
 40
0.38
  9
$DIMRND
 40
0.0
  9
$DIMDLE
 40
0.0
  9
$DIMEXE
 40
0.18
  9
$DIMTP
 40
0.0
  9
$DIMTM
 40
0.0
  9
$DIMTXT
 40
0.18
  9
$DIMCEN
 40
0.09
  9
$DIMTSZ
 40
0.0
  9
$DIMTOL
 70
     0
  9
$DIMLIM
 70
     0
  9
$DIMTIH
 70
     1
  9
$DIMTOH
 70
     1
  9
$DIMSE1
 70
     0
  9
$DIMSE2
 70
     0
  9
$DIMTAD
 70
     0
  9
$DIMZIN
 70
     0
  9
$DIMBLK
  1

  9
$DIMASO
 70
     1
  9
$DIMSHO
 70
     1
  9
$DIMPOST
  1

  9
$DIMAPOST
  1

  9
$DIMALT
 70
     0
  9
$DIMALTD
 70
     2
  9
$DIMALTF
 40
25.4
  9
$DIMLFAC
 40
1.0
  9
$DIMTOFL
 70
     0
  9
$DIMTVP
 40
0.0
  9
$DIMTIX
 70
     0
  9
$DIMSOXD
 70
     0
  9
$DIMSAH
 70
     0
  9
$DIMBLK1
  1

  9
$DIMBLK2
  1

  9
$DIMSTYLE
  2
Standard
  9
$DIMCLRD
 70
     0
  9
$DIMCLRE
 70
     0
  9
$DIMCLRT
 70
     0
  9
$DIMTFAC
 40
1.0
  9
$DIMGAP
 40
0.09
  9
$DIMJUST
 70
     0
  9
$DIMSD1
 70
     0
  9
$DIMSD2
 70
     0
  9
$DIMTOLJ
 70
     1
  9
$DIMTZIN
 70
     0
  9
$DIMALTZ
 70
     0
  9
$DIMALTTZ
 70
     0
  9
$DIMUPT
 70
     0
  9
$DIMDEC
 70
     4
  9
$DIMTDEC
 70
     4
  9
$DIMALTU
 70
     2
  9
$DIMALTTD
 70
     2
  9
$DIMTXSTY
  7
Standard
  9
$DIMAUNIT
 70
     0
  9
$DIMADEC
 70
     0
  9
$DIMALTRND
 40
0.0
  9
$DIMAZIN
 70
     0
  9
$DIMDSEP
 70
    46
  9
$DIMATFIT
 70
     3
  9
$DIMFRAC
 70
     0
  9
$DIMLDRBLK
  1

  9
$DIMLUNIT
 70
     2
  9
$DIMLWD
 70
    -2
  9
$DIMLWE
 70
    -2
  9
$DIMTMOVE
 70
     0
  9
$DIMFXL
 40
1.0
  9
$DIMFXLON
 70
     0
  9
$DIMJOGANG
 40
0.7853981633974483
  9
$DIMTFILL
 70
     0
  9
$DIMTFILLCLR
 70
     0
  9
$DIMARCSYM
 70
     0
  9
$DIMLTYPE
  6

  9
$DIMLTEX1
  6

  9
$DIMLTEX2
  6

  9
$DIMTXTDIRECTION
 70
     0
  9
$LUNITS
 70
     2
  9
$LUPREC
 70
     4
  9
$SKETCHINC
 40
0.1
  9
$FILLETRAD
 40
0.0
  9
$AUNITS
 70
     0
  9
$AUPREC
 70
     0
  9
$MENU
  1
.
  9
$ELEVATION
 40
0.0
  9
$PELEVATION
 40
0.0
  9
$THICKNESS
 40
0.0
  9
$LIMCHECK
 70
     0
  9
$CHAMFERA
 40
0.0
  9
$CHAMFERB
 40
0.0
  9
$CHAMFERC
 40
0.0
  9
$CHAMFERD
 40
0.0
  9
$SKPOLY
 70
     0
  9
$TDCREATE
 40
2460466.568819445
  9
$TDUCREATE
 40
2460466.485486112
  9
$TDUPDATE
 40
2460466.568819445
  9
$TDUUPDATE
 40
2460466.485486112
  9
$TDINDWG
 40
0.0000000000
  9
$TDUSRTIMER
 40
0.0000000000
  9
$USRTIMER
 70
     1
  9
$ANGBASE
 50
0.0
  9
$ANGDIR
 70
     0
  9
$PDMODE
 70
     0
  9
$PDSIZE
 40
0.0
  9
$PLINEWID
 40
0.0
  9
$SPLFRAME
 70
     0
  9
$SPLINETYPE
 70
     6
  9
$SPLINESEGS
 70
     8
  9
$HANDSEED
  5
141
  9
$SURFTAB1
 70
     6
  9
$SURFTAB2
 70
     6
  9
$SURFTYPE
 70
     6
  9
$SURFU
 70
     6
  9
$SURFV
 70
     6
  9
$UCSBASE
  2

  9
$UCSNAME
  2

  9
$UCSORG
 10
0.0
 20
0.0
 30
0.0
  9
$UCSXDIR
 10
1.0
 20
0.0
 30
0.0
  9
$UCSYDIR
 10
0.0
 20
1.0
 30
0.0
  9
$UCSORTHOREF
  2

  9
$UCSORTHOVIEW
 70
     0
  9
$UCSORGTOP
 10
0.0
 20
0.0
 30
0.0
  9
$UCSORGBOTTOM
 10
0.0
 20
0.0
 30
0.0
  9
$UCSORGLEFT
 10
0.0
 20
0.0
 30
0.0
  9
$UCSORGRIGHT
 10
0.0
 20
0.0
 30
0.0
  9
$UCSORGFRONT
 10
0.0
 20
0.0
 30
0.0
  9
$UCSORGBACK
 10
0.0
 20
0.0
 30
0.0
  9
$PUCSBASE
  2

  9
$PUCSNAME
  2

  9
$PUCSORG
 10
0.0
 20
0.0
 30
0.0
  9
$PUCSXDIR
 10
1.0
 20
0.0
 30
0.0
  9
$PUCSYDIR
 10
0.0
 20
1.0
 30
0.0
  9
$PUCSORTHOREF
  2

  9
$PUCSORTHOVIEW
 70
     0
  9
$PUCSORGTOP
 10
0.0
 20
0.0
 30
0.0
  9
$PUCSORGBOTTOM
 10
0.0
 20
0.0
 30
0.0
  9
$PUCSORGLEFT
 10
0.0
 20
0.0
 30
0.0
  9
$PUCSORGRIGHT
 10
0.0
 20
0.0
 30
0.0
  9
$PUCSORGFRONT
 10
0.0
 20
0.0
 30
0.0
  9
$PUCSORGBACK
 10
0.0
 20
0.0
 30
0.0
  9
$USERI1
 70
     0
  9
$USERI2
 70
     0
  9
$USERI3
 70
     0
  9
$USERI4
 70
     0
  9
$USERI5
 70
     0
  9
$USERR1
 40
0.0
  9
$USERR2
 40
0.0
  9
$USERR3
 40
0.0
  9
$USERR4
 40
0.0
  9
$USERR5
 40
0.0
  9
$WORLDVIEW
 70
     1
  9
$SHADEDGE
 70
     3
  9
$SHADEDIF
 70
    70
  9
$TILEMODE
 70
     1
  9
$MAXACTVP
 70
    64
  9
$PINSBASE
 10
0.0
 20
0.0
 30
0.0
  9
$PLIMCHECK
 70
     0
  9
$PEXTMIN
 10
1.000000000000000E+20
 20
1.000000000000000E+20
 30
1.000000000000000E+20
  9
$PEXTMAX
 10
-1.000000000000000E+20
 20
-1.000000000000000E+20
 30
-1.000000000000000E+20
  9
$PLIMMIN
 10
0.0
 20
0.0
  9
$PLIMMAX
 10
12.0
 20
9.0
  9
$UNITMODE
 70
     0
  9
$VISRETAIN
 70
     1
  9
$PLINEGEN
 70
     0
  9
$PSLTSCALE
 70
     1
  9
$TREEDEPTH
 70
  3020
  9
$CMLSTYLE
  2
Standard
  9
$CMLJUST
 70
     0
  9
$CMLSCALE
 40
1.0
  9
$PROXYGRAPHICS
 70
     1
  9
$MEASUREMENT
 70
     0
  9
$CELWEIGHT
370
    -1
  9
$ENDCAPS
280
     0
  9
$JOINSTYLE
280
     0
  9
$LWDISPLAY
290
     1
  9
$INSUNITS
 70
     4
  9
$HYPERLINKBASE
  1

  9
$STYLESHEET
  1

  9
$XEDIT
290
     1
  9
$CEPSNTYPE
380
     0
  9
$PSTYLEMODE
290
     1
  9
$FINGERPRINTGUID
  2
{EEE2AA79-5E12-4348-A14C-EC9388CE5C60}
  9
$VERSIONGUID
  2
{B3305398-C306-AC4E-A4FE-46377D1D8961}
  9
$EXTNAMES
290
     1
  9
$PSVPSCALE
 40
0.0
  9
$OLESTARTUP
290
     0
  9
$SORTENTS
280
   127
  9
$INDEXCTL
280
     0
  9
$HIDETEXT
280
     1
  9
$XCLIPFRAME
280
     2
  9
$HALOGAP
280
     0
  9
$OBSCOLOR
 70
   257
  9
$OBSLTYPE
280
     0
  9
$INTERSECTIONDISPLAY
280
     0
  9
$INTERSECTIONCOLOR
 70
   257
  9
$DIMASSOC
280
     2
  9
$PROJECTNAME
  1

  9
$CAMERADISPLAY
290
     0
  9
$LENSLENGTH
 40
50.0
  9
$CAMERAHEIGHT
 40
0.0
  9
$STEPSPERSEC
 40
2.0
  9
$STEPSIZE
 40
6.0
  9
$3DDWFPREC
 40
2.0
  9
$PSOLWIDTH
 40
0.25
  9
$PSOLHEIGHT
 40
4.0
  9
$LOFTANG1
 40
1.570796326794896
  9
$LOFTANG2
 40
1.570796326794896
  9
$LOFTMAG1
 40
0.0
  9
$LOFTMAG2
 40
0.0
  9
$LOFTPARAM
 70
     7
  9
$LOFTNORMALS
280
     1
  9
$LATITUDE
 40
37.795
  9
$LONGITUDE
 40
-122.394
  9
$NORTHDIRECTION
 40
0.0
  9
$TIMEZONE
 70
 -8000
  9
$LIGHTGLYPHDISPLAY
280
     1
  9
$TILEMODELIGHTSYNCH
280
     1
  9
$CMATERIAL
347
11
  9
$SOLIDHIST
280
     0
  9
$SHOWHIST
280
     1
  9
$DWFFRAME
280
     2
  9
$DGNFRAME
280
     0
  9
$REALWORLDSCALE
290
     1
  9
$INTERFERECOLOR
 62
     1
  9
$INTERFEREOBJVS
345
33
  9
$INTERFEREVPVS
346
30
  9
$CSHADOW
280
     0
  9
$SHADOWPLANELOCATION
 40
0.0
  0
ENDSEC
  0
SECTION
  2
CLASSES
  0
CLASS
  1
ACDBDICTIONARYWDFLT
  2
AcDbDictionaryWithDefault
  3
ObjectDBX Classes
 90
        0
 91
        1
280
     0
281
     0
  0
CLASS
  1
MATERIAL
  2
AcDbMaterial
  3
ObjectDBX Classes
 90
     1153
 91
        3
280
     0
281
     0
  0
CLASS
  1
VISUALSTYLE
  2
AcDbVisualStyle
  3
ObjectDBX Classes
 90
     4095
 91
       24
280
     0
281
     0
  0
CLASS
  1
SCALE
  2
AcDbScale
  3
ObjectDBX Classes
 90
     1153
 91
       17
280
     0
281
     0
  0
CLASS
  1
TABLESTYLE
  2
AcDbTableStyle
  3
ObjectDBX Classes
 90
     4095
 91
        1
280
     0
281
     0
  0
CLASS
  1
MLEADERSTYLE
  2
AcDbMLeaderStyle
  3
ACDB_MLEADERSTYLE_CLASS
 90
     4095
 91
        1
280
     0
281
     0
  0
CLASS
  1
ACDBSECTIONVIEWSTYLE
  2
AcDbSectionViewStyle
  3
ObjectDBX Classes
 90
     1025
 91
        1
280
     0
281
     0
  0
CLASS
  1
ACDBDETAILVIEWSTYLE
  2
AcDbDetailViewStyle
  3
ObjectDBX Classes
 90
     1025
 91
        1
280
     0
281
     0
  0
CLASS
  1
DICTIONARYVAR
  2
AcDbDictionaryVar
  3
ObjectDBX Classes
 90
        0
 91
        5
280
     0
281
     0
  0
CLASS
  1
CELLSTYLEMAP
  2
AcDbCellStyleMap
  3
ObjectDBX Classes
 90
     1152
 91
        1
280
     0
281
     0
  0
ENDSEC
  0
SECTION
  2
TABLES
  0
TABLE
  2
VPORT
  5
8
330
0
100
AcDbSymbolTable
 70
     1
  0
VPORT
  5
57
330
8
100
AcDbSymbolTableRecord
100
AcDbViewportTableRecord
  2
*Active
 70
     0
 10
0.0
 20
0.0
 11
1.0
 21
1.0
 12
0.0
 22
0.0
 13
0.0
 23
0.0
 14
1.0
 24
1.0
 15
0.0
 25
0.0
 16
0.0
 26
0.0
 36
1.0
 17
668.3993003195176
 27
190.499999952375
 37
0.0
 40
388.619999902845
 41
3.508657745336574
 42
50.0
 43
0.0
 44
0.0
 50
0.0
 51
0.0
 71
     0
 72
   100
 73
     1
 74
     1
 75
     0
 76
     0
 77
     0
 78
     0
281
     0
 65
     1
110
0.0
120
0.0
130
0.0
111
1.0
121
0.0
131
0.0
112
0.0
122
1.0
132
0.0
 79
     0
146
0.0
 60
     3
 61
     5
292
     1
282
     1
141
0.0
142
0.0
 63
   250
421
  3355443
  0
ENDTAB
  0
TABLE
  2
LTYPE
  5
5
330
0
100
AcDbSymbolTable
 70
     1
  0
LTYPE
  5
5B
330
5
100
AcDbSymbolTableRecord
100
AcDbLinetypeTableRecord
  2
ByBlock
 70
     0
  3

 72
    65
 73
     0
 40
0.0
  0
LTYPE
  5
5C
330
5
100
AcDbSymbolTableRecord
100
AcDbLinetypeTableRecord
  2
ByLayer
 70
     0
  3

 72
    65
 73
     0
 40
0.0
  0
LTYPE
  5
5D
330
5
100
AcDbSymbolTableRecord
100
AcDbLinetypeTableRecord
  2
Continuous
 70
     0
  3
Solid line
 72
    65
 73
     0
 40
0.0
  0
ENDTAB
  0
TABLE
  2
LAYER
  5
2
330
0
100
AcDbSymbolTable
 70
     1
  0
LAYER
  5
54
330
2
100
AcDbSymbolTableRecord
100
AcDbLayerTableRecord
  2
0
 70
     0
 62
     7
  6
Continuous
370
     0
390
F
347
21
348
0
  0
ENDTAB
  0
TABLE
  2
STYLE
  5
3
330
0
100
AcDbSymbolTable
 70
     2
  0
STYLE
  5
55
330
3
100
AcDbSymbolTableRecord
100
AcDbTextStyleTableRecord
  2
Standard
 70
     0
 40
0.0
 41
1.0
 50
0.0
 71
     0
 42
0.2
  3
txt
  4

  0
STYLE
  5
5A
330
3
100
AcDbSymbolTableRecord
100
AcDbTextStyleTableRecord
  2
Annotative
 70
     0
 40
0.0
 41
1.0
 50
0.0
 71
     0
 42
0.2
  3
txt
  4

1001
AcadAnnotative
1000
AnnotativeData
1002
{
1070
     1
1070
     1
1002
}
  0
ENDTAB
  0
TABLE
  2
VIEW
  5
6
330
0
100
AcDbSymbolTable
 70
     0
  0
ENDTAB
  0
TABLE
  2
UCS
  5
7
330
0
100
AcDbSymbolTable
 70
     0
  0
ENDTAB
  0
TABLE
  2
APPID
  5
9
330
0
100
AcDbSymbolTable
 70
     2
  0
APPID
  5
56
330
9
100
AcDbSymbolTableRecord
100
AcDbRegAppTableRecord
  2
ACAD
 70
     0
  0
APPID
  5
5E
330
9
100
AcDbSymbolTableRecord
100
AcDbRegAppTableRecord
  2
AcadAnnotative
 70
     0
  0
ENDTAB
  0
TABLE
  2
DIMSTYLE
  5
A
330
0
100
AcDbSymbolTable
 70
     2
100
AcDbDimStyleTable
 71
     0
  0
DIMSTYLE
105
58
330
A
100
AcDbSymbolTableRecord
100
AcDbDimStyleTableRecord
  2
Standard
 70
     0
340
55
  0
DIMSTYLE
105
59
330
A
100
AcDbSymbolTableRecord
100
AcDbDimStyleTableRecord
  2
Annotative
 70
     0
340
55
1001
AcadAnnotative
1000
AnnotativeData
1002
{
1070
     1
1070
     1
1002
}
  0
ENDTAB
  0
TABLE
  2
BLOCK_RECORD
  5
1
330
0
100
AcDbSymbolTable
 70
     5
  0
BLOCK_RECORD
  5
70
330
1
100
AcDbSymbolTableRecord
100
AcDbBlockTableRecord
  2
*Model_Space
340
73
 70
     0
280
     1
281
     0
  0
BLOCK_RECORD
  5
6C
330
1
100
AcDbSymbolTableRecord
100
AcDbBlockTableRecord
  2
*Paper_Space
340
6F
 70
     0
280
     1
281
     0
  0
BLOCK_RECORD
  5
74
330
1
100
AcDbSymbolTableRecord
100
AcDbBlockTableRecord
  2
*Paper_Space0
340
77
 70
     0
280
     1
281
     0
  0
BLOCK_RECORD
  5
7A
330
1
100
AcDbSymbolTableRecord
100
AcDbBlockTableRecord
  2
Block_0
340
0
102
{BLKREFS
331
7B
102
}
 70
     0
280
     1
281
     0
  0
BLOCK_RECORD
  5
90
330
1
100
AcDbSymbolTableRecord
100
AcDbBlockTableRecord
  2
Block_1
340
0
102
{BLKREFS
331
91
102
}
 70
     0
280
     1
281
     0
  0
BLOCK_RECORD
  5
DA
330
1
100
AcDbSymbolTableRecord
100
AcDbBlockTableRecord
  2
Block_2
340
0
102
{BLKREFS
331
DB
102
}
 70
     0
280
     1
281
     0
  0
BLOCK_RECORD
  5
F0
330
1
100
AcDbSymbolTableRecord
100
AcDbBlockTableRecord
  2
Block_3
340
0
102
{BLKREFS
331
F1
102
}
 70
     0
280
     1
281
     0
  0
ENDTAB
  0
ENDSEC
  0
SECTION
  2
BLOCKS
  0
BLOCK
  5
71
330
70
100
AcDbEntity
  8
0
100
AcDbBlockBegin
  2
*Model_Space
 70
     0
 10
0.0
 20
0.0
 30
0.0
  3
*Model_Space
  1

  0
ENDBLK
  5
72
330
70
100
AcDbEntity
  8
0
100
AcDbBlockEnd
  0
BLOCK
  5
6D
330
6C
100
AcDbEntity
 67
     1
  8
0
100
AcDbBlockBegin
  2
*Paper_Space
 70
     0
 10
0.0
 20
0.0
 30
0.0
  3
*Paper_Space
  1

  0
ENDBLK
  5
6E
330
6C
100
AcDbEntity
 67
     1
  8
0
100
AcDbBlockEnd
  0
BLOCK
  5
75
330
74
100
AcDbEntity
 67
     1
  8
0
100
AcDbBlockBegin
  2
*Paper_Space0
 70
     0
 10
0.0
 20
0.0
 30
0.0
  3
*Paper_Space0
  1

  0
ENDBLK
  5
76
330
74
100
AcDbEntity
 67
     1
  8
0
100
AcDbBlockEnd
  0
BLOCK
  5
7C
330
7A
100
AcDbEntity
  8
0
100
AcDbBlockBegin
  2
Block_0
 70
     0
 10
0.0
 20
0.0
 30
0.0
  3
Block_0
  1

  0
SPLINE
  5
7E
330
7A
100
AcDbEntity
  8
0
 62
     5
420
      255
370
     0
100
AcDbSpline
210
0.0
220
0.0
230
1.0
 70
    11
 71
     3
 72
    41
 73
    37
 74
     0
 42
0.0000000001
 43
0.0000000001
 40
0.0
 40
0.0
 40
0.0
 40
0.0
 40
1.0
 40
1.0
 40
1.0
 40
2.0
 40
2.0
 40
2.0
 40
3.0
 40
3.0
 40
3.0
 40
4.0
 40
4.0
 40
4.0
 40
5.0
 40
5.0
 40
5.0
 40
6.0
 40
6.0
 40
6.0
 40
7.0
 40
7.0
 40
7.0
 40
8.0
 40
8.0
 40
8.0
 40
9.0
 40
9.0
 40
9.0
 40
10.0
 40
10.0
 40
10.0
 40
11.0
 40
11.0
 40
11.0
 40
12.0
 40
12.0
 40
12.0
 40
12.0
 10
39.31934003268266
 20
50.76847736360996
 30
0.0
 10
39.31934003268266
 20
50.76847736360996
 30
0.0
 10
40.90167238905791
 20
53.08289251060081
 30
0.0
 10
40.90167238905791
 20
53.08289251060081
 30
0.0
 10
40.90167238905791
 20
53.08289251060081
 30
0.0
 10
40.90167238905791
 20
53.09563936389623
 30
0.0
 10
40.90167238905791
 20
53.09563936389623
 30
0.0
 10
40.90167238905791
 20
53.09563936389623
 30
0.0
 10
39.45473228525298
 20
53.09563936389623
 30
0.0
 10
39.45473228525298
 20
53.09563936389623
 30
0.0
 10
39.45473228525298
 20
53.09563936389623
 30
0.0
 10
39.45473228525298
 20
53.40466442892314
 30
0.0
 10
39.45473228525298
 20
53.40466442892314
 30
0.0
 10
39.45473228525298
 20
53.40466442892314
 30
0.0
 10
41.37985164241058
 20
53.40466442892314
 30
0.0
 10
41.37985164241058
 20
53.40466442892314
 30
0.0
 10
41.37985164241058
 20
53.40466442892314
 30
0.0
 10
41.37985164241058
 20
53.18038871283338
 30
0.0
 10
41.37985164241058
 20
53.18038871283338
 30
0.0
 10
41.37985164241058
 20
53.18038871283338
 30
0.0
 10
39.8059597699742
 20
50.87424179500714
 30
0.0
 10
39.8059597699742
 20
50.87424179500714
 30
0.0
 10
39.8059597699742
 20
50.87424179500714
 30
0.0
 10
39.8059597699742
 20
50.86183945126023
 30
0.0
 10
39.8059597699742
 20
50.86183945126023
 30
0.0
 10
39.8059597699742
 20
50.86183945126023
 30
0.0
 10
41.40103897964487
 20
50.86183945126023
 30
0.0
 10
41.40103897964487
 20
50.86183945126023
 30
0.0
 10
41.40103897964487
 20
50.86183945126023
 30
0.0
 10
41.40103897964487
 20
50.55281438623333
 30
0.0
 10
41.40103897964487
 20
50.55281438623333
 30
0.0
 10
41.40103897964487
 20
50.55281438623333
 30
0.0
 10
39.31934003268266
 20
50.55281438623333
 30
0.0
 10
39.31934003268266
 20
50.55281438623333
 30
0.0
 10
39.31934003268266
 20
50.55281438623333
 30
0.0
 10
39.31934003268266
 20
50.76847736360996
 30
0.0
 10
39.31934003268266
 20
50.76847736360996
 30
0.0
  0
SPLINE
  5
7F
330
7A
100
AcDbEntity
  8
0
 62
     5
420
      255
370
     0
100
AcDbSpline
210
0.0
220
0.0
230
1.0
 70
    11
 71
     3
 72
    17
 73
    13
 74
     0
 42
0.0000000001
 43
0.0000000001
 40
0.0
 40
0.0
 40
0.0
 40
0.0
 40
1.0
 40
1.0
 40
1.0
 40
2.0
 40
2.0
 40
2.0
 40
3.0
 40
3.0
 40
3.0
 40
4.0
 40
4.0
 40
4.0
 40
4.0
 10
41.84218345653111
 20
50.55281438623333
 30
0.0
 10
41.84218345653111
 20
50.55281438623333
 30
0.0
 10
41.84218345653111
 20
52.60057914266583
 30
0.0
 10
41.84218345653111
 20
52.60057914266583
 30
0.0
 10
41.84218345653111
 20
52.60057914266583
 30
0.0
 10
42.21459827848661
 20
52.60057914266583
 30
0.0
 10
42.21459827848661
 20
52.60057914266583
 30
0.0
 10
42.21459827848661
 20
52.60057914266583
 30
0.0
 10
42.21459827848661
 20
50.55281438623333
 30
0.0
 10
42.21459827848661
 20
50.55281438623333
 30
0.0
 10
42.21459827848661
 20
50.55281438623333
 30
0.0
 10
41.84218345653111
 20
50.55281438623333
 30
0.0
 10
41.84218345653111
 20
50.55281438623333
 30
0.0
  0
SPLINE
  5
80
330
7A
100
AcDbEntity
  8
0
 62
     5
420
      255
370
     0
100
AcDbSpline
210
0.0
220
0.0
230
1.0
 70
     9
 71
     3
 72
    17
 73
    13
 74
     0
 42
0.0000000001
 43
0.0000000001
 40
0.0
 40
0.0
 40
0.0
 40
0.0
 40
1.0
 40
1.0
 40
1.0
 40
2.0
 40
2.0
 40
2.0
 40
3.0
 40
3.0
 40
3.0
 40
4.0
 40
4.0
 40
4.0
 40
4.0
 10
42.25680069818093
 20
53.17591008870255
 30
0.0
 10
42.2611070675375
 20
53.04913057484536
 30
0.0
 10
42.16791723466148
 20
52.94750025803049
 30
0.0
 10
42.01995038357
 20
52.94750025803049
 30
0.0
 10
41.88869224558199
 20
52.94750025803049
 30
0.0
 10
41.79567466748024
 20
53.04913057484536
 30
0.0
 10
41.79567466748024
 20
53.17591008870255
 30
0.0
 10
41.79567466748024
 20
53.30716822669057
 30
0.0
 10
41.89299861493855
 20
53.40879854350544
 30
0.0
 10
42.02839086750887
 20
53.40879854350544
 30
0.0
 10
42.16791723466148
 20
53.40879854350544
 30
0.0
 10
42.25680069818093
 20
53.30716822669057
 30
0.0
 10
42.25680069818093
 20
53.17591008870255
 30
0.0
  0
SPLINE
  5
81
330
7A
100
AcDbEntity
  8
0
 62
     5
420
      255
370
     0
100
AcDbSpline
210
0.0
220
0.0
230
1.0
 70
     9
 71
     3
 72
    17
 73
    13
 74
     0
 42
0.0000000001
 43
0.0000000001
 40
0.0
 40
0.0
 40
0.0
 40
0.0
 40
1.0
 40
1.0
 40
1.0
 40
2.0
 40
2.0
 40
2.0
 40
3.0
 40
3.0
 40
3.0
 40
4.0
 40
4.0
 40
4.0
 40
4.0
 10
43.2939466940154
 20
53.17591008870255
 30
0.0
 10
43.29825306337196
 20
53.05326468942766
 30
0.0
 10
43.20936959985251
 20
52.94750025803049
 30
0.0
 10
43.06123049398677
 20
52.94750025803049
 30
0.0
 10
42.92170412683415
 20
52.94750025803049
 30
0.0
 10
42.8328206633147
 20
53.05326468942766
 30
0.0
 10
42.8328206633147
 20
53.17591008870255
 30
0.0
 10
42.8328206633147
 20
53.30716822669057
 30
0.0
 10
42.93014461077301
 20
53.40879854350544
 30
0.0
 10
43.06984323269989
 20
53.40879854350544
 30
0.0
 10
43.20523548527021
 20
53.40879854350544
 30
0.0
 10
43.2939466940154
 20
53.30716822669057
 30
0.0
 10
43.2939466940154
 20
53.17591008870255
 30
0.0
  0
SPLINE
  5
82
330
7A
100
AcDbEntity
  8
0
 62
     5
420
      255
370
     0
100
AcDbSpline
210
0.0
220
0.0
230
1.0
 70
     9
 71
     3
 72
    29
 73
    25
 74
     0
 42
0.0000000001
 43
0.0000000001
 40
0.0
 40
0.0
 40
0.0
 40
0.0
 40
1.0
 40
1.0
 40
1.0
 40
2.0
 40
2.0
 40
2.0
 40
3.0
 40
3.0
 40
3.0
 40
4.0
 40
4.0
 40
4.0
 40
5.0
 40
5.0
 40
5.0
 40
6.0
 40
6.0
 40
6.0
 40
7.0
 40
7.0
 40
7.0
 40
8.0
 40
8.0
 40
8.0
 40
8.0
 10
42.333626327502
 20
49.96060247231888
 30
0.0
 10
42.50278051582777
 20
49.97300481606578
 30
0.0
 10
42.65091962169351
 20
50.01985811466518
 30
0.0
 10
42.73980308521296
 20
50.11700980734921
 30
0.0
 10
42.84126114725356
 20
50.23552109204182
 30
0.0
 10
42.87932945236557
 20
50.39640705120298
 30
0.0
 10
42.87932945236557
 20
50.88698864830256
 30
0.0
 10
42.87932945236557
 20
50.88698864830256
 30
0.0
 10
42.87932945236557
 20
52.60057914266583
 30
0.0
 10
42.87932945236557
 20
52.60057914266583
 30
0.0
 10
42.87932945236557
 20
52.60057914266583
 30
0.0
 10
43.25174427432108
 20
52.60057914266583
 30
0.0
 10
43.25174427432108
 20
52.60057914266583
 30
0.0
 10
43.25174427432108
 20
52.60057914266583
 30
0.0
 10
43.25174427432108
 20
50.74332816656764
 30
0.0
 10
43.25174427432108
 20
50.74332816656764
 30
0.0
 10
43.25174427432108
 20
50.34541963802128
 30
0.0
 10
43.18818226261822
 20
50.08738198617607
 30
0.0
 10
43.00628122099703
 20
49.90134682997258
 30
0.0
 10
42.84126114725356
 20
49.73632675622912
 30
0.0
 10
42.57047664211293
 20
49.66845837516969
 30
0.0
 10
42.37169463261401
 20
49.66845837516969
 30
0.0
 10
42.37169463261401
 20
49.66845837516969
 30
0.0
 10
42.333626327502
 20
49.96060247231888
 30
0.0
 10
42.333626327502
 20
49.96060247231888
 30
0.0
  0
SPLINE
  5
83
330
7A
100
AcDbEntity
  8
0
 62
     5
420
      255
370
     0
100
AcDbSpline
210
0.0
220
0.0
230
1.0
 70
    11
 71
     3
 72
    47
 73
    43
 74
     0
 42
0.0000000001
 43
0.0000000001
 40
0.0
 40
0.0
 40
0.0
 40
0.0
 40
1.0
 40
1.0
 40
1.0
 40
2.0
 40
2.0
 40
2.0
 40
3.0
 40
3.0
 40
3.0
 40
4.0
 40
4.0
 40
4.0
 40
5.0
 40
5.0
 40
5.0
 40
6.0
 40
6.0
 40
6.0
 40
7.0
 40
7.0
 40
7.0
 40
8.0
 40
8.0
 40
8.0
 40
9.0
 40
9.0
 40
9.0
 40
10.0
 40
10.0
 40
10.0
 40
11.0
 40
11.0
 40
11.0
 40
12.0
 40
12.0
 40
12.0
 40
13.0
 40
13.0
 40
13.0
 40
14.0
 40
14.0
 40
14.0
 40
14.0
 10
44.22963462780925
 20
51.66144611338673
 30
0.0
 10
44.22963462780925
 20
51.66144611338673
 30
0.0
 10
44.23807511174811
 20
51.66144611338673
 30
0.0
 10
44.23807511174811
 20
51.66144611338673
 30
0.0
 10
44.28889027015554
 20
51.73310409947992
 30
0.0
 10
44.36072051102301
 20
51.82198756299936
 30
0.0
 10
44.4199761533693
 20
51.89399005864109
 30
0.0
 10
44.4199761533693
 20
51.89399005864109
 30
0.0
 10
45.02080080599688
 20
52.60057914266583
 30
0.0
 10
45.02080080599688
 20
52.60057914266583
 30
0.0
 10
45.02080080599688
 20
52.60057914266583
 30
0.0
 10
45.4693522381764
 20
52.60057914266583
 30
0.0
 10
45.4693522381764
 20
52.60057914266583
 30
0.0
 10
45.4693522381764
 20
52.60057914266583
 30
0.0
 10
44.67818605998878
 20
51.75859780607076
 30
0.0
 10
44.67818605998878
 20
51.75859780607076
 30
0.0
 10
44.67818605998878
 20
51.75859780607076
 30
0.0
 10
45.57925078415587
 20
50.55281438623333
 30
0.0
 10
45.57925078415587
 20
50.55281438623333
 30
0.0
 10
45.57925078415587
 20
50.55281438623333
 30
0.0
 10
45.12656523739404
 20
50.55281438623333
 30
0.0
 10
45.12656523739404
 20
50.55281438623333
 30
0.0
 10
45.12656523739404
 20
50.55281438623333
 30
0.0
 10
44.4199761533693
 20
51.53432208998101
 30
0.0
 10
44.4199761533693
 20
51.53432208998101
 30
0.0
 10
44.4199761533693
 20
51.53432208998101
 30
0.0
 10
44.22963462780925
 20
51.32279322718666
 30
0.0
 10
44.22963462780925
 20
51.32279322718666
 30
0.0
 10
44.22963462780925
 20
51.32279322718666
 30
0.0
 10
44.22963462780925
 20
50.55281438623333
 30
0.0
 10
44.22963462780925
 20
50.55281438623333
 30
0.0
 10
44.22963462780925
 20
50.55281438623333
 30
0.0
 10
43.8615261752103
 20
50.55281438623333
 30
0.0
 10
43.8615261752103
 20
50.55281438623333
 30
0.0
 10
43.8615261752103
 20
50.55281438623333
 30
0.0
 10
43.8615261752103
 20
53.55693764937118
 30
0.0
 10
43.8615261752103
 20
53.55693764937118
 30
0.0
 10
43.8615261752103
 20
53.55693764937118
 30
0.0
 10
44.22963462780925
 20
53.55693764937118
 30
0.0
 10
44.22963462780925
 20
53.55693764937118
 30
0.0
 10
44.22963462780925
 20
53.55693764937118
 30
0.0
 10
44.22963462780925
 20
51.66144611338673
 30
0.0
 10
44.22963462780925
 20
51.66144611338673
 30
0.0
  0
SPLINE
  5
84
330
7A
100
AcDbEntity
  8
0
 62
     5
420
      255
370
     0
100
AcDbSpline
210
0.0
220
0.0
230
1.0
 70
     9
 71
     3
 72
    20
 73
    16
 74
     0
 42
0.0000000001
 43
0.0000000001
 40
0.0
 40
0.0
 40
0.0
 40
0.0
 40
1.0
 40
1.0
 40
1.0
 40
2.0
 40
2.0
 40
2.0
 40
3.0
 40
3.0
 40
3.0
 40
4.0
 40
4.0
 40
4.0
 40
5.0
 40
5.0
 40
5.0
 40
5.0
 10
47.00207521956405
 20
51.5977118469096
 30
0.0
 10
46.5958984618531
 20
51.60632458562273
 30
0.0
 10
46.13460017637815
 20
51.53432208998101
 30
0.0
 10
46.13460017637815
 20
51.13675807098317
 30
0.0
 10
46.13460017637815
 20
50.89560138701568
 30
0.0
 10
46.29548613553931
 20
50.78122421690539
 30
0.0
 10
46.48582766109937
 20
50.78122421690539
 30
0.0
 10
46.75230579688345
 20
50.78122421690539
 30
0.0
 10
46.92163223998347
 20
50.95037840523115
 30
0.0
 10
46.98088788232977
 20
51.12401121768775
 30
0.0
 10
46.99346248085094
 20
51.16225177757402
 30
0.0
 10
47.00207521956405
 20
51.20428194249407
 30
0.0
 10
47.00207521956405
 20
51.24252250238034
 30
0.0
 10
47.00207521956405
 20
51.24252250238034
 30
0.0
 10
47.00207521956405
 20
51.5977118469096
 30
0.0
 10
47.00207521956405
 20
51.5977118469096
 30
0.0
  0
SPLINE
  5
85
330
7A
100
AcDbEntity
  8
0
 62
     5
420
      255
370
     0
100
AcDbSpline
210
0.0
220
0.0
230
1.0
 70
    11
 71
     3
 72
    47
 73
    43
 74
     0
 42
0.0000000001
 43
0.0000000001
 40
0.0
 40
0.0
 40
0.0
 40
0.0
 40
1.0
 40
1.0
 40
1.0
 40
2.0
 40
2.0
 40
2.0
 40
3.0
 40
3.0
 40
3.0
 40
4.0
 40
4.0
 40
4.0
 40
5.0
 40
5.0
 40
5.0
 40
6.0
 40
6.0
 40
6.0
 40
7.0
 40
7.0
 40
7.0
 40
8.0
 40
8.0
 40
8.0
 40
9.0
 40
9.0
 40
9.0
 40
10.0
 40
10.0
 40
10.0
 40
11.0
 40
11.0
 40
11.0
 40
12.0
 40
12.0
 40
12.0
 40
13.0
 40
13.0
 40
13.0
 40
14.0
 40
14.0
 40
14.0
 40
14.0
 10
47.05702449255379
 20
50.55281438623333
 30
0.0
 10
47.05702449255379
 20
50.55281438623333
 30
0.0
 10
47.02739667138064
 20
50.81085203807854
 30
0.0
 10
47.02739667138064
 20
50.81085203807854
 30
0.0
 10
47.02739667138064
 20
50.81085203807854
 30
0.0
 10
47.01464981808522
 20
50.81085203807854
 30
0.0
 10
47.01464981808522
 20
50.81085203807854
 30
0.0
 10
46.90044490274918
 20
50.64996607891737
 30
0.0
 10
46.68047555601599
 20
50.50630559718245
 30
0.0
 10
46.38850371364106
 20
50.50630559718245
 30
0.0
 10
45.97388647199124
 20
50.50630559718245
 30
0.0
 10
45.7623576091969
 20
50.79810518478311
 30
0.0
 10
45.7623576091969
 20
51.0943833965146
 30
0.0
 10
45.7623576091969
 20
51.589443617745
 30
0.0
 10
46.2022963026633
 20
51.86022812288563
 30
0.0
 10
46.99346248085094
 20
51.85609400830333
 30
0.0
 10
46.99346248085094
 20
51.85609400830333
 30
0.0
 10
46.99346248085094
 20
51.89812417322339
 30
0.0
 10
46.99346248085094
 20
51.89812417322339
 30
0.0
 10
46.99346248085094
 20
52.06762287109768
 30
0.0
 10
46.94695369180005
 20
52.37216931199377
 30
0.0
 10
46.52803008079368
 20
52.37216931199377
 30
0.0
 10
46.33768855523363
 20
52.37216931199377
 30
0.0
 10
46.13890654573471
 20
52.31291366964747
 30
0.0
 10
45.99507380922553
 20
52.21989609154572
 30
0.0
 10
45.99507380922553
 20
52.21989609154572
 30
0.0
 10
45.91032446028838
 20
52.46518689009551
 30
0.0
 10
45.91032446028838
 20
52.46518689009551
 30
0.0
 10
46.07965090338841
 20
52.57508543607498
 30
0.0
 10
46.32511395671246
 20
52.64708793171671
 30
0.0
 10
46.58315160855767
 20
52.64708793171671
 30
0.0
 10
47.20929771300183
 20
52.64708793171671
 30
0.0
 10
47.36157093344988
 20
52.21989609154572
 30
0.0
 10
47.36157093344988
 20
51.80958521925247
 30
0.0
 10
47.36157093344988
 20
51.80958521925247
 30
0.0
 10
47.36157093344988
 20
51.04374049288143
 30
0.0
 10
47.36157093344988
 20
51.04374049288143
 30
0.0
 10
47.36157093344988
 20
50.86597356584253
 30
0.0
 10
47.37001141738874
 20
50.69234075338594
 30
0.0
 10
47.39550512397959
 20
50.55281438623333
 30
0.0
 10
47.39550512397959
 20
50.55281438623333
 30
0.0
 10
47.05702449255379
 20
50.55281438623333
 30
0.0
 10
47.05702449255379
 20
50.55281438623333
 30
0.0
  0
SPLINE
  5
86
330
7A
100
AcDbEntity
  8
0
 62
     5
420
      255
370
     0
100
AcDbSpline
210
0.0
220
0.0
230
1.0
 70
     9
 71
     3
 72
    50
 73
    46
 74
     0
 42
0.0000000001
 43
0.0000000001
 40
0.0
 40
0.0
 40
0.0
 40
0.0
 40
1.0
 40
1.0
 40
1.0
 40
2.0
 40
2.0
 40
2.0
 40
3.0
 40
3.0
 40
3.0
 40
4.0
 40
4.0
 40
4.0
 40
5.0
 40
5.0
 40
5.0
 40
6.0
 40
6.0
 40
6.0
 40
7.0
 40
7.0
 40
7.0
 40
8.0
 40
8.0
 40
8.0
 40
9.0
 40
9.0
 40
9.0
 40
10.0
 40
10.0
 40
10.0
 40
11.0
 40
11.0
 40
11.0
 40
12.0
 40
12.0
 40
12.0
 40
13.0
 40
13.0
 40
13.0
 40
14.0
 40
14.0
 40
14.0
 40
15.0
 40
15.0
 40
15.0
 40
15.0
 10
47.96342911472303
 20
52.04626327908913
 30
0.0
 10
47.96342911472303
 20
52.25779214188347
 30
0.0
 10
47.95912274536646
 20
52.43142495434007
 30
0.0
 10
47.9465481468453
 20
52.60057914266583
 30
0.0
 10
47.9465481468453
 20
52.60057914266583
 30
0.0
 10
48.27658829433223
 20
52.60057914266583
 30
0.0
 10
48.27658829433223
 20
52.60057914266583
 30
0.0
 10
48.27658829433223
 20
52.60057914266583
 30
0.0
 10
48.29777563156652
 20
52.26227076601429
 30
0.0
 10
48.29777563156652
 20
52.26227076601429
 30
0.0
 10
48.29777563156652
 20
52.26227076601429
 30
0.0
 10
48.30621611550538
 20
52.26227076601429
 30
0.0
 10
48.30621611550538
 20
52.26227076601429
 30
0.0
 10
48.40767417754599
 20
52.45691866093091
 30
0.0
 10
48.64469674693118
 20
52.64708793171671
 30
0.0
 10
48.98317737835697
 20
52.64708793171671
 30
0.0
 10
49.26653648201877
 20
52.64708793171671
 30
0.0
 10
49.70664743025944
 20
52.47793374339093
 30
0.0
 10
49.70664743025944
 20
51.77547877394849
 30
0.0
 10
49.70664743025944
 20
51.77547877394849
 30
0.0
 10
49.70664743025944
 20
50.55281438623333
 30
0.0
 10
49.70664743025944
 20
50.55281438623333
 30
0.0
 10
49.70664743025944
 20
50.55281438623333
 30
0.0
 10
49.33423260830394
 20
50.55281438623333
 30
0.0
 10
49.33423260830394
 20
50.55281438623333
 30
0.0
 10
49.33423260830394
 20
50.55281438623333
 30
0.0
 10
49.33423260830394
 20
51.73310409947992
 30
0.0
 10
49.33423260830394
 20
51.73310409947992
 30
0.0
 10
49.33423260830394
 20
52.06314424696685
 30
0.0
 10
49.21158720902904
 20
52.33840737623832
 30
0.0
 10
48.86035972430782
 20
52.33840737623832
 30
0.0
 10
48.61506892575803
 20
52.33840737623832
 30
0.0
 10
48.42455514542372
 20
52.16477456378172
 30
0.0
 10
48.36116538849512
 20
51.95737981556969
 30
0.0
 10
48.34428442061739
 20
51.91087102651881
 30
0.0
 10
48.33584393667853
 20
51.84748126959021
 30
0.0
 10
48.33584393667853
 20
51.78409151266162
 30
0.0
 10
48.33584393667853
 20
51.78409151266162
 30
0.0
 10
48.33584393667853
 20
50.55281438623333
 30
0.0
 10
48.33584393667853
 20
50.55281438623333
 30
0.0
 10
48.33584393667853
 20
50.55281438623333
 30
0.0
 10
47.96342911472303
 20
50.55281438623333
 30
0.0
 10
47.96342911472303
 20
50.55281438623333
 30
0.0
 10
47.96342911472303
 20
50.55281438623333
 30
0.0
 10
47.96342911472303
 20
52.04626327908913
 30
0.0
 10
47.96342911472303
 20
52.04626327908913
 30
0.0
  0
SPLINE
  5
87
330
7A
100
AcDbEntity
  8
0
 62
     5
420
      255
370
     0
100
AcDbSpline
210
0.0
220
0.0
230
1.0
 70
    11
 71
     3
 72
    56
 73
    52
 74
     0
 42
0.0000000001
 43
0.0000000001
 40
0.0
 40
0.0
 40
0.0
 40
0.0
 40
1.0
 40
1.0
 40
1.0
 40
2.0
 40
2.0
 40
2.0
 40
3.0
 40
3.0
 40
3.0
 40
4.0
 40
4.0
 40
4.0
 40
5.0
 40
5.0
 40
5.0
 40
6.0
 40
6.0
 40
6.0
 40
7.0
 40
7.0
 40
7.0
 40
8.0
 40
8.0
 40
8.0
 40
9.0
 40
9.0
 40
9.0
 40
10.0
 40
10.0
 40
10.0
 40
11.0
 40
11.0
 40
11.0
 40
12.0
 40
12.0
 40
12.0
 40
13.0
 40
13.0
 40
13.0
 40
14.0
 40
14.0
 40
14.0
 40
15.0
 40
15.0
 40
15.0
 40
16.0
 40
16.0
 40
16.0
 40
17.0
 40
17.0
 40
17.0
 40
17.0
 10
50.74465469996521
 20
53.18865694199797
 30
0.0
 10
50.74465469996521
 20
53.18865694199797
 30
0.0
 10
50.74465469996521
 20
52.60057914266583
 30
0.0
 10
50.74465469996521
 20
52.60057914266583
 30
0.0
 10
50.74465469996521
 20
52.60057914266583
 30
0.0
 10
51.27778322630764
 20
52.60057914266583
 30
0.0
 10
51.27778322630764
 20
52.60057914266583
 30
0.0
 10
51.27778322630764
 20
52.60057914266583
 30
0.0
 10
51.27778322630764
 20
52.31704778422977
 30
0.0
 10
51.27778322630764
 20
52.31704778422977
 30
0.0
 10
51.27778322630764
 20
52.31704778422977
 30
0.0
 10
50.74465469996521
 20
52.31704778422977
 30
0.0
 10
50.74465469996521
 20
52.31704778422977
 30
0.0
 10
50.74465469996521
 20
52.31704778422977
 30
0.0
 10
50.74465469996521
 20
51.21289468120719
 30
0.0
 10
50.74465469996521
 20
51.21289468120719
 30
0.0
 10
50.74465469996521
 20
50.95899114394428
 30
0.0
 10
50.81648494083268
 20
50.81498615266084
 30
0.0
 10
51.02387968904472
 20
50.81498615266084
 30
0.0
 10
51.12120363650302
 20
50.81498615266084
 30
0.0
 10
51.19303387737049
 20
50.82773300595626
 30
0.0
 10
51.23954266642136
 20
50.84047985925169
 30
0.0
 10
51.23954266642136
 20
50.84047985925169
 30
0.0
 10
51.25659588907335
 20
50.56142712494644
 30
0.0
 10
51.25659588907335
 20
50.56142712494644
 30
0.0
 10
51.18459339343162
 20
50.5317993037733
 30
0.0
 10
51.07038847809559
 20
50.51043971176476
 30
0.0
 10
50.92655574158641
 20
50.51043971176476
 30
0.0
 10
50.75309518390408
 20
50.51043971176476
 30
0.0
 10
50.6133965619772
 20
50.56556123952875
 30
0.0
 10
50.52451309845775
 20
50.66719155634363
 30
0.0
 10
50.41874866706058
 20
50.77709010232309
 30
0.0
 10
50.38068036194857
 20
50.95899114394428
 30
0.0
 10
50.38068036194857
 20
51.20014782791177
 30
0.0
 10
50.38068036194857
 20
51.20014782791177
 30
0.0
 10
50.38068036194857
 20
52.31704778422977
 30
0.0
 10
50.38068036194857
 20
52.31704778422977
 30
0.0
 10
50.38068036194857
 20
52.31704778422977
 30
0.0
 10
50.06338706775706
 20
52.31704778422977
 30
0.0
 10
50.06338706775706
 20
52.31704778422977
 30
0.0
 10
50.06338706775706
 20
52.31704778422977
 30
0.0
 10
50.06338706775706
 20
52.60057914266583
 30
0.0
 10
50.06338706775706
 20
52.60057914266583
 30
0.0
 10
50.06338706775706
 20
52.60057914266583
 30
0.0
 10
50.38068036194857
 20
52.60057914266583
 30
0.0
 10
50.38068036194857
 20
52.60057914266583
 30
0.0
 10
50.38068036194857
 20
52.60057914266583
 30
0.0
 10
50.38068036194857
 20
53.09150524931393
 30
0.0
 10
50.38068036194857
 20
53.09150524931393
 30
0.0
 10
50.38068036194857
 20
53.09150524931393
 30
0.0
 10
50.74465469996521
 20
53.18865694199797
 30
0.0
 10
50.74465469996521
 20
53.18865694199797
 30
0.0
  0
SPLINE
  5
88
330
7A
100
AcDbEntity
  8
0
 62
     5
420
      255
370
     0
100
AcDbSpline
210
0.0
220
0.0
230
1.0
 70
     9
 71
     3
 72
    26
 73
    22
 74
     0
 42
0.0000000001
 43
0.0000000001
 40
0.0
 40
0.0
 40
0.0
 40
0.0
 40
1.0
 40
1.0
 40
1.0
 40
2.0
 40
2.0
 40
2.0
 40
3.0
 40
3.0
 40
3.0
 40
4.0
 40
4.0
 40
4.0
 40
5.0
 40
5.0
 40
5.0
 40
6.0
 40
6.0
 40
6.0
 40
7.0
 40
7.0
 40
7.0
 40
7.0
 10
53.97391495306415
 20
51.79235974182621
 30
0.0
 10
53.97391495306415
 20
51.85609400830333
 30
0.0
 10
53.96978083848186
 20
51.91087102651881
 30
0.0
 10
53.95289987060412
 20
51.96185843970051
 30
0.0
 10
53.88520374431897
 20
52.17752141707715
 30
0.0
 10
53.70313044792352
 20
52.35528834411604
 30
0.0
 10
53.43234594278288
 20
52.35528834411604
 30
0.0
 10
53.07698434347936
 20
52.35528834411604
 30
0.0
 10
52.82308080621644
 20
52.05487601780226
 30
0.0
 10
52.82308080621644
 20
51.58083087903188
 30
0.0
 10
52.82308080621644
 20
51.17913274545174
 30
0.0
 10
53.02616918507192
 20
50.84461397383399
 30
0.0
 10
53.42821182820058
 20
50.84461397383399
 30
0.0
 10
53.65662165887265
 20
50.84461397383399
 30
0.0
 10
53.86401640708468
 20
50.98861896511743
 30
0.0
 10
53.944287131891
 20
51.22564153450262
 30
0.0
 10
53.96547446912529
 20
51.28903129143122
 30
0.0
 10
53.97391495306415
 20
51.36103378707294
 30
0.0
 10
53.97391495306415
 20
51.42442354400153
 30
0.0
 10
53.97391495306415
 20
51.42442354400153
 30
0.0
 10
53.97391495306415
 20
51.79235974182621
 30
0.0
 10
53.97391495306415
 20
51.79235974182621
 30
0.0
  0
SPLINE
  5
89
330
7A
100
AcDbEntity
  8
0
 62
     5
420
      255
370
     0
100
AcDbSpline
210
0.0
220
0.0
230
1.0
 70
     9
 71
     3
 72
    56
 73
    52
 74
     0
 42
0.0000000001
 43
0.0000000001
 40
0.0
 40
0.0
 40
0.0
 40
0.0
 40
1.0
 40
1.0
 40
1.0
 40
2.0
 40
2.0
 40
2.0
 40
3.0
 40
3.0
 40
3.0
 40
4.0
 40
4.0
 40
4.0
 40
5.0
 40
5.0
 40
5.0
 40
6.0
 40
6.0
 40
6.0
 40
7.0
 40
7.0
 40
7.0
 40
8.0
 40
8.0
 40
8.0
 40
9.0
 40
9.0
 40
9.0
 40
10.0
 40
10.0
 40
10.0
 40
11.0
 40
11.0
 40
11.0
 40
12.0
 40
12.0
 40
12.0
 40
13.0
 40
13.0
 40
13.0
 40
14.0
 40
14.0
 40
14.0
 40
15.0
 40
15.0
 40
15.0
 40
16.0
 40
16.0
 40
16.0
 40
17.0
 40
17.0
 40
17.0
 40
17.0
 10
54.35907662831509
 20
52.60057914266583
 30
0.0
 10
54.35046388960196
 20
52.45244003680008
 30
0.0
 10
54.3420234056631
 20
52.28741996305662
 30
0.0
 10
54.3420234056631
 20
52.03799504992453
 30
0.0
 10
54.3420234056631
 20
52.03799504992453
 30
0.0
 10
54.3420234056631
 20
50.84909259796481
 30
0.0
 10
54.3420234056631
 20
50.84909259796481
 30
0.0
 10
54.3420234056631
 20
50.37918157377673
 30
0.0
 10
54.24900582756135
 20
50.09151610075837
 30
0.0
 10
54.05022381806244
 20
49.91409368326801
 30
0.0
 10
53.85126955378925
 20
49.72771401751599
 30
0.0
 10
53.5636040807709
 20
49.66845837516969
 30
0.0
 10
53.30556642892569
 20
49.66845837516969
 30
0.0
 10
53.06010337560163
 20
49.66845837516969
 30
0.0
 10
52.78931887046099
 20
49.72771401751599
 30
0.0
 10
52.62429879671753
 20
49.83761256349546
 30
0.0
 10
52.62429879671753
 20
49.83761256349546
 30
0.0
 10
52.71731637481927
 20
50.12114392193152
 30
0.0
 10
52.71731637481927
 20
50.12114392193152
 30
0.0
 10
52.85270862738959
 20
50.0367390825429
 30
0.0
 10
53.0644097449582
 20
49.96060247231888
 30
0.0
 10
53.31814102744685
 20
49.96060247231888
 30
0.0
 10
53.69899633334122
 20
49.96060247231888
 30
0.0
 10
53.97822132242072
 20
50.15938448181779
 30
0.0
 10
53.97822132242072
 20
50.67545978550822
 30
0.0
 10
53.97822132242072
 20
50.67545978550822
 30
0.0
 10
53.97822132242072
 20
50.90386961618029
 30
0.0
 10
53.97822132242072
 20
50.90386961618029
 30
0.0
 10
53.97822132242072
 20
50.90386961618029
 30
0.0
 10
53.96978083848186
 20
50.90386961618029
 30
0.0
 10
53.96978083848186
 20
50.90386961618029
 30
0.0
 10
53.85557592314582
 20
50.71370034539449
 30
0.0
 10
53.63543432163836
 20
50.56142712494644
 30
0.0
 10
53.31814102744685
 20
50.56142712494644
 30
0.0
 10
52.81050620769528
 20
50.56142712494644
 30
0.0
 10
52.44653186967863
 20
50.99275307969973
 30
0.0
 10
52.44653186967863
 20
51.55981579657185
 30
0.0
 10
52.44653186967863
 20
52.25365802730117
 30
0.0
 10
52.89938967121472
 20
52.64708793171671
 30
0.0
 10
53.36895618585428
 20
52.64708793171671
 30
0.0
 10
53.7243177851578
 20
52.64708793171671
 30
0.0
 10
53.91896568007442
 20
52.46105277551321
 30
0.0
 10
54.00784914359387
 20
52.29189858718744
 30
0.0
 10
54.00784914359387
 20
52.29189858718744
 30
0.0
 10
54.01628962753273
 20
52.29189858718744
 30
0.0
 10
54.01628962753273
 20
52.29189858718744
 30
0.0
 10
54.01628962753273
 20
52.29189858718744
 30
0.0
 10
54.03317059541045
 20
52.60057914266583
 30
0.0
 10
54.03317059541045
 20
52.60057914266583
 30
0.0
 10
54.03317059541045
 20
52.60057914266583
 30
0.0
 10
54.35907662831509
 20
52.60057914266583
 30
0.0
 10
54.35907662831509
 20
52.60057914266583
 30
0.0
  0
SPLINE
  5
8A
330
7A
100
AcDbEntity
  8
0
 62
     5
420
      255
370
     0
100
AcDbSpline
210
0.0
220
0.0
230
1.0
 70
     9
 71
     3
 72
    20
 73
    16
 74
     0
 42
0.0000000001
 43
0.0000000001
 40
0.0
 40
0.0
 40
0.0
 40
0.0
 40
1.0
 40
1.0
 40
1.0
 40
2.0
 40
2.0
 40
2.0
 40
3.0
 40
3.0
 40
3.0
 40
4.0
 40
4.0
 40
4.0
 40
5.0
 40
5.0
 40
5.0
 40
5.0
 10
56.03993871556848
 20
51.5977118469096
 30
0.0
 10
55.63376195785752
 20
51.60632458562273
 30
0.0
 10
55.17263592715683
 20
51.53432208998101
 30
0.0
 10
55.17263592715683
 20
51.13675807098317
 30
0.0
 10
55.17263592715683
 20
50.89560138701568
 30
0.0
 10
55.333521886318
 20
50.78122421690539
 30
0.0
 10
55.52386341187805
 20
50.78122421690539
 30
0.0
 10
55.79034154766213
 20
50.78122421690539
 30
0.0
 10
55.95966799076216
 20
50.95037840523115
 30
0.0
 10
56.01892363310845
 20
51.12401121768775
 30
0.0
 10
56.03149823162961
 20
51.16225177757402
 30
0.0
 10
56.03993871556848
 20
51.20428194249407
 30
0.0
 10
56.03993871556848
 20
51.24252250238034
 30
0.0
 10
56.03993871556848
 20
51.24252250238034
 30
0.0
 10
56.03993871556848
 20
51.5977118469096
 30
0.0
 10
56.03993871556848
 20
51.5977118469096
 30
0.0
  0
SPLINE
  5
8B
330
7A
100
AcDbEntity
  8
0
 62
     5
420
      255
370
     0
100
AcDbSpline
210
0.0
220
0.0
230
1.0
 70
    11
 71
     3
 72
    47
 73
    43
 74
     0
 42
0.0000000001
 43
0.0000000001
 40
0.0
 40
0.0
 40
0.0
 40
0.0
 40
1.0
 40
1.0
 40
1.0
 40
2.0
 40
2.0
 40
2.0
 40
3.0
 40
3.0
 40
3.0
 40
4.0
 40
4.0
 40
4.0
 40
5.0
 40
5.0
 40
5.0
 40
6.0
 40
6.0
 40
6.0
 40
7.0
 40
7.0
 40
7.0
 40
8.0
 40
8.0
 40
8.0
 40
9.0
 40
9.0
 40
9.0
 40
10.0
 40
10.0
 40
10.0
 40
11.0
 40
11.0
 40
11.0
 40
12.0
 40
12.0
 40
12.0
 40
13.0
 40
13.0
 40
13.0
 40
14.0
 40
14.0
 40
14.0
 40
14.0
 10
56.09506024333247
 20
50.55281438623333
 30
0.0
 10
56.09506024333247
 20
50.55281438623333
 30
0.0
 10
56.06543242215933
 20
50.81085203807854
 30
0.0
 10
56.06543242215933
 20
50.81085203807854
 30
0.0
 10
56.06543242215933
 20
50.81085203807854
 30
0.0
 10
56.0526855688639
 20
50.81085203807854
 30
0.0
 10
56.0526855688639
 20
50.81085203807854
 30
0.0
 10
55.93848065352787
 20
50.64996607891737
 30
0.0
 10
55.71851130679467
 20
50.50630559718245
 30
0.0
 10
55.42653946441975
 20
50.50630559718245
 30
0.0
 10
55.01192222276993
 20
50.50630559718245
 30
0.0
 10
54.80039335997559
 20
50.79810518478311
 30
0.0
 10
54.80039335997559
 20
51.0943833965146
 30
0.0
 10
54.80039335997559
 20
51.589443617745
 30
0.0
 10
55.24033205344199
 20
51.86022812288563
 30
0.0
 10
56.03149823162961
 20
51.85609400830333
 30
0.0
 10
56.03149823162961
 20
51.85609400830333
 30
0.0
 10
56.03149823162961
 20
51.89812417322339
 30
0.0
 10
56.03149823162961
 20
51.89812417322339
 30
0.0
 10
56.03149823162961
 20
52.06762287109768
 30
0.0
 10
55.98498944257874
 20
52.37216931199377
 30
0.0
 10
55.56623808634663
 20
52.37216931199377
 30
0.0
 10
55.37572430601231
 20
52.37216931199377
 30
0.0
 10
55.1769422965134
 20
52.31291366964747
 30
0.0
 10
55.03310956000421
 20
52.21989609154572
 30
0.0
 10
55.03310956000421
 20
52.21989609154572
 30
0.0
 10
54.94836021106706
 20
52.46518689009551
 30
0.0
 10
54.94836021106706
 20
52.46518689009551
 30
0.0
 10
55.1176866541671
 20
52.57508543607498
 30
0.0
 10
55.36297745271689
 20
52.64708793171671
 30
0.0
 10
55.62118735933636
 20
52.64708793171671
 30
0.0
 10
56.24733346378052
 20
52.64708793171671
 30
0.0
 10
56.39960668422856
 20
52.21989609154572
 30
0.0
 10
56.39960668422856
 20
51.80958521925247
 30
0.0
 10
56.39960668422856
 20
51.80958521925247
 30
0.0
 10
56.39960668422856
 20
51.04374049288143
 30
0.0
 10
56.39960668422856
 20
51.04374049288143
 30
0.0
 10
56.39960668422856
 20
50.86597356584253
 30
0.0
 10
56.40804716816743
 20
50.69234075338594
 30
0.0
 10
56.43354087475827
 20
50.55281438623333
 30
0.0
 10
56.43354087475827
 20
50.55281438623333
 30
0.0
 10
56.09506024333247
 20
50.55281438623333
 30
0.0
 10
56.09506024333247
 20
50.55281438623333
 30
0.0
  0
SPLINE
  5
8C
330
7A
100
AcDbEntity
  8
0
 62
     5
420
      255
370
     0
100
AcDbSpline
210
0.0
220
0.0
230
1.0
 70
    11
 71
     3
 72
    56
 73
    52
 74
     0
 42
0.0000000001
 43
0.0000000001
 40
0.0
 40
0.0
 40
0.0
 40
0.0
 40
1.0
 40
1.0
 40
1.0
 40
2.0
 40
2.0
 40
2.0
 40
3.0
 40
3.0
 40
3.0
 40
4.0
 40
4.0
 40
4.0
 40
5.0
 40
5.0
 40
5.0
 40
6.0
 40
6.0
 40
6.0
 40
7.0
 40
7.0
 40
7.0
 40
8.0
 40
8.0
 40
8.0
 40
9.0
 40
9.0
 40
9.0
 40
10.0
 40
10.0
 40
10.0
 40
11.0
 40
11.0
 40
11.0
 40
12.0
 40
12.0
 40
12.0
 40
13.0
 40
13.0
 40
13.0
 40
14.0
 40
14.0
 40
14.0
 40
15.0
 40
15.0
 40
15.0
 40
16.0
 40
16.0
 40
16.0
 40
17.0
 40
17.0
 40
17.0
 40
17.0
 10
57.43313532980351
 20
53.18865694199797
 30
0.0
 10
57.43313532980351
 20
53.18865694199797
 30
0.0
 10
57.43313532980351
 20
52.60057914266583
 30
0.0
 10
57.43313532980351
 20
52.60057914266583
 30
0.0
 10
57.43313532980351
 20
52.60057914266583
 30
0.0
 10
57.96626385614593
 20
52.60057914266583
 30
0.0
 10
57.96626385614593
 20
52.60057914266583
 30
0.0
 10
57.96626385614593
 20
52.60057914266583
 30
0.0
 10
57.96626385614593
 20
52.31704778422977
 30
0.0
 10
57.96626385614593
 20
52.31704778422977
 30
0.0
 10
57.96626385614593
 20
52.31704778422977
 30
0.0
 10
57.43313532980351
 20
52.31704778422977
 30
0.0
 10
57.43313532980351
 20
52.31704778422977
 30
0.0
 10
57.43313532980351
 20
52.31704778422977
 30
0.0
 10
57.43313532980351
 20
51.21289468120719
 30
0.0
 10
57.43313532980351
 20
51.21289468120719
 30
0.0
 10
57.43313532980351
 20
50.95899114394428
 30
0.0
 10
57.50496557067098
 20
50.81498615266084
 30
0.0
 10
57.71236031888301
 20
50.81498615266084
 30
0.0
 10
57.80968426634132
 20
50.81498615266084
 30
0.0
 10
57.88151450720878
 20
50.82773300595626
 30
0.0
 10
57.92819555103392
 20
50.84047985925169
 30
0.0
 10
57.92819555103392
 20
50.84047985925169
 30
0.0
 10
57.94507651891164
 20
50.56142712494644
 30
0.0
 10
57.94507651891164
 20
50.56142712494644
 30
0.0
 10
57.87307402326992
 20
50.5317993037733
 30
0.0
 10
57.75886910793389
 20
50.51043971176476
 30
0.0
 10
57.61503637142471
 20
50.51043971176476
 30
0.0
 10
57.44157581374238
 20
50.51043971176476
 30
0.0
 10
57.3018771918155
 20
50.56556123952875
 30
0.0
 10
57.21299372829605
 20
50.66719155634363
 30
0.0
 10
57.10722929689888
 20
50.77709010232309
 30
0.0
 10
57.06916099178688
 20
50.95899114394428
 30
0.0
 10
57.06916099178688
 20
51.20014782791177
 30
0.0
 10
57.06916099178688
 20
51.20014782791177
 30
0.0
 10
57.06916099178688
 20
52.31704778422977
 30
0.0
 10
57.06916099178688
 20
52.31704778422977
 30
0.0
 10
57.06916099178688
 20
52.31704778422977
 30
0.0
 10
56.75186769759536
 20
52.31704778422977
 30
0.0
 10
56.75186769759536
 20
52.31704778422977
 30
0.0
 10
56.75186769759536
 20
52.31704778422977
 30
0.0
 10
56.75186769759536
 20
52.60057914266583
 30
0.0
 10
56.75186769759536
 20
52.60057914266583
 30
0.0
 10
56.75186769759536
 20
52.60057914266583
 30
0.0
 10
57.06916099178688
 20
52.60057914266583
 30
0.0
 10
57.06916099178688
 20
52.60057914266583
 30
0.0
 10
57.06916099178688
 20
52.60057914266583
 30
0.0
 10
57.06916099178688
 20
53.09150524931393
 30
0.0
 10
57.06916099178688
 20
53.09150524931393
 30
0.0
 10
57.06916099178688
 20
53.09150524931393
 30
0.0
 10
57.43313532980351
 20
53.18865694199797
 30
0.0
 10
57.43313532980351
 20
53.18865694199797
 30
0.0
  0
SPLINE
  5
8D
330
7A
100
AcDbEntity
  8
0
 62
     5
420
      255
370
     0
100
AcDbSpline
210
0.0
220
0.0
230
1.0
 70
     9
 71
     3
 72
    14
 73
    10
 74
     0
 42
0.0000000001
 43
0.0000000001
 40
0.0
 40
0.0
 40
0.0
 40
0.0
 40
1.0
 40
1.0
 40
1.0
 40
2.0
 40
2.0
 40
2.0
 40
3.0
 40
3.0
 40
3.0
 40
3.0
 10
59.65935603237196
 20
51.77547877394849
 30
0.0
 10
59.66349014695426
 20
52.01250134333368
 30
0.0
 10
59.56203208491365
 20
52.38043754115836
 30
0.0
 10
59.14310847390727
 20
52.38043754115836
 30
0.0
 10
58.76655953736946
 20
52.38043754115836
 30
0.0
 10
58.601539463626
 20
52.0335164257937
 30
0.0
 10
58.57191164245285
 20
51.77547877394849
 30
0.0
 10
58.57191164245285
 20
51.77547877394849
 30
0.0
 10
59.65935603237196
 20
51.77547877394849
 30
0.0
 10
59.65935603237196
 20
51.77547877394849
 30
0.0
  0
SPLINE
  5
8E
330
7A
100
AcDbEntity
  8
0
 62
     5
420
      255
370
     0
100
AcDbSpline
210
0.0
220
0.0
230
1.0
 70
     9
 71
     3
 72
    32
 73
    28
 74
     0
 42
0.0000000001
 43
0.0000000001
 40
0.0
 40
0.0
 40
0.0
 40
0.0
 40
1.0
 40
1.0
 40
1.0
 40
2.0
 40
2.0
 40
2.0
 40
3.0
 40
3.0
 40
3.0
 40
4.0
 40
4.0
 40
4.0
 40
5.0
 40
5.0
 40
5.0
 40
6.0
 40
6.0
 40
6.0
 40
7.0
 40
7.0
 40
7.0
 40
8.0
 40
8.0
 40
8.0
 40
9.0
 40
9.0
 40
9.0
 40
9.0
 10
58.56777752787055
 20
51.50917289293868
 30
0.0
 10
58.57621801180941
 20
51.00549993299516
 30
0.0
 10
58.89764542058323
 20
50.79810518478311
 30
0.0
 10
59.27006024253873
 20
50.79810518478311
 30
0.0
 10
59.5365383783228
 20
50.79810518478311
 30
0.0
 10
59.69742433748397
 20
50.84461397383399
 30
0.0
 10
59.83695070463659
 20
50.90386961618029
 30
0.0
 10
59.83695070463659
 20
50.90386961618029
 30
0.0
 10
59.90051271633944
 20
50.63756373517048
 30
0.0
 10
59.90051271633944
 20
50.63756373517048
 30
0.0
 10
59.76925457835143
 20
50.57830809282418
 30
0.0
 10
59.54515111703592
 20
50.51043971176476
 30
0.0
 10
59.2192450841313
 20
50.51043971176476
 30
0.0
 10
58.58879261033057
 20
50.51043971176476
 30
0.0
 10
58.21224367379277
 20
50.92522920818883
 30
0.0
 10
58.21224367379277
 20
51.54293482869412
 30
0.0
 10
58.21224367379277
 20
52.16064044919942
 30
0.0
 10
58.57621801180941
 20
52.64708793171671
 30
0.0
 10
59.17273629508041
 20
52.64708793171671
 30
0.0
 10
59.84125707399315
 20
52.64708793171671
 30
0.0
 10
60.01902400103205
 20
52.05901013238456
 30
0.0
 10
60.01902400103205
 20
51.68246119584675
 30
0.0
 10
60.01902400103205
 20
51.60632458562273
 30
0.0
 10
60.01041126231892
 20
51.54706894327643
 30
0.0
 10
60.00627714773662
 20
51.50917289293868
 30
0.0
 10
60.00627714773662
 20
51.50917289293868
 30
0.0
 10
58.56777752787055
 20
51.50917289293868
 30
0.0
 10
58.56777752787055
 20
51.50917289293868
 30
0.0
  0
SPLINE
  5
8F
330
7A
100
AcDbEntity
  8
0
 62
     5
420
      255
370
     0
100
AcDbSpline
210
0.0
220
0.0
230
1.0
 70
     9
 71
     3
 72
    50
 73
    46
 74
     0
 42
0.0000000001
 43
0.0000000001
 40
0.0
 40
0.0
 40
0.0
 40
0.0
 40
1.0
 40
1.0
 40
1.0
 40
2.0
 40
2.0
 40
2.0
 40
3.0
 40
3.0
 40
3.0
 40
4.0
 40
4.0
 40
4.0
 40
5.0
 40
5.0
 40
5.0
 40
6.0
 40
6.0
 40
6.0
 40
7.0
 40
7.0
 40
7.0
 40
8.0
 40
8.0
 40
8.0
 40
9.0
 40
9.0
 40
9.0
 40
10.0
 40
10.0
 40
10.0
 40
11.0
 40
11.0
 40
11.0
 40
12.0
 40
12.0
 40
12.0
 40
13.0
 40
13.0
 40
13.0
 40
14.0
 40
14.0
 40
14.0
 40
15.0
 40
15.0
 40
15.0
 40
15.0
 10
60.48135581515257
 20
52.04626327908913
 30
0.0
 10
60.48135581515257
 20
52.25779214188347
 30
0.0
 10
60.47722170057028
 20
52.43142495434007
 30
0.0
 10
60.46447484727485
 20
52.60057914266583
 30
0.0
 10
60.46447484727485
 20
52.60057914266583
 30
0.0
 10
60.79451499476178
 20
52.60057914266583
 30
0.0
 10
60.79451499476178
 20
52.60057914266583
 30
0.0
 10
60.79451499476178
 20
52.60057914266583
 30
0.0
 10
60.81553007722181
 20
52.26227076601429
 30
0.0
 10
60.81553007722181
 20
52.26227076601429
 30
0.0
 10
60.81553007722181
 20
52.26227076601429
 30
0.0
 10
60.82414281593493
 20
52.26227076601429
 30
0.0
 10
60.82414281593493
 20
52.26227076601429
 30
0.0
 10
60.92560087797554
 20
52.45691866093091
 30
0.0
 10
61.16262344736073
 20
52.64708793171671
 30
0.0
 10
61.50110407878653
 20
52.64708793171671
 30
0.0
 10
61.78446318244832
 20
52.64708793171671
 30
0.0
 10
62.22457413068899
 20
52.47793374339093
 30
0.0
 10
62.22457413068899
 20
51.77547877394849
 30
0.0
 10
62.22457413068899
 20
51.77547877394849
 30
0.0
 10
62.22457413068899
 20
50.55281438623333
 30
0.0
 10
62.22457413068899
 20
50.55281438623333
 30
0.0
 10
62.22457413068899
 20
50.55281438623333
 30
0.0
 10
61.85215930873348
 20
50.55281438623333
 30
0.0
 10
61.85215930873348
 20
50.55281438623333
 30
0.0
 10
61.85215930873348
 20
50.55281438623333
 30
0.0
 10
61.85215930873348
 20
51.73310409947992
 30
0.0
 10
61.85215930873348
 20
51.73310409947992
 30
0.0
 10
61.85215930873348
 20
52.06314424696685
 30
0.0
 10
61.72951390945859
 20
52.33840737623832
 30
0.0
 10
61.37828642473737
 20
52.33840737623832
 30
0.0
 10
61.13299562618758
 20
52.33840737623832
 30
0.0
 10
60.94248184585326
 20
52.16477456378172
 30
0.0
 10
60.87909208892466
 20
51.95737981556969
 30
0.0
 10
60.86221112104694
 20
51.91087102651881
 30
0.0
 10
60.85377063710808
 20
51.84748126959021
 30
0.0
 10
60.85377063710808
 20
51.78409151266162
 30
0.0
 10
60.85377063710808
 20
51.78409151266162
 30
0.0
 10
60.85377063710808
 20
50.55281438623333
 30
0.0
 10
60.85377063710808
 20
50.55281438623333
 30
0.0
 10
60.85377063710808
 20
50.55281438623333
 30
0.0
 10
60.48135581515257
 20
50.55281438623333
 30
0.0
 10
60.48135581515257
 20
50.55281438623333
 30
0.0
 10
60.48135581515257
 20
50.55281438623333
 30
0.0
 10
60.48135581515257
 20
52.04626327908913
 30
0.0
 10
60.48135581515257
 20
52.04626327908913
 30
0.0
  0
ENDBLK
  5
7D
330
7A
100
AcDbEntity
  8
0
100
AcDbBlockEnd
  0
BLOCK
  5
92
330
90
100
AcDbEntity
  8
0
100
AcDbBlockBegin
  2
Block_1
 70
     0
 10
0.0
 20
0.0
 30
0.0
  3
Block_1
  1

  0
SPLINE
  5
94
330
90
100
AcDbEntity
  8
0
 62
     5
420
      255
370
     0
100
AcDbSpline
210
0.0
220
0.0
230
1.0
 70
     9
 71
     3
 72
    71
 73
    67
 74
     0
 42
0.0000000001
 43
0.0000000001
 40
0.0
 40
0.0
 40
0.0
 40
0.0
 40
1.0
 40
1.0
 40
1.0
 40
2.0
 40
2.0
 40
2.0
 40
3.0
 40
3.0
 40
3.0
 40
4.0
 40
4.0
 40
4.0
 40
5.0
 40
5.0
 40
5.0
 40
6.0
 40
6.0
 40
6.0
 40
7.0
 40
7.0
 40
7.0
 40
8.0
 40
8.0
 40
8.0
 40
9.0
 40
9.0
 40
9.0
 40
10.0
 40
10.0
 40
10.0
 40
11.0
 40
11.0
 40
11.0
 40
12.0
 40
12.0
 40
12.0
 40
13.0
 40
13.0
 40
13.0
 40
14.0
 40
14.0
 40
14.0
 40
15.0
 40
15.0
 40
15.0
 40
16.0
 40
16.0
 40
16.0
 40
17.0
 40
17.0
 40
17.0
 40
18.0
 40
18.0
 40
18.0
 40
19.0
 40
19.0
 40
19.0
 40
20.0
 40
20.0
 40
20.0
 40
21.0
 40
21.0
 40
21.0
 40
22.0
 40
22.0
 40
22.0
 40
22.0
 10
351.0448946605027
 20
51.38220496899488
 30
0.0
 10
351.0238795780427
 20
51.78011349754124
 30
0.0
 10
350.9983858714518
 20
52.25794824134538
 30
0.0
 10
351.0025199860341
 20
52.61348209542317
 30
0.0
 10
351.0025199860341
 20
52.61348209542317
 30
0.0
 10
350.9897731327387
 20
52.61348209542317
 30
0.0
 10
350.9897731327387
 20
52.61348209542317
 30
0.0
 10
350.8926214400546
 20
52.27930783335394
 30
0.0
 10
350.774110155362
 20
51.92377397927615
 30
0.0
 10
350.6304496736271
 20
51.53034407486062
 30
0.0
 10
350.6304496736271
 20
51.53034407486062
 30
0.0
 10
350.1267767136836
 20
50.14679372798429
 30
0.0
 10
350.1267767136836
 20
50.14679372798429
 30
0.0
 10
350.1267767136836
 20
50.14679372798429
 30
0.0
 10
349.8477239793784
 20
50.14679372798429
 30
0.0
 10
349.8477239793784
 20
50.14679372798429
 30
0.0
 10
349.8477239793784
 20
50.14679372798429
 30
0.0
 10
349.3864256939034
 20
51.50485036826977
 30
0.0
 10
349.3864256939034
 20
51.50485036826977
 30
0.0
 10
349.2510334413331
 20
51.90689301139843
 30
0.0
 10
349.1366562712228
 20
52.27517371877164
 30
0.0
 10
349.0563855464165
 20
52.61348209542317
 30
0.0
 10
349.0563855464165
 20
52.61348209542317
 30
0.0
 10
349.0477728077033
 20
52.61348209542317
 30
0.0
 10
349.0477728077033
 20
52.61348209542317
 30
0.0
 10
349.0395045785387
 20
52.25794824134538
 30
0.0
 10
349.0181449865302
 20
51.78011349754124
 30
0.0
 10
348.9929957894879
 20
51.35257714782174
 30
0.0
 10
348.9929957894879
 20
51.35257714782174
 30
0.0
 10
348.9168591792638
 20
50.12991276010656
 30
0.0
 10
348.9168591792638
 20
50.12991276010656
 30
0.0
 10
348.9168591792638
 20
50.12991276010656
 30
0.0
 10
348.5654594397683
 20
50.12991276010656
 30
0.0
 10
348.5654594397683
 20
50.12991276010656
 30
0.0
 10
348.5654594397683
 20
50.12991276010656
 30
0.0
 10
348.7645859588158
 20
52.98176280279638
 30
0.0
 10
348.7645859588158
 20
52.98176280279638
 30
0.0
 10
348.7645859588158
 20
52.98176280279638
 30
0.0
 10
349.2341524734554
 20
52.98176280279638
 30
0.0
 10
349.2341524734554
 20
52.98176280279638
 30
0.0
 10
349.2341524734554
 20
52.98176280279638
 30
0.0
 10
349.7205999559727
 20
51.60234657050235
 30
0.0
 10
349.7205999559727
 20
51.60234657050235
 30
0.0
 10
349.8391112406653
 20
51.25129134055538
 30
0.0
 10
349.9362629333493
 20
50.93813216094617
 30
0.0
 10
350.008265428991
 20
50.64185394921469
 30
0.0
 10
350.008265428991
 20
50.64185394921469
 30
0.0
 10
350.0210122822864
 20
50.64185394921469
 30
0.0
 10
350.0210122822864
 20
50.64185394921469
 30
0.0
 10
350.0930147779282
 20
50.92951942223304
 30
0.0
 10
350.194645094743
 20
51.24267860184226
 30
0.0
 10
350.3214246086002
 20
51.60234657050235
 30
0.0
 10
350.3214246086002
 20
51.60234657050235
 30
0.0
 10
350.8292316831261
 20
52.98176280279638
 30
0.0
 10
350.8292316831261
 20
52.98176280279638
 30
0.0
 10
350.8292316831261
 20
52.98176280279638
 30
0.0
 10
351.2987981977656
 20
52.98176280279638
 30
0.0
 10
351.2987981977656
 20
52.98176280279638
 30
0.0
 10
351.2987981977656
 20
52.98176280279638
 30
0.0
 10
351.4765651248045
 20
50.12991276010656
 30
0.0
 10
351.4765651248045
 20
50.12991276010656
 30
0.0
 10
351.4765651248045
 20
50.12991276010656
 30
0.0
 10
351.1168971561444
 20
50.12991276010656
 30
0.0
 10
351.1168971561444
 20
50.12991276010656
 30
0.0
 10
351.1168971561444
 20
50.12991276010656
 30
0.0
 10
351.0448946605027
 20
51.38220496899488
 30
0.0
 10
351.0448946605027
 20
51.38220496899488
 30
0.0
  0
SPLINE
  5
95
330
90
100
AcDbEntity
  8
0
 62
     5
420
      255
370
     0
100
AcDbSpline
210
0.0
220
0.0
230
1.0
 70
    11
 71
     3
 72
    17
 73
    13
 74
     0
 42
0.0000000001
 43
0.0000000001
 40
0.0
 40
0.0
 40
0.0
 40
0.0
 40
1.0
 40
1.0
 40
1.0
 40
2.0
 40
2.0
 40
2.0
 40
3.0
 40
3.0
 40
3.0
 40
4.0
 40
4.0
 40
4.0
 40
4.0
 10
352.0835909493055
 20
50.12991276010656
 30
0.0
 10
352.0835909493055
 20
50.12991276010656
 30
0.0
 10
352.0835909493055
 20
52.17767751653907
 30
0.0
 10
352.0835909493055
 20
52.17767751653907
 30
0.0
 10
352.0835909493055
 20
52.17767751653907
 30
0.0
 10
352.4556612617125
 20
52.17767751653907
 30
0.0
 10
352.4556612617125
 20
52.17767751653907
 30
0.0
 10
352.4556612617125
 20
52.17767751653907
 30
0.0
 10
352.4556612617125
 20
50.12991276010656
 30
0.0
 10
352.4556612617125
 20
50.12991276010656
 30
0.0
 10
352.4556612617125
 20
50.12991276010656
 30
0.0
 10
352.0835909493055
 20
50.12991276010656
 30
0.0
 10
352.0835909493055
 20
50.12991276010656
 30
0.0
  0
SPLINE
  5
96
330
90
100
AcDbEntity
  8
0
 62
     5
420
      255
370
     0
100
AcDbSpline
210
0.0
220
0.0
230
1.0
 70
     9
 71
     3
 72
    17
 73
    13
 74
     0
 42
0.0000000001
 43
0.0000000001
 40
0.0
 40
0.0
 40
0.0
 40
0.0
 40
1.0
 40
1.0
 40
1.0
 40
2.0
 40
2.0
 40
2.0
 40
3.0
 40
3.0
 40
3.0
 40
4.0
 40
4.0
 40
4.0
 40
4.0
 10
352.4980359361811
 20
52.75300846257579
 30
0.0
 10
352.5021700507634
 20
52.6262289487186
 30
0.0
 10
352.4091524726616
 20
52.52459863190373
 30
0.0
 10
352.2610133667959
 20
52.52459863190373
 30
0.0
 10
352.1300997383564
 20
52.52459863190373
 30
0.0
 10
352.0367376507061
 20
52.6262289487186
 30
0.0
 10
352.0367376507061
 20
52.75300846257579
 30
0.0
 10
352.0367376507061
 20
52.88426660056381
 30
0.0
 10
352.1342338529387
 20
52.98589691737868
 30
0.0
 10
352.269626105509
 20
52.98589691737868
 30
0.0
 10
352.4091524726616
 20
52.98589691737868
 30
0.0
 10
352.4980359361811
 20
52.88426660056381
 30
0.0
 10
352.4980359361811
 20
52.75300846257579
 30
0.0
  0
SPLINE
  5
97
330
90
100
AcDbEntity
  8
0
 62
     5
420
      255
370
     0
100
AcDbSpline
210
0.0
220
0.0
230
1.0
 70
     9
 71
     3
 72
    26
 73
    22
 74
     0
 42
0.0000000001
 43
0.0000000001
 40
0.0
 40
0.0
 40
0.0
 40
0.0
 40
1.0
 40
1.0
 40
1.0
 40
2.0
 40
2.0
 40
2.0
 40
3.0
 40
3.0
 40
3.0
 40
4.0
 40
4.0
 40
4.0
 40
5.0
 40
5.0
 40
5.0
 40
6.0
 40
6.0
 40
6.0
 40
7.0
 40
7.0
 40
7.0
 40
7.0
 10
354.4700085919381
 20
51.34430891865713
 30
0.0
 10
354.4700085919381
 20
51.390817707708
 30
0.0
 10
354.4658744773558
 20
51.4542074646366
 30
0.0
 10
354.4531276240604
 20
51.50071625368747
 30
0.0
 10
354.3983506058449
 20
51.73773882307266
 30
0.0
 10
354.1950899722152
 20
51.93238671798928
 30
0.0
 10
353.9160372379099
 20
51.93238671798928
 30
0.0
 10
353.530875562659
 20
51.93238671798928
 30
0.0
 10
353.3024657319869
 20
51.59373383178922
 30
0.0
 10
353.3024657319869
 20
51.14104828502739
 30
0.0
 10
353.3024657319869
 20
50.72660329815183
 30
0.0
 10
353.5053818560681
 20
50.38381629736948
 30
0.0
 10
353.9074244991968
 20
50.38381629736948
 30
0.0
 10
354.1571939218774
 20
50.38381629736948
 30
0.0
 10
354.3856037525495
 20
50.54883637111295
 30
0.0
 10
354.4531276240604
 20
50.82788910541818
 30
0.0
 10
354.4658744773558
 20
50.87887651859988
 30
0.0
 10
354.4700085919381
 20
50.92951942223304
 30
0.0
 10
354.4700085919381
 20
50.98877506457935
 30
0.0
 10
354.4700085919381
 20
50.98877506457935
 30
0.0
 10
354.4700085919381
 20
51.34430891865713
 30
0.0
 10
354.4700085919381
 20
51.34430891865713
 30
0.0
  0
SPLINE
  5
98
330
90
100
AcDbEntity
  8
0
 62
     5
420
      255
370
     0
100
AcDbSpline
210
0.0
220
0.0
230
1.0
 70
    11
 71
     3
 72
    41
 73
    37
 74
     0
 42
0.0000000001
 43
0.0000000001
 40
0.0
 40
0.0
 40
0.0
 40
0.0
 40
1.0
 40
1.0
 40
1.0
 40
2.0
 40
2.0
 40
2.0
 40
3.0
 40
3.0
 40
3.0
 40
4.0
 40
4.0
 40
4.0
 40
5.0
 40
5.0
 40
5.0
 40
6.0
 40
6.0
 40
6.0
 40
7.0
 40
7.0
 40
7.0
 40
8.0
 40
8.0
 40
8.0
 40
9.0
 40
9.0
 40
9.0
 40
10.0
 40
10.0
 40
10.0
 40
11.0
 40
11.0
 40
11.0
 40
12.0
 40
12.0
 40
12.0
 40
12.0
 10
354.8424234138936
 20
53.13403602324441
 30
0.0
 10
354.8424234138936
 20
53.13403602324441
 30
0.0
 10
354.8424234138936
 20
50.65873491709242
 30
0.0
 10
354.8424234138936
 20
50.65873491709242
 30
0.0
 10
354.8424234138936
 20
50.47683387547122
 30
0.0
 10
354.8465575284759
 20
50.26943912725919
 30
0.0
 10
354.8593043817713
 20
50.12991276010656
 30
0.0
 10
354.8593043817713
 20
50.12991276010656
 30
0.0
 10
354.5251301197021
 20
50.12991276010656
 30
0.0
 10
354.5251301197021
 20
50.12991276010656
 30
0.0
 10
354.5251301197021
 20
50.12991276010656
 30
0.0
 10
354.5082491518243
 20
50.48544661418435
 30
0.0
 10
354.5082491518243
 20
50.48544661418435
 30
0.0
 10
354.5082491518243
 20
50.48544661418435
 30
0.0
 10
354.4996364131112
 20
50.48544661418435
 30
0.0
 10
354.4996364131112
 20
50.48544661418435
 30
0.0
 10
354.3856037525495
 20
50.25669227396376
 30
0.0
 10
354.1358343298688
 20
50.08340397105569
 30
0.0
 10
353.8016600677996
 20
50.08340397105569
 30
0.0
 10
353.3065998465692
 20
50.08340397105569
 30
0.0
 10
352.9259167954491
 20
50.50232758206207
 30
0.0
 10
352.9259167954491
 20
51.12416731714967
 30
0.0
 10
352.9214381713182
 20
51.80526269458356
 30
0.0
 10
353.3448404064555
 20
52.22418630558994
 30
0.0
 10
353.8440347422682
 20
52.22418630558994
 30
0.0
 10
354.1571939218774
 20
52.22418630558994
 30
0.0
 10
354.3687227846717
 20
52.0760471997242
 30
0.0
 10
354.4617403627735
 20
51.91102712598073
 30
0.0
 10
354.4617403627735
 20
51.91102712598073
 30
0.0
 10
354.4700085919381
 20
51.91102712598073
 30
0.0
 10
354.4700085919381
 20
51.91102712598073
 30
0.0
 10
354.4700085919381
 20
51.91102712598073
 30
0.0
 10
354.4700085919381
 20
53.13403602324441
 30
0.0
 10
354.4700085919381
 20
53.13403602324441
 30
0.0
 10
354.4700085919381
 20
53.13403602324441
 30
0.0
 10
354.8424234138936
 20
53.13403602324441
 30
0.0
 10
354.8424234138936
 20
53.13403602324441
 30
0.0
  0
SPLINE
  5
99
330
90
100
AcDbEntity
  8
0
 62
     5
420
      255
370
     0
100
AcDbSpline
210
0.0
220
0.0
230
1.0
 70
     9
 71
     3
 72
    26
 73
    22
 74
     0
 42
0.0000000001
 43
0.0000000001
 40
0.0
 40
0.0
 40
0.0
 40
0.0
 40
1.0
 40
1.0
 40
1.0
 40
2.0
 40
2.0
 40
2.0
 40
3.0
 40
3.0
 40
3.0
 40
4.0
 40
4.0
 40
4.0
 40
5.0
 40
5.0
 40
5.0
 40
6.0
 40
6.0
 40
6.0
 40
7.0
 40
7.0
 40
7.0
 40
7.0
 10
356.8574597632162
 20
51.34430891865713
 30
0.0
 10
356.8574597632162
 20
51.390817707708
 30
0.0
 10
356.8533256486339
 20
51.4542074646366
 30
0.0
 10
356.8405787953385
 20
51.50071625368747
 30
0.0
 10
356.785801777123
 20
51.73773882307266
 30
0.0
 10
356.5825411434933
 20
51.93238671798928
 30
0.0
 10
356.3034884091881
 20
51.93238671798928
 30
0.0
 10
355.9183267339371
 20
51.93238671798928
 30
0.0
 10
355.6899169032651
 20
51.59373383178922
 30
0.0
 10
355.6899169032651
 20
51.14104828502739
 30
0.0
 10
355.6899169032651
 20
50.72660329815183
 30
0.0
 10
355.8928330273462
 20
50.38381629736948
 30
0.0
 10
356.2948756704749
 20
50.38381629736948
 30
0.0
 10
356.5446450931555
 20
50.38381629736948
 30
0.0
 10
356.7730549238276
 20
50.54883637111295
 30
0.0
 10
356.8405787953385
 20
50.82788910541818
 30
0.0
 10
356.8533256486339
 20
50.87887651859988
 30
0.0
 10
356.8574597632162
 20
50.92951942223304
 30
0.0
 10
356.8574597632162
 20
50.98877506457935
 30
0.0
 10
356.8574597632162
 20
50.98877506457935
 30
0.0
 10
356.8574597632162
 20
51.34430891865713
 30
0.0
 10
356.8574597632162
 20
51.34430891865713
 30
0.0
  0
SPLINE
  5
9A
330
90
100
AcDbEntity
  8
0
 62
     5
420
      255
370
     0
100
AcDbSpline
210
0.0
220
0.0
230
1.0
 70
    11
 71
     3
 72
    41
 73
    37
 74
     0
 42
0.0000000001
 43
0.0000000001
 40
0.0
 40
0.0
 40
0.0
 40
0.0
 40
1.0
 40
1.0
 40
1.0
 40
2.0
 40
2.0
 40
2.0
 40
3.0
 40
3.0
 40
3.0
 40
4.0
 40
4.0
 40
4.0
 40
5.0
 40
5.0
 40
5.0
 40
6.0
 40
6.0
 40
6.0
 40
7.0
 40
7.0
 40
7.0
 40
8.0
 40
8.0
 40
8.0
 40
9.0
 40
9.0
 40
9.0
 40
10.0
 40
10.0
 40
10.0
 40
11.0
 40
11.0
 40
11.0
 40
12.0
 40
12.0
 40
12.0
 40
12.0
 10
357.2298745851717
 20
53.13403602324441
 30
0.0
 10
357.2298745851717
 20
53.13403602324441
 30
0.0
 10
357.2298745851717
 20
50.65873491709242
 30
0.0
 10
357.2298745851717
 20
50.65873491709242
 30
0.0
 10
357.2298745851717
 20
50.47683387547122
 30
0.0
 10
357.234008699754
 20
50.26943912725919
 30
0.0
 10
357.2467555530494
 20
50.12991276010656
 30
0.0
 10
357.2467555530494
 20
50.12991276010656
 30
0.0
 10
356.9125812909802
 20
50.12991276010656
 30
0.0
 10
356.9125812909802
 20
50.12991276010656
 30
0.0
 10
356.9125812909802
 20
50.12991276010656
 30
0.0
 10
356.8957003231024
 20
50.48544661418435
 30
0.0
 10
356.8957003231024
 20
50.48544661418435
 30
0.0
 10
356.8957003231024
 20
50.48544661418435
 30
0.0
 10
356.8870875843893
 20
50.48544661418435
 30
0.0
 10
356.8870875843893
 20
50.48544661418435
 30
0.0
 10
356.7730549238276
 20
50.25669227396376
 30
0.0
 10
356.523285501147
 20
50.08340397105569
 30
0.0
 10
356.1891112390778
 20
50.08340397105569
 30
0.0
 10
355.6940510178474
 20
50.08340397105569
 30
0.0
 10
355.3133679667273
 20
50.50232758206207
 30
0.0
 10
355.3133679667273
 20
51.12416731714967
 30
0.0
 10
355.3088893425964
 20
51.80526269458356
 30
0.0
 10
355.7322915777336
 20
52.22418630558994
 30
0.0
 10
356.2314859135463
 20
52.22418630558994
 30
0.0
 10
356.5446450931555
 20
52.22418630558994
 30
0.0
 10
356.7561739559498
 20
52.0760471997242
 30
0.0
 10
356.8491915340516
 20
51.91102712598073
 30
0.0
 10
356.8491915340516
 20
51.91102712598073
 30
0.0
 10
356.8574597632162
 20
51.91102712598073
 30
0.0
 10
356.8574597632162
 20
51.91102712598073
 30
0.0
 10
356.8574597632162
 20
51.91102712598073
 30
0.0
 10
356.8574597632162
 20
53.13403602324441
 30
0.0
 10
356.8574597632162
 20
53.13403602324441
 30
0.0
 10
356.8574597632162
 20
53.13403602324441
 30
0.0
 10
357.2298745851717
 20
53.13403602324441
 30
0.0
 10
357.2298745851717
 20
53.13403602324441
 30
0.0
  0
SPLINE
  5
9B
330
90
100
AcDbEntity
  8
0
 62
     5
420
      255
370
     0
100
AcDbSpline
210
0.0
220
0.0
230
1.0
 70
     9
 71
     3
 72
    14
 73
    10
 74
     0
 42
0.0000000001
 43
0.0000000001
 40
0.0
 40
0.0
 40
0.0
 40
0.0
 40
1.0
 40
1.0
 40
1.0
 40
2.0
 40
2.0
 40
2.0
 40
3.0
 40
3.0
 40
3.0
 40
3.0
 10
359.1481037513588
 20
51.35257714782174
 30
0.0
 10
359.1522378659411
 20
51.58959971720692
 30
0.0
 10
359.0506075491262
 20
51.95788042458012
 30
0.0
 10
358.6320284476684
 20
51.95788042458012
 30
0.0
 10
358.2554795111306
 20
51.95788042458012
 30
0.0
 10
358.0904594373871
 20
51.61061479966694
 30
0.0
 10
358.060831616214
 20
51.35257714782174
 30
0.0
 10
358.060831616214
 20
51.35257714782174
 30
0.0
 10
359.1481037513588
 20
51.35257714782174
 30
0.0
 10
359.1481037513588
 20
51.35257714782174
 30
0.0
  0
SPLINE
  5
9C
330
90
100
AcDbEntity
  8
0
 62
     5
420
      255
370
     0
100
AcDbSpline
210
0.0
220
0.0
230
1.0
 70
     9
 71
     3
 72
    32
 73
    28
 74
     0
 42
0.0000000001
 43
0.0000000001
 40
0.0
 40
0.0
 40
0.0
 40
0.0
 40
1.0
 40
1.0
 40
1.0
 40
2.0
 40
2.0
 40
2.0
 40
3.0
 40
3.0
 40
3.0
 40
4.0
 40
4.0
 40
4.0
 40
5.0
 40
5.0
 40
5.0
 40
6.0
 40
6.0
 40
6.0
 40
7.0
 40
7.0
 40
7.0
 40
8.0
 40
8.0
 40
8.0
 40
9.0
 40
9.0
 40
9.0
 40
9.0
 10
358.0563529920831
 20
51.08627126681192
 30
0.0
 10
358.0649657307963
 20
50.58259830686839
 30
0.0
 10
358.3863931395701
 20
50.37520355865635
 30
0.0
 10
358.7588079615256
 20
50.37520355865635
 30
0.0
 10
359.0254583520839
 20
50.37520355865635
 30
0.0
 10
359.1859998016966
 20
50.42171234770723
 30
0.0
 10
359.3258706783978
 20
50.48096799005352
 30
0.0
 10
359.3258706783978
 20
50.48096799005352
 30
0.0
 10
359.3892604353263
 20
50.21466210904371
 30
0.0
 10
359.3892604353263
 20
50.21466210904371
 30
0.0
 10
359.2580022973383
 20
50.15540646669741
 30
0.0
 10
359.0337265812485
 20
50.08753808563799
 30
0.0
 10
358.7081650578924
 20
50.08753808563799
 30
0.0
 10
358.0777125840917
 20
50.08753808563799
 30
0.0
 10
357.7011636475539
 20
50.50232758206207
 30
0.0
 10
357.7011636475539
 20
51.12003320256737
 30
0.0
 10
357.7011636475539
 20
51.73773882307266
 30
0.0
 10
358.0649657307963
 20
52.22418630558994
 30
0.0
 10
358.6616562688416
 20
52.22418630558994
 30
0.0
 10
359.33000479298
 20
52.22418630558994
 30
0.0
 10
359.5077717200189
 20
51.63610850625779
 30
0.0
 10
359.5077717200189
 20
51.25955956971998
 30
0.0
 10
359.5077717200189
 20
51.18342295949596
 30
0.0
 10
359.4991589813058
 20
51.12416731714967
 30
0.0
 10
359.4950248667235
 20
51.08627126681192
 30
0.0
 10
359.4950248667235
 20
51.08627126681192
 30
0.0
 10
358.0563529920831
 20
51.08627126681192
 30
0.0
 10
358.0563529920831
 20
51.08627126681192
 30
0.0
  0
SPLINE
  5
9D
330
90
100
AcDbEntity
  8
0
 62
     5
420
      255
370
     0
100
AcDbSpline
210
0.0
220
0.0
230
1.0
 70
     9
 71
     3
 72
    50
 73
    46
 74
     0
 42
0.0000000001
 43
0.0000000001
 40
0.0
 40
0.0
 40
0.0
 40
0.0
 40
1.0
 40
1.0
 40
1.0
 40
2.0
 40
2.0
 40
2.0
 40
3.0
 40
3.0
 40
3.0
 40
4.0
 40
4.0
 40
4.0
 40
5.0
 40
5.0
 40
5.0
 40
6.0
 40
6.0
 40
6.0
 40
7.0
 40
7.0
 40
7.0
 40
8.0
 40
8.0
 40
8.0
 40
9.0
 40
9.0
 40
9.0
 40
10.0
 40
10.0
 40
10.0
 40
11.0
 40
11.0
 40
11.0
 40
12.0
 40
12.0
 40
12.0
 40
13.0
 40
13.0
 40
13.0
 40
14.0
 40
14.0
 40
14.0
 40
15.0
 40
15.0
 40
15.0
 40
15.0
 10
359.9701035341394
 20
51.62336165296236
 30
0.0
 10
359.9701035341394
 20
51.83489051575671
 30
0.0
 10
359.9656249100086
 20
52.0085233282133
 30
0.0
 10
359.9528780567132
 20
52.17767751653907
 30
0.0
 10
359.9528780567132
 20
52.17767751653907
 30
0.0
 10
360.2829182042001
 20
52.17767751653907
 30
0.0
 10
360.2829182042001
 20
52.17767751653907
 30
0.0
 10
360.2829182042001
 20
52.17767751653907
 30
0.0
 10
360.3042777962087
 20
51.83936913988753
 30
0.0
 10
360.3042777962087
 20
51.83936913988753
 30
0.0
 10
360.3042777962087
 20
51.83936913988753
 30
0.0
 10
360.3125460253732
 20
51.83936913988753
 30
0.0
 10
360.3125460253732
 20
51.83936913988753
 30
0.0
 10
360.4141763421881
 20
52.03401703480415
 30
0.0
 10
360.6511989115733
 20
52.22418630558994
 30
0.0
 10
360.9895072882248
 20
52.22418630558994
 30
0.0
 10
361.2730386466609
 20
52.22418630558994
 30
0.0
 10
361.7129773401273
 20
52.05503211726417
 30
0.0
 10
361.7129773401273
 20
51.35257714782174
 30
0.0
 10
361.7129773401273
 20
51.35257714782174
 30
0.0
 10
361.7129773401273
 20
50.12991276010656
 30
0.0
 10
361.7129773401273
 20
50.12991276010656
 30
0.0
 10
361.7129773401273
 20
50.12991276010656
 30
0.0
 10
361.3409070277203
 20
50.12991276010656
 30
0.0
 10
361.3409070277203
 20
50.12991276010656
 30
0.0
 10
361.3409070277203
 20
50.12991276010656
 30
0.0
 10
361.3409070277203
 20
51.31020247335316
 30
0.0
 10
361.3409070277203
 20
51.31020247335316
 30
0.0
 10
361.3409070277203
 20
51.64024262084009
 30
0.0
 10
361.2182616284455
 20
51.91550575011156
 30
0.0
 10
360.86686188895
 20
51.91550575011156
 30
0.0
 10
360.6215710904002
 20
51.91550575011156
 30
0.0
 10
360.4310573100658
 20
51.74187293765496
 30
0.0
 10
360.3676675531373
 20
51.53447818944292
 30
0.0
 10
360.3507865852595
 20
51.48796940039205
 30
0.0
 10
360.3421738465464
 20
51.42457964346345
 30
0.0
 10
360.3421738465464
 20
51.36118988653485
 30
0.0
 10
360.3421738465464
 20
51.36118988653485
 30
0.0
 10
360.3421738465464
 20
50.12991276010656
 30
0.0
 10
360.3421738465464
 20
50.12991276010656
 30
0.0
 10
360.3421738465464
 20
50.12991276010656
 30
0.0
 10
359.9701035341394
 20
50.12991276010656
 30
0.0
 10
359.9701035341394
 20
50.12991276010656
 30
0.0
 10
359.9701035341394
 20
50.12991276010656
 30
0.0
 10
359.9701035341394
 20
51.62336165296236
 30
0.0
 10
359.9701035341394
 20
51.62336165296236
 30
0.0
  0
SPLINE
  5
9E
330
90
100
AcDbEntity
  8
0
 62
     5
420
      255
370
     0
100
AcDbSpline
210
0.0
220
0.0
230
1.0
 70
     9
 71
     3
 72
    26
 73
    22
 74
     0
 42
0.0000000001
 43
0.0000000001
 40
0.0
 40
0.0
 40
0.0
 40
0.0
 40
1.0
 40
1.0
 40
1.0
 40
2.0
 40
2.0
 40
2.0
 40
3.0
 40
3.0
 40
3.0
 40
4.0
 40
4.0
 40
4.0
 40
5.0
 40
5.0
 40
5.0
 40
6.0
 40
6.0
 40
6.0
 40
7.0
 40
7.0
 40
7.0
 40
7.0
 10
364.5961777517329
 20
51.36945811569946
 30
0.0
 10
364.5961777517329
 20
51.43319238217658
 30
0.0
 10
364.5920436371506
 20
51.48796940039205
 30
0.0
 10
364.5751626692729
 20
51.53895681357375
 30
0.0
 10
364.5072942882135
 20
51.75461979095039
 30
0.0
 10
364.3253932465923
 20
51.93238671798928
 30
0.0
 10
364.0546087414517
 20
51.93238671798928
 30
0.0
 10
363.6994193969224
 20
51.93238671798928
 30
0.0
 10
363.4455158596594
 20
51.63197439167549
 30
0.0
 10
363.4455158596594
 20
51.15792925290511
 30
0.0
 10
363.4455158596594
 20
50.75623111932499
 30
0.0
 10
363.6484319837407
 20
50.42171234770723
 30
0.0
 10
364.0504746268693
 20
50.42171234770723
 30
0.0
 10
364.2788844575414
 20
50.42171234770723
 30
0.0
 10
364.4862792057534
 20
50.56571733899066
 30
0.0
 10
364.5665499305597
 20
50.80273990837586
 30
0.0
 10
364.5879095225684
 20
50.86612966530445
 30
0.0
 10
364.5961777517329
 20
50.93813216094617
 30
0.0
 10
364.5961777517329
 20
51.00152191787477
 30
0.0
 10
364.5961777517329
 20
51.00152191787477
 30
0.0
 10
364.5961777517329
 20
51.36945811569946
 30
0.0
 10
364.5961777517329
 20
51.36945811569946
 30
0.0
  0
SPLINE
  5
9F
330
90
100
AcDbEntity
  8
0
 62
     5
420
      255
370
     0
100
AcDbSpline
210
0.0
220
0.0
230
1.0
 70
     9
 71
     3
 72
    56
 73
    52
 74
     0
 42
0.0000000001
 43
0.0000000001
 40
0.0
 40
0.0
 40
0.0
 40
0.0
 40
1.0
 40
1.0
 40
1.0
 40
2.0
 40
2.0
 40
2.0
 40
3.0
 40
3.0
 40
3.0
 40
4.0
 40
4.0
 40
4.0
 40
5.0
 40
5.0
 40
5.0
 40
6.0
 40
6.0
 40
6.0
 40
7.0
 40
7.0
 40
7.0
 40
8.0
 40
8.0
 40
8.0
 40
9.0
 40
9.0
 40
9.0
 40
10.0
 40
10.0
 40
10.0
 40
11.0
 40
11.0
 40
11.0
 40
12.0
 40
12.0
 40
12.0
 40
13.0
 40
13.0
 40
13.0
 40
14.0
 40
14.0
 40
14.0
 40
15.0
 40
15.0
 40
15.0
 40
16.0
 40
16.0
 40
16.0
 40
17.0
 40
17.0
 40
17.0
 40
17.0
 10
364.9813394269838
 20
52.17767751653907
 30
0.0
 10
364.9727266882707
 20
52.02953841067333
 30
0.0
 10
364.9644584591062
 20
51.86451833692985
 30
0.0
 10
364.9644584591062
 20
51.61509342379776
 30
0.0
 10
364.9644584591062
 20
51.61509342379776
 30
0.0
 10
364.9644584591062
 20
50.42619097183806
 30
0.0
 10
364.9644584591062
 20
50.42619097183806
 30
0.0
 10
364.9644584591062
 20
49.95627994764998
 30
0.0
 10
364.8714408810044
 20
49.66861447463161
 30
0.0
 10
364.6723143619569
 20
49.49119205714124
 30
0.0
 10
364.4735323524581
 20
49.30481239138923
 30
0.0
 10
364.1858668794397
 20
49.24555674904294
 30
0.0
 10
363.9278292275944
 20
49.24555674904294
 30
0.0
 10
363.6821939194961
 20
49.24555674904294
 30
0.0
 10
363.4114094143555
 20
49.30481239138923
 30
0.0
 10
363.2467338501606
 20
49.41471093736869
 30
0.0
 10
363.2467338501606
 20
49.41471093736869
 30
0.0
 10
363.3397514282623
 20
49.69824229580476
 30
0.0
 10
363.3397514282623
 20
49.69824229580476
 30
0.0
 10
363.4751436808326
 20
49.61383745641613
 30
0.0
 10
363.686672543627
 20
49.53770084619211
 30
0.0
 10
363.9405760808898
 20
49.53770084619211
 30
0.0
 10
364.32125913201
 20
49.53770084619211
 30
0.0
 10
364.6006563758638
 20
49.73648285569103
 30
0.0
 10
364.6006563758638
 20
50.25255815938145
 30
0.0
 10
364.6006563758638
 20
50.25255815938145
 30
0.0
 10
364.6006563758638
 20
50.48096799005352
 30
0.0
 10
364.6006563758638
 20
50.48096799005352
 30
0.0
 10
364.6006563758638
 20
50.48096799005352
 30
0.0
 10
364.5920436371506
 20
50.48096799005352
 30
0.0
 10
364.5920436371506
 20
50.48096799005352
 30
0.0
 10
364.4776664670403
 20
50.29079871926773
 30
0.0
 10
364.2578693750814
 20
50.13852549881969
 30
0.0
 10
363.9405760808898
 20
50.13852549881969
 30
0.0
 10
363.432769006364
 20
50.13852549881969
 30
0.0
 10
363.0689669231216
 20
50.56985145357296
 30
0.0
 10
363.0689669231216
 20
51.13691417044509
 30
0.0
 10
363.0689669231216
 20
51.83075640117441
 30
0.0
 10
363.5216524698835
 20
52.22418630558994
 30
0.0
 10
363.9912189845231
 20
52.22418630558994
 30
0.0
 10
364.3467528386008
 20
52.22418630558994
 30
0.0
 10
364.5414007335174
 20
52.03815114938645
 30
0.0
 10
364.6299396874884
 20
51.86899696106068
 30
0.0
 10
364.6299396874884
 20
51.86899696106068
 30
0.0
 10
364.6385524262015
 20
51.86899696106068
 30
0.0
 10
364.6385524262015
 20
51.86899696106068
 30
0.0
 10
364.6385524262015
 20
51.86899696106068
 30
0.0
 10
364.6554333940792
 20
52.17767751653907
 30
0.0
 10
364.6554333940792
 20
52.17767751653907
 30
0.0
 10
364.6554333940792
 20
52.17767751653907
 30
0.0
 10
364.9813394269838
 20
52.17767751653907
 30
0.0
 10
364.9813394269838
 20
52.17767751653907
 30
0.0
  0
SPLINE
  5
A0
330
90
100
AcDbEntity
  8
0
 62
     5
420
      255
370
     0
100
AcDbSpline
210
0.0
220
0.0
230
1.0
 70
     9
 71
     3
 72
    20
 73
    16
 74
     0
 42
0.0000000001
 43
0.0000000001
 40
0.0
 40
0.0
 40
0.0
 40
0.0
 40
1.0
 40
1.0
 40
1.0
 40
2.0
 40
2.0
 40
2.0
 40
3.0
 40
3.0
 40
3.0
 40
4.0
 40
4.0
 40
4.0
 40
5.0
 40
5.0
 40
5.0
 40
5.0
 10
366.6622015142373
 20
51.17481022078283
 30
0.0
 10
366.2560247565263
 20
51.18342295949596
 30
0.0
 10
365.7950709805998
 20
51.11142046385424
 30
0.0
 10
365.7950709805998
 20
50.71385644485641
 30
0.0
 10
365.7950709805998
 20
50.47269976088892
 30
0.0
 10
365.9556124302125
 20
50.35832259077863
 30
0.0
 10
366.1461262105468
 20
50.35832259077863
 30
0.0
 10
366.4127766011052
 20
50.35832259077863
 30
0.0
 10
366.5819307894309
 20
50.52747677910439
 30
0.0
 10
366.6411864317772
 20
50.70110959156099
 30
0.0
 10
366.6539332850726
 20
50.73900564189873
 30
0.0
 10
366.6622015142373
 20
50.78138031636731
 30
0.0
 10
366.6622015142373
 20
50.81962087625358
 30
0.0
 10
366.6622015142373
 20
50.81962087625358
 30
0.0
 10
366.6622015142373
 20
51.17481022078283
 30
0.0
 10
366.6622015142373
 20
51.17481022078283
 30
0.0
  0
SPLINE
  5
A1
330
90
100
AcDbEntity
  8
0
 62
     5
420
      255
370
     0
100
AcDbSpline
210
0.0
220
0.0
230
1.0
 70
    11
 71
     3
 72
    47
 73
    43
 74
     0
 42
0.0000000001
 43
0.0000000001
 40
0.0
 40
0.0
 40
0.0
 40
0.0
 40
1.0
 40
1.0
 40
1.0
 40
2.0
 40
2.0
 40
2.0
 40
3.0
 40
3.0
 40
3.0
 40
4.0
 40
4.0
 40
4.0
 40
5.0
 40
5.0
 40
5.0
 40
6.0
 40
6.0
 40
6.0
 40
7.0
 40
7.0
 40
7.0
 40
8.0
 40
8.0
 40
8.0
 40
9.0
 40
9.0
 40
9.0
 40
10.0
 40
10.0
 40
10.0
 40
11.0
 40
11.0
 40
11.0
 40
12.0
 40
12.0
 40
12.0
 40
13.0
 40
13.0
 40
13.0
 40
14.0
 40
14.0
 40
14.0
 40
14.0
 10
366.7173230420012
 20
50.12991276010656
 30
0.0
 10
366.7173230420012
 20
50.12991276010656
 30
0.0
 10
366.6876952208281
 20
50.38795041195178
 30
0.0
 10
366.6876952208281
 20
50.38795041195178
 30
0.0
 10
366.6876952208281
 20
50.38795041195178
 30
0.0
 10
366.6749483675327
 20
50.38795041195178
 30
0.0
 10
366.6749483675327
 20
50.38795041195178
 30
0.0
 10
366.5609157069709
 20
50.22706445279061
 30
0.0
 10
366.3407741054634
 20
50.08340397105569
 30
0.0
 10
366.0486300083143
 20
50.08340397105569
 30
0.0
 10
365.6341850214387
 20
50.08340397105569
 30
0.0
 10
365.4226561586444
 20
50.37520355865635
 30
0.0
 10
365.4226561586444
 20
50.67148177038784
 30
0.0
 10
365.4226561586444
 20
51.16654199161824
 30
0.0
 10
365.8625948521108
 20
51.43732649675888
 30
0.0
 10
366.6539332850726
 20
51.43319238217658
 30
0.0
 10
366.6539332850726
 20
51.43319238217658
 30
0.0
 10
366.6539332850726
 20
51.47522254709663
 30
0.0
 10
366.6539332850726
 20
51.47522254709663
 30
0.0
 10
366.6539332850726
 20
51.64472124497091
 30
0.0
 10
366.6074244960218
 20
51.949267685867
 30
0.0
 10
366.1885008850154
 20
51.949267685867
 30
0.0
 10
365.9979871046811
 20
51.949267685867
 30
0.0
 10
365.7992050951822
 20
51.8900120435207
 30
0.0
 10
365.6552001038987
 20
51.79699446541896
 30
0.0
 10
365.6552001038987
 20
51.79699446541896
 30
0.0
 10
365.5707952645101
 20
52.04228526396875
 30
0.0
 10
365.5707952645101
 20
52.04228526396875
 30
0.0
 10
365.7399494528358
 20
52.15218380994822
 30
0.0
 10
365.9852402513857
 20
52.22418630558994
 30
0.0
 10
366.2432779032309
 20
52.22418630558994
 30
0.0
 10
366.8695962624493
 20
52.22418630558994
 30
0.0
 10
367.0218694828973
 20
51.79699446541896
 30
0.0
 10
367.0218694828973
 20
51.3866835931257
 30
0.0
 10
367.0218694828973
 20
51.3866835931257
 30
0.0
 10
367.0218694828973
 20
50.62083886675466
 30
0.0
 10
367.0218694828973
 20
50.62083886675466
 30
0.0
 10
367.0218694828973
 20
50.44307193971577
 30
0.0
 10
367.0304822216104
 20
50.26943912725919
 30
0.0
 10
367.0556314186527
 20
50.12991276010656
 30
0.0
 10
367.0556314186527
 20
50.12991276010656
 30
0.0
 10
366.7173230420012
 20
50.12991276010656
 30
0.0
 10
366.7173230420012
 20
50.12991276010656
 30
0.0
  0
SPLINE
  5
A2
330
90
100
AcDbEntity
  8
0
 62
     5
420
      255
370
     0
100
AcDbSpline
210
0.0
220
0.0
230
1.0
 70
    11
 71
     3
 72
    56
 73
    52
 74
     0
 42
0.0000000001
 43
0.0000000001
 40
0.0
 40
0.0
 40
0.0
 40
0.0
 40
1.0
 40
1.0
 40
1.0
 40
2.0
 40
2.0
 40
2.0
 40
3.0
 40
3.0
 40
3.0
 40
4.0
 40
4.0
 40
4.0
 40
5.0
 40
5.0
 40
5.0
 40
6.0
 40
6.0
 40
6.0
 40
7.0
 40
7.0
 40
7.0
 40
8.0
 40
8.0
 40
8.0
 40
9.0
 40
9.0
 40
9.0
 40
10.0
 40
10.0
 40
10.0
 40
11.0
 40
11.0
 40
11.0
 40
12.0
 40
12.0
 40
12.0
 40
13.0
 40
13.0
 40
13.0
 40
14.0
 40
14.0
 40
14.0
 40
15.0
 40
15.0
 40
15.0
 40
16.0
 40
16.0
 40
16.0
 40
17.0
 40
17.0
 40
17.0
 40
17.0
 10
368.0550536189238
 20
52.76575531587122
 30
0.0
 10
368.0550536189238
 20
52.76575531587122
 30
0.0
 10
368.0550536189238
 20
52.17767751653907
 30
0.0
 10
368.0550536189238
 20
52.17767751653907
 30
0.0
 10
368.0550536189238
 20
52.17767751653907
 30
0.0
 10
368.5883544000404
 20
52.17767751653907
 30
0.0
 10
368.5883544000404
 20
52.17767751653907
 30
0.0
 10
368.5883544000404
 20
52.17767751653907
 30
0.0
 10
368.5883544000404
 20
51.894146158103
 30
0.0
 10
368.5883544000404
 20
51.894146158103
 30
0.0
 10
368.5883544000404
 20
51.894146158103
 30
0.0
 10
368.0550536189238
 20
51.894146158103
 30
0.0
 10
368.0550536189238
 20
51.894146158103
 30
0.0
 10
368.0550536189238
 20
51.894146158103
 30
0.0
 10
368.0550536189238
 20
50.78999305508043
 30
0.0
 10
368.0550536189238
 20
50.78999305508043
 30
0.0
 10
368.0550536189238
 20
50.53608951781752
 30
0.0
 10
368.1270561145654
 20
50.39208452653408
 30
0.0
 10
368.3344508627775
 20
50.39208452653408
 30
0.0
 10
368.4316025554616
 20
50.39208452653408
 30
0.0
 10
368.5036050511033
 20
50.4048313798295
 30
0.0
 10
368.5501138401542
 20
50.41757823312493
 30
0.0
 10
368.5501138401542
 20
50.41757823312493
 30
0.0
 10
368.5669948080319
 20
50.13852549881969
 30
0.0
 10
368.5669948080319
 20
50.13852549881969
 30
0.0
 10
368.4953368219387
 20
50.10889767764654
 30
0.0
 10
368.3809596518284
 20
50.08753808563799
 30
0.0
 10
368.2369546605449
 20
50.08753808563799
 30
0.0
 10
368.0636663576369
 20
50.08753808563799
 30
0.0
 10
367.9241399904843
 20
50.14265961340199
 30
0.0
 10
367.8352565269648
 20
50.24428993021686
 30
0.0
 10
367.7294920955676
 20
50.35418847619633
 30
0.0
 10
367.6912515356814
 20
50.53608951781752
 30
0.0
 10
367.6912515356814
 20
50.77724620178501
 30
0.0
 10
367.6912515356814
 20
50.77724620178501
 30
0.0
 10
367.6912515356814
 20
51.894146158103
 30
0.0
 10
367.6912515356814
 20
51.894146158103
 30
0.0
 10
367.6912515356814
 20
51.894146158103
 30
0.0
 10
367.3739582414898
 20
51.894146158103
 30
0.0
 10
367.3739582414898
 20
51.894146158103
 30
0.0
 10
367.3739582414898
 20
51.894146158103
 30
0.0
 10
367.3739582414898
 20
52.17767751653907
 30
0.0
 10
367.3739582414898
 20
52.17767751653907
 30
0.0
 10
367.3739582414898
 20
52.17767751653907
 30
0.0
 10
367.6912515356814
 20
52.17767751653907
 30
0.0
 10
367.6912515356814
 20
52.17767751653907
 30
0.0
 10
367.6912515356814
 20
52.17767751653907
 30
0.0
 10
367.6912515356814
 20
52.66860362318716
 30
0.0
 10
367.6912515356814
 20
52.66860362318716
 30
0.0
 10
367.6912515356814
 20
52.66860362318716
 30
0.0
 10
368.0550536189238
 20
52.76575531587122
 30
0.0
 10
368.0550536189238
 20
52.76575531587122
 30
0.0
  0
SPLINE
  5
A3
330
90
100
AcDbEntity
  8
0
 62
     5
420
      255
370
     0
100
AcDbSpline
210
0.0
220
0.0
230
1.0
 70
     9
 71
     3
 72
    14
 73
    10
 74
     0
 42
0.0000000001
 43
0.0000000001
 40
0.0
 40
0.0
 40
0.0
 40
0.0
 40
1.0
 40
1.0
 40
1.0
 40
2.0
 40
2.0
 40
2.0
 40
3.0
 40
3.0
 40
3.0
 40
3.0
 10
370.2816188310407
 20
51.35257714782174
 30
0.0
 10
370.285752945623
 20
51.58959971720692
 30
0.0
 10
370.1841226288081
 20
51.95788042458012
 30
0.0
 10
369.7655435273503
 20
51.95788042458012
 30
0.0
 10
369.3889945908125
 20
51.95788042458012
 30
0.0
 10
369.223974517069
 20
51.61061479966694
 30
0.0
 10
369.1943466958959
 20
51.35257714782174
 30
0.0
 10
369.1943466958959
 20
51.35257714782174
 30
0.0
 10
370.2816188310407
 20
51.35257714782174
 30
0.0
 10
370.2816188310407
 20
51.35257714782174
 30
0.0
  0
SPLINE
  5
A4
330
90
100
AcDbEntity
  8
0
 62
     5
420
      255
370
     0
100
AcDbSpline
210
0.0
220
0.0
230
1.0
 70
     9
 71
     3
 72
    32
 73
    28
 74
     0
 42
0.0000000001
 43
0.0000000001
 40
0.0
 40
0.0
 40
0.0
 40
0.0
 40
1.0
 40
1.0
 40
1.0
 40
2.0
 40
2.0
 40
2.0
 40
3.0
 40
3.0
 40
3.0
 40
4.0
 40
4.0
 40
4.0
 40
5.0
 40
5.0
 40
5.0
 40
6.0
 40
6.0
 40
6.0
 40
7.0
 40
7.0
 40
7.0
 40
8.0
 40
8.0
 40
8.0
 40
9.0
 40
9.0
 40
9.0
 40
9.0
 10
369.189868071765
 20
51.08627126681192
 30
0.0
 10
369.1984808104782
 20
50.58259830686839
 30
0.0
 10
369.519908219252
 20
50.37520355865635
 30
0.0
 10
369.8923230412075
 20
50.37520355865635
 30
0.0
 10
370.1589734317658
 20
50.37520355865635
 30
0.0
 10
370.3195148813785
 20
50.42171234770723
 30
0.0
 10
370.4593857580797
 20
50.48096799005352
 30
0.0
 10
370.4593857580797
 20
50.48096799005352
 30
0.0
 10
370.5227755150082
 20
50.21466210904371
 30
0.0
 10
370.5227755150082
 20
50.21466210904371
 30
0.0
 10
370.3915173770202
 20
50.15540646669741
 30
0.0
 10
370.1672416609304
 20
50.08753808563799
 30
0.0
 10
369.8416801375743
 20
50.08753808563799
 30
0.0
 10
369.2112276637737
 20
50.08753808563799
 30
0.0
 10
368.8346787272358
 20
50.50232758206207
 30
0.0
 10
368.8346787272358
 20
51.12003320256737
 30
0.0
 10
368.8346787272358
 20
51.73773882307266
 30
0.0
 10
369.1984808104782
 20
52.22418630558994
 30
0.0
 10
369.7951713485235
 20
52.22418630558994
 30
0.0
 10
370.4635198726619
 20
52.22418630558994
 30
0.0
 10
370.6412867997008
 20
51.63610850625779
 30
0.0
 10
370.6412867997008
 20
51.25955956971998
 30
0.0
 10
370.6412867997008
 20
51.18342295949596
 30
0.0
 10
370.6326740609877
 20
51.12416731714967
 30
0.0
 10
370.6285399464054
 20
51.08627126681192
 30
0.0
 10
370.6285399464054
 20
51.08627126681192
 30
0.0
 10
369.189868071765
 20
51.08627126681192
 30
0.0
 10
369.189868071765
 20
51.08627126681192
 30
0.0
  0
SPLINE
  5
A5
330
90
100
AcDbEntity
  8
0
 62
     5
420
      255
370
     0
100
AcDbSpline
210
0.0
220
0.0
230
1.0
 70
     9
 71
     3
 72
    50
 73
    46
 74
     0
 42
0.0000000001
 43
0.0000000001
 40
0.0
 40
0.0
 40
0.0
 40
0.0
 40
1.0
 40
1.0
 40
1.0
 40
2.0
 40
2.0
 40
2.0
 40
3.0
 40
3.0
 40
3.0
 40
4.0
 40
4.0
 40
4.0
 40
5.0
 40
5.0
 40
5.0
 40
6.0
 40
6.0
 40
6.0
 40
7.0
 40
7.0
 40
7.0
 40
8.0
 40
8.0
 40
8.0
 40
9.0
 40
9.0
 40
9.0
 40
10.0
 40
10.0
 40
10.0
 40
11.0
 40
11.0
 40
11.0
 40
12.0
 40
12.0
 40
12.0
 40
13.0
 40
13.0
 40
13.0
 40
14.0
 40
14.0
 40
14.0
 40
15.0
 40
15.0
 40
15.0
 40
15.0
 10
371.1036186138213
 20
51.62336165296236
 30
0.0
 10
371.1036186138213
 20
51.83489051575671
 30
0.0
 10
371.0991399896905
 20
52.0085233282133
 30
0.0
 10
371.0863931363951
 20
52.17767751653907
 30
0.0
 10
371.0863931363951
 20
52.17767751653907
 30
0.0
 10
371.416433283882
 20
52.17767751653907
 30
0.0
 10
371.416433283882
 20
52.17767751653907
 30
0.0
 10
371.416433283882
 20
52.17767751653907
 30
0.0
 10
371.4377928758906
 20
51.83936913988753
 30
0.0
 10
371.4377928758906
 20
51.83936913988753
 30
0.0
 10
371.4377928758906
 20
51.83936913988753
 30
0.0
 10
371.4460611050551
 20
51.83936913988753
 30
0.0
 10
371.4460611050551
 20
51.83936913988753
 30
0.0
 10
371.54769142187
 20
52.03401703480415
 30
0.0
 10
371.7847139912552
 20
52.22418630558994
 30
0.0
 10
372.1230223679067
 20
52.22418630558994
 30
0.0
 10
372.4065537263428
 20
52.22418630558994
 30
0.0
 10
372.8464924198092
 20
52.05503211726417
 30
0.0
 10
372.8464924198092
 20
51.35257714782174
 30
0.0
 10
372.8464924198092
 20
51.35257714782174
 30
0.0
 10
372.8464924198092
 20
50.12991276010656
 30
0.0
 10
372.8464924198092
 20
50.12991276010656
 30
0.0
 10
372.8464924198092
 20
50.12991276010656
 30
0.0
 10
372.4744221074022
 20
50.12991276010656
 30
0.0
 10
372.4744221074022
 20
50.12991276010656
 30
0.0
 10
372.4744221074022
 20
50.12991276010656
 30
0.0
 10
372.4744221074022
 20
51.31020247335316
 30
0.0
 10
372.4744221074022
 20
51.31020247335316
 30
0.0
 10
372.4744221074022
 20
51.64024262084009
 30
0.0
 10
372.3514321985788
 20
51.91550575011156
 30
0.0
 10
372.0003769686319
 20
51.91550575011156
 30
0.0
 10
371.7550861700821
 20
51.91550575011156
 30
0.0
 10
371.5645723897477
 20
51.74187293765496
 30
0.0
 10
371.5011826328192
 20
51.53447818944292
 30
0.0
 10
371.4843016649414
 20
51.48796940039205
 30
0.0
 10
371.4756889262283
 20
51.42457964346345
 30
0.0
 10
371.4756889262283
 20
51.36118988653485
 30
0.0
 10
371.4756889262283
 20
51.36118988653485
 30
0.0
 10
371.4756889262283
 20
50.12991276010656
 30
0.0
 10
371.4756889262283
 20
50.12991276010656
 30
0.0
 10
371.4756889262283
 20
50.12991276010656
 30
0.0
 10
371.1036186138213
 20
50.12991276010656
 30
0.0
 10
371.1036186138213
 20
50.12991276010656
 30
0.0
 10
371.1036186138213
 20
50.12991276010656
 30
0.0
 10
371.1036186138213
 20
51.62336165296236
 30
0.0
 10
371.1036186138213
 20
51.62336165296236
 30
0.0
  0
ENDBLK
  5
93
330
90
100
AcDbEntity
  8
0
100
AcDbBlockEnd
  0
BLOCK
  5
DC
330
DA
100
AcDbEntity
  8
0
100
AcDbBlockBegin
  2
Block_2
 70
     0
 10
0.0
 20
0.0
 30
0.0
  3
Block_2
  1

  0
SPLINE
  5
DE
330
DA
100
AcDbEntity
  8
0
 62
     5
420
      255
370
     0
100
AcDbSpline
210
0.0
220
0.0
230
1.0
 70
    11
 71
     3
 72
    41
 73
    37
 74
     0
 42
0.0000000001
 43
0.0000000001
 40
0.0
 40
0.0
 40
0.0
 40
0.0
 40
1.0
 40
1.0
 40
1.0
 40
2.0
 40
2.0
 40
2.0
 40
3.0
 40
3.0
 40
3.0
 40
4.0
 40
4.0
 40
4.0
 40
5.0
 40
5.0
 40
5.0
 40
6.0
 40
6.0
 40
6.0
 40
7.0
 40
7.0
 40
7.0
 40
8.0
 40
8.0
 40
8.0
 40
9.0
 40
9.0
 40
9.0
 40
10.0
 40
10.0
 40
10.0
 40
11.0
 40
11.0
 40
11.0
 40
12.0
 40
12.0
 40
12.0
 40
12.0
 10
1220.638318147592
 20
50.7684773510763
 30
0.0
 10
1220.638318147592
 20
50.7684773510763
 30
0.0
 10
1222.220650503967
 20
53.08289249806714
 30
0.0
 10
1222.220650503967
 20
53.08289249806714
 30
0.0
 10
1222.220650503967
 20
53.08289249806714
 30
0.0
 10
1222.220650503967
 20
53.09563935136257
 30
0.0
 10
1222.220650503967
 20
53.09563935136257
 30
0.0
 10
1222.220650503967
 20
53.09563935136257
 30
0.0
 10
1220.773710400162
 20
53.09563935136321
 30
0.0
 10
1220.773710400162
 20
53.09563935136321
 30
0.0
 10
1220.773710400162
 20
53.09563935136321
 30
0.0
 10
1220.773710400162
 20
53.40466441639012
 30
0.0
 10
1220.773710400162
 20
53.40466441639012
 30
0.0
 10
1220.773710400162
 20
53.40466441639012
 30
0.0
 10
1222.69882975732
 20
53.40466441638948
 30
0.0
 10
1222.69882975732
 20
53.40466441638948
 30
0.0
 10
1222.69882975732
 20
53.40466441638948
 30
0.0
 10
1222.69882975732
 20
53.18038870029971
 30
0.0
 10
1222.69882975732
 20
53.18038870029971
 30
0.0
 10
1222.69882975732
 20
53.18038870029971
 30
0.0
 10
1221.124937884883
 20
50.87424178247347
 30
0.0
 10
1221.124937884883
 20
50.87424178247347
 30
0.0
 10
1221.124937884883
 20
50.87424178247347
 30
0.0
 10
1221.124937884883
 20
50.86183943872657
 30
0.0
 10
1221.124937884883
 20
50.86183943872657
 30
0.0
 10
1221.124937884883
 20
50.86183943872657
 30
0.0
 10
1222.720017094554
 20
50.86183943872722
 30
0.0
 10
1222.720017094554
 20
50.86183943872722
 30
0.0
 10
1222.720017094554
 20
50.86183943872722
 30
0.0
 10
1222.720017094554
 20
50.5528143737003
 30
0.0
 10
1222.720017094554
 20
50.5528143737003
 30
0.0
 10
1222.720017094554
 20
50.5528143737003
 30
0.0
 10
1220.638318147592
 20
50.55281437369966
 30
0.0
 10
1220.638318147592
 20
50.55281437369966
 30
0.0
 10
1220.638318147592
 20
50.55281437369966
 30
0.0
 10
1220.638318147592
 20
50.7684773510763
 30
0.0
 10
1220.638318147592
 20
50.7684773510763
 30
0.0
  0
SPLINE
  5
DF
330
DA
100
AcDbEntity
  8
0
 62
     5
420
      255
370
     0
100
AcDbSpline
210
0.0
220
0.0
230
1.0
 70
    11
 71
     3
 72
    17
 73
    13
 74
     0
 42
0.0000000001
 43
0.0000000001
 40
0.0
 40
0.0
 40
0.0
 40
0.0
 40
1.0
 40
1.0
 40
1.0
 40
2.0
 40
2.0
 40
2.0
 40
3.0
 40
3.0
 40
3.0
 40
4.0
 40
4.0
 40
4.0
 40
4.0
 10
1223.16116157144
 20
50.5528143737003
 30
0.0
 10
1223.16116157144
 20
50.5528143737003
 30
0.0
 10
1223.16116157144
 20
52.6005791301328
 30
0.0
 10
1223.16116157144
 20
52.6005791301328
 30
0.0
 10
1223.16116157144
 20
52.6005791301328
 30
0.0
 10
1223.533576393396
 20
52.6005791301328
 30
0.0
 10
1223.533576393396
 20
52.6005791301328
 30
0.0
 10
1223.533576393396
 20
52.6005791301328
 30
0.0
 10
1223.533576393396
 20
50.5528143737003
 30
0.0
 10
1223.533576393396
 20
50.5528143737003
 30
0.0
 10
1223.533576393396
 20
50.5528143737003
 30
0.0
 10
1223.16116157144
 20
50.5528143737003
 30
0.0
 10
1223.16116157144
 20
50.5528143737003
 30
0.0
  0
SPLINE
  5
E0
330
DA
100
AcDbEntity
  8
0
 62
     5
420
      255
370
     0
100
AcDbSpline
210
0.0
220
0.0
230
1.0
 70
     9
 71
     3
 72
    17
 73
    13
 74
     0
 42
0.0000000001
 43
0.0000000001
 40
0.0
 40
0.0
 40
0.0
 40
0.0
 40
1.0
 40
1.0
 40
1.0
 40
2.0
 40
2.0
 40
2.0
 40
3.0
 40
3.0
 40
3.0
 40
4.0
 40
4.0
 40
4.0
 40
4.0
 10
1223.57577881309
 20
53.17591007616953
 30
0.0
 10
1223.580085182447
 20
53.04913056231169
 30
0.0
 10
1223.486895349571
 20
52.94750024549682
 30
0.0
 10
1223.338928498479
 20
52.94750024549682
 30
0.0
 10
1223.207670360491
 20
52.94750024549682
 30
0.0
 10
1223.114652782389
 20
53.04913056231169
 30
0.0
 10
1223.114652782389
 20
53.17591007616889
 30
0.0
 10
1223.114652782389
 20
53.3071682141569
 30
0.0
 10
1223.211976729848
 20
53.40879853097177
 30
0.0
 10
1223.347368982418
 20
53.40879853097241
 30
0.0
 10
1223.486895349571
 20
53.40879853097177
 30
0.0
 10
1223.57577881309
 20
53.30716821415755
 30
0.0
 10
1223.57577881309
 20
53.17591007616953
 30
0.0
  0
SPLINE
  5
E1
330
DA
100
AcDbEntity
  8
0
 62
     5
420
      255
370
     0
100
AcDbSpline
210
0.0
220
0.0
230
1.0
 70
     9
 71
     3
 72
    17
 73
    13
 74
     0
 42
0.0000000001
 43
0.0000000001
 40
0.0
 40
0.0
 40
0.0
 40
0.0
 40
1.0
 40
1.0
 40
1.0
 40
2.0
 40
2.0
 40
2.0
 40
3.0
 40
3.0
 40
3.0
 40
4.0
 40
4.0
 40
4.0
 40
4.0
 10
1224.612924808925
 20
53.17591007616889
 30
0.0
 10
1224.617231178281
 20
53.05326467689464
 30
0.0
 10
1224.528347714762
 20
52.94750024549682
 30
0.0
 10
1224.380208608896
 20
52.94750024549682
 30
0.0
 10
1224.240682241743
 20
52.94750024549682
 30
0.0
 10
1224.151798778224
 20
53.053264676894
 30
0.0
 10
1224.151798778224
 20
53.17591007616889
 30
0.0
 10
1224.151798778224
 20
53.3071682141569
 30
0.0
 10
1224.249122725682
 20
53.40879853097241
 30
0.0
 10
1224.388821347609
 20
53.40879853097241
 30
0.0
 10
1224.524213600179
 20
53.40879853097177
 30
0.0
 10
1224.612924808925
 20
53.3071682141569
 30
0.0
 10
1224.612924808925
 20
53.17591007616889
 30
0.0
  0
SPLINE
  5
E2
330
DA
100
AcDbEntity
  8
0
 62
     5
420
      255
370
     0
100
AcDbSpline
210
0.0
220
0.0
230
1.0
 70
     9
 71
     3
 72
    29
 73
    25
 74
     0
 42
0.0000000001
 43
0.0000000001
 40
0.0
 40
0.0
 40
0.0
 40
0.0
 40
1.0
 40
1.0
 40
1.0
 40
2.0
 40
2.0
 40
2.0
 40
3.0
 40
3.0
 40
3.0
 40
4.0
 40
4.0
 40
4.0
 40
5.0
 40
5.0
 40
5.0
 40
6.0
 40
6.0
 40
6.0
 40
7.0
 40
7.0
 40
7.0
 40
8.0
 40
8.0
 40
8.0
 40
8.0
 10
1223.652604442411
 20
49.96060245978521
 30
0.0
 10
1223.821758630737
 20
49.97300480353211
 30
0.0
 10
1223.969897736603
 20
50.01985810213151
 30
0.0
 10
1224.058781200122
 20
50.11700979481556
 30
0.0
 10
1224.160239262163
 20
50.23552107950879
 30
0.0
 10
1224.198307567275
 20
50.39640703866932
 30
0.0
 10
1224.198307567275
 20
50.88698863576889
 30
0.0
 10
1224.198307567275
 20
50.88698863576889
 30
0.0
 10
1224.198307567275
 20
52.60057913013216
 30
0.0
 10
1224.198307567275
 20
52.60057913013216
 30
0.0
 10
1224.198307567275
 20
52.60057913013216
 30
0.0
 10
1224.57072238923
 20
52.60057913013216
 30
0.0
 10
1224.57072238923
 20
52.60057913013216
 30
0.0
 10
1224.57072238923
 20
52.60057913013216
 30
0.0
 10
1224.57072238923
 20
50.74332815403398
 30
0.0
 10
1224.57072238923
 20
50.74332815403398
 30
0.0
 10
1224.57072238923
 20
50.34541962548762
 30
0.0
 10
1224.507160377528
 20
50.08738197364241
 30
0.0
 10
1224.325259335906
 20
49.90134681743891
 30
0.0
 10
1224.160239262163
 20
49.73632674369609
 30
0.0
 10
1223.889454757022
 20
49.66845836263667
 30
0.0
 10
1223.690672747523
 20
49.66845836263667
 30
0.0
 10
1223.690672747523
 20
49.66845836263667
 30
0.0
 10
1223.652604442411
 20
49.96060245978521
 30
0.0
 10
1223.652604442411
 20
49.96060245978521
 30
0.0
  0
SPLINE
  5
E3
330
DA
100
AcDbEntity
  8
0
 62
     5
420
      255
370
     0
100
AcDbSpline
210
0.0
220
0.0
230
1.0
 70
    11
 71
     3
 72
    47
 73
    43
 74
     0
 42
0.0000000001
 43
0.0000000001
 40
0.0
 40
0.0
 40
0.0
 40
0.0
 40
1.0
 40
1.0
 40
1.0
 40
2.0
 40
2.0
 40
2.0
 40
3.0
 40
3.0
 40
3.0
 40
4.0
 40
4.0
 40
4.0
 40
5.0
 40
5.0
 40
5.0
 40
6.0
 40
6.0
 40
6.0
 40
7.0
 40
7.0
 40
7.0
 40
8.0
 40
8.0
 40
8.0
 40
9.0
 40
9.0
 40
9.0
 40
10.0
 40
10.0
 40
10.0
 40
11.0
 40
11.0
 40
11.0
 40
12.0
 40
12.0
 40
12.0
 40
13.0
 40
13.0
 40
13.0
 40
14.0
 40
14.0
 40
14.0
 40
14.0
 10
1225.548612742718
 20
51.6614461008537
 30
0.0
 10
1225.548612742718
 20
51.6614461008537
 30
0.0
 10
1225.557053226657
 20
51.66144610085305
 30
0.0
 10
1225.557053226657
 20
51.66144610085305
 30
0.0
 10
1225.607868385065
 20
51.73310408694625
 30
0.0
 10
1225.679698625932
 20
51.8219875504657
 30
0.0
 10
1225.738954268279
 20
51.89399004610742
 30
0.0
 10
1225.738954268279
 20
51.89399004610742
 30
0.0
 10
1226.339778920906
 20
52.60057913013216
 30
0.0
 10
1226.339778920906
 20
52.60057913013216
 30
0.0
 10
1226.339778920906
 20
52.60057913013216
 30
0.0
 10
1226.788330353086
 20
52.60057913013216
 30
0.0
 10
1226.788330353086
 20
52.60057913013216
 30
0.0
 10
1226.788330353086
 20
52.60057913013216
 30
0.0
 10
1225.997164174898
 20
51.75859779353711
 30
0.0
 10
1225.997164174898
 20
51.75859779353711
 30
0.0
 10
1225.997164174898
 20
51.75859779353711
 30
0.0
 10
1226.898228899065
 20
50.55281437369966
 30
0.0
 10
1226.898228899065
 20
50.55281437369966
 30
0.0
 10
1226.898228899065
 20
50.55281437369966
 30
0.0
 10
1226.445543352303
 20
50.55281437369966
 30
0.0
 10
1226.445543352303
 20
50.55281437369966
 30
0.0
 10
1226.445543352303
 20
50.55281437369966
 30
0.0
 10
1225.738954268279
 20
51.53432207744734
 30
0.0
 10
1225.738954268279
 20
51.53432207744734
 30
0.0
 10
1225.738954268279
 20
51.53432207744734
 30
0.0
 10
1225.548612742718
 20
51.32279321465365
 30
0.0
 10
1225.548612742718
 20
51.32279321465365
 30
0.0
 10
1225.548612742718
 20
51.32279321465365
 30
0.0
 10
1225.548612742718
 20
50.5528143737003
 30
0.0
 10
1225.548612742718
 20
50.5528143737003
 30
0.0
 10
1225.548612742718
 20
50.5528143737003
 30
0.0
 10
1225.18050429012
 20
50.55281437369966
 30
0.0
 10
1225.18050429012
 20
50.55281437369966
 30
0.0
 10
1225.18050429012
 20
50.55281437369966
 30
0.0
 10
1225.18050429012
 20
53.55693763683752
 30
0.0
 10
1225.18050429012
 20
53.55693763683752
 30
0.0
 10
1225.18050429012
 20
53.55693763683752
 30
0.0
 10
1225.548612742718
 20
53.55693763683817
 30
0.0
 10
1225.548612742718
 20
53.55693763683817
 30
0.0
 10
1225.548612742718
 20
53.55693763683817
 30
0.0
 10
1225.548612742718
 20
51.6614461008537
 30
0.0
 10
1225.548612742718
 20
51.6614461008537
 30
0.0
  0
SPLINE
  5
E4
330
DA
100
AcDbEntity
  8
0
 62
     5
420
      255
370
     0
100
AcDbSpline
210
0.0
220
0.0
230
1.0
 70
     9
 71
     3
 72
    20
 73
    16
 74
     0
 42
0.0000000001
 43
0.0000000001
 40
0.0
 40
0.0
 40
0.0
 40
0.0
 40
1.0
 40
1.0
 40
1.0
 40
2.0
 40
2.0
 40
2.0
 40
3.0
 40
3.0
 40
3.0
 40
4.0
 40
4.0
 40
4.0
 40
5.0
 40
5.0
 40
5.0
 40
5.0
 10
1228.321053334473
 20
51.59771183437658
 30
0.0
 10
1227.914876576762
 20
51.60632457308906
 30
0.0
 10
1227.453578291287
 20
51.53432207744734
 30
0.0
 10
1227.453578291287
 20
51.13675805844951
 30
0.0
 10
1227.453578291287
 20
50.89560137448202
 30
0.0
 10
1227.614464250448
 20
50.78122420437172
 30
0.0
 10
1227.804805776009
 20
50.78122420437236
 30
0.0
 10
1228.071283911793
 20
50.78122420437172
 30
0.0
 10
1228.240610354893
 20
50.9503783926975
 30
0.0
 10
1228.299865997239
 20
51.12401120515408
 30
0.0
 10
1228.31244059576
 20
51.16225176504036
 30
0.0
 10
1228.321053334473
 20
51.20428192996104
 30
0.0
 10
1228.321053334473
 20
51.24252248984731
 30
0.0
 10
1228.321053334473
 20
51.24252248984731
 30
0.0
 10
1228.321053334473
 20
51.59771183437658
 30
0.0
 10
1228.321053334473
 20
51.59771183437658
 30
0.0
  0
SPLINE
  5
E5
330
DA
100
AcDbEntity
  8
0
 62
     5
420
      255
370
     0
100
AcDbSpline
210
0.0
220
0.0
230
1.0
 70
    11
 71
     3
 72
    47
 73
    43
 74
     0
 42
0.0000000001
 43
0.0000000001
 40
0.0
 40
0.0
 40
0.0
 40
0.0
 40
1.0
 40
1.0
 40
1.0
 40
2.0
 40
2.0
 40
2.0
 40
3.0
 40
3.0
 40
3.0
 40
4.0
 40
4.0
 40
4.0
 40
5.0
 40
5.0
 40
5.0
 40
6.0
 40
6.0
 40
6.0
 40
7.0
 40
7.0
 40
7.0
 40
8.0
 40
8.0
 40
8.0
 40
9.0
 40
9.0
 40
9.0
 40
10.0
 40
10.0
 40
10.0
 40
11.0
 40
11.0
 40
11.0
 40
12.0
 40
12.0
 40
12.0
 40
13.0
 40
13.0
 40
13.0
 40
14.0
 40
14.0
 40
14.0
 40
14.0
 10
1228.376002607463
 20
50.5528143737003
 30
0.0
 10
1228.376002607463
 20
50.5528143737003
 30
0.0
 10
1228.34637478629
 20
50.81085202554487
 30
0.0
 10
1228.34637478629
 20
50.81085202554487
 30
0.0
 10
1228.34637478629
 20
50.81085202554487
 30
0.0
 10
1228.333627932994
 20
50.81085202554551
 30
0.0
 10
1228.333627932994
 20
50.81085202554551
 30
0.0
 10
1228.219423017658
 20
50.64996606638435
 30
0.0
 10
1227.999453670925
 20
50.50630558464878
 30
0.0
 10
1227.70748182855
 20
50.50630558464943
 30
0.0
 10
1227.292864586901
 20
50.50630558464943
 30
0.0
 10
1227.081335724106
 20
50.79810517224945
 30
0.0
 10
1227.081335724106
 20
51.09438338398093
 30
0.0
 10
1227.081335724106
 20
51.58944360521133
 30
0.0
 10
1227.521274417573
 20
51.86022811035261
 30
0.0
 10
1228.31244059576
 20
51.85609399576968
 30
0.0
 10
1228.31244059576
 20
51.85609399576968
 30
0.0
 10
1228.31244059576
 20
51.89812416068972
 30
0.0
 10
1228.31244059576
 20
51.89812416068972
 30
0.0
 10
1228.31244059576
 20
52.06762285856401
 30
0.0
 10
1228.265931806709
 20
52.3721692994601
 30
0.0
 10
1227.847008195703
 20
52.37216929946074
 30
0.0
 10
1227.656666670143
 20
52.3721692994601
 30
0.0
 10
1227.457884660644
 20
52.3129136571138
 30
0.0
 10
1227.314051924135
 20
52.21989607901206
 30
0.0
 10
1227.314051924135
 20
52.21989607901206
 30
0.0
 10
1227.229302575198
 20
52.46518687756185
 30
0.0
 10
1227.229302575198
 20
52.46518687756185
 30
0.0
 10
1227.398629018298
 20
52.57508542354131
 30
0.0
 10
1227.644092071622
 20
52.64708791918303
 30
0.0
 10
1227.902129723467
 20
52.64708791918303
 30
0.0
 10
1228.528275827911
 20
52.64708791918303
 30
0.0
 10
1228.680549048359
 20
52.21989607901206
 30
0.0
 10
1228.680549048359
 20
51.8095852067188
 30
0.0
 10
1228.680549048359
 20
51.8095852067188
 30
0.0
 10
1228.680549048359
 20
51.04374048034777
 30
0.0
 10
1228.680549048359
 20
51.04374048034777
 30
0.0
 10
1228.680549048359
 20
50.86597355330887
 30
0.0
 10
1228.688989532298
 20
50.69234074085228
 30
0.0
 10
1228.714483238889
 20
50.55281437369966
 30
0.0
 10
1228.714483238889
 20
50.55281437369966
 30
0.0
 10
1228.376002607463
 20
50.5528143737003
 30
0.0
 10
1228.376002607463
 20
50.5528143737003
 30
0.0
  0
SPLINE
  5
E6
330
DA
100
AcDbEntity
  8
0
 62
     5
420
      255
370
     0
100
AcDbSpline
210
0.0
220
0.0
230
1.0
 70
     9
 71
     3
 72
    50
 73
    46
 74
     0
 42
0.0000000001
 43
0.0000000001
 40
0.0
 40
0.0
 40
0.0
 40
0.0
 40
1.0
 40
1.0
 40
1.0
 40
2.0
 40
2.0
 40
2.0
 40
3.0
 40
3.0
 40
3.0
 40
4.0
 40
4.0
 40
4.0
 40
5.0
 40
5.0
 40
5.0
 40
6.0
 40
6.0
 40
6.0
 40
7.0
 40
7.0
 40
7.0
 40
8.0
 40
8.0
 40
8.0
 40
9.0
 40
9.0
 40
9.0
 40
10.0
 40
10.0
 40
10.0
 40
11.0
 40
11.0
 40
11.0
 40
12.0
 40
12.0
 40
12.0
 40
13.0
 40
13.0
 40
13.0
 40
14.0
 40
14.0
 40
14.0
 40
15.0
 40
15.0
 40
15.0
 40
15.0
 10
1229.282407229632
 20
52.04626326655546
 30
0.0
 10
1229.282407229632
 20
52.2577921293498
 30
0.0
 10
1229.278100860276
 20
52.43142494180704
 30
0.0
 10
1229.265526261755
 20
52.6005791301328
 30
0.0
 10
1229.265526261755
 20
52.6005791301328
 30
0.0
 10
1229.595566409242
 20
52.60057913013216
 30
0.0
 10
1229.595566409242
 20
52.60057913013216
 30
0.0
 10
1229.595566409242
 20
52.60057913013216
 30
0.0
 10
1229.616753746476
 20
52.26227075348063
 30
0.0
 10
1229.616753746476
 20
52.26227075348063
 30
0.0
 10
1229.616753746476
 20
52.26227075348063
 30
0.0
 10
1229.625194230415
 20
52.26227075348063
 30
0.0
 10
1229.625194230415
 20
52.26227075348063
 30
0.0
 10
1229.726652292455
 20
52.45691864839725
 30
0.0
 10
1229.96367486184
 20
52.64708791918367
 30
0.0
 10
1230.302155493266
 20
52.64708791918303
 30
0.0
 10
1230.585514596928
 20
52.64708791918303
 30
0.0
 10
1231.025625545169
 20
52.47793373085727
 30
0.0
 10
1231.025625545169
 20
51.77547876141483
 30
0.0
 10
1231.025625545169
 20
51.77547876141483
 30
0.0
 10
1231.025625545169
 20
50.55281437369966
 30
0.0
 10
1231.025625545169
 20
50.55281437369966
 30
0.0
 10
1231.025625545169
 20
50.55281437369966
 30
0.0
 10
1230.653210723213
 20
50.55281437369966
 30
0.0
 10
1230.653210723213
 20
50.55281437369966
 30
0.0
 10
1230.653210723213
 20
50.55281437369966
 30
0.0
 10
1230.653210723213
 20
51.73310408694625
 30
0.0
 10
1230.653210723213
 20
51.73310408694625
 30
0.0
 10
1230.653210723213
 20
52.06314423443319
 30
0.0
 10
1230.530565323938
 20
52.33840736370465
 30
0.0
 10
1230.179337839217
 20
52.33840736370529
 30
0.0
 10
1229.934047040667
 20
52.33840736370529
 30
0.0
 10
1229.743533260333
 20
52.16477455124806
 30
0.0
 10
1229.680143503404
 20
51.95737980303666
 30
0.0
 10
1229.663262535527
 20
51.91087101398579
 30
0.0
 10
1229.654822051588
 20
51.84748125705655
 30
0.0
 10
1229.654822051588
 20
51.78409150012795
 30
0.0
 10
1229.654822051588
 20
51.78409150012795
 30
0.0
 10
1229.654822051588
 20
50.55281437369966
 30
0.0
 10
1229.654822051588
 20
50.55281437369966
 30
0.0
 10
1229.654822051588
 20
50.55281437369966
 30
0.0
 10
1229.282407229632
 20
50.55281437369966
 30
0.0
 10
1229.282407229632
 20
50.55281437369966
 30
0.0
 10
1229.282407229632
 20
50.55281437369966
 30
0.0
 10
1229.282407229632
 20
52.04626326655546
 30
0.0
 10
1229.282407229632
 20
52.04626326655546
 30
0.0
  0
SPLINE
  5
E7
330
DA
100
AcDbEntity
  8
0
 62
     5
420
      255
370
     0
100
AcDbSpline
210
0.0
220
0.0
230
1.0
 70
    11
 71
     3
 72
    56
 73
    52
 74
     0
 42
0.0000000001
 43
0.0000000001
 40
0.0
 40
0.0
 40
0.0
 40
0.0
 40
1.0
 40
1.0
 40
1.0
 40
2.0
 40
2.0
 40
2.0
 40
3.0
 40
3.0
 40
3.0
 40
4.0
 40
4.0
 40
4.0
 40
5.0
 40
5.0
 40
5.0
 40
6.0
 40
6.0
 40
6.0
 40
7.0
 40
7.0
 40
7.0
 40
8.0
 40
8.0
 40
8.0
 40
9.0
 40
9.0
 40
9.0
 40
10.0
 40
10.0
 40
10.0
 40
11.0
 40
11.0
 40
11.0
 40
12.0
 40
12.0
 40
12.0
 40
13.0
 40
13.0
 40
13.0
 40
14.0
 40
14.0
 40
14.0
 40
15.0
 40
15.0
 40
15.0
 40
16.0
 40
16.0
 40
16.0
 40
17.0
 40
17.0
 40
17.0
 40
17.0
 10
1232.063632814874
 20
53.18865692946495
 30
0.0
 10
1232.063632814874
 20
53.18865692946495
 30
0.0
 10
1232.063632814874
 20
52.6005791301328
 30
0.0
 10
1232.063632814874
 20
52.6005791301328
 30
0.0
 10
1232.063632814874
 20
52.6005791301328
 30
0.0
 10
1232.596761341217
 20
52.60057913013216
 30
0.0
 10
1232.596761341217
 20
52.60057913013216
 30
0.0
 10
1232.596761341217
 20
52.60057913013216
 30
0.0
 10
1232.596761341217
 20
52.31704777169611
 30
0.0
 10
1232.596761341217
 20
52.31704777169611
 30
0.0
 10
1232.596761341217
 20
52.31704777169611
 30
0.0
 10
1232.063632814874
 20
52.31704777169674
 30
0.0
 10
1232.063632814874
 20
52.31704777169674
 30
0.0
 10
1232.063632814874
 20
52.31704777169674
 30
0.0
 10
1232.063632814874
 20
51.21289466867417
 30
0.0
 10
1232.063632814874
 20
51.21289466867417
 30
0.0
 10
1232.063632814874
 20
50.95899113141125
 30
0.0
 10
1232.135463055742
 20
50.81498614012781
 30
0.0
 10
1232.342857803954
 20
50.81498614012717
 30
0.0
 10
1232.440181751412
 20
50.81498614012717
 30
0.0
 10
1232.51201199228
 20
50.8277329934226
 30
0.0
 10
1232.558520781331
 20
50.84047984671802
 30
0.0
 10
1232.558520781331
 20
50.84047984671802
 30
0.0
 10
1232.575574003983
 20
50.56142711241278
 30
0.0
 10
1232.575574003983
 20
50.56142711241278
 30
0.0
 10
1232.503571508341
 20
50.53179929123963
 30
0.0
 10
1232.389366593005
 20
50.51043969923108
 30
0.0
 10
1232.245533856495
 20
50.51043969923108
 30
0.0
 10
1232.072073298813
 20
50.51043969923108
 30
0.0
 10
1231.932374676886
 20
50.56556122699508
 30
0.0
 10
1231.843491213367
 20
50.66719154380995
 30
0.0
 10
1231.73772678197
 20
50.77709008979006
 30
0.0
 10
1231.699658476858
 20
50.95899113141062
 30
0.0
 10
1231.699658476858
 20
51.2001478153781
 30
0.0
 10
1231.699658476858
 20
51.2001478153781
 30
0.0
 10
1231.699658476858
 20
52.31704777169611
 30
0.0
 10
1231.699658476858
 20
52.31704777169611
 30
0.0
 10
1231.699658476858
 20
52.31704777169611
 30
0.0
 10
1231.382365182666
 20
52.31704777169611
 30
0.0
 10
1231.382365182666
 20
52.31704777169611
 30
0.0
 10
1231.382365182666
 20
52.31704777169611
 30
0.0
 10
1231.382365182666
 20
52.60057913013216
 30
0.0
 10
1231.382365182666
 20
52.60057913013216
 30
0.0
 10
1231.382365182666
 20
52.60057913013216
 30
0.0
 10
1231.699658476858
 20
52.60057913013216
 30
0.0
 10
1231.699658476858
 20
52.60057913013216
 30
0.0
 10
1231.699658476858
 20
52.60057913013216
 30
0.0
 10
1231.699658476858
 20
53.09150523678026
 30
0.0
 10
1231.699658476858
 20
53.09150523678026
 30
0.0
 10
1231.699658476858
 20
53.09150523678026
 30
0.0
 10
1232.063632814874
 20
53.18865692946495
 30
0.0
 10
1232.063632814874
 20
53.18865692946495
 30
0.0
  0
SPLINE
  5
E8
330
DA
100
AcDbEntity
  8
0
 62
     5
420
      255
370
     0
100
AcDbSpline
210
0.0
220
0.0
230
1.0
 70
     9
 71
     3
 72
    26
 73
    22
 74
     0
 42
0.0000000001
 43
0.0000000001
 40
0.0
 40
0.0
 40
0.0
 40
0.0
 40
1.0
 40
1.0
 40
1.0
 40
2.0
 40
2.0
 40
2.0
 40
3.0
 40
3.0
 40
3.0
 40
4.0
 40
4.0
 40
4.0
 40
5.0
 40
5.0
 40
5.0
 40
6.0
 40
6.0
 40
6.0
 40
7.0
 40
7.0
 40
7.0
 40
7.0
 10
1235.292893067973
 20
51.79235972929255
 30
0.0
 10
1235.292893067973
 20
51.85609399576968
 30
0.0
 10
1235.288758953391
 20
51.91087101398514
 30
0.0
 10
1235.271877985513
 20
51.96185842716684
 30
0.0
 10
1235.204181859228
 20
52.17752140454348
 30
0.0
 10
1235.022108562833
 20
52.35528833158301
 30
0.0
 10
1234.751324057692
 20
52.35528833158301
 30
0.0
 10
1234.395962458389
 20
52.35528833158301
 30
0.0
 10
1234.142058921126
 20
52.05487600526859
 30
0.0
 10
1234.142058921126
 20
51.58083086649821
 30
0.0
 10
1234.142058921126
 20
51.17913273291808
 30
0.0
 10
1234.345147299981
 20
50.84461396130032
 30
0.0
 10
1234.74718994311
 20
50.84461396130032
 30
0.0
 10
1234.975599773782
 20
50.84461396130032
 30
0.0
 10
1235.182994521994
 20
50.98861895258441
 30
0.0
 10
1235.2632652468
 20
51.22564152196895
 30
0.0
 10
1235.284452584034
 20
51.28903127889755
 30
0.0
 10
1235.292893067973
 20
51.36103377453927
 30
0.0
 10
1235.292893067973
 20
51.42442353146787
 30
0.0
 10
1235.292893067973
 20
51.42442353146787
 30
0.0
 10
1235.292893067973
 20
51.79235972929255
 30
0.0
 10
1235.292893067973
 20
51.79235972929255
 30
0.0
  0
SPLINE
  5
E9
330
DA
100
AcDbEntity
  8
0
 62
     5
420
      255
370
     0
100
AcDbSpline
210
0.0
220
0.0
230
1.0
 70
     9
 71
     3
 72
    56
 73
    52
 74
     0
 42
0.0000000001
 43
0.0000000001
 40
0.0
 40
0.0
 40
0.0
 40
0.0
 40
1.0
 40
1.0
 40
1.0
 40
2.0
 40
2.0
 40
2.0
 40
3.0
 40
3.0
 40
3.0
 40
4.0
 40
4.0
 40
4.0
 40
5.0
 40
5.0
 40
5.0
 40
6.0
 40
6.0
 40
6.0
 40
7.0
 40
7.0
 40
7.0
 40
8.0
 40
8.0
 40
8.0
 40
9.0
 40
9.0
 40
9.0
 40
10.0
 40
10.0
 40
10.0
 40
11.0
 40
11.0
 40
11.0
 40
12.0
 40
12.0
 40
12.0
 40
13.0
 40
13.0
 40
13.0
 40
14.0
 40
14.0
 40
14.0
 40
15.0
 40
15.0
 40
15.0
 40
16.0
 40
16.0
 40
16.0
 40
17.0
 40
17.0
 40
17.0
 40
17.0
 10
1235.678054743224
 20
52.60057913013216
 30
0.0
 10
1235.669442004511
 20
52.45244002426642
 30
0.0
 10
1235.661001520572
 20
52.28741995052295
 30
0.0
 10
1235.661001520572
 20
52.03799503739086
 30
0.0
 10
1235.661001520572
 20
52.03799503739086
 30
0.0
 10
1235.661001520572
 20
50.84909258543114
 30
0.0
 10
1235.661001520572
 20
50.84909258543114
 30
0.0
 10
1235.661001520572
 20
50.37918156124307
 30
0.0
 10
1235.567983942471
 20
50.09151608822534
 30
0.0
 10
1235.369201932972
 20
49.91409367073498
 30
0.0
 10
1235.170247668699
 20
49.72771400498232
 30
0.0
 10
1234.88258219568
 20
49.66845836263667
 30
0.0
 10
1234.624544543835
 20
49.66845836263667
 30
0.0
 10
1234.379081490511
 20
49.66845836263667
 30
0.0
 10
1234.10829698537
 20
49.72771400498296
 30
0.0
 10
1233.943276911627
 20
49.8376125509618
 30
0.0
 10
1233.943276911627
 20
49.8376125509618
 30
0.0
 10
1234.036294489729
 20
50.12114390939849
 30
0.0
 10
1234.036294489729
 20
50.12114390939849
 30
0.0
 10
1234.171686742299
 20
50.03673907000923
 30
0.0
 10
1234.383387859867
 20
49.96060245978521
 30
0.0
 10
1234.637119142356
 20
49.96060245978585
 30
0.0
 10
1235.017974448251
 20
49.96060245978521
 30
0.0
 10
1235.29719943733
 20
50.15938446928477
 30
0.0
 10
1235.29719943733
 20
50.6754597729752
 30
0.0
 10
1235.29719943733
 20
50.6754597729752
 30
0.0
 10
1235.29719943733
 20
50.90386960364726
 30
0.0
 10
1235.29719943733
 20
50.90386960364726
 30
0.0
 10
1235.29719943733
 20
50.90386960364726
 30
0.0
 10
1235.288758953391
 20
50.90386960364662
 30
0.0
 10
1235.288758953391
 20
50.90386960364662
 30
0.0
 10
1235.174554038055
 20
50.71370033286083
 30
0.0
 10
1234.954412436548
 20
50.56142711241342
 30
0.0
 10
1234.637119142356
 20
50.56142711241342
 30
0.0
 10
1234.129484322604
 20
50.56142711241278
 30
0.0
 10
1233.765509984588
 20
50.99275306716671
 30
0.0
 10
1233.765509984588
 20
51.55981578403883
 30
0.0
 10
1233.765509984588
 20
52.25365801476815
 30
0.0
 10
1234.218367786124
 20
52.64708791918303
 30
0.0
 10
1234.687934300764
 20
52.64708791918303
 30
0.0
 10
1235.043295900067
 20
52.64708791918303
 30
0.0
 10
1235.237943794984
 20
52.46105276298019
 30
0.0
 10
1235.326827258503
 20
52.29189857465378
 30
0.0
 10
1235.326827258503
 20
52.29189857465378
 30
0.0
 10
1235.335267742442
 20
52.29189857465378
 30
0.0
 10
1235.335267742442
 20
52.29189857465378
 30
0.0
 10
1235.335267742442
 20
52.29189857465378
 30
0.0
 10
1235.35214871032
 20
52.6005791301328
 30
0.0
 10
1235.35214871032
 20
52.6005791301328
 30
0.0
 10
1235.35214871032
 20
52.6005791301328
 30
0.0
 10
1235.678054743224
 20
52.60057913013216
 30
0.0
 10
1235.678054743224
 20
52.60057913013216
 30
0.0
  0
SPLINE
  5
EA
330
DA
100
AcDbEntity
  8
0
 62
     5
420
      255
370
     0
100
AcDbSpline
210
0.0
220
0.0
230
1.0
 70
     9
 71
     3
 72
    20
 73
    16
 74
     0
 42
0.0000000001
 43
0.0000000001
 40
0.0
 40
0.0
 40
0.0
 40
0.0
 40
1.0
 40
1.0
 40
1.0
 40
2.0
 40
2.0
 40
2.0
 40
3.0
 40
3.0
 40
3.0
 40
4.0
 40
4.0
 40
4.0
 40
5.0
 40
5.0
 40
5.0
 40
5.0
 10
1237.358916830478
 20
51.59771183437594
 30
0.0
 10
1236.952740072767
 20
51.6063245730897
 30
0.0
 10
1236.491614042066
 20
51.53432207744734
 30
0.0
 10
1236.491614042066
 20
51.13675805844951
 30
0.0
 10
1236.491614042066
 20
50.89560137448202
 30
0.0
 10
1236.652500001227
 20
50.78122420437236
 30
0.0
 10
1236.842841526787
 20
50.78122420437172
 30
0.0
 10
1237.109319662571
 20
50.78122420437236
 30
0.0
 10
1237.278646105672
 20
50.9503783926975
 30
0.0
 10
1237.337901748018
 20
51.12401120515472
 30
0.0
 10
1237.350476346539
 20
51.16225176504036
 30
0.0
 10
1237.358916830478
 20
51.2042819299604
 30
0.0
 10
1237.358916830478
 20
51.24252248984667
 30
0.0
 10
1237.358916830478
 20
51.24252248984667
 30
0.0
 10
1237.358916830478
 20
51.59771183437594
 30
0.0
 10
1237.358916830478
 20
51.59771183437594
 30
0.0
  0
SPLINE
  5
EB
330
DA
100
AcDbEntity
  8
0
 62
     5
420
      255
370
     0
100
AcDbSpline
210
0.0
220
0.0
230
1.0
 70
    11
 71
     3
 72
    47
 73
    43
 74
     0
 42
0.0000000001
 43
0.0000000001
 40
0.0
 40
0.0
 40
0.0
 40
0.0
 40
1.0
 40
1.0
 40
1.0
 40
2.0
 40
2.0
 40
2.0
 40
3.0
 40
3.0
 40
3.0
 40
4.0
 40
4.0
 40
4.0
 40
5.0
 40
5.0
 40
5.0
 40
6.0
 40
6.0
 40
6.0
 40
7.0
 40
7.0
 40
7.0
 40
8.0
 40
8.0
 40
8.0
 40
9.0
 40
9.0
 40
9.0
 40
10.0
 40
10.0
 40
10.0
 40
11.0
 40
11.0
 40
11.0
 40
12.0
 40
12.0
 40
12.0
 40
13.0
 40
13.0
 40
13.0
 40
14.0
 40
14.0
 40
14.0
 40
14.0
 10
1237.414038358242
 20
50.55281437369966
 30
0.0
 10
1237.414038358242
 20
50.55281437369966
 30
0.0
 10
1237.384410537069
 20
50.81085202554551
 30
0.0
 10
1237.384410537069
 20
50.81085202554551
 30
0.0
 10
1237.384410537069
 20
50.81085202554551
 30
0.0
 10
1237.371663683773
 20
50.81085202554487
 30
0.0
 10
1237.371663683773
 20
50.81085202554487
 30
0.0
 10
1237.257458768437
 20
50.6499660663837
 30
0.0
 10
1237.037489421704
 20
50.50630558464943
 30
0.0
 10
1236.745517579329
 20
50.50630558464878
 30
0.0
 10
1236.330900337679
 20
50.50630558464878
 30
0.0
 10
1236.119371474885
 20
50.79810517224945
 30
0.0
 10
1236.119371474885
 20
51.09438338398093
 30
0.0
 10
1236.119371474885
 20
51.58944360521133
 30
0.0
 10
1236.559310168351
 20
51.86022811035197
 30
0.0
 10
1237.350476346539
 20
51.85609399576968
 30
0.0
 10
1237.350476346539
 20
51.85609399576968
 30
0.0
 10
1237.350476346539
 20
51.89812416068972
 30
0.0
 10
1237.350476346539
 20
51.89812416068972
 30
0.0
 10
1237.350476346539
 20
52.06762285856401
 30
0.0
 10
1237.303967557488
 20
52.3721692994601
 30
0.0
 10
1236.885216201256
 20
52.3721692994601
 30
0.0
 10
1236.694702420922
 20
52.37216929946074
 30
0.0
 10
1236.495920411423
 20
52.31291365711444
 30
0.0
 10
1236.352087674913
 20
52.2198960790127
 30
0.0
 10
1236.352087674913
 20
52.2198960790127
 30
0.0
 10
1236.267338325976
 20
52.46518687756249
 30
0.0
 10
1236.267338325976
 20
52.46518687756249
 30
0.0
 10
1236.436664769076
 20
52.57508542354131
 30
0.0
 10
1236.681955567626
 20
52.64708791918367
 30
0.0
 10
1236.940165474246
 20
52.64708791918367
 30
0.0
 10
1237.56631157869
 20
52.64708791918367
 30
0.0
 10
1237.718584799138
 20
52.21989607901206
 30
0.0
 10
1237.718584799138
 20
51.8095852067188
 30
0.0
 10
1237.718584799138
 20
51.8095852067188
 30
0.0
 10
1237.718584799138
 20
51.04374048034777
 30
0.0
 10
1237.718584799138
 20
51.04374048034777
 30
0.0
 10
1237.718584799138
 20
50.86597355330887
 30
0.0
 10
1237.727025283077
 20
50.69234074085292
 30
0.0
 10
1237.752518989668
 20
50.5528143737003
 30
0.0
 10
1237.752518989668
 20
50.5528143737003
 30
0.0
 10
1237.414038358242
 20
50.55281437369966
 30
0.0
 10
1237.414038358242
 20
50.55281437369966
 30
0.0
  0
SPLINE
  5
EC
330
DA
100
AcDbEntity
  8
0
 62
     5
420
      255
370
     0
100
AcDbSpline
210
0.0
220
0.0
230
1.0
 70
    11
 71
     3
 72
    56
 73
    52
 74
     0
 42
0.0000000001
 43
0.0000000001
 40
0.0
 40
0.0
 40
0.0
 40
0.0
 40
1.0
 40
1.0
 40
1.0
 40
2.0
 40
2.0
 40
2.0
 40
3.0
 40
3.0
 40
3.0
 40
4.0
 40
4.0
 40
4.0
 40
5.0
 40
5.0
 40
5.0
 40
6.0
 40
6.0
 40
6.0
 40
7.0
 40
7.0
 40
7.0
 40
8.0
 40
8.0
 40
8.0
 40
9.0
 40
9.0
 40
9.0
 40
10.0
 40
10.0
 40
10.0
 40
11.0
 40
11.0
 40
11.0
 40
12.0
 40
12.0
 40
12.0
 40
13.0
 40
13.0
 40
13.0
 40
14.0
 40
14.0
 40
14.0
 40
15.0
 40
15.0
 40
15.0
 40
16.0
 40
16.0
 40
16.0
 40
17.0
 40
17.0
 40
17.0
 40
17.0
 10
1238.752113444713
 20
53.18865692946431
 30
0.0
 10
1238.752113444713
 20
53.18865692946431
 30
0.0
 10
1238.752113444713
 20
52.60057913013216
 30
0.0
 10
1238.752113444713
 20
52.60057913013216
 30
0.0
 10
1238.752113444713
 20
52.60057913013216
 30
0.0
 10
1239.285241971055
 20
52.6005791301328
 30
0.0
 10
1239.285241971055
 20
52.6005791301328
 30
0.0
 10
1239.285241971055
 20
52.6005791301328
 30
0.0
 10
1239.285241971055
 20
52.31704777169674
 30
0.0
 10
1239.285241971055
 20
52.31704777169674
 30
0.0
 10
1239.285241971055
 20
52.31704777169674
 30
0.0
 10
1238.752113444713
 20
52.31704777169611
 30
0.0
 10
1238.752113444713
 20
52.31704777169611
 30
0.0
 10
1238.752113444713
 20
52.31704777169611
 30
0.0
 10
1238.752113444713
 20
51.21289466867352
 30
0.0
 10
1238.752113444713
 20
51.21289466867352
 30
0.0
 10
1238.752113444713
 20
50.95899113141062
 30
0.0
 10
1238.82394368558
 20
50.81498614012781
 30
0.0
 10
1239.031338433792
 20
50.81498614012717
 30
0.0
 10
1239.12866238125
 20
50.81498614012717
 30
0.0
 10
1239.200492622118
 20
50.8277329934226
 30
0.0
 10
1239.247173665943
 20
50.84047984671802
 30
0.0
 10
1239.247173665943
 20
50.84047984671802
 30
0.0
 10
1239.264054633821
 20
50.56142711241278
 30
0.0
 10
1239.264054633821
 20
50.56142711241278
 30
0.0
 10
1239.192052138179
 20
50.53179929123963
 30
0.0
 10
1239.077847222843
 20
50.51043969923108
 30
0.0
 10
1238.934014486334
 20
50.51043969923108
 30
0.0
 10
1238.760553928652
 20
50.51043969923108
 30
0.0
 10
1238.620855306725
 20
50.56556122699508
 30
0.0
 10
1238.531971843205
 20
50.66719154380995
 30
0.0
 10
1238.426207411808
 20
50.77709008979006
 30
0.0
 10
1238.388139106696
 20
50.95899113141062
 30
0.0
 10
1238.388139106696
 20
51.2001478153781
 30
0.0
 10
1238.388139106696
 20
51.2001478153781
 30
0.0
 10
1238.388139106696
 20
52.31704777169611
 30
0.0
 10
1238.388139106696
 20
52.31704777169611
 30
0.0
 10
1238.388139106696
 20
52.31704777169611
 30
0.0
 10
1238.070845812505
 20
52.31704777169611
 30
0.0
 10
1238.070845812505
 20
52.31704777169611
 30
0.0
 10
1238.070845812505
 20
52.31704777169611
 30
0.0
 10
1238.070845812505
 20
52.60057913013216
 30
0.0
 10
1238.070845812505
 20
52.60057913013216
 30
0.0
 10
1238.070845812505
 20
52.60057913013216
 30
0.0
 10
1238.388139106696
 20
52.60057913013216
 30
0.0
 10
1238.388139106696
 20
52.60057913013216
 30
0.0
 10
1238.388139106696
 20
52.60057913013216
 30
0.0
 10
1238.388139106696
 20
53.09150523678026
 30
0.0
 10
1238.388139106696
 20
53.09150523678026
 30
0.0
 10
1238.388139106696
 20
53.09150523678026
 30
0.0
 10
1238.752113444713
 20
53.18865692946431
 30
0.0
 10
1238.752113444713
 20
53.18865692946431
 30
0.0
  0
SPLINE
  5
ED
330
DA
100
AcDbEntity
  8
0
 62
     5
420
      255
370
     0
100
AcDbSpline
210
0.0
220
0.0
230
1.0
 70
     9
 71
     3
 72
    14
 73
    10
 74
     0
 42
0.0000000001
 43
0.0000000001
 40
0.0
 40
0.0
 40
0.0
 40
0.0
 40
1.0
 40
1.0
 40
1.0
 40
2.0
 40
2.0
 40
2.0
 40
3.0
 40
3.0
 40
3.0
 40
3.0
 10
1240.978334147281
 20
51.77547876141483
 30
0.0
 10
1240.982468261863
 20
52.01250133080066
 30
0.0
 10
1240.881010199823
 20
52.3804375286247
 30
0.0
 10
1240.462086588816
 20
52.3804375286247
 30
0.0
 10
1240.085537652279
 20
52.38043752862534
 30
0.0
 10
1239.920517578535
 20
52.03351641326004
 30
0.0
 10
1239.890889757362
 20
51.77547876141483
 30
0.0
 10
1239.890889757362
 20
51.77547876141483
 30
0.0
 10
1240.978334147281
 20
51.77547876141483
 30
0.0
 10
1240.978334147281
 20
51.77547876141483
 30
0.0
  0
SPLINE
  5
EE
330
DA
100
AcDbEntity
  8
0
 62
     5
420
      255
370
     0
100
AcDbSpline
210
0.0
220
0.0
230
1.0
 70
     9
 71
     3
 72
    32
 73
    28
 74
     0
 42
0.0000000001
 43
0.0000000001
 40
0.0
 40
0.0
 40
0.0
 40
0.0
 40
1.0
 40
1.0
 40
1.0
 40
2.0
 40
2.0
 40
2.0
 40
3.0
 40
3.0
 40
3.0
 40
4.0
 40
4.0
 40
4.0
 40
5.0
 40
5.0
 40
5.0
 40
6.0
 40
6.0
 40
6.0
 40
7.0
 40
7.0
 40
7.0
 40
8.0
 40
8.0
 40
8.0
 40
9.0
 40
9.0
 40
9.0
 40
9.0
 10
1239.88675564278
 20
51.50917288040502
 30
0.0
 10
1239.895196126719
 20
51.00549992046149
 30
0.0
 10
1240.216623535493
 20
50.79810517224945
 30
0.0
 10
1240.589038357448
 20
50.79810517224945
 30
0.0
 10
1240.855516493232
 20
50.79810517225009
 30
0.0
 10
1241.016402452393
 20
50.84461396130032
 30
0.0
 10
1241.155928819546
 20
50.90386960364726
 30
0.0
 10
1241.155928819546
 20
50.90386960364726
 30
0.0
 10
1241.219490831249
 20
50.6375637226368
 30
0.0
 10
1241.219490831249
 20
50.6375637226368
 30
0.0
 10
1241.088232693261
 20
50.57830808029051
 30
0.0
 10
1240.864129231945
 20
50.51043969923108
 30
0.0
 10
1240.53822319904
 20
50.51043969923108
 30
0.0
 10
1239.90777072524
 20
50.51043969923108
 30
0.0
 10
1239.531221788702
 20
50.92522919565517
 30
0.0
 10
1239.531221788702
 20
51.54293481616046
 30
0.0
 10
1239.531221788702
 20
52.16064043666576
 30
0.0
 10
1239.895196126719
 20
52.64708791918303
 30
0.0
 10
1240.49171440999
 20
52.64708791918303
 30
0.0
 10
1241.160235188903
 20
52.64708791918303
 30
0.0
 10
1241.338002115941
 20
52.05901011985089
 30
0.0
 10
1241.338002115941
 20
51.68246118331308
 30
0.0
 10
1241.338002115941
 20
51.60632457308906
 30
0.0
 10
1241.329389377228
 20
51.5470689307434
 30
0.0
 10
1241.325255262646
 20
51.50917288040566
 30
0.0
 10
1241.325255262646
 20
51.50917288040566
 30
0.0
 10
1239.88675564278
 20
51.50917288040502
 30
0.0
 10
1239.88675564278
 20
51.50917288040502
 30
0.0
  0
SPLINE
  5
EF
330
DA
100
AcDbEntity
  8
0
 62
     5
420
      255
370
     0
100
AcDbSpline
210
0.0
220
0.0
230
1.0
 70
     9
 71
     3
 72
    50
 73
    46
 74
     0
 42
0.0000000001
 43
0.0000000001
 40
0.0
 40
0.0
 40
0.0
 40
0.0
 40
1.0
 40
1.0
 40
1.0
 40
2.0
 40
2.0
 40
2.0
 40
3.0
 40
3.0
 40
3.0
 40
4.0
 40
4.0
 40
4.0
 40
5.0
 40
5.0
 40
5.0
 40
6.0
 40
6.0
 40
6.0
 40
7.0
 40
7.0
 40
7.0
 40
8.0
 40
8.0
 40
8.0
 40
9.0
 40
9.0
 40
9.0
 40
10.0
 40
10.0
 40
10.0
 40
11.0
 40
11.0
 40
11.0
 40
12.0
 40
12.0
 40
12.0
 40
13.0
 40
13.0
 40
13.0
 40
14.0
 40
14.0
 40
14.0
 40
15.0
 40
15.0
 40
15.0
 40
15.0
 10
1241.800333930062
 20
52.04626326655611
 30
0.0
 10
1241.800333930062
 20
52.25779212935044
 30
0.0
 10
1241.796199815479
 20
52.4314249418064
 30
0.0
 10
1241.783452962184
 20
52.6005791301328
 30
0.0
 10
1241.783452962184
 20
52.6005791301328
 30
0.0
 10
1242.113493109671
 20
52.6005791301328
 30
0.0
 10
1242.113493109671
 20
52.6005791301328
 30
0.0
 10
1242.113493109671
 20
52.6005791301328
 30
0.0
 10
1242.134508192131
 20
52.26227075348063
 30
0.0
 10
1242.134508192131
 20
52.26227075348063
 30
0.0
 10
1242.134508192131
 20
52.26227075348063
 30
0.0
 10
1242.143120930844
 20
52.26227075348127
 30
0.0
 10
1242.143120930844
 20
52.26227075348127
 30
0.0
 10
1242.244578992885
 20
52.45691864839725
 30
0.0
 10
1242.48160156227
 20
52.64708791918303
 30
0.0
 10
1242.820082193696
 20
52.64708791918303
 30
0.0
 10
1243.103441297358
 20
52.64708791918303
 30
0.0
 10
1243.543552245598
 20
52.47793373085791
 30
0.0
 10
1243.543552245598
 20
51.77547876141547
 30
0.0
 10
1243.543552245598
 20
51.77547876141547
 30
0.0
 10
1243.543552245598
 20
50.5528143737003
 30
0.0
 10
1243.543552245598
 20
50.5528143737003
 30
0.0
 10
1243.543552245598
 20
50.5528143737003
 30
0.0
 10
1243.171137423643
 20
50.5528143737003
 30
0.0
 10
1243.171137423643
 20
50.5528143737003
 30
0.0
 10
1243.171137423643
 20
50.5528143737003
 30
0.0
 10
1243.171137423643
 20
51.73310408694689
 30
0.0
 10
1243.171137423643
 20
51.73310408694689
 30
0.0
 10
1243.171137423643
 20
52.06314423443383
 30
0.0
 10
1243.048492024368
 20
52.33840736370465
 30
0.0
 10
1242.697264539647
 20
52.33840736370529
 30
0.0
 10
1242.451973741097
 20
52.33840736370465
 30
0.0
 10
1242.261459960763
 20
52.16477455124806
 30
0.0
 10
1242.198070203834
 20
51.95737980303666
 30
0.0
 10
1242.181189235956
 20
51.91087101398514
 30
0.0
 10
1242.172748752017
 20
51.84748125705655
 30
0.0
 10
1242.172748752017
 20
51.78409150012795
 30
0.0
 10
1242.172748752017
 20
51.78409150012795
 30
0.0
 10
1242.172748752017
 20
50.55281437369966
 30
0.0
 10
1242.172748752017
 20
50.55281437369966
 30
0.0
 10
1242.172748752017
 20
50.55281437369966
 30
0.0
 10
1241.800333930062
 20
50.5528143737003
 30
0.0
 10
1241.800333930062
 20
50.5528143737003
 30
0.0
 10
1241.800333930062
 20
50.5528143737003
 30
0.0
 10
1241.800333930062
 20
52.04626326655611
 30
0.0
 10
1241.800333930062
 20
52.04626326655611
 30
0.0
  0
ENDBLK
  5
DD
330
DA
100
AcDbEntity
  8
0
100
AcDbBlockEnd
  0
BLOCK
  5
F2
330
F0
100
AcDbEntity
  8
0
100
AcDbBlockBegin
  2
Block_3
 70
     0
 10
0.0
 20
0.0
 30
0.0
  3
Block_3
  1

  0
SPLINE
  5
F4
330
F0
100
AcDbEntity
  8
0
 62
     5
420
      255
370
     0
100
AcDbSpline
210
0.0
220
0.0
230
1.0
 70
     9
 71
     3
 72
    71
 73
    67
 74
     0
 42
0.0000000001
 43
0.0000000001
 40
0.0
 40
0.0
 40
0.0
 40
0.0
 40
1.0
 40
1.0
 40
1.0
 40
2.0
 40
2.0
 40
2.0
 40
3.0
 40
3.0
 40
3.0
 40
4.0
 40
4.0
 40
4.0
 40
5.0
 40
5.0
 40
5.0
 40
6.0
 40
6.0
 40
6.0
 40
7.0
 40
7.0
 40
7.0
 40
8.0
 40
8.0
 40
8.0
 40
9.0
 40
9.0
 40
9.0
 40
10.0
 40
10.0
 40
10.0
 40
11.0
 40
11.0
 40
11.0
 40
12.0
 40
12.0
 40
12.0
 40
13.0
 40
13.0
 40
13.0
 40
14.0
 40
14.0
 40
14.0
 40
15.0
 40
15.0
 40
15.0
 40
16.0
 40
16.0
 40
16.0
 40
17.0
 40
17.0
 40
17.0
 40
18.0
 40
18.0
 40
18.0
 40
19.0
 40
19.0
 40
19.0
 40
20.0
 40
20.0
 40
20.0
 40
21.0
 40
21.0
 40
21.0
 40
22.0
 40
22.0
 40
22.0
 40
22.0
 10
912.4958350791791
 20
51.38220497037646
 30
0.0
 10
912.4748199967191
 20
51.78011349892345
 30
0.0
 10
912.4493262901282
 20
52.25794824272696
 30
0.0
 10
912.4534604047106
 20
52.61348209680475
 30
0.0
 10
912.4534604047106
 20
52.61348209680475
 30
0.0
 10
912.4407135514152
 20
52.61348209680475
 30
0.0
 10
912.4407135514152
 20
52.61348209680475
 30
0.0
 10
912.3435618587311
 20
52.27930783473552
 30
0.0
 10
912.2250505740385
 20
51.92377398065773
 30
0.0
 10
912.0813900923037
 20
51.5303440762422
 30
0.0
 10
912.0813900923037
 20
51.5303440762422
 30
0.0
 10
911.5777171323601
 20
50.14679372936587
 30
0.0
 10
911.5777171323601
 20
50.14679372936587
 30
0.0
 10
911.5777171323601
 20
50.14679372936587
 30
0.0
 10
911.298664398055
 20
50.14679372936587
 30
0.0
 10
911.298664398055
 20
50.14679372936587
 30
0.0
 10
911.298664398055
 20
50.14679372936587
 30
0.0
 10
910.8373661125799
 20
51.50485036965135
 30
0.0
 10
910.8373661125799
 20
51.50485036965135
 30
0.0
 10
910.7019738600095
 20
51.90689301278065
 30
0.0
 10
910.5875966898993
 20
52.27517372015386
 30
0.0
 10
910.5073259650929
 20
52.61348209680475
 30
0.0
 10
910.5073259650929
 20
52.61348209680475
 30
0.0
 10
910.4987132263799
 20
52.61348209680475
 30
0.0
 10
910.4987132263799
 20
52.61348209680475
 30
0.0
 10
910.4904449972153
 20
52.2579482427276
 30
0.0
 10
910.4690854052067
 20
51.78011349892281
 30
0.0
 10
910.4439362081643
 20
51.35257714920395
 30
0.0
 10
910.4439362081643
 20
51.35257714920395
 30
0.0
 10
910.3677995979403
 20
50.12991276148814
 30
0.0
 10
910.3677995979403
 20
50.12991276148814
 30
0.0
 10
910.3677995979403
 20
50.12991276148814
 30
0.0
 10
910.0163998584449
 20
50.12991276148878
 30
0.0
 10
910.0163998584449
 20
50.12991276148878
 30
0.0
 10
910.0163998584449
 20
50.12991276148878
 30
0.0
 10
910.2155263774923
 20
52.9817628041786
 30
0.0
 10
910.2155263774923
 20
52.9817628041786
 30
0.0
 10
910.2155263774923
 20
52.9817628041786
 30
0.0
 10
910.6850928921319
 20
52.98176280417795
 30
0.0
 10
910.6850928921319
 20
52.98176280417795
 30
0.0
 10
910.6850928921319
 20
52.98176280417795
 30
0.0
 10
911.1715403746492
 20
51.60234657188392
 30
0.0
 10
911.1715403746492
 20
51.60234657188392
 30
0.0
 10
911.2900516593418
 20
51.25129134193761
 30
0.0
 10
911.3872033520259
 20
50.93813216232839
 30
0.0
 10
911.4592058476674
 20
50.64185395059691
 30
0.0
 10
911.4592058476674
 20
50.64185395059691
 30
0.0
 10
911.4719527009629
 20
50.64185395059627
 30
0.0
 10
911.4719527009629
 20
50.64185395059627
 30
0.0
 10
911.5439551966046
 20
50.92951942361462
 30
0.0
 10
911.6455855134194
 20
51.24267860322448
 30
0.0
 10
911.7723650272766
 20
51.60234657188392
 30
0.0
 10
911.7723650272766
 20
51.60234657188392
 30
0.0
 10
912.2801721018026
 20
52.98176280417795
 30
0.0
 10
912.2801721018026
 20
52.98176280417795
 30
0.0
 10
912.2801721018026
 20
52.98176280417795
 30
0.0
 10
912.7497386164421
 20
52.98176280417795
 30
0.0
 10
912.7497386164421
 20
52.98176280417795
 30
0.0
 10
912.7497386164421
 20
52.98176280417795
 30
0.0
 10
912.927505543481
 20
50.12991276148814
 30
0.0
 10
912.927505543481
 20
50.12991276148814
 30
0.0
 10
912.927505543481
 20
50.12991276148814
 30
0.0
 10
912.567837574821
 20
50.12991276148814
 30
0.0
 10
912.567837574821
 20
50.12991276148814
 30
0.0
 10
912.567837574821
 20
50.12991276148814
 30
0.0
 10
912.4958350791791
 20
51.38220497037646
 30
0.0
 10
912.4958350791791
 20
51.38220497037646
 30
0.0
  0
SPLINE
  5
F5
330
F0
100
AcDbEntity
  8
0
 62
     5
420
      255
370
     0
100
AcDbSpline
210
0.0
220
0.0
230
1.0
 70
    11
 71
     3
 72
    17
 73
    13
 74
     0
 42
0.0000000001
 43
0.0000000001
 40
0.0
 40
0.0
 40
0.0
 40
0.0
 40
1.0
 40
1.0
 40
1.0
 40
2.0
 40
2.0
 40
2.0
 40
3.0
 40
3.0
 40
3.0
 40
4.0
 40
4.0
 40
4.0
 40
4.0
 10
913.534531367982
 20
50.12991276148878
 30
0.0
 10
913.534531367982
 20
50.12991276148878
 30
0.0
 10
913.534531367982
 20
52.17767751792129
 30
0.0
 10
913.534531367982
 20
52.17767751792129
 30
0.0
 10
913.534531367982
 20
52.17767751792129
 30
0.0
 10
913.9066016803891
 20
52.17767751792129
 30
0.0
 10
913.9066016803891
 20
52.17767751792129
 30
0.0
 10
913.9066016803891
 20
52.17767751792129
 30
0.0
 10
913.9066016803891
 20
50.12991276148878
 30
0.0
 10
913.9066016803891
 20
50.12991276148878
 30
0.0
 10
913.9066016803891
 20
50.12991276148878
 30
0.0
 10
913.534531367982
 20
50.12991276148878
 30
0.0
 10
913.534531367982
 20
50.12991276148878
 30
0.0
  0
SPLINE
  5
F6
330
F0
100
AcDbEntity
  8
0
 62
     5
420
      255
370
     0
100
AcDbSpline
210
0.0
220
0.0
230
1.0
 70
     9
 71
     3
 72
    17
 73
    13
 74
     0
 42
0.0000000001
 43
0.0000000001
 40
0.0
 40
0.0
 40
0.0
 40
0.0
 40
1.0
 40
1.0
 40
1.0
 40
2.0
 40
2.0
 40
2.0
 40
3.0
 40
3.0
 40
3.0
 40
4.0
 40
4.0
 40
4.0
 40
4.0
 10
913.9489763548576
 20
52.75300846395801
 30
0.0
 10
913.9531104694398
 20
52.62622895010018
 30
0.0
 10
913.8600928913382
 20
52.52459863328595
 30
0.0
 10
913.7119537854724
 20
52.5245986332853
 30
0.0
 10
913.581040157033
 20
52.5245986332853
 30
0.0
 10
913.4876780693826
 20
52.62622895010018
 30
0.0
 10
913.4876780693826
 20
52.75300846395737
 30
0.0
 10
913.4876780693826
 20
52.88426660194538
 30
0.0
 10
913.5851742716152
 20
52.98589691876025
 30
0.0
 10
913.7205665241856
 20
52.9858969187609
 30
0.0
 10
913.8600928913382
 20
52.9858969187609
 30
0.0
 10
913.9489763548576
 20
52.88426660194603
 30
0.0
 10
913.9489763548576
 20
52.75300846395801
 30
0.0
  0
SPLINE
  5
F7
330
F0
100
AcDbEntity
  8
0
 62
     5
420
      255
370
     0
100
AcDbSpline
210
0.0
220
0.0
230
1.0
 70
     9
 71
     3
 72
    26
 73
    22
 74
     0
 42
0.0000000001
 43
0.0000000001
 40
0.0
 40
0.0
 40
0.0
 40
0.0
 40
1.0
 40
1.0
 40
1.0
 40
2.0
 40
2.0
 40
2.0
 40
3.0
 40
3.0
 40
3.0
 40
4.0
 40
4.0
 40
4.0
 40
5.0
 40
5.0
 40
5.0
 40
6.0
 40
6.0
 40
6.0
 40
7.0
 40
7.0
 40
7.0
 40
7.0
 10
915.9209490106146
 20
51.34430892003935
 30
0.0
 10
915.9209490106146
 20
51.39081770909022
 30
0.0
 10
915.9168148960322
 20
51.45420746601818
 30
0.0
 10
915.9040680427368
 20
51.5007162550697
 30
0.0
 10
915.8492910245215
 20
51.73773882445487
 30
0.0
 10
915.6460303908916
 20
51.93238671937085
 30
0.0
 10
915.3669776565864
 20
51.93238671937085
 30
0.0
 10
914.9818159813355
 20
51.93238671937085
 30
0.0
 10
914.7534061506634
 20
51.59373383317079
 30
0.0
 10
914.7534061506634
 20
51.14104828640897
 30
0.0
 10
914.7534061506634
 20
50.72660329953341
 30
0.0
 10
914.9563222747445
 20
50.38381629875106
 30
0.0
 10
915.3583649178733
 20
50.38381629875106
 30
0.0
 10
915.6081343405539
 20
50.38381629875106
 30
0.0
 10
915.8365441712261
 20
50.54883637249452
 30
0.0
 10
915.9040680427368
 20
50.8278891068004
 30
0.0
 10
915.9168148960322
 20
50.87887651998145
 30
0.0
 10
915.9209490106146
 20
50.92951942361526
 30
0.0
 10
915.9209490106146
 20
50.98877506596156
 30
0.0
 10
915.9209490106146
 20
50.98877506596156
 30
0.0
 10
915.9209490106146
 20
51.34430892003935
 30
0.0
 10
915.9209490106146
 20
51.34430892003935
 30
0.0
  0
SPLINE
  5
F8
330
F0
100
AcDbEntity
  8
0
 62
     5
420
      255
370
     0
100
AcDbSpline
210
0.0
220
0.0
230
1.0
 70
    11
 71
     3
 72
    41
 73
    37
 74
     0
 42
0.0000000001
 43
0.0000000001
 40
0.0
 40
0.0
 40
0.0
 40
0.0
 40
1.0
 40
1.0
 40
1.0
 40
2.0
 40
2.0
 40
2.0
 40
3.0
 40
3.0
 40
3.0
 40
4.0
 40
4.0
 40
4.0
 40
5.0
 40
5.0
 40
5.0
 40
6.0
 40
6.0
 40
6.0
 40
7.0
 40
7.0
 40
7.0
 40
8.0
 40
8.0
 40
8.0
 40
9.0
 40
9.0
 40
9.0
 40
10.0
 40
10.0
 40
10.0
 40
11.0
 40
11.0
 40
11.0
 40
12.0
 40
12.0
 40
12.0
 40
12.0
 10
916.29336383257
 20
53.13403602462664
 30
0.0
 10
916.29336383257
 20
53.13403602462664
 30
0.0
 10
916.29336383257
 20
50.65873491847463
 30
0.0
 10
916.29336383257
 20
50.65873491847463
 30
0.0
 10
916.29336383257
 20
50.47683387685344
 30
0.0
 10
916.2974979471524
 20
50.26943912864076
 30
0.0
 10
916.3102448004478
 20
50.12991276148814
 30
0.0
 10
916.3102448004478
 20
50.12991276148814
 30
0.0
 10
915.9760705383787
 20
50.12991276148878
 30
0.0
 10
915.9760705383787
 20
50.12991276148878
 30
0.0
 10
915.9760705383787
 20
50.12991276148878
 30
0.0
 10
915.9591895705007
 20
50.48544661556593
 30
0.0
 10
915.9591895705007
 20
50.48544661556593
 30
0.0
 10
915.9591895705007
 20
50.48544661556593
 30
0.0
 10
915.9505768317877
 20
50.48544661556657
 30
0.0
 10
915.9505768317877
 20
50.48544661556657
 30
0.0
 10
915.8365441712261
 20
50.25669227534534
 30
0.0
 10
915.5867747485453
 20
50.08340397243727
 30
0.0
 10
915.252600486476
 20
50.08340397243727
 30
0.0
 10
914.7575402652458
 20
50.08340397243727
 30
0.0
 10
914.3768572141256
 20
50.50232758344429
 30
0.0
 10
914.3768572141256
 20
51.12416731853189
 30
0.0
 10
914.3723785899949
 20
51.80526269596514
 30
0.0
 10
914.7957808251319
 20
52.22418630697152
 30
0.0
 10
915.2949751609446
 20
52.22418630697152
 30
0.0
 10
915.6081343405539
 20
52.22418630697152
 30
0.0
 10
915.8196632033481
 20
52.07604720110642
 30
0.0
 10
915.91268078145
 20
51.91102712736231
 30
0.0
 10
915.91268078145
 20
51.91102712736231
 30
0.0
 10
915.9209490106146
 20
51.91102712736295
 30
0.0
 10
915.9209490106146
 20
51.91102712736295
 30
0.0
 10
915.9209490106146
 20
51.91102712736295
 30
0.0
 10
915.9209490106146
 20
53.13403602462664
 30
0.0
 10
915.9209490106146
 20
53.13403602462664
 30
0.0
 10
915.9209490106146
 20
53.13403602462664
 30
0.0
 10
916.29336383257
 20
53.13403602462664
 30
0.0
 10
916.29336383257
 20
53.13403602462664
 30
0.0
  0
SPLINE
  5
F9
330
F0
100
AcDbEntity
  8
0
 62
     5
420
      255
370
     0
100
AcDbSpline
210
0.0
220
0.0
230
1.0
 70
     9
 71
     3
 72
    26
 73
    22
 74
     0
 42
0.0000000001
 43
0.0000000001
 40
0.0
 40
0.0
 40
0.0
 40
0.0
 40
1.0
 40
1.0
 40
1.0
 40
2.0
 40
2.0
 40
2.0
 40
3.0
 40
3.0
 40
3.0
 40
4.0
 40
4.0
 40
4.0
 40
5.0
 40
5.0
 40
5.0
 40
6.0
 40
6.0
 40
6.0
 40
7.0
 40
7.0
 40
7.0
 40
7.0
 10
918.3084001818926
 20
51.34430892003935
 30
0.0
 10
918.3084001818926
 20
51.39081770909022
 30
0.0
 10
918.3042660673104
 20
51.45420746601818
 30
0.0
 10
918.291519214015
 20
51.5007162550697
 30
0.0
 10
918.2367421957996
 20
51.73773882445487
 30
0.0
 10
918.0334815621698
 20
51.9323867193715
 30
0.0
 10
917.7544288278646
 20
51.93238671937085
 30
0.0
 10
917.3692671526136
 20
51.93238671937085
 30
0.0
 10
917.1408573219416
 20
51.59373383317079
 30
0.0
 10
917.1408573219416
 20
51.14104828640897
 30
0.0
 10
917.1408573219416
 20
50.72660329953341
 30
0.0
 10
917.3437734460227
 20
50.38381629875106
 30
0.0
 10
917.7458160891514
 20
50.38381629875106
 30
0.0
 10
917.995585511832
 20
50.38381629875106
 30
0.0
 10
918.2239953425041
 20
50.54883637249452
 30
0.0
 10
918.291519214015
 20
50.8278891068004
 30
0.0
 10
918.3042660673104
 20
50.87887651998145
 30
0.0
 10
918.3084001818926
 20
50.92951942361526
 30
0.0
 10
918.3084001818926
 20
50.98877506596156
 30
0.0
 10
918.3084001818926
 20
50.98877506596156
 30
0.0
 10
918.3084001818926
 20
51.34430892003935
 30
0.0
 10
918.3084001818926
 20
51.34430892003935
 30
0.0
  0
SPLINE
  5
FA
330
F0
100
AcDbEntity
  8
0
 62
     5
420
      255
370
     0
100
AcDbSpline
210
0.0
220
0.0
230
1.0
 70
    11
 71
     3
 72
    41
 73
    37
 74
     0
 42
0.0000000001
 43
0.0000000001
 40
0.0
 40
0.0
 40
0.0
 40
0.0
 40
1.0
 40
1.0
 40
1.0
 40
2.0
 40
2.0
 40
2.0
 40
3.0
 40
3.0
 40
3.0
 40
4.0
 40
4.0
 40
4.0
 40
5.0
 40
5.0
 40
5.0
 40
6.0
 40
6.0
 40
6.0
 40
7.0
 40
7.0
 40
7.0
 40
8.0
 40
8.0
 40
8.0
 40
9.0
 40
9.0
 40
9.0
 40
10.0
 40
10.0
 40
10.0
 40
11.0
 40
11.0
 40
11.0
 40
12.0
 40
12.0
 40
12.0
 40
12.0
 10
918.6808150038482
 20
53.13403602462599
 30
0.0
 10
918.6808150038482
 20
53.13403602462599
 30
0.0
 10
918.6808150038482
 20
50.65873491847399
 30
0.0
 10
918.6808150038482
 20
50.65873491847399
 30
0.0
 10
918.6808150038482
 20
50.4768338768528
 30
0.0
 10
918.6849491184304
 20
50.26943912864076
 30
0.0
 10
918.6976959717259
 20
50.12991276148814
 30
0.0
 10
918.6976959717259
 20
50.12991276148814
 30
0.0
 10
918.3635217096567
 20
50.12991276148878
 30
0.0
 10
918.3635217096567
 20
50.12991276148878
 30
0.0
 10
918.3635217096567
 20
50.12991276148878
 30
0.0
 10
918.3466407417789
 20
50.48544661556593
 30
0.0
 10
918.3466407417789
 20
50.48544661556593
 30
0.0
 10
918.3466407417789
 20
50.48544661556593
 30
0.0
 10
918.3380280030659
 20
50.48544661556593
 30
0.0
 10
918.3380280030659
 20
50.48544661556593
 30
0.0
 10
918.2239953425041
 20
50.25669227534534
 30
0.0
 10
917.9742259198235
 20
50.08340397243727
 30
0.0
 10
917.6400516577542
 20
50.08340397243727
 30
0.0
 10
917.1449914365238
 20
50.08340397243727
 30
0.0
 10
916.7643083854038
 20
50.50232758344429
 30
0.0
 10
916.7643083854038
 20
51.12416731853189
 30
0.0
 10
916.7598297612729
 20
51.80526269596514
 30
0.0
 10
917.1832319964101
 20
52.22418630697152
 30
0.0
 10
917.6824263322227
 20
52.22418630697152
 30
0.0
 10
917.995585511832
 20
52.22418630697152
 30
0.0
 10
918.2071143746263
 20
52.07604720110642
 30
0.0
 10
918.3001319527281
 20
51.91102712736231
 30
0.0
 10
918.3001319527281
 20
51.91102712736231
 30
0.0
 10
918.3084001818926
 20
51.91102712736295
 30
0.0
 10
918.3084001818926
 20
51.91102712736295
 30
0.0
 10
918.3084001818926
 20
51.91102712736295
 30
0.0
 10
918.3084001818926
 20
53.13403602462664
 30
0.0
 10
918.3084001818926
 20
53.13403602462664
 30
0.0
 10
918.3084001818926
 20
53.13403602462664
 30
0.0
 10
918.6808150038482
 20
53.13403602462599
 30
0.0
 10
918.6808150038482
 20
53.13403602462599
 30
0.0
  0
SPLINE
  5
FB
330
F0
100
AcDbEntity
  8
0
 62
     5
420
      255
370
     0
100
AcDbSpline
210
0.0
220
0.0
230
1.0
 70
     9
 71
     3
 72
    14
 73
    10
 74
     0
 42
0.0000000001
 43
0.0000000001
 40
0.0
 40
0.0
 40
0.0
 40
0.0
 40
1.0
 40
1.0
 40
1.0
 40
2.0
 40
2.0
 40
2.0
 40
3.0
 40
3.0
 40
3.0
 40
3.0
 10
920.5990441700352
 20
51.35257714920332
 30
0.0
 10
920.6031782846176
 20
51.58959971858849
 30
0.0
 10
920.5015479678028
 20
51.9578804259617
 30
0.0
 10
920.0829688663448
 20
51.9578804259617
 30
0.0
 10
919.706419929807
 20
51.95788042596235
 30
0.0
 10
919.5413998560637
 20
51.61061480104851
 30
0.0
 10
919.5117720348905
 20
51.35257714920332
 30
0.0
 10
919.5117720348905
 20
51.35257714920332
 30
0.0
 10
920.5990441700352
 20
51.35257714920332
 30
0.0
 10
920.5990441700352
 20
51.35257714920332
 30
0.0
  0
SPLINE
  5
FC
330
F0
100
AcDbEntity
  8
0
 62
     5
420
      255
370
     0
100
AcDbSpline
210
0.0
220
0.0
230
1.0
 70
     9
 71
     3
 72
    32
 73
    28
 74
     0
 42
0.0000000001
 43
0.0000000001
 40
0.0
 40
0.0
 40
0.0
 40
0.0
 40
1.0
 40
1.0
 40
1.0
 40
2.0
 40
2.0
 40
2.0
 40
3.0
 40
3.0
 40
3.0
 40
4.0
 40
4.0
 40
4.0
 40
5.0
 40
5.0
 40
5.0
 40
6.0
 40
6.0
 40
6.0
 40
7.0
 40
7.0
 40
7.0
 40
8.0
 40
8.0
 40
8.0
 40
9.0
 40
9.0
 40
9.0
 40
9.0
 10
919.5072934107596
 20
51.08627126819413
 30
0.0
 10
919.5159061494727
 20
50.58259830824997
 30
0.0
 10
919.8373335582466
 20
50.37520356003857
 30
0.0
 10
920.209748380202
 20
50.37520356003857
 30
0.0
 10
920.4763987707606
 20
50.37520356003793
 30
0.0
 10
920.636940220373
 20
50.42171234908945
 30
0.0
 10
920.7768110970741
 20
50.4809679914351
 30
0.0
 10
920.7768110970741
 20
50.4809679914351
 30
0.0
 10
920.8402008540028
 20
50.21466211042529
 30
0.0
 10
920.8402008540028
 20
50.21466211042529
 30
0.0
 10
920.7089427160148
 20
50.15540646807963
 30
0.0
 10
920.484666999925
 20
50.08753808701957
 30
0.0
 10
920.1591054765689
 20
50.08753808701957
 30
0.0
 10
919.5286530027683
 20
50.08753808701957
 30
0.0
 10
919.1521040662305
 20
50.50232758344429
 30
0.0
 10
919.1521040662305
 20
51.12003320394959
 30
0.0
 10
919.1521040662305
 20
51.73773882445487
 30
0.0
 10
919.5159061494727
 20
52.22418630697152
 30
0.0
 10
920.112596687518
 20
52.22418630697152
 30
0.0
 10
920.7809452116565
 20
52.22418630697216
 30
0.0
 10
920.9587121386954
 20
51.63610850763937
 30
0.0
 10
920.9587121386954
 20
51.25955957110156
 30
0.0
 10
920.9587121386954
 20
51.18342296087754
 30
0.0
 10
920.9500993999823
 20
51.12416731853189
 30
0.0
 10
920.9459652854
 20
51.08627126819349
 30
0.0
 10
920.9459652854
 20
51.08627126819349
 30
0.0
 10
919.5072934107596
 20
51.08627126819413
 30
0.0
 10
919.5072934107596
 20
51.08627126819413
 30
0.0
  0
SPLINE
  5
FD
330
F0
100
AcDbEntity
  8
0
 62
     5
420
      255
370
     0
100
AcDbSpline
210
0.0
220
0.0
230
1.0
 70
     9
 71
     3
 72
    50
 73
    46
 74
     0
 42
0.0000000001
 43
0.0000000001
 40
0.0
 40
0.0
 40
0.0
 40
0.0
 40
1.0
 40
1.0
 40
1.0
 40
2.0
 40
2.0
 40
2.0
 40
3.0
 40
3.0
 40
3.0
 40
4.0
 40
4.0
 40
4.0
 40
5.0
 40
5.0
 40
5.0
 40
6.0
 40
6.0
 40
6.0
 40
7.0
 40
7.0
 40
7.0
 40
8.0
 40
8.0
 40
8.0
 40
9.0
 40
9.0
 40
9.0
 40
10.0
 40
10.0
 40
10.0
 40
11.0
 40
11.0
 40
11.0
 40
12.0
 40
12.0
 40
12.0
 40
13.0
 40
13.0
 40
13.0
 40
14.0
 40
14.0
 40
14.0
 40
15.0
 40
15.0
 40
15.0
 40
15.0
 10
921.4210439528159
 20
51.62336165434459
 30
0.0
 10
921.4210439528159
 20
51.83489051713893
 30
0.0
 10
921.4165653286851
 20
52.00852332959488
 30
0.0
 10
921.4038184753897
 20
52.17767751792064
 30
0.0
 10
921.4038184753897
 20
52.17767751792064
 30
0.0
 10
921.7338586228766
 20
52.17767751792064
 30
0.0
 10
921.7338586228766
 20
52.17767751792064
 30
0.0
 10
921.7338586228766
 20
52.17767751792064
 30
0.0
 10
921.7552182148851
 20
51.83936914126911
 30
0.0
 10
921.7552182148851
 20
51.83936914126911
 30
0.0
 10
921.7552182148851
 20
51.83936914126911
 30
0.0
 10
921.7634864440498
 20
51.83936914126975
 30
0.0
 10
921.7634864440498
 20
51.83936914126975
 30
0.0
 10
921.8651167608646
 20
52.03401703618637
 30
0.0
 10
922.1021393302498
 20
52.22418630697152
 30
0.0
 10
922.4404477069013
 20
52.22418630697152
 30
0.0
 10
922.7239790653374
 20
52.22418630697216
 30
0.0
 10
923.1639177588039
 20
52.05503211864574
 30
0.0
 10
923.1639177588039
 20
51.35257714920332
 30
0.0
 10
923.1639177588039
 20
51.35257714920332
 30
0.0
 10
923.1639177588039
 20
50.12991276148814
 30
0.0
 10
923.1639177588039
 20
50.12991276148814
 30
0.0
 10
923.1639177588039
 20
50.12991276148814
 30
0.0
 10
922.7918474463969
 20
50.12991276148814
 30
0.0
 10
922.7918474463969
 20
50.12991276148814
 30
0.0
 10
922.7918474463969
 20
50.12991276148814
 30
0.0
 10
922.7918474463969
 20
51.31020247473474
 30
0.0
 10
922.7918474463969
 20
51.31020247473474
 30
0.0
 10
922.7918474463969
 20
51.64024262222167
 30
0.0
 10
922.6692020471219
 20
51.91550575149314
 30
0.0
 10
922.3178023076265
 20
51.91550575149314
 30
0.0
 10
922.0725115090766
 20
51.91550575149314
 30
0.0
 10
921.8819977287424
 20
51.74187293903718
 30
0.0
 10
921.8186079718137
 20
51.5344781908245
 30
0.0
 10
921.8017270039361
 20
51.48796940177362
 30
0.0
 10
921.7931142652229
 20
51.42457964484567
 30
0.0
 10
921.7931142652229
 20
51.36118988791707
 30
0.0
 10
921.7931142652229
 20
51.36118988791707
 30
0.0
 10
921.7931142652229
 20
50.12991276148878
 30
0.0
 10
921.7931142652229
 20
50.12991276148878
 30
0.0
 10
921.7931142652229
 20
50.12991276148878
 30
0.0
 10
921.4210439528159
 20
50.12991276148878
 30
0.0
 10
921.4210439528159
 20
50.12991276148878
 30
0.0
 10
921.4210439528159
 20
50.12991276148878
 30
0.0
 10
921.4210439528159
 20
51.62336165434459
 30
0.0
 10
921.4210439528159
 20
51.62336165434459
 30
0.0
  0
SPLINE
  5
FE
330
F0
100
AcDbEntity
  8
0
 62
     5
420
      255
370
     0
100
AcDbSpline
210
0.0
220
0.0
230
1.0
 70
     9
 71
     3
 72
    26
 73
    22
 74
     0
 42
0.0000000001
 43
0.0000000001
 40
0.0
 40
0.0
 40
0.0
 40
0.0
 40
1.0
 40
1.0
 40
1.0
 40
2.0
 40
2.0
 40
2.0
 40
3.0
 40
3.0
 40
3.0
 40
4.0
 40
4.0
 40
4.0
 40
5.0
 40
5.0
 40
5.0
 40
6.0
 40
6.0
 40
6.0
 40
7.0
 40
7.0
 40
7.0
 40
7.0
 10
926.0471181704094
 20
51.36945811708103
 30
0.0
 10
926.0471181704094
 20
51.43319238355815
 30
0.0
 10
926.0429840558272
 20
51.48796940177362
 30
0.0
 10
926.0261030879494
 20
51.53895681495597
 30
0.0
 10
925.9582347068899
 20
51.75461979233197
 30
0.0
 10
925.7763336652688
 20
51.93238671937085
 30
0.0
 10
925.5055491601282
 20
51.93238671937085
 30
0.0
 10
925.150359815599
 20
51.93238671937085
 30
0.0
 10
924.896456278336
 20
51.63197439305771
 30
0.0
 10
924.896456278336
 20
51.15792925428734
 30
0.0
 10
924.896456278336
 20
50.7562311207072
 30
0.0
 10
925.0993724024171
 20
50.42171234908881
 30
0.0
 10
925.5014150455458
 20
50.42171234908881
 30
0.0
 10
925.7298248762179
 20
50.42171234908881
 30
0.0
 10
925.9372196244299
 20
50.56571734037289
 30
0.0
 10
926.0174903492362
 20
50.80273990975744
 30
0.0
 10
926.0388499412448
 20
50.86612966668667
 30
0.0
 10
926.0471181704094
 20
50.93813216232775
 30
0.0
 10
926.0471181704094
 20
51.00152191925634
 30
0.0
 10
926.0471181704094
 20
51.00152191925634
 30
0.0
 10
926.0471181704094
 20
51.36945811708103
 30
0.0
 10
926.0471181704094
 20
51.36945811708103
 30
0.0
  0
SPLINE
  5
FF
330
F0
100
AcDbEntity
  8
0
 62
     5
420
      255
370
     0
100
AcDbSpline
210
0.0
220
0.0
230
1.0
 70
     9
 71
     3
 72
    56
 73
    52
 74
     0
 42
0.0000000001
 43
0.0000000001
 40
0.0
 40
0.0
 40
0.0
 40
0.0
 40
1.0
 40
1.0
 40
1.0
 40
2.0
 40
2.0
 40
2.0
 40
3.0
 40
3.0
 40
3.0
 40
4.0
 40
4.0
 40
4.0
 40
5.0
 40
5.0
 40
5.0
 40
6.0
 40
6.0
 40
6.0
 40
7.0
 40
7.0
 40
7.0
 40
8.0
 40
8.0
 40
8.0
 40
9.0
 40
9.0
 40
9.0
 40
10.0
 40
10.0
 40
10.0
 40
11.0
 40
11.0
 40
11.0
 40
12.0
 40
12.0
 40
12.0
 40
13.0
 40
13.0
 40
13.0
 40
14.0
 40
14.0
 40
14.0
 40
15.0
 40
15.0
 40
15.0
 40
16.0
 40
16.0
 40
16.0
 40
17.0
 40
17.0
 40
17.0
 40
17.0
 10
926.4322798456603
 20
52.17767751792064
 30
0.0
 10
926.4236671069472
 20
52.02953841205554
 30
0.0
 10
926.4153988777826
 20
51.86451833831143
 30
0.0
 10
926.4153988777826
 20
51.61509342517934
 30
0.0
 10
926.4153988777826
 20
51.61509342517934
 30
0.0
 10
926.4153988777826
 20
50.42619097321963
 30
0.0
 10
926.4153988777826
 20
50.42619097321963
 30
0.0
 10
926.4153988777826
 20
49.95627994903155
 30
0.0
 10
926.3223812996809
 20
49.66861447601319
 30
0.0
 10
926.1232547806335
 20
49.49119205852347
 30
0.0
 10
925.9244727711346
 20
49.30481239277145
 30
0.0
 10
925.6368072981162
 20
49.24555675042451
 30
0.0
 10
925.3787696462708
 20
49.24555675042451
 30
0.0
 10
925.1331343381727
 20
49.24555675042451
 30
0.0
 10
924.8623498330319
 20
49.30481239277081
 30
0.0
 10
924.6976742688371
 20
49.41471093875091
 30
0.0
 10
924.6976742688371
 20
49.41471093875091
 30
0.0
 10
924.7906918469388
 20
49.69824229718634
 30
0.0
 10
924.7906918469388
 20
49.69824229718634
 30
0.0
 10
924.9260840995091
 20
49.61383745779836
 30
0.0
 10
925.1376129623034
 20
49.53770084757433
 30
0.0
 10
925.3915164995664
 20
49.53770084757369
 30
0.0
 10
925.7721995506866
 20
49.53770084757369
 30
0.0
 10
926.0515967945403
 20
49.73648285707326
 30
0.0
 10
926.0515967945403
 20
50.25255816076367
 30
0.0
 10
926.0515967945403
 20
50.25255816076367
 30
0.0
 10
926.0515967945403
 20
50.48096799143574
 30
0.0
 10
926.0515967945403
 20
50.48096799143574
 30
0.0
 10
926.0515967945403
 20
50.48096799143574
 30
0.0
 10
926.0429840558272
 20
50.4809679914351
 30
0.0
 10
926.0429840558272
 20
50.4809679914351
 30
0.0
 10
925.9286068857168
 20
50.29079872064931
 30
0.0
 10
925.7088097937579
 20
50.13852550020191
 30
0.0
 10
925.3915164995664
 20
50.13852550020127
 30
0.0
 10
924.8837094250406
 20
50.13852550020127
 30
0.0
 10
924.5199073417982
 20
50.56985145495454
 30
0.0
 10
924.5199073417982
 20
51.13691417182667
 30
0.0
 10
924.5199073417982
 20
51.83075640255598
 30
0.0
 10
924.9725928885601
 20
52.22418630697152
 30
0.0
 10
925.4421594031995
 20
52.22418630697152
 30
0.0
 10
925.7976932572773
 20
52.22418630697216
 30
0.0
 10
925.9923411521938
 20
52.03815115076803
 30
0.0
 10
926.0808801061648
 20
51.8689969624429
 30
0.0
 10
926.0808801061648
 20
51.8689969624429
 30
0.0
 10
926.0894928448779
 20
51.86899696244226
 30
0.0
 10
926.0894928448779
 20
51.86899696244226
 30
0.0
 10
926.0894928448779
 20
51.86899696244226
 30
0.0
 10
926.1063738127557
 20
52.17767751792064
 30
0.0
 10
926.1063738127557
 20
52.17767751792064
 30
0.0
 10
926.1063738127557
 20
52.17767751792064
 30
0.0
 10
926.4322798456603
 20
52.17767751792064
 30
0.0
 10
926.4322798456603
 20
52.17767751792064
 30
0.0
  0
SPLINE
  5
100
330
F0
100
AcDbEntity
  8
0
 62
     5
420
      255
370
     0
100
AcDbSpline
210
0.0
220
0.0
230
1.0
 70
     9
 71
     3
 72
    20
 73
    16
 74
     0
 42
0.0000000001
 43
0.0000000001
 40
0.0
 40
0.0
 40
0.0
 40
0.0
 40
1.0
 40
1.0
 40
1.0
 40
2.0
 40
2.0
 40
2.0
 40
3.0
 40
3.0
 40
3.0
 40
4.0
 40
4.0
 40
4.0
 40
5.0
 40
5.0
 40
5.0
 40
5.0
 10
928.1131419329138
 20
51.17481022216505
 30
0.0
 10
927.7069651752029
 20
51.18342296087754
 30
0.0
 10
927.2460113992764
 20
51.11142046523582
 30
0.0
 10
927.2460113992764
 20
50.71385644623799
 30
0.0
 10
927.2460113992764
 20
50.4726997622705
 30
0.0
 10
927.406552848889
 20
50.35832259216021
 30
0.0
 10
927.5970666292234
 20
50.35832259216085
 30
0.0
 10
927.8637170197816
 20
50.35832259216021
 30
0.0
 10
928.0328712081074
 20
50.52747678048597
 30
0.0
 10
928.0921268504537
 20
50.70110959294257
 30
0.0
 10
928.1048737037492
 20
50.73900564328031
 30
0.0
 10
928.1131419329138
 20
50.78138031774953
 30
0.0
 10
928.1131419329138
 20
50.8196208776358
 30
0.0
 10
928.1131419329138
 20
50.8196208776358
 30
0.0
 10
928.1131419329138
 20
51.17481022216505
 30
0.0
 10
928.1131419329138
 20
51.17481022216505
 30
0.0
  0
SPLINE
  5
101
330
F0
100
AcDbEntity
  8
0
 62
     5
420
      255
370
     0
100
AcDbSpline
210
0.0
220
0.0
230
1.0
 70
    11
 71
     3
 72
    47
 73
    43
 74
     0
 42
0.0000000001
 43
0.0000000001
 40
0.0
 40
0.0
 40
0.0
 40
0.0
 40
1.0
 40
1.0
 40
1.0
 40
2.0
 40
2.0
 40
2.0
 40
3.0
 40
3.0
 40
3.0
 40
4.0
 40
4.0
 40
4.0
 40
5.0
 40
5.0
 40
5.0
 40
6.0
 40
6.0
 40
6.0
 40
7.0
 40
7.0
 40
7.0
 40
8.0
 40
8.0
 40
8.0
 40
9.0
 40
9.0
 40
9.0
 40
10.0
 40
10.0
 40
10.0
 40
11.0
 40
11.0
 40
11.0
 40
12.0
 40
12.0
 40
12.0
 40
13.0
 40
13.0
 40
13.0
 40
14.0
 40
14.0
 40
14.0
 40
14.0
 10
928.1682634606777
 20
50.12991276148878
 30
0.0
 10
928.1682634606777
 20
50.12991276148878
 30
0.0
 10
928.1386356395046
 20
50.387950413334
 30
0.0
 10
928.1386356395046
 20
50.387950413334
 30
0.0
 10
928.1386356395046
 20
50.387950413334
 30
0.0
 10
928.1258887862092
 20
50.387950413334
 30
0.0
 10
928.1258887862092
 20
50.387950413334
 30
0.0
 10
928.0118561256474
 20
50.22706445417282
 30
0.0
 10
927.7917145241399
 20
50.08340397243727
 30
0.0
 10
927.4995704269908
 20
50.08340397243727
 30
0.0
 10
927.0851254401152
 20
50.08340397243727
 30
0.0
 10
926.8735965773208
 20
50.37520356003793
 30
0.0
 10
926.8735965773208
 20
50.67148177176941
 30
0.0
 10
926.8735965773208
 20
51.16654199299982
 30
0.0
 10
927.3135352707873
 20
51.43732649814046
 30
0.0
 10
928.1048737037492
 20
51.43319238355815
 30
0.0
 10
928.1048737037492
 20
51.43319238355815
 30
0.0
 10
928.1048737037492
 20
51.47522254847821
 30
0.0
 10
928.1048737037492
 20
51.47522254847821
 30
0.0
 10
928.1048737037492
 20
51.64472124635249
 30
0.0
 10
928.0583649146983
 20
51.94926768724858
 30
0.0
 10
927.639441303692
 20
51.94926768724922
 30
0.0
 10
927.4489275233575
 20
51.94926768724858
 30
0.0
 10
927.2501455138586
 20
51.89001204490228
 30
0.0
 10
927.1061405225752
 20
51.79699446680054
 30
0.0
 10
927.1061405225752
 20
51.79699446680054
 30
0.0
 10
927.0217356831865
 20
52.04228526535032
 30
0.0
 10
927.0217356831865
 20
52.04228526535032
 30
0.0
 10
927.1908898715123
 20
52.1521838113298
 30
0.0
 10
927.4361806700621
 20
52.22418630697152
 30
0.0
 10
927.6942183219075
 20
52.22418630697152
 30
0.0
 10
928.3205366811257
 20
52.22418630697152
 30
0.0
 10
928.4728099015739
 20
51.79699446680054
 30
0.0
 10
928.4728099015739
 20
51.38668359450728
 30
0.0
 10
928.4728099015739
 20
51.38668359450728
 30
0.0
 10
928.4728099015739
 20
50.62083886813624
 30
0.0
 10
928.4728099015739
 20
50.62083886813624
 30
0.0
 10
928.4728099015739
 20
50.44307194109735
 30
0.0
 10
928.481422640287
 20
50.2694391286414
 30
0.0
 10
928.5065718373292
 20
50.12991276148814
 30
0.0
 10
928.5065718373292
 20
50.12991276148814
 30
0.0
 10
928.1682634606777
 20
50.12991276148878
 30
0.0
 10
928.1682634606777
 20
50.12991276148878
 30
0.0
  0
SPLINE
  5
102
330
F0
100
AcDbEntity
  8
0
 62
     5
420
      255
370
     0
100
AcDbSpline
210
0.0
220
0.0
230
1.0
 70
    11
 71
     3
 72
    56
 73
    52
 74
     0
 42
0.0000000001
 43
0.0000000001
 40
0.0
 40
0.0
 40
0.0
 40
0.0
 40
1.0
 40
1.0
 40
1.0
 40
2.0
 40
2.0
 40
2.0
 40
3.0
 40
3.0
 40
3.0
 40
4.0
 40
4.0
 40
4.0
 40
5.0
 40
5.0
 40
5.0
 40
6.0
 40
6.0
 40
6.0
 40
7.0
 40
7.0
 40
7.0
 40
8.0
 40
8.0
 40
8.0
 40
9.0
 40
9.0
 40
9.0
 40
10.0
 40
10.0
 40
10.0
 40
11.0
 40
11.0
 40
11.0
 40
12.0
 40
12.0
 40
12.0
 40
13.0
 40
13.0
 40
13.0
 40
14.0
 40
14.0
 40
14.0
 40
15.0
 40
15.0
 40
15.0
 40
16.0
 40
16.0
 40
16.0
 40
17.0
 40
17.0
 40
17.0
 40
17.0
 10
929.5059940376003
 20
52.76575531725279
 30
0.0
 10
929.5059940376003
 20
52.76575531725279
 30
0.0
 10
929.5059940376003
 20
52.17767751792064
 30
0.0
 10
929.5059940376003
 20
52.17767751792064
 30
0.0
 10
929.5059940376003
 20
52.17767751792064
 30
0.0
 10
930.039294818717
 20
52.17767751792129
 30
0.0
 10
930.039294818717
 20
52.17767751792129
 30
0.0
 10
930.039294818717
 20
52.17767751792129
 30
0.0
 10
930.039294818717
 20
51.89414615948522
 30
0.0
 10
930.039294818717
 20
51.89414615948522
 30
0.0
 10
930.039294818717
 20
51.89414615948522
 30
0.0
 10
929.5059940376003
 20
51.89414615948458
 30
0.0
 10
929.5059940376003
 20
51.89414615948458
 30
0.0
 10
929.5059940376003
 20
51.89414615948458
 30
0.0
 10
929.5059940376003
 20
50.78999305646201
 30
0.0
 10
929.5059940376003
 20
50.78999305646201
 30
0.0
 10
929.5059940376003
 20
50.53608951919909
 30
0.0
 10
929.5779965332419
 20
50.39208452791566
 30
0.0
 10
929.785391281454
 20
50.3920845279163
 30
0.0
 10
929.8825429741381
 20
50.3920845279163
 30
0.0
 10
929.9545454697797
 20
50.40483138121172
 30
0.0
 10
930.0010542588307
 20
50.4175782345065
 30
0.0
 10
930.0010542588307
 20
50.4175782345065
 30
0.0
 10
930.0179352267084
 20
50.13852550020127
 30
0.0
 10
930.0179352267084
 20
50.13852550020127
 30
0.0
 10
929.9462772406153
 20
50.10889767902812
 30
0.0
 10
929.8319000705049
 20
50.08753808701957
 30
0.0
 10
929.6878950792214
 20
50.08753808701957
 30
0.0
 10
929.5146067763134
 20
50.08753808701957
 30
0.0
 10
929.3750804091608
 20
50.14265961478357
 30
0.0
 10
929.2861969456414
 20
50.24428993159844
 30
0.0
 10
929.1804325142441
 20
50.35418847757791
 30
0.0
 10
929.1421919543578
 20
50.53608951919974
 30
0.0
 10
929.1421919543578
 20
50.77724620316723
 30
0.0
 10
929.1421919543578
 20
50.77724620316723
 30
0.0
 10
929.1421919543578
 20
51.89414615948522
 30
0.0
 10
929.1421919543578
 20
51.89414615948522
 30
0.0
 10
929.1421919543578
 20
51.89414615948522
 30
0.0
 10
928.8248986601663
 20
51.89414615948522
 30
0.0
 10
928.8248986601663
 20
51.89414615948522
 30
0.0
 10
928.8248986601663
 20
51.89414615948522
 30
0.0
 10
928.8248986601663
 20
52.17767751792129
 30
0.0
 10
928.8248986601663
 20
52.17767751792129
 30
0.0
 10
928.8248986601663
 20
52.17767751792129
 30
0.0
 10
929.1421919543578
 20
52.17767751792129
 30
0.0
 10
929.1421919543578
 20
52.17767751792129
 30
0.0
 10
929.1421919543578
 20
52.17767751792129
 30
0.0
 10
929.1421919543578
 20
52.66860362456939
 30
0.0
 10
929.1421919543578
 20
52.66860362456939
 30
0.0
 10
929.1421919543578
 20
52.66860362456939
 30
0.0
 10
929.5059940376003
 20
52.76575531725279
 30
0.0
 10
929.5059940376003
 20
52.76575531725279
 30
0.0
  0
SPLINE
  5
103
330
F0
100
AcDbEntity
  8
0
 62
     5
420
      255
370
     0
100
AcDbSpline
210
0.0
220
0.0
230
1.0
 70
     9
 71
     3
 72
    14
 73
    10
 74
     0
 42
0.0000000001
 43
0.0000000001
 40
0.0
 40
0.0
 40
0.0
 40
0.0
 40
1.0
 40
1.0
 40
1.0
 40
2.0
 40
2.0
 40
2.0
 40
3.0
 40
3.0
 40
3.0
 40
3.0
 10
931.7325592497173
 20
51.35257714920332
 30
0.0
 10
931.7366933642995
 20
51.58959971858849
 30
0.0
 10
931.6350630474847
 20
51.9578804259617
 30
0.0
 10
931.2164839460269
 20
51.9578804259617
 30
0.0
 10
930.8399350094891
 20
51.95788042596235
 30
0.0
 10
930.6749149357456
 20
51.61061480104851
 30
0.0
 10
930.6452871145724
 20
51.35257714920332
 30
0.0
 10
930.6452871145724
 20
51.35257714920332
 30
0.0
 10
931.7325592497173
 20
51.35257714920332
 30
0.0
 10
931.7325592497173
 20
51.35257714920332
 30
0.0
  0
SPLINE
  5
104
330
F0
100
AcDbEntity
  8
0
 62
     5
420
      255
370
     0
100
AcDbSpline
210
0.0
220
0.0
230
1.0
 70
     9
 71
     3
 72
    32
 73
    28
 74
     0
 42
0.0000000001
 43
0.0000000001
 40
0.0
 40
0.0
 40
0.0
 40
0.0
 40
1.0
 40
1.0
 40
1.0
 40
2.0
 40
2.0
 40
2.0
 40
3.0
 40
3.0
 40
3.0
 40
4.0
 40
4.0
 40
4.0
 40
5.0
 40
5.0
 40
5.0
 40
6.0
 40
6.0
 40
6.0
 40
7.0
 40
7.0
 40
7.0
 40
8.0
 40
8.0
 40
8.0
 40
9.0
 40
9.0
 40
9.0
 40
9.0
 10
930.6408084904417
 20
51.08627126819413
 30
0.0
 10
930.6494212291546
 20
50.58259830824997
 30
0.0
 10
930.9708486379285
 20
50.37520356003857
 30
0.0
 10
931.3432634598839
 20
50.37520356003857
 30
0.0
 10
931.6099138504423
 20
50.37520356003793
 30
0.0
 10
931.7704553000551
 20
50.42171234908945
 30
0.0
 10
931.9103261767562
 20
50.4809679914351
 30
0.0
 10
931.9103261767562
 20
50.4809679914351
 30
0.0
 10
931.9737159336847
 20
50.21466211042529
 30
0.0
 10
931.9737159336847
 20
50.21466211042529
 30
0.0
 10
931.8424577956967
 20
50.15540646807963
 30
0.0
 10
931.6181820796069
 20
50.08753808701957
 30
0.0
 10
931.2926205562508
 20
50.08753808701957
 30
0.0
 10
930.66216808245
 20
50.08753808701957
 30
0.0
 10
930.2856191459122
 20
50.50232758344429
 30
0.0
 10
930.2856191459122
 20
51.12003320394959
 30
0.0
 10
930.2856191459122
 20
51.73773882445487
 30
0.0
 10
930.6494212291546
 20
52.22418630697152
 30
0.0
 10
931.2461117671999
 20
52.22418630697152
 30
0.0
 10
931.9144602913384
 20
52.22418630697216
 30
0.0
 10
932.0922272183773
 20
51.63610850763937
 30
0.0
 10
932.0922272183773
 20
51.25955957110156
 30
0.0
 10
932.0922272183773
 20
51.18342296087754
 30
0.0
 10
932.0836144796642
 20
51.12416731853189
 30
0.0
 10
932.0794803650819
 20
51.08627126819349
 30
0.0
 10
932.0794803650819
 20
51.08627126819349
 30
0.0
 10
930.6408084904417
 20
51.08627126819413
 30
0.0
 10
930.6408084904417
 20
51.08627126819413
 30
0.0
  0
SPLINE
  5
105
330
F0
100
AcDbEntity
  8
0
 62
     5
420
      255
370
     0
100
AcDbSpline
210
0.0
220
0.0
230
1.0
 70
     9
 71
     3
 72
    50
 73
    46
 74
     0
 42
0.0000000001
 43
0.0000000001
 40
0.0
 40
0.0
 40
0.0
 40
0.0
 40
1.0
 40
1.0
 40
1.0
 40
2.0
 40
2.0
 40
2.0
 40
3.0
 40
3.0
 40
3.0
 40
4.0
 40
4.0
 40
4.0
 40
5.0
 40
5.0
 40
5.0
 40
6.0
 40
6.0
 40
6.0
 40
7.0
 40
7.0
 40
7.0
 40
8.0
 40
8.0
 40
8.0
 40
9.0
 40
9.0
 40
9.0
 40
10.0
 40
10.0
 40
10.0
 40
11.0
 40
11.0
 40
11.0
 40
12.0
 40
12.0
 40
12.0
 40
13.0
 40
13.0
 40
13.0
 40
14.0
 40
14.0
 40
14.0
 40
15.0
 40
15.0
 40
15.0
 40
15.0
 10
932.5545590324978
 20
51.62336165434394
 30
0.0
 10
932.5545590324978
 20
51.83489051713828
 30
0.0
 10
932.550080408367
 20
52.00852332959488
 30
0.0
 10
932.5373335550716
 20
52.17767751792064
 30
0.0
 10
932.5373335550716
 20
52.17767751792064
 30
0.0
 10
932.8673737025585
 20
52.17767751792064
 30
0.0
 10
932.8673737025585
 20
52.17767751792064
 30
0.0
 10
932.8673737025585
 20
52.17767751792064
 30
0.0
 10
932.888733294567
 20
51.83936914126911
 30
0.0
 10
932.888733294567
 20
51.83936914126911
 30
0.0
 10
932.888733294567
 20
51.83936914126911
 30
0.0
 10
932.8970015237317
 20
51.83936914126911
 30
0.0
 10
932.8970015237317
 20
51.83936914126911
 30
0.0
 10
932.9986318405465
 20
52.03401703618637
 30
0.0
 10
933.2356544099317
 20
52.22418630697152
 30
0.0
 10
933.5739627865832
 20
52.22418630697152
 30
0.0
 10
933.8574941450193
 20
52.22418630697216
 30
0.0
 10
934.2974328384856
 20
52.05503211864574
 30
0.0
 10
934.2974328384856
 20
51.35257714920332
 30
0.0
 10
934.2974328384856
 20
51.35257714920332
 30
0.0
 10
934.2974328384856
 20
50.12991276148814
 30
0.0
 10
934.2974328384856
 20
50.12991276148814
 30
0.0
 10
934.2974328384856
 20
50.12991276148814
 30
0.0
 10
933.9253625260788
 20
50.12991276148814
 30
0.0
 10
933.9253625260788
 20
50.12991276148814
 30
0.0
 10
933.9253625260788
 20
50.12991276148814
 30
0.0
 10
933.9253625260788
 20
51.31020247473474
 30
0.0
 10
933.9253625260788
 20
51.31020247473474
 30
0.0
 10
933.9253625260788
 20
51.64024262222167
 30
0.0
 10
933.8023726172554
 20
51.91550575149378
 30
0.0
 10
933.4513173873084
 20
51.91550575149314
 30
0.0
 10
933.2060265887585
 20
51.91550575149314
 30
0.0
 10
933.0155128084243
 20
51.74187293903718
 30
0.0
 10
932.9521230514957
 20
51.5344781908245
 30
0.0
 10
932.935242083618
 20
51.48796940177362
 30
0.0
 10
932.9266293449048
 20
51.42457964484567
 30
0.0
 10
932.9266293449048
 20
51.36118988791707
 30
0.0
 10
932.9266293449048
 20
51.36118988791707
 30
0.0
 10
932.9266293449048
 20
50.12991276148878
 30
0.0
 10
932.9266293449048
 20
50.12991276148878
 30
0.0
 10
932.9266293449048
 20
50.12991276148878
 30
0.0
 10
932.5545590324978
 20
50.12991276148814
 30
0.0
 10
932.5545590324978
 20
50.12991276148814
 30
0.0
 10
932.5545590324978
 20
50.12991276148814
 30
0.0
 10
932.5545590324978
 20
51.62336165434394
 30
0.0
 10
932.5545590324978
 20
51.62336165434394
 30
0.0
  0
ENDBLK
  5
F3
330
F0
100
AcDbEntity
  8
0
100
AcDbBlockEnd
  0
ENDSEC
  0
SECTION
  2
ENTITIES
  0
LWPOLYLINE
  5
78
330
70
100
AcDbEntity
  8
0
 62
     1
420
 16711680
370
     0
100
AcDbPolyline
 90
        4
 70
     1
 43
0.0
 10
36.22457413068936
 20
47.34305550788653
 10
314.2245741306892
 20
47.34305550788653
 10
314.2245741306892
 20
325.3430555078864
 10
36.22457413068936
 20
325.3430555078864
  0
LWPOLYLINE
  5
79
330
70
100
AcDbEntity
  8
0
 62
     1
420
 16711680
370
     0
100
AcDbPolyline
 90
        4
 70
     1
 43
0.0
 10
345.6460877728773
 20
325.3430555078864
 10
345.6460877728773
 20
47.34305550788653
 10
623.6460877728788
 20
47.34305550788653
 10
623.6460877728788
 20
325.3430555078864
  0
INSERT
  5
7B
330
70
100
AcDbEntity
  8
0
100
AcDbBlockReference
  2
Block_0
 10
0.0
 20
0.0
 30
0.0
  0
INSERT
  5
91
330
70
100
AcDbEntity
  8
0
100
AcDbBlockReference
  2
Block_1
 10
0.0
 20
0.0
 30
0.0
  0
CIRCLE
  5
A6
330
70
100
AcDbEntity
  8
0
 62
     1
420
 16711680
370
     0
100
AcDbCircle
 10
57.22457413068913
 20
293.6763888412197
 30
0.0
 40
0.9999999997500534
  0
CIRCLE
  5
A7
330
70
100
AcDbEntity
  8
0
 62
     1
420
 16711680
370
     0
100
AcDbCircle
 10
113.5403636043736
 20
293.6763888412197
 30
0.0
 40
0.9999999997501337
  0
CIRCLE
  5
A8
330
70
100
AcDbEntity
  8
0
 62
     1
420
 16711680
370
     0
100
AcDbCircle
 10
169.873543162572
 20
293.6469609769924
 30
0.0
 40
0.9999999997500935
  0
CIRCLE
  5
A9
330
70
100
AcDbEntity
  8
0
 62
     1
420
 16711680
370
     0
100
AcDbCircle
 10
226.1719425517422
 20
293.6763888412197
 30
0.0
 40
0.9999999997501337
  0
CIRCLE
  5
AA
330
70
100
AcDbEntity
  8
0
 62
     1
420
 16711680
370
     0
100
AcDbCircle
 10
282.4877320254265
 20
293.6763888412197
 30
0.0
 40
0.9999999997501337
  0
CIRCLE
  5
AB
330
70
100
AcDbEntity
  8
0
 62
     1
420
 16711680
370
     0
100
AcDbCircle
 10
57.22457413068913
 20
235.3430555078862
 30
0.0
 40
0.9999999997500534
  0
CIRCLE
  5
AC
330
70
100
AcDbEntity
  8
0
 62
     1
420
 16711680
370
     0
100
AcDbCircle
 10
113.5403636043736
 20
235.3577694399998
 30
0.0
 40
0.9999999997500935
  0
CIRCLE
  5
AD
330
70
100
AcDbEntity
  8
0
 62
     1
420
 16711680
370
     0
100
AcDbCircle
 10
169.873543162572
 20
235.3283415757724
 30
0.0
 40
0.9999999997501337
  0
CIRCLE
  5
AE
330
70
100
AcDbEntity
  8
0
 62
     1
420
 16711680
370
     0
100
AcDbCircle
 10
226.1719425517422
 20
235.3577694399998
 30
0.0
 40
0.9999999997500935
  0
CIRCLE
  5
AF
330
70
100
AcDbEntity
  8
0
 62
     1
420
 16711680
370
     0
100
AcDbCircle
 10
282.4877320254265
 20
235.3577694399998
 30
0.0
 40
0.9999999997500935
  0
CIRCLE
  5
B0
330
70
100
AcDbEntity
  8
0
 62
     1
420
 16711680
370
     0
100
AcDbCircle
 10
57.24196421520336
 20
177.0097221745523
 30
0.0
 40
0.9999999997501337
  0
CIRCLE
  5
B1
330
70
100
AcDbEntity
  8
0
 62
     1
420
 16711680
370
     0
100
AcDbCircle
 10
113.5577536888877
 20
177.0097221745523
 30
0.0
 40
0.9999999997501737
  0
CIRCLE
  5
B2
330
70
100
AcDbEntity
  8
0
 62
     1
420
 16711680
370
     0
100
AcDbCircle
 10
169.890933247086
 20
176.9802943103252
 30
0.0
 40
0.9999999997501737
  0
CIRCLE
  5
B3
330
70
100
AcDbEntity
  8
0
 62
     1
420
 16711680
370
     0
100
AcDbCircle
 10
226.1893326362564
 20
177.0097221745523
 30
0.0
 40
0.9999999997501737
  0
CIRCLE
  5
B4
330
70
100
AcDbEntity
  8
0
 62
     1
420
 16711680
370
     0
100
AcDbCircle
 10
282.5051221099407
 20
177.0097221745523
 30
0.0
 40
0.9999999997500534
  0
CIRCLE
  5
B5
330
70
100
AcDbEntity
  8
0
 62
     1
420
 16711680
370
     0
100
AcDbCircle
 10
57.22457413068913
 20
118.6911027733325
 30
0.0
 40
0.9999999997500133
  0
CIRCLE
  5
B6
330
70
100
AcDbEntity
  8
0
 62
     1
420
 16711680
370
     0
100
AcDbCircle
 10
113.5403636043736
 20
118.6763888412196
 30
0.0
 40
0.9999999997500935
  0
CIRCLE
  5
B7
330
70
100
AcDbEntity
  8
0
 62
     1
420
 16711680
370
     0
100
AcDbCircle
 10
169.8561530780579
 20
118.6763888412198
 30
0.0
 40
0.9999999997500133
  0
CIRCLE
  5
B8
330
70
100
AcDbEntity
  8
0
 62
     1
420
 16711680
370
     0
100
AcDbCircle
 10
226.1893326362564
 20
118.6911027733325
 30
0.0
 40
0.9999999997500935
  0
CIRCLE
  5
B9
330
70
100
AcDbEntity
  8
0
 62
     1
420
 16711680
370
     0
100
AcDbCircle
 10
282.5051221099407
 20
118.6911027733325
 30
0.0
 40
0.9999999997499731
  0
CIRCLE
  5
BA
330
70
100
AcDbEntity
  8
0
 62
     1
420
 16711680
370
     0
100
AcDbCircle
 10
57.22457413068913
 20
60.34305550788619
 30
0.0
 40
0.9999999997500133
  0
CIRCLE
  5
BB
330
70
100
AcDbEntity
  8
0
 62
     1
420
 16711680
370
     0
100
AcDbCircle
 10
113.5664487311449
 20
60.33569854182978
 30
0.0
 40
0.9999999997499731
  0
CIRCLE
  5
BC
330
70
100
AcDbEntity
  8
0
 62
     1
420
 16711680
370
     0
100
AcDbCircle
 10
169.882238204829
 20
60.33569854182993
 30
0.0
 40
0.9999999997499731
  0
CIRCLE
  5
BD
330
70
100
AcDbEntity
  8
0
 62
     1
420
 16711680
370
     0
100
AcDbCircle
 10
226.2154177630277
 20
60.35041247394262
 30
0.0
 40
0.9999999997501737
  0
CIRCLE
  5
BE
330
70
100
AcDbEntity
  8
0
 62
     1
420
 16711680
370
     0
100
AcDbCircle
 10
282.5312072367118
 20
60.35041247394262
 30
0.0
 40
0.9999999997500935
  0
CIRCLE
  5
BF
330
70
100
AcDbEntity
  8
0
 62
     1
420
 16711680
370
     0
100
AcDbCircle
 10
370.2032975356563
 20
293.6506394600203
 30
0.0
 40
0.9999999997497727
  0
CIRCLE
  5
C0
330
70
100
AcDbEntity
  8
0
 62
     1
420
 16711680
370
     0
100
AcDbCircle
 10
426.5190870093404
 20
293.6506394600203
 30
0.0
 40
0.999999999749933
  0
CIRCLE
  5
C1
330
70
100
AcDbEntity
  8
0
 62
     1
420
 16711680
370
     0
100
AcDbCircle
 10
482.8522665675389
 20
293.6212115957931
 30
0.0
 40
0.9999999997498127
  0
CIRCLE
  5
C2
330
70
100
AcDbEntity
  8
0
 62
     1
420
 16711680
370
     0
100
AcDbCircle
 10
539.1506659567085
 20
293.6506394600203
 30
0.0
 40
0.9999999997500133
  0
CIRCLE
  5
C3
330
70
100
AcDbEntity
  8
0
 62
     1
420
 16711680
370
     0
100
AcDbCircle
 10
595.4664554303923
 20
293.6506394600203
 30
0.0
 40
0.9999999997497727
  0
CIRCLE
  5
C4
330
70
100
AcDbEntity
  8
0
 62
     1
420
 16711680
370
     0
100
AcDbCircle
 10
370.2032975356563
 20
235.317306126687
 30
0.0
 40
0.9999999997498928
  0
CIRCLE
  5
C5
330
70
100
AcDbEntity
  8
0
 62
     1
420
 16711680
370
     0
100
AcDbCircle
 10
426.5190870093404
 20
235.3320200588002
 30
0.0
 40
0.9999999997496924
  0
CIRCLE
  5
C6
330
70
100
AcDbEntity
  8
0
 62
     1
420
 16711680
370
     0
100
AcDbCircle
 10
482.8522665675389
 20
235.302592194573
 30
0.0
 40
0.9999999997500534
  0
CIRCLE
  5
C7
330
70
100
AcDbEntity
  8
0
 62
     1
420
 16711680
370
     0
100
AcDbCircle
 10
539.1506659567085
 20
235.3320200588002
 30
0.0
 40
0.9999999997497727
  0
CIRCLE
  5
C8
330
70
100
AcDbEntity
  8
0
 62
     1
420
 16711680
370
     0
100
AcDbCircle
 10
595.4664554303923
 20
235.3320200588002
 30
0.0
 40
0.999999999749532
  0
CIRCLE
  5
C9
330
70
100
AcDbEntity
  8
0
 62
     1
420
 16711680
370
     0
100
AcDbCircle
 10
370.22068762017
 20
176.9839727933529
 30
0.0
 40
0.999999999751056
  0
CIRCLE
  5
CA
330
70
100
AcDbEntity
  8
0
 62
     1
420
 16711680
370
     0
100
AcDbCircle
 10
426.5364770938537
 20
176.9839727933529
 30
0.0
 40
0.9999999997511363
  0
CIRCLE
  5
CB
330
70
100
AcDbEntity
  8
0
 62
     1
420
 16711680
370
     0
100
AcDbCircle
 10
482.8696566520526
 20
176.9545449291258
 30
0.0
 40
0.9999999997513768
  0
CIRCLE
  5
CC
330
70
100
AcDbEntity
  8
0
 62
     1
420
 16711680
370
     0
100
AcDbCircle
 10
539.168056041223
 20
176.9839727933529
 30
0.0
 40
0.9999999997498528
  0
CIRCLE
  5
CD
330
70
100
AcDbEntity
  8
0
 62
     1
420
 16711680
370
     0
100
AcDbCircle
 10
595.483845514907
 20
176.9839727933529
 30
0.0
 40
0.9999999997496924
  0
CIRCLE
  5
CE
330
70
100
AcDbEntity
  8
0
 62
     1
420
 16711680
370
     0
100
AcDbCircle
 10
370.2032975356563
 20
118.6653533921331
 30
0.0
 40
0.9999999997496122
  0
CIRCLE
  5
CF
330
70
100
AcDbEntity
  8
0
 62
     1
420
 16711680
370
     0
100
AcDbCircle
 10
426.5190870093404
 20
118.6506394600202
 30
0.0
 40
0.9999999997497727
  0
CIRCLE
  5
D0
330
70
100
AcDbEntity
  8
0
 62
     1
420
 16711680
370
     0
100
AcDbCircle
 10
482.8348764830243
 20
118.6506394600204
 30
0.0
 40
0.999999999749532
  0
CIRCLE
  5
D1
330
70
100
AcDbEntity
  8
0
 62
     1
420
 16711680
370
     0
100
AcDbCircle
 10
539.168056041223
 20
118.6653533921331
 30
0.0
 40
0.9999999997497727
  0
CIRCLE
  5
D2
330
70
100
AcDbEntity
  8
0
 62
     1
420
 16711680
370
     0
100
AcDbCircle
 10
595.483845514907
 20
118.6653533921331
 30
0.0
 40
0.9999999997496122
  0
CIRCLE
  5
D3
330
70
100
AcDbEntity
  8
0
 62
     1
420
 16711680
370
     0
100
AcDbCircle
 10
370.2032975356563
 20
60.31730612668679
 30
0.0
 40
0.9999999997496122
  0
CIRCLE
  5
D4
330
70
100
AcDbEntity
  8
0
 62
     1
420
 16711680
370
     0
100
AcDbCircle
 10
426.5451721361105
 20
60.30994916063037
 30
0.0
 40
0.9999999997497727
  0
CIRCLE
  5
D5
330
70
100
AcDbEntity
  8
0
 62
     1
420
 16711680
370
     0
100
AcDbCircle
 10
482.8609616097944
 20
60.30994916063054
 30
0.0
 40
0.9999999997497727
  0
CIRCLE
  5
D6
330
70
100
AcDbEntity
  8
0
 62
     1
420
 16711680
370
     0
100
AcDbCircle
 10
539.194141167993
 20
60.32466309274322
 30
0.0
 40
0.9999999997496122
  0
CIRCLE
  5
D7
330
70
100
AcDbEntity
  8
0
 62
     1
420
 16711680
370
     0
100
AcDbCircle
 10
595.5099306416769
 20
60.32466309274322
 30
0.0
 40
0.9999999997497727
  0
LWPOLYLINE
  5
D8
330
70
100
AcDbEntity
  8
0
 62
     1
420
 16711680
370
     0
100
AcDbPolyline
 90
        4
 70
     1
 43
0.0
 10
1246.638318147486
 20
47.34305549470026
 10
968.6383181474862
 20
47.34305550718131
 10
968.6383181599673
 20
325.3430555071812
 10
1246.638318159967
 20
325.3430554946998
  0
LWPOLYLINE
  5
D9
330
70
100
AcDbEntity
  8
0
 62
     1
420
 16711680
370
     0
100
AcDbPolyline
 90
        4
 70
     1
 43
0.0
 10
937.2168045177796
 20
325.3430555085919
 10
937.2168045052985
 20
47.34305550859176
 10
659.2168045052971
 20
47.34305552107346
 10
659.2168045177782
 20
325.343055521073
  0
INSERT
  5
DB
330
70
100
AcDbEntity
  8
0
100
AcDbBlockReference
  2
Block_2
 10
0.0
 20
0.0
 30
0.0
  0
INSERT
  5
F1
330
70
100
AcDbEntity
  8
0
100
AcDbBlockReference
  2
Block_3
 10
0.0
 20
0.0
 30
0.0
  0
CIRCLE
  5
106
330
70
100
AcDbEntity
  8
0
 62
     1
420
 16711680
370
     0
100
AcDbCircle
 10
1225.638318158546
 20
293.676388828976
 30
0.0
 40
0.9999999997498928
  0
CIRCLE
  5
107
330
70
100
AcDbEntity
  8
0
 62
     1
420
 16711680
370
     0
100
AcDbCircle
 10
1169.322528684861
 20
293.6763888315044
 30
0.0
 40
0.9999999997500534
  0
CIRCLE
  5
108
330
70
100
AcDbEntity
  8
0
 62
     1
420
 16711680
370
     0
100
AcDbCircle
 10
1112.989349126661
 20
293.6469609698064
 30
0.0
 40
0.9999999997500934
  0
CIRCLE
  5
109
330
70
100
AcDbEntity
  8
0
 62
     1
420
 16711680
370
     0
100
AcDbCircle
 10
1056.690949737493
 20
293.6763888365613
 30
0.0
 40
0.9999999997500534
  0
CIRCLE
  5
10A
330
70
100
AcDbEntity
  8
0
 62
     1
420
 16711680
370
     0
100
AcDbCircle
 10
1000.375160263808
 20
293.6763888390895
 30
0.0
 40
0.9999999997500534
  0
CIRCLE
  5
10B
330
70
100
AcDbEntity
  8
0
 62
     1
420
 16711680
370
     0
100
AcDbCircle
 10
1225.638318155927
 20
235.3430554956426
 30
0.0
 40
0.9999999997499731
  0
CIRCLE
  5
10C
330
70
100
AcDbEntity
  8
0
 62
     1
420
 16711680
370
     0
100
AcDbCircle
 10
1169.322528682243
 20
235.3577694302845
 30
0.0
 40
0.9999999997500934
  0
CIRCLE
  5
10D
330
70
100
AcDbEntity
  8
0
 62
     1
420
 16711680
370
     0
100
AcDbCircle
 10
1112.989349124043
 20
235.3283415685863
 30
0.0
 40
0.9999999997501333
  0
CIRCLE
  5
10E
330
70
100
AcDbEntity
  8
0
 62
     1
420
 16711680
370
     0
100
AcDbCircle
 10
1056.690949734874
 20
235.3577694353413
 30
0.0
 40
0.9999999997500934
  0
CIRCLE
  5
10F
330
70
100
AcDbEntity
  8
0
 62
     1
420
 16711680
370
     0
100
AcDbCircle
 10
1000.37516026119
 20
235.3577694378696
 30
0.0
 40
0.9999999997500934
  0
CIRCLE
  5
110
330
70
100
AcDbEntity
  8
0
 62
     1
420
 16711680
370
     0
100
AcDbCircle
 10
1225.620928068794
 20
177.0097221623093
 30
0.0
 40
0.9999999997502538
  0
CIRCLE
  5
111
330
70
100
AcDbEntity
  8
0
 62
     1
420
 16711680
370
     0
100
AcDbCircle
 10
1169.305138595109
 20
177.0097221648376
 30
0.0
 40
0.9999999997501737
  0
CIRCLE
  5
112
330
70
100
AcDbEntity
  8
0
 62
     1
420
 16711680
370
     0
100
AcDbCircle
 10
1112.97195903691
 20
176.9802943031401
 30
0.0
 40
0.9999999997500934
  0
CIRCLE
  5
113
330
70
100
AcDbEntity
  8
0
 62
     1
420
 16711680
370
     0
100
AcDbCircle
 10
1056.673559647741
 20
177.0097221698948
 30
0.0
 40
0.9999999997501737
  0
CIRCLE
  5
114
330
70
100
AcDbEntity
  8
0
 62
     1
420
 16711680
370
     0
100
AcDbCircle
 10
1000.357770174056
 20
177.0097221724232
 30
0.0
 40
0.9999999997501737
  0
CIRCLE
  5
115
330
70
100
AcDbEntity
  8
0
 62
     1
420
 16711680
370
     0
100
AcDbCircle
 10
1225.63831815069
 20
118.6911027610889
 30
0.0
 40
0.9999999997499331
  0
CIRCLE
  5
116
330
70
100
AcDbEntity
  8
0
 62
     1
420
 16711680
370
     0
100
AcDbCircle
 10
1169.322528677005
 20
118.6763888315043
 30
0.0
 40
0.9999999997500935
  0
CIRCLE
  5
117
330
70
100
AcDbEntity
  8
0
 62
     1
420
 16711680
370
     0
100
AcDbCircle
 10
1113.00673920332
 20
118.6763888340328
 30
0.0
 40
0.9999999997500131
  0
CIRCLE
  5
118
330
70
100
AcDbEntity
  8
0
 62
     1
420
 16711680
370
     0
100
AcDbCircle
 10
1056.673559645123
 20
118.691102768675
 30
0.0
 40
0.9999999997500935
  0
CIRCLE
  5
119
330
70
100
AcDbEntity
  8
0
 62
     1
420
 16711680
370
     0
100
AcDbCircle
 10
1000.357770171438
 20
118.6911027712033
 30
0.0
 40
0.9999999997500935
  0
CIRCLE
  5
11A
330
70
100
AcDbEntity
  8
0
 62
     1
420
 16711680
370
     0
100
AcDbCircle
 10
1225.63831814807
 20
60.34305549564258
 30
0.0
 40
0.9999999997499331
  0
CIRCLE
  5
11B
330
70
100
AcDbEntity
  8
0
 62
     1
420
 16711680
370
     0
100
AcDbCircle
 10
1169.296443547614
 20
60.33569853211574
 30
0.0
 40
0.9999999997499331
  0
CIRCLE
  5
11C
330
70
100
AcDbEntity
  8
0
 62
     1
420
 16711680
370
     0
100
AcDbCircle
 10
1112.98065407393
 20
60.33569853464419
 30
0.0
 40
0.9999999997500935
  0
CIRCLE
  5
11D
330
70
100
AcDbEntity
  8
0
 62
     1
420
 16711680
370
     0
100
AcDbCircle
 10
1056.647474515732
 20
60.35041246928581
 30
0.0
 40
0.9999999997500133
  0
CIRCLE
  5
11E
330
70
100
AcDbEntity
  8
0
 62
     1
420
 16711680
370
     0
100
AcDbCircle
 10
1000.331685042048
 20
60.35041247181458
 30
0.0
 40
0.9999999997500935
  0
CIRCLE
  5
11F
330
70
100
AcDbEntity
  8
0
 62
     1
420
 16711680
370
     0
100
AcDbCircle
 10
912.6595947535777
 20
293.6506394618283
 30
0.0
 40
0.9999999997497727
  0
CIRCLE
  5
120
330
70
100
AcDbEntity
  8
0
 62
     1
420
 16711680
370
     0
100
AcDbCircle
 10
856.3438052798939
 20
293.6506394643566
 30
0.0
 40
0.999999999749933
  0
CIRCLE
  5
121
330
70
100
AcDbEntity
  8
0
 62
     1
420
 16711680
370
     0
100
AcDbCircle
 10
800.0106257216939
 20
293.6212116026587
 30
0.0
 40
0.9999999997498127
  0
CIRCLE
  5
122
330
70
100
AcDbEntity
  8
0
 62
     1
420
 16711680
370
     0
100
AcDbCircle
 10
743.7122263325258
 20
293.6506394694135
 30
0.0
 40
0.9999999997500133
  0
CIRCLE
  5
123
330
70
100
AcDbEntity
  8
0
 62
     1
420
 16711680
370
     0
100
AcDbCircle
 10
687.396436858842
 20
293.6506394719418
 30
0.0
 40
0.9999999997497727
  0
CIRCLE
  5
124
330
70
100
AcDbEntity
  8
0
 62
     1
420
 16711680
370
     0
100
AcDbCircle
 10
912.6595947509585
 20
235.3173061284949
 30
0.0
 40
0.9999999997498928
  0
CIRCLE
  5
125
330
70
100
AcDbEntity
  8
0
 62
     1
420
 16711680
370
     0
100
AcDbCircle
 10
856.3438052772751
 20
235.3320200631365
 30
0.0
 40
0.9999999997496924
  0
CIRCLE
  5
126
330
70
100
AcDbEntity
  8
0
 62
     1
420
 16711680
370
     0
100
AcDbCircle
 10
800.0106257190752
 20
235.3025922014385
 30
0.0
 40
0.9999999997500534
  0
CIRCLE
  5
127
330
70
100
AcDbEntity
  8
0
 62
     1
420
 16711680
370
     0
100
AcDbCircle
 10
743.712226329907
 20
235.3320200681934
 30
0.0
 40
0.9999999997497724
  0
CIRCLE
  5
128
330
70
100
AcDbEntity
  8
0
 62
     1
420
 16711680
370
     0
100
AcDbCircle
 10
687.3964368562232
 20
235.3320200707217
 30
0.0
 40
0.9999999997495319
  0
CIRCLE
  5
129
330
70
100
AcDbEntity
  8
0
 62
     1
420
 16711680
370
     0
100
AcDbCircle
 10
912.6422046638261
 20
176.9839727951619
 30
0.0
 40
0.999999999751056
  0
CIRCLE
  5
12A
330
70
100
AcDbEntity
  8
0
 62
     1
420
 16711680
370
     0
100
AcDbCircle
 10
856.3264151901423
 20
176.9839727976902
 30
0.0
 40
0.9999999997511363
  0
CIRCLE
  5
12B
330
70
100
AcDbEntity
  8
0
 62
     1
420
 16711680
370
     0
100
AcDbCircle
 10
799.9932356319422
 20
176.954544935992
 30
0.0
 40
0.9999999997513768
  0
CIRCLE
  5
12C
330
70
100
AcDbEntity
  8
0
 62
     1
420
 16711680
370
     0
100
AcDbCircle
 10
743.6948362427728
 20
176.9839728027467
 30
0.0
 40
0.9999999997498528
  0
CIRCLE
  5
12D
330
70
100
AcDbEntity
  8
0
 62
     1
420
 16711680
370
     0
100
AcDbCircle
 10
687.379046769089
 20
176.983972805275
 30
0.0
 40
0.9999999997496924
  0
CIRCLE
  5
12E
330
70
100
AcDbEntity
  8
0
 62
     1
420
 16711680
370
     0
100
AcDbCircle
 10
912.6595947457214
 20
118.6653533939412
 30
0.0
 40
0.9999999997496924
  0
CIRCLE
  5
12F
330
70
100
AcDbEntity
  8
0
 62
     1
420
 16711680
370
     0
100
AcDbCircle
 10
856.3438052720369
 20
118.6506394643568
 30
0.0
 40
0.9999999997497727
  0
CIRCLE
  5
130
330
70
100
AcDbEntity
  8
0
 62
     1
420
 16711680
370
     0
100
AcDbCircle
 10
800.028015798353
 20
118.6506394668853
 30
0.0
 40
0.9999999997495319
  0
CIRCLE
  5
131
330
70
100
AcDbEntity
  8
0
 62
     1
420
 16711680
370
     0
100
AcDbCircle
 10
743.6948362401547
 20
118.6653534015269
 30
0.0
 40
0.9999999997497727
  0
CIRCLE
  5
132
330
70
100
AcDbEntity
  8
0
 62
     1
420
 16711680
370
     0
100
AcDbCircle
 10
687.3790467664709
 20
118.6653534040552
 30
0.0
 40
0.9999999997496122
  0
CIRCLE
  5
133
330
70
100
AcDbEntity
  8
0
 62
     1
420
 16711680
370
     0
100
AcDbCircle
 10
912.6595947431017
 20
60.31730612849495
 30
0.0
 40
0.9999999997496122
  0
CIRCLE
  5
134
330
70
100
AcDbEntity
  8
0
 62
     1
420
 16711680
370
     0
100
AcDbCircle
 10
856.3177201426473
 20
60.30994916496778
 30
0.0
 40
0.9999999997496924
  0
CIRCLE
  5
135
330
70
100
AcDbEntity
  8
0
 62
     1
420
 16711680
370
     0
100
AcDbCircle
 10
800.0019306689635
 20
60.30994916749672
 30
0.0
 40
0.9999999997497727
  0
CIRCLE
  5
136
330
70
100
AcDbEntity
  8
0
 62
     1
420
 16711680
370
     0
100
AcDbCircle
 10
743.6687511107654
 20
60.32466310213834
 30
0.0
 40
0.9999999997496122
  0
CIRCLE
  5
137
330
70
100
AcDbEntity
  8
0
 62
     1
420
 16711680
370
     0
100
AcDbCircle
 10
687.3529616370815
 20
60.32466310466663
 30
0.0
 40
0.9999999997497724
  0
ENDSEC
  0
SECTION
  2
OBJECTS
  0
DICTIONARY
  5
C
330
0
100
AcDbDictionary
281
     1
  3
ACAD_COLOR
350
63
  3
ACAD_DETAILVIEWSTYLE
350
6A
  3
ACAD_GROUP
350
D
  3
ACAD_LAYOUT
350
62
  3
ACAD_MATERIAL
350
10
  3
ACAD_MLEADERSTYLE
350
66
  3
ACAD_MLINESTYLE
350
5F
  3
ACAD_PLOTSETTINGS
350
61
  3
ACAD_PLOTSTYLENAME
350
E
  3
ACAD_SCALELIST
350
42
  3
ACAD_SECTIONVIEWSTYLE
350
68
  3
ACAD_TABLESTYLE
350
64
  3
ACAD_VISUALSTYLE
350
29
  3
ACDB_RECOMPOSE_DATA
350
140
  3
AcDbVariableDictionary
350
138
  0
DICTIONARY
  5
63
102
{ACAD_REACTORS
330
C
102
}
330
C
100
AcDbDictionary
281
     1
  0
DICTIONARY
  5
6A
102
{ACAD_REACTORS
330
C
102
}
330
C
100
AcDbDictionary
281
     1
  3
Imperial24
350
6B
  0
DICTIONARY
  5
D
102
{ACAD_REACTORS
330
C
102
}
330
C
100
AcDbDictionary
281
     1
  0
DICTIONARY
  5
62
102
{ACAD_REACTORS
330
C
102
}
330
C
100
AcDbDictionary
281
     1
  3
Layout1
350
6F
  3
Layout2
350
77
  3
Model
350
73
  0
DICTIONARY
  5
10
102
{ACAD_REACTORS
330
C
102
}
330
C
100
AcDbDictionary
281
     1
  3
ByBlock
350
19
  3
ByLayer
350
11
  3
Global
350
21
  0
DICTIONARY
  5
66
102
{ACAD_REACTORS
330
C
102
}
330
C
100
AcDbDictionary
281
     1
  3
Standard
350
67
  0
DICTIONARY
  5
5F
102
{ACAD_REACTORS
330
C
102
}
330
C
100
AcDbDictionary
281
     1
  3
Standard
350
60
  0
DICTIONARY
  5
61
102
{ACAD_REACTORS
330
C
102
}
330
C
100
AcDbDictionary
281
     1
  0
ACDBDICTIONARYWDFLT
  5
E
102
{ACAD_REACTORS
330
C
102
}
330
C
100
AcDbDictionary
281
     1
  3
Normal
350
F
100
AcDbDictionaryWithDefault
340
F
  0
DICTIONARY
  5
42
102
{ACAD_REACTORS
330
C
102
}
330
C
100
AcDbDictionary
281
     1
  3
A0
350
43
  3
A1
350
44
  3
A2
350
45
  3
A3
350
46
  3
A4
350
47
  3
A5
350
48
  3
A6
350
49
  3
A7
350
4A
  3
A8
350
4B
  3
A9
350
4C
  3
B0
350
4D
  3
B1
350
4E
  3
B2
350
4F
  3
B3
350
50
  3
B4
350
51
  3
B5
350
52
  3
B6
350
53
  0
DICTIONARY
  5
68
102
{ACAD_REACTORS
330
C
102
}
330
C
100
AcDbDictionary
281
     1
  3
Imperial24
350
69
  0
DICTIONARY
  5
64
102
{ACAD_REACTORS
330
C
102
}
330
C
100
AcDbDictionary
281
     1
  3
Standard
350
65
  0
DICTIONARY
  5
29
102
{ACAD_REACTORS
330
C
102
}
330
C
100
AcDbDictionary
281
     1
  3
2dWireframe
350
2F
  3
Basic
350
2E
  3
Brighten
350
35
  3
ColorChange
350
39
  3
Conceptual
350
32
  3
Dim
350
34
  3
EdgeColorOff
350
41
  3
Facepattern
350
38
  3
Flat
350
2A
  3
FlatWithEdges
350
2B
  3
Gouraud
350
2C
  3
GouraudWithEdges
350
2D
  3
Hidden
350
31
  3
JitterOff
350
3F
  3
Linepattern
350
37
  3
OverhangOff
350
40
  3
Realistic
350
33
  3
Shaded
350
3E
  3
Shaded with edges
350
3D
  3
Shades of Gray
350
3A
  3
Sketchy
350
3B
  3
Thicken
350
36
  3
Wireframe
350
30
  3
X-Ray
350
3C
  0
XRECORD
  5
140
102
{ACAD_REACTORS
330
C
102
}
330
C
100
AcDbXrecord
280
     1
 90
        1
330
65
  0
DICTIONARY
  5
138
102
{ACAD_REACTORS
330
C
102
}
330
C
100
AcDbDictionary
281
     1
  3
CANNOSCALE
350
13D
  3
CMLEADERSTYLE
350
13A
  3
CTABLESTYLE
350
139
  3
CVIEWDETAILSTYLE
350
13B
  3
CVIEWSECTIONSTYLE
350
13C
  0
ACDBDETAILVIEWSTYLE
  5
6B
102
{ACAD_REACTORS
330
6A
102
}
330
6A
100
AcDbModelDocViewStyle
 70
     0
  3
Imperial24
290
     1
300
Imperial24
 90
        0
100
AcDbDetailViewStyle
 70
     0
 71
     0
 90
        3
 71
     1
340
55
 62
   256
 40
0.24
340
0
 62
   256
 40
0.24
300

 40
0.36
280
     3
 71
     2
340
5D
 90
       25
 62
   256
 71
     3
340
55
 62
   256
 40
0.24
 90
        1
 40
0.75
 90
        1
300
%<\AcVar ViewType \f "%tc1">% %<\AcVar ViewDetailId>%\PSCALE %<\AcVar ViewScale \f "%sn">%
 71
     4
340
5D
 90
       25
 62
   256
340
5D
 90
       25
 62
   256
280
     0
  0
LAYOUT
  5
6F
102
{ACAD_REACTORS
330
62
102
}
330
62
100
AcDbPlotSettings
  1

  2

  4

  6

 40
0.0
 41
0.0
 42
0.0
 43
0.0
 44
0.0
 45
0.0
 46
0.0
 47
0.0
 48
0.0
 49
0.0
140
0.0
141
0.0
142
1.0
143
1.0
 70
   688
 72
     0
 73
     0
 74
     5
  7

 75
    16
147
1.0
 76
     0
 77
     2
 78
   300
148
0.0
149
0.0
100
AcDbLayout
  1
Layout1
 70
     1
 71
     1
 10
0.0
 20
0.0
 11
12.0
 21
9.0
 12
0.0
 22
0.0
 32
0.0
 14
0.0
 24
0.0
 34
0.0
 15
0.0
 25
0.0
 35
0.0
146
0.0
 13
0.0
 23
0.0
 33
0.0
 16
1.0
 26
0.0
 36
0.0
 17
0.0
 27
1.0
 37
0.0
 76
     0
330
6C
  0
LAYOUT
  5
77
102
{ACAD_REACTORS
330
62
102
}
330
62
100
AcDbPlotSettings
  1

  2

  4

  6

 40
0.0
 41
0.0
 42
0.0
 43
0.0
 44
0.0
 45
0.0
 46
0.0
 47
0.0
 48
0.0
 49
0.0
140
0.0
141
0.0
142
1.0
143
1.0
 70
   688
 72
     0
 73
     0
 74
     5
  7

 75
    16
147
1.0
 76
     0
 77
     2
 78
   300
148
0.0
149
0.0
100
AcDbLayout
  1
Layout2
 70
     1
 71
     2
 10
0.0
 20
0.0
 11
12.0
 21
9.0
 12
0.0
 22
0.0
 32
0.0
 14
0.0
 24
0.0
 34
0.0
 15
0.0
 25
0.0
 35
0.0
146
0.0
 13
0.0
 23
0.0
 33
0.0
 16
1.0
 26
0.0
 36
0.0
 17
0.0
 27
1.0
 37
0.0
 76
     0
330
74
  0
LAYOUT
  5
73
102
{ACAD_REACTORS
330
62
102
}
330
62
100
AcDbPlotSettings
  1

  2

  4

  6

 40
0.0
 41
0.0
 42
0.0
 43
0.0
 44
0.0
 45
0.0
 46
0.0
 47
0.0
 48
0.0
 49
0.0
140
0.0
141
0.0
142
1.0
143
1.0
 70
  1712
 72
     0
 73
     0
 74
     0
  7

 75
     0
147
1.0
 76
     0
 77
     2
 78
   300
148
0.0
149
0.0
100
AcDbLayout
  1
Model
 70
     1
 71
     0
 10
0.0
 20
0.0
 11
12.0
 21
9.0
 12
0.0
 22
0.0
 32
0.0
 14
0.0
 24
0.0
 34
0.0
 15
0.0
 25
0.0
 35
0.0
146
0.0
 13
0.0
 23
0.0
 33
0.0
 16
1.0
 26
0.0
 36
0.0
 17
0.0
 27
1.0
 37
0.0
 76
     0
330
70
  0
MATERIAL
  5
19
102
{ACAD_XDICTIONARY
360
1A
102
}
102
{ACAD_REACTORS
330
10
102
}
330
10
100
AcDbMaterial
  1
ByBlock
 72
     0
 43
0.0208333333333333
 43
0.0
 43
0.0
 43
0.0
 43
0.0
 43
0.0208333333333333
 43
0.0
 43
0.0
 43
0.0
 43
0.0
 43
1.0
 43
0.0
 43
0.0
 43
0.0
 43
0.0
 43
1.0
 77
     0
 47
0.0208333333333333
 47
0.0
 47
0.0
 47
0.0
 47
0.0
 47
0.0208333333333333
 47
0.0
 47
0.0
 47
0.0
 47
0.0
 47
1.0
 47
0.0
 47
0.0
 47
0.0
 47
0.0
 47
1.0
171
     0
 49
0.0208333333333333
 49
0.0
 49
0.0
 49
0.0
 49
0.0
 49
0.0208333333333333
 49
0.0
 49
0.0
 49
0.0
 49
0.0
 49
1.0
 49
0.0
 49
0.0
 49
0.0
 49
0.0
 49
1.0
175
     0
142
0.0208333333333333
142
0.0
142
0.0
142
0.0
142
0.0
142
0.0208333333333333
142
0.0
142
0.0
142
0.0
142
0.0
142
1.0
142
0.0
142
0.0
142
0.0
142
0.0
142
1.0
179
     0
144
0.0208333333333333
144
0.0
144
0.0
144
0.0
144
0.0
144
0.0208333333333333
144
0.0
144
0.0
144
0.0
144
0.0
144
1.0
144
0.0
144
0.0
144
0.0
144
0.0
144
1.0
147
0.0208333333333333
147
0.0
147
0.0
147
0.0
147
0.0
147
0.0208333333333333
147
0.0
147
0.0
147
0.0
147
0.0
147
1.0
147
0.0
147
0.0
147
0.0
147
0.0
147
1.0
  0
MATERIAL
  5
11
102
{ACAD_XDICTIONARY
360
12
102
}
102
{ACAD_REACTORS
330
10
102
}
330
10
100
AcDbMaterial
  1
ByLayer
 72
     0
 43
0.0208333333333333
 43
0.0
 43
0.0
 43
0.0
 43
0.0
 43
0.0208333333333333
 43
0.0
 43
0.0
 43
0.0
 43
0.0
 43
1.0
 43
0.0
 43
0.0
 43
0.0
 43
0.0
 43
1.0
 77
     0
 47
0.0208333333333333
 47
0.0
 47
0.0
 47
0.0
 47
0.0
 47
0.0208333333333333
 47
0.0
 47
0.0
 47
0.0
 47
0.0
 47
1.0
 47
0.0
 47
0.0
 47
0.0
 47
0.0
 47
1.0
171
     0
 49
0.0208333333333333
 49
0.0
 49
0.0
 49
0.0
 49
0.0
 49
0.0208333333333333
 49
0.0
 49
0.0
 49
0.0
 49
0.0
 49
1.0
 49
0.0
 49
0.0
 49
0.0
 49
0.0
 49
1.0
175
     0
142
0.0208333333333333
142
0.0
142
0.0
142
0.0
142
0.0
142
0.0208333333333333
142
0.0
142
0.0
142
0.0
142
0.0
142
1.0
142
0.0
142
0.0
142
0.0
142
0.0
142
1.0
179
     0
144
0.0208333333333333
144
0.0
144
0.0
144
0.0
144
0.0
144
0.0208333333333333
144
0.0
144
0.0
144
0.0
144
0.0
144
1.0
144
0.0
144
0.0
144
0.0
144
0.0
144
1.0
147
0.0208333333333333
147
0.0
147
0.0
147
0.0
147
0.0
147
0.0208333333333333
147
0.0
147
0.0
147
0.0
147
0.0
147
1.0
147
0.0
147
0.0
147
0.0
147
0.0
147
1.0
  0
MATERIAL
  5
21
102
{ACAD_XDICTIONARY
360
22
102
}
102
{ACAD_REACTORS
330
10
102
}
330
10
100
AcDbMaterial
  1
Global
 72
     0
 43
0.0208333333333333
 43
0.0
 43
0.0
 43
0.0
 43
0.0
 43
0.0208333333333333
 43
0.0
 43
0.0
 43
0.0
 43
0.0
 43
1.0
 43
0.0
 43
0.0
 43
0.0
 43
0.0
 43
1.0
 77
     0
 47
0.0208333333333333
 47
0.0
 47
0.0
 47
0.0
 47
0.0
 47
0.0208333333333333
 47
0.0
 47
0.0
 47
0.0
 47
0.0
 47
1.0
 47
0.0
 47
0.0
 47
0.0
 47
0.0
 47
1.0
171
     0
 49
0.0208333333333333
 49
0.0
 49
0.0
 49
0.0
 49
0.0
 49
0.0208333333333333
 49
0.0
 49
0.0
 49
0.0
 49
0.0
 49
1.0
 49
0.0
 49
0.0
 49
0.0
 49
0.0
 49
1.0
175
     0
142
0.0208333333333333
142
0.0
142
0.0
142
0.0
142
0.0
142
0.0208333333333333
142
0.0
142
0.0
142
0.0
142
0.0
142
1.0
142
0.0
142
0.0
142
0.0
142
0.0
142
1.0
179
     0
144
0.0208333333333333
144
0.0
144
0.0
144
0.0
144
0.0
144
0.0208333333333333
144
0.0
144
0.0
144
0.0
144
0.0
144
1.0
144
0.0
144
0.0
144
0.0
144
0.0
144
1.0
147
0.0208333333333333
147
0.0
147
0.0
147
0.0
147
0.0
147
0.0208333333333333
147
0.0
147
0.0
147
0.0
147
0.0
147
1.0
147
0.0
147
0.0
147
0.0
147
0.0
147
1.0
  0
MLEADERSTYLE
  5
67
102
{ACAD_REACTORS
330
66
102
}
330
66
100
AcDbMLeaderStyle
179
     2
170
     2
171
     1
172
     0
 90
        2
 40
0.0
 41
0.0
173
     1
 91
-1056964608
340
5B
 92
       -2
290
     1
 42
0.09
291
     1
 43
0.36
  3
Standard
 44
0.18
300

342
55
174
     1
178
     6
175
     1
176
     0
 93
-1056964608
 45
0.18
292
     0
297
     0
 46
0.18
 94
-1056964608
 47
1.0
 49
1.0
140
1.0
293
     1
141
0.0
294
     1
177
     0
142
1.0
295
     1
296
     0
143
0.125
271
     0
272
     9
273
     9
298
     1
  0
MLINESTYLE
  5
60
102
{ACAD_REACTORS
330
5F
102
}
330
5F
100
AcDbMlineStyle
  2
STANDARD
 70
     0
  3

 62
   256
 51
90.0
 52
90.0
 71
     2
 49
0.5
 62
   256
  6
BYLAYER
 49
-0.5
 62
   256
  6
BYLAYER
  0
ACDBPLACEHOLDER
  5
F
102
{ACAD_REACTORS
330
E
102
}
330
E
  0
SCALE
  5
43
102
{ACAD_REACTORS
330
42
102
}
330
42
100
AcDbScale
 70
     0
300
1:1
140
1.0
141
1.0
290
     1
  0
SCALE
  5
44
102
{ACAD_REACTORS
330
42
102
}
330
42
100
AcDbScale
 70
     0
300
1/128" = 1'-0"
140
0.0078125
141
12.0
290
     0
  0
SCALE
  5
45
102
{ACAD_REACTORS
330
42
102
}
330
42
100
AcDbScale
 70
     0
300
1/64" = 1'-0"
140
0.015625
141
12.0
290
     0
  0
SCALE
  5
46
102
{ACAD_REACTORS
330
42
102
}
330
42
100
AcDbScale
 70
     0
300
1/32" = 1'-0"
140
0.03125
141
12.0
290
     0
  0
SCALE
  5
47
102
{ACAD_REACTORS
330
42
102
}
330
42
100
AcDbScale
 70
     0
300
1/16" = 1'-0"
140
0.0625
141
12.0
290
     0
  0
SCALE
  5
48
102
{ACAD_REACTORS
330
42
102
}
330
42
100
AcDbScale
 70
     0
300
3/32" = 1'-0"
140
0.09375
141
12.0
290
     0
  0
SCALE
  5
49
102
{ACAD_REACTORS
330
42
102
}
330
42
100
AcDbScale
 70
     0
300
1/8" = 1'-0"
140
0.125
141
12.0
290
     0
  0
SCALE
  5
4A
102
{ACAD_REACTORS
330
42
102
}
330
42
100
AcDbScale
 70
     0
300
3/16" = 1'-0"
140
0.1875
141
12.0
290
     0
  0
SCALE
  5
4B
102
{ACAD_REACTORS
330
42
102
}
330
42
100
AcDbScale
 70
     0
300
1/4" = 1'-0"
140
0.25
141
12.0
290
     0
  0
SCALE
  5
4C
102
{ACAD_REACTORS
330
42
102
}
330
42
100
AcDbScale
 70
     0
300
3/8" = 1'-0"
140
0.375
141
12.0
290
     0
  0
SCALE
  5
4D
102
{ACAD_REACTORS
330
42
102
}
330
42
100
AcDbScale
 70
     0
300
1/2" = 1'-0"
140
0.5
141
12.0
290
     0
  0
SCALE
  5
4E
102
{ACAD_REACTORS
330
42
102
}
330
42
100
AcDbScale
 70
     0
300
3/4" = 1'-0"
140
0.75
141
12.0
290
     0
  0
SCALE
  5
4F
102
{ACAD_REACTORS
330
42
102
}
330
42
100
AcDbScale
 70
     0
300
1" = 1'-0"
140
1.0
141
12.0
290
     0
  0
SCALE
  5
50
102
{ACAD_REACTORS
330
42
102
}
330
42
100
AcDbScale
 70
     0
300
1-1/2" = 1'-0"
140
1.5
141
12.0
290
     0
  0
SCALE
  5
51
102
{ACAD_REACTORS
330
42
102
}
330
42
100
AcDbScale
 70
     0
300
3" = 1'-0"
140
3.0
141
12.0
290
     0
  0
SCALE
  5
52
102
{ACAD_REACTORS
330
42
102
}
330
42
100
AcDbScale
 70
     0
300
6" = 1'-0"
140
6.0
141
12.0
290
     0
  0
SCALE
  5
53
102
{ACAD_REACTORS
330
42
102
}
330
42
100
AcDbScale
 70
     0
300
1'-0" = 1'-0"
140
12.0
141
12.0
290
     0
  0
ACDBSECTIONVIEWSTYLE
  5
69
102
{ACAD_REACTORS
330
68
102
}
330
68
100
AcDbModelDocViewStyle
 70
     0
  3
Imperial24
290
     1
300
Imperial24
 90
        0
100
AcDbSectionViewStyle
 70
     0
 71
     0
 90
       78
 71
     1
340
55
 62
   256
 40
0.24
340
0
340
0
 62
   256
 40
0.24
300
I, O, Q, S, X, Z
 40
0.48
 90
        3
 40
0.18
 90
        1
 71
     2
340
5D
 90
       25
 62
   256
340
5D
 90
       50
 62
   256
 40
0.24
 40
0.0
 40
0.24
 71
     3
340
55
 62
   256
 40
0.24
 90
        1
 40
0.75
 90
        1
300
%<\AcVar ViewType \f "%tc1">% %<\AcVar ViewSectionStartId>%-%<\AcVar ViewSectionEndId>%\PSCALE %<\AcVar ViewScale \f "%sn">%
 71
     4
 62
   256
 62
   257
300
ANSI31
 40
1.0
 90
        0
290
     0
290
     0
 90
        6
 40
0.0
 40
1.570796326794896
 40
0.2617993877991494
 40
1.308996938995747
 40
-0.2617993877991494
 40
1.832595714594046
  0
TABLESTYLE
  5
65
102
{ACAD_XDICTIONARY
360
13E
102
}
102
{ACAD_REACTORS
330
64
102
}
330
64
100
AcDbTableStyle
280
     0
  3
Standard
 70
     0
 71
     0
 40
0.06
 41
0.06
280
     0
281
     0
  7
Standard
140
0.18
170
     2
 62
     0
 63
     7
283
     0
 90
      512
 91
        0
  1

274
    -2
284
     1
 64
     0
275
    -2
285
     1
 65
     0
276
    -2
286
     1
 66
     0
277
    -2
287
     1
 67
     0
278
    -2
288
     1
 68
     0
279
    -2
289
     1
 69
     0
  7
Standard
140
0.25
170
     5
 62
     0
 63
     7
283
     0
 90
      512
 91
        0
  1

274
    -2
284
     1
 64
     0
275
    -2
285
     1
 65
     0
276
    -2
286
     1
 66
     0
277
    -2
287
     1
 67
     0
278
    -2
288
     1
 68
     0
279
    -2
289
     1
 69
     0
  7
Standard
140
0.18
170
     5
 62
     0
 63
     7
283
     0
 90
      512
 91
        0
  1

274
    -2
284
     1
 64
     0
275
    -2
285
     1
 65
     0
276
    -2
286
     1
 66
     0
277
    -2
287
     1
 67
     0
278
    -2
288
     1
 68
     0
279
    -2
289
     1
 69
     0
  0
VISUALSTYLE
  5
2F
102
{ACAD_REACTORS
330
29
102
}
330
29
100
AcDbVisualStyle
  2
2dWireframe
 70
     4
177
     3
291
     0
 70
    58
 90
        0
176
     1
 90
        2
176
     1
 90
        0
176
     1
 90
        0
176
     1
 40
0.6
176
     1
 40
30.0
176
     1
 62
     7
420
 16777215
176
     1
 90
        1
176
     1
 90
        4
176
     1
 62
     7
176
     1
 62
   257
176
     1
 90
        1
176
     1
 90
        1
176
     1
 40
1.0
176
     1
 90
        0
176
     1
 62
   257
176
     1
 40
1.0
176
     1
 90
        1
176
     1
 90
        6
176
     1
 90
        2
176
     1
 62
     7
176
     1
 90
        5
176
     1
 90
        0
176
     1
 90
        0
176
     1
290
     0
176
     1
 90
        1
176
     1
 40
0.0
176
     1
 90
        0
176
     1
290
     1
176
     1
290
     1
176
     1
290
     0
176
     1
290
     0
176
     1
290
     0
176
     1
290
     0
176
     1
290
     0
176
     1
290
     0
176
     1
290
     0
176
     1
 90
       50
176
     1
 40
0.0
176
     1
 40
1.0
176
     1
 90
        0
176
     1
 62
    18
420
        0
176
     1
 90
       50
176
     1
 90
        3
176
     1
 62
     5
420
      255
176
     1
290
     0
176
     1
 90
       50
176
     1
 90
       50
176
     1
 90
       50
176
     1
290
     0
176
     1
 90
       50
176
     1
 62
   256
176
     0
 40
1.0
176
     0
 90
        2
176
     1
  1
strokes_ogs.tif
176
     1
290
     0
176
     1
 40
1.0
176
     1
 40
1.0
176
     1
  0
VISUALSTYLE
  5
2E
102
{ACAD_REACTORS
330
29
102
}
330
29
100
AcDbVisualStyle
  2
Basic
 70
     7
177
     3
291
     1
 70
    58
 90
        1
176
     1
 90
        0
176
     1
 90
        1
176
     1
 90
        0
176
     1
 40
0.6
176
     1
 40
30.0
176
     1
 62
     7
420
 16777215
176
     1
 90
        0
176
     1
 90
        4
176
     1
 62
     7
176
     1
 62
   257
176
     1
 90
        1
176
     1
 90
        1
176
     1
 40
1.0
176
     1
 90
        8
176
     1
 62
     7
176
     1
 40
1.0
176
     1
 90
        1
176
     1
 90
        6
176
     1
 90
        2
176
     1
 62
     7
176
     1
 90
        5
176
     1
 90
        0
176
     1
 90
        0
176
     1
290
     0
176
     1
 90
        1
176
     1
 40
0.0
176
     1
 90
        0
176
     1
290
     0
176
     1
290
     1
176
     1
290
     1
176
     1
290
     0
176
     1
290
     0
176
     1
290
     0
176
     1
290
     0
176
     1
290
     0
176
     1
290
     0
176
     1
 90
       50
176
     1
 40
0.0
176
     1
 40
1.0
176
     1
 90
        0
176
     1
 62
    18
420
        0
176
     1
 90
       50
176
     1
 90
        3
176
     1
 62
     5
420
      255
176
     1
290
     0
176
     1
 90
       50
176
     1
 90
       50
176
     1
 90
       50
176
     1
290
     0
176
     1
 90
       50
176
     1
 62
   256
176
     0
 40
1.0
176
     0
 90
        2
176
     1
  1
strokes_ogs.tif
176
     1
290
     0
176
     1
 40
1.0
176
     1
 40
1.0
176
     1
  0
VISUALSTYLE
  5
35
102
{ACAD_REACTORS
330
29
102
}
330
29
100
AcDbVisualStyle
  2
Brighten
 70
    12
177
     3
291
     1
 70
    58
 90
        2
176
     1
 90
        2
176
     1
 90
        0
176
     1
 90
        0
176
     1
 40
0.6
176
     1
 40
30.0
176
     1
 62
     7
420
 16777215
176
     1
 90
        1
176
     1
 90
        4
176
     1
 62
     7
176
     1
 62
   257
176
     1
 90
        1
176
     1
 90
        1
176
     1
 40
1.0
176
     1
 90
        8
176
     1
 62
     7
176
     1
 40
1.0
176
     1
 90
        1
176
     1
 90
        6
176
     1
 90
        2
176
     1
 62
     7
176
     1
 90
        5
176
     1
 90
        0
176
     1
 90
        0
176
     1
290
     0
176
     1
 90
        1
176
     1
 40
50.0
176
     1
 90
        0
176
     1
290
     0
176
     1
290
     1
176
     1
290
     1
176
     1
290
     0
176
     1
290
     0
176
     1
290
     0
176
     1
290
     0
176
     1
290
     0
176
     1
290
     0
176
     1
 90
       50
176
     1
 40
0.0
176
     1
 40
1.0
176
     1
 90
        0
176
     1
 62
    18
420
        0
176
     1
 90
       50
176
     1
 90
        3
176
     1
 62
     5
420
      255
176
     1
290
     0
176
     1
 90
       50
176
     1
 90
       50
176
     1
 90
       50
176
     1
290
     0
176
     1
 90
       50
176
     1
 62
   256
176
     0
 40
1.0
176
     0
 90
        2
176
     1
  1
strokes_ogs.tif
176
     1
290
     0
176
     1
 40
1.0
176
     1
 40
1.0
176
     1
  0
VISUALSTYLE
  5
39
102
{ACAD_REACTORS
330
29
102
}
330
29
100
AcDbVisualStyle
  2
ColorChange
 70
    16
177
     3
291
     1
 70
    58
 90
        2
176
     1
 90
        2
176
     1
 90
        3
176
     1
 90
        0
176
     1
 40
0.6
176
     1
 40
30.0
176
     1
 62
     8
420
  8421504
176
     1
 90
        1
176
     1
 90
        4
176
     1
 62
     7
176
     1
 62
   257
176
     1
 90
        1
176
     1
 90
        1
176
     1
 40
1.0
176
     1
 90
        8
176
     1
 62
     8
420
  8421504
176
     1
 40
1.0
176
     1
 90
        1
176
     1
 90
        6
176
     1
 90
        2
176
     1
 62
     7
176
     1
 90
        5
176
     1
 90
        0
176
     1
 90
        0
176
     1
290
     0
176
     1
 90
        1
176
     1
 40
0.0
176
     1
 90
        0
176
     1
290
     0
176
     1
290
     1
176
     1
290
     1
176
     1
290
     0
176
     1
290
     0
176
     1
290
     0
176
     1
290
     0
176
     1
290
     0
176
     1
290
     0
176
     1
 90
       50
176
     1
 40
0.0
176
     1
 40
1.0
176
     1
 90
        0
176
     1
 62
    18
420
        0
176
     1
 90
       50
176
     1
 90
        3
176
     1
 62
     5
420
      255
176
     1
290
     0
176
     1
 90
       50
176
     1
 90
       50
176
     1
 90
       50
176
     1
290
     0
176
     1
 90
       50
176
     1
 62
   256
176
     0
 40
1.0
176
     0
 90
        2
176
     1
  1
strokes_ogs.tif
176
     1
290
     0
176
     1
 40
1.0
176
     1
 40
1.0
176
     1
  0
VISUALSTYLE
  5
32
102
{ACAD_REACTORS
330
29
102
}
330
29
100
AcDbVisualStyle
  2
Conceptual
 70
     9
177
     3
291
     0
 70
    58
 90
        3
176
     1
 90
        2
176
     1
 90
        0
176
     1
 90
        0
176
     1
 40
0.6
176
     1
 40
30.0
176
     1
 62
     7
420
 16777215
176
     1
 90
        2
176
     1
 90
        2
176
     1
 62
     7
176
     1
 62
   257
176
     1
 90
        1
176
     1
 90
        1
176
     1
 40
179.0
176
     1
 90
        8
176
     1
 62
     7
176
     1
 40
1.0
176
     1
 90
        1
176
     1
 90
        6
176
     1
 90
        2
176
     1
 62
     7
176
     1
 90
        3
176
     1
 90
        0
176
     1
 90
        0
176
     1
290
     0
176
     1
 90
        1
176
     1
 40
0.0
176
     1
 90
        0
176
     1
290
     0
176
     1
290
     1
176
     1
290
     1
176
     1
290
     0
176
     1
290
     0
176
     1
290
     0
176
     1
290
     0
176
     1
290
     0
176
     1
290
     0
176
     1
 90
       50
176
     1
 40
0.0
176
     1
 40
1.0
176
     1
 90
        0
176
     1
 62
    18
420
        0
176
     1
 90
       50
176
     1
 90
        3
176
     1
 62
     5
420
      255
176
     1
290
     0
176
     1
 90
       50
176
     1
 90
       50
176
     1
 90
       50
176
     1
290
     0
176
     1
 90
       50
176
     1
 62
   256
176
     0
 40
1.0
176
     0
 90
        2
176
     1
  1
strokes_ogs.tif
176
     1
290
     0
176
     1
 40
1.0
176
     1
 40
1.0
176
     1
  0
VISUALSTYLE
  5
34
102
{ACAD_REACTORS
330
29
102
}
330
29
100
AcDbVisualStyle
  2
Dim
 70
    11
177
     3
291
     1
 70
    58
 90
        2
176
     1
 90
        2
176
     1
 90
        0
176
     1
 90
        0
176
     1
 40
0.6
176
     1
 40
30.0
176
     1
 62
     7
420
 16777215
176
     1
 90
        1
176
     1
 90
        4
176
     1
 62
     7
176
     1
 62
   257
176
     1
 90
        1
176
     1
 90
        1
176
     1
 40
1.0
176
     1
 90
        8
176
     1
 62
     7
176
     1
 40
1.0
176
     1
 90
        1
176
     1
 90
        6
176
     1
 90
        2
176
     1
 62
     7
176
     1
 90
        5
176
     1
 90
        0
176
     1
 90
        0
176
     1
290
     0
176
     1
 90
        1
176
     1
 40
-50.0
176
     1
 90
        0
176
     1
290
     0
176
     1
290
     1
176
     1
290
     1
176
     1
290
     0
176
     1
290
     0
176
     1
290
     0
176
     1
290
     0
176
     1
290
     0
176
     1
290
     0
176
     1
 90
       50
176
     1
 40
0.0
176
     1
 40
1.0
176
     1
 90
        0
176
     1
 62
    18
420
        0
176
     1
 90
       50
176
     1
 90
        3
176
     1
 62
     5
420
      255
176
     1
290
     0
176
     1
 90
       50
176
     1
 90
       50
176
     1
 90
       50
176
     1
290
     0
176
     1
 90
       50
176
     1
 62
   256
176
     0
 40
1.0
176
     0
 90
        2
176
     1
  1
strokes_ogs.tif
176
     1
290
     0
176
     1
 40
1.0
176
     1
 40
1.0
176
     1
  0
VISUALSTYLE
  5
41
102
{ACAD_REACTORS
330
29
102
}
330
29
100
AcDbVisualStyle
  2
EdgeColorOff
 70
    22
177
     3
291
     1
 70
    58
 90
        2
176
     0
 90
        2
176
     0
 90
        0
176
     0
 90
        0
176
     0
 40
0.6
176
     0
 40
30.0
176
     0
 62
     7
420
 16777215
176
     0
 90
        1
176
     0
 90
        4
176
     0
 62
     7
176
     0
 62
   257
176
     0
 90
        1
176
     0
 90
        1
176
     0
 40
1.0
176
     0
 90
        8
176
     2
 62
     7
176
     0
 40
1.0
176
     0
 90
        1
176
     0
 90
        6
176
     0
 90
        2
176
     0
 62
     7
176
     0
 90
        5
176
     0
 90
        0
176
     0
 90
        0
176
     0
290
     0
176
     0
 90
        1
176
     0
 40
0.0
176
     0
 90
        0
176
     0
290
     0
176
     0
290
     1
176
     0
290
     1
176
     0
290
     0
176
     0
290
     0
176
     0
290
     0
176
     0
290
     0
176
     0
290
     0
176
     0
290
     0
176
     0
 90
       50
176
     0
 40
0.0
176
     0
 40
1.0
176
     0
 90
        0
176
     0
 62
    18
420
        0
176
     0
 90
       50
176
     0
 90
        3
176
     0
 62
     5
420
      255
176
     0
290
     0
176
     0
 90
       50
176
     0
 90
       50
176
     0
 90
       50
176
     0
290
     0
176
     0
 90
       50
176
     0
 62
   256
176
     0
 40
1.0
176
     0
 90
        2
176
     0
  1
strokes_ogs.tif
176
     0
290
     0
176
     0
 40
1.0
176
     0
 40
1.0
176
     0
  0
VISUALSTYLE
  5
38
102
{ACAD_REACTORS
330
29
102
}
330
29
100
AcDbVisualStyle
  2
Facepattern
 70
    15
177
     3
291
     1
 70
    58
 90
        2
176
     1
 90
        2
176
     1
 90
        0
176
     1
 90
        0
176
     1
 40
0.6
176
     1
 40
30.0
176
     1
 62
     7
420
 16777215
176
     1
 90
        1
176
     1
 90
        4
176
     1
 62
     7
176
     1
 62
   257
176
     1
 90
        1
176
     1
 90
        1
176
     1
 40
1.0
176
     1
 90
        8
176
     1
 62
     7
176
     1
 40
1.0
176
     1
 90
        1
176
     1
 90
        6
176
     1
 90
        2
176
     1
 62
     7
176
     1
 90
        5
176
     1
 90
        0
176
     1
 90
        0
176
     1
290
     0
176
     1
 90
        1
176
     1
 40
0.0
176
     1
 90
        0
176
     1
290
     0
176
     1
290
     1
176
     1
290
     1
176
     1
290
     0
176
     1
290
     0
176
     1
290
     0
176
     1
290
     0
176
     1
290
     0
176
     1
290
     0
176
     1
 90
       50
176
     1
 40
0.0
176
     1
 40
1.0
176
     1
 90
        0
176
     1
 62
    18
420
        0
176
     1
 90
       50
176
     1
 90
        3
176
     1
 62
     5
420
      255
176
     1
290
     0
176
     1
 90
       50
176
     1
 90
       50
176
     1
 90
       50
176
     1
290
     0
176
     1
 90
       50
176
     1
 62
   256
176
     0
 40
1.0
176
     0
 90
        2
176
     1
  1
strokes_ogs.tif
176
     1
290
     0
176
     1
 40
1.0
176
     1
 40
1.0
176
     1
  0
VISUALSTYLE
  5
2A
102
{ACAD_REACTORS
330
29
102
}
330
29
100
AcDbVisualStyle
  2
Flat
 70
     0
177
     3
291
     1
 70
    58
 90
        2
176
     1
 90
        1
176
     1
 90
        1
176
     1
 90
        2
176
     1
 40
0.6
176
     1
 40
30.0
176
     1
 62
     7
420
 16777215
176
     1
 90
        0
176
     1
 90
        0
176
     1
 62
     7
176
     1
 62
   257
176
     1
 90
        1
176
     1
 90
        1
176
     1
 40
1.0
176
     1
 90
        8
176
     1
 62
     7
176
     1
 40
1.0
176
     1
 90
        1
176
     1
 90
        6
176
     1
 90
        2
176
     1
 62
     7
176
     1
 90
        5
176
     1
 90
        0
176
     1
 90
        0
176
     1
290
     0
176
     1
 90
       13
176
     1
 40
0.0
176
     1
 90
        0
176
     1
290
     0
176
     1
290
     1
176
     1
290
     1
176
     1
290
     0
176
     1
290
     0
176
     1
290
     0
176
     1
290
     0
176
     1
290
     0
176
     1
290
     0
176
     1
 90
       50
176
     1
 40
0.0
176
     1
 40
1.0
176
     1
 90
        0
176
     1
 62
    18
420
        0
176
     1
 90
       50
176
     1
 90
        3
176
     1
 62
     5
420
      255
176
     1
290
     0
176
     1
 90
       50
176
     1
 90
       50
176
     1
 90
       50
176
     1
290
     0
176
     1
 90
       50
176
     1
 62
   256
176
     0
 40
1.0
176
     0
 90
        2
176
     1
  1
strokes_ogs.tif
176
     1
290
     0
176
     1
 40
1.0
176
     1
 40
1.0
176
     1
  0
VISUALSTYLE
  5
2B
102
{ACAD_REACTORS
330
29
102
}
330
29
100
AcDbVisualStyle
  2
FlatWithEdges
 70
     1
177
     3
291
     1
 70
    58
 90
        2
176
     1
 90
        1
176
     1
 90
        1
176
     1
 90
        2
176
     1
 40
0.6
176
     1
 40
30.0
176
     1
 62
     7
420
 16777215
176
     1
 90
        1
176
     1
 90
        0
176
     1
 62
     7
176
     1
 62
   257
176
     1
 90
        1
176
     1
 90
        1
176
     1
 40
1.0
176
     1
 90
        0
176
     1
 62
   257
176
     1
 40
1.0
176
     1
 90
        1
176
     1
 90
        6
176
     1
 90
        2
176
     1
 62
     7
176
     1
 90
        5
176
     1
 90
        0
176
     1
 90
        0
176
     1
290
     0
176
     1
 90
       13
176
     1
 40
0.0
176
     1
 90
        0
176
     1
290
     0
176
     1
290
     1
176
     1
290
     1
176
     1
290
     0
176
     1
290
     0
176
     1
290
     0
176
     1
290
     0
176
     1
290
     0
176
     1
290
     0
176
     1
 90
       50
176
     1
 40
0.0
176
     1
 40
1.0
176
     1
 90
        0
176
     1
 62
    18
420
        0
176
     1
 90
       50
176
     1
 90
        3
176
     1
 62
     5
420
      255
176
     1
290
     0
176
     1
 90
       50
176
     1
 90
       50
176
     1
 90
       50
176
     1
290
     0
176
     1
 90
       50
176
     1
 62
   256
176
     0
 40
1.0
176
     0
 90
        2
176
     1
  1
strokes_ogs.tif
176
     1
290
     0
176
     1
 40
1.0
176
     1
 40
1.0
176
     1
  0
VISUALSTYLE
  5
2C
102
{ACAD_REACTORS
330
29
102
}
330
29
100
AcDbVisualStyle
  2
Gouraud
 70
     2
177
     3
291
     1
 70
    58
 90
        2
176
     1
 90
        2
176
     1
 90
        1
176
     1
 90
        2
176
     1
 40
0.6
176
     1
 40
30.0
176
     1
 62
     7
420
 16777215
176
     1
 90
        0
176
     1
 90
        0
176
     1
 62
     7
176
     1
 62
   257
176
     1
 90
        1
176
     1
 90
        1
176
     1
 40
1.0
176
     1
 90
        0
176
     1
 62
     7
176
     1
 40
1.0
176
     1
 90
        1
176
     1
 90
        6
176
     1
 90
        2
176
     1
 62
     7
176
     1
 90
        5
176
     1
 90
        0
176
     1
 90
        0
176
     1
290
     0
176
     1
 90
       13
176
     1
 40
0.0
176
     1
 90
        0
176
     1
290
     0
176
     1
290
     1
176
     1
290
     1
176
     1
290
     0
176
     1
290
     0
176
     1
290
     0
176
     1
290
     0
176
     1
290
     0
176
     1
290
     0
176
     1
 90
       50
176
     1
 40
0.0
176
     1
 40
1.0
176
     1
 90
        0
176
     1
 62
    18
420
        0
176
     1
 90
       50
176
     1
 90
        3
176
     1
 62
     5
420
      255
176
     1
290
     0
176
     1
 90
       50
176
     1
 90
       50
176
     1
 90
       50
176
     1
290
     0
176
     1
 90
       50
176
     1
 62
   256
176
     0
 40
1.0
176
     0
 90
        2
176
     1
  1
strokes_ogs.tif
176
     1
290
     0
176
     1
 40
1.0
176
     1
 40
1.0
176
     1
  0
VISUALSTYLE
  5
2D
102
{ACAD_REACTORS
330
29
102
}
330
29
100
AcDbVisualStyle
  2
GouraudWithEdges
 70
     3
177
     3
291
     1
 70
    58
 90
        2
176
     1
 90
        2
176
     1
 90
        1
176
     1
 90
        2
176
     1
 40
0.6
176
     1
 40
30.0
176
     1
 62
     7
420
 16777215
176
     1
 90
        1
176
     1
 90
        0
176
     1
 62
     7
176
     1
 62
   257
176
     1
 90
        1
176
     1
 90
        1
176
     1
 40
1.0
176
     1
 90
        0
176
     1
 62
   257
176
     1
 40
1.0
176
     1
 90
        1
176
     1
 90
        6
176
     1
 90
        2
176
     1
 62
     7
176
     1
 90
        5
176
     1
 90
        0
176
     1
 90
        0
176
     1
290
     0
176
     1
 90
       13
176
     1
 40
0.0
176
     1
 90
        0
176
     1
290
     0
176
     1
290
     1
176
     1
290
     1
176
     1
290
     0
176
     1
290
     0
176
     1
290
     0
176
     1
290
     0
176
     1
290
     0
176
     1
290
     0
176
     1
 90
       50
176
     1
 40
0.0
176
     1
 40
1.0
176
     1
 90
        0
176
     1
 62
    18
420
        0
176
     1
 90
       50
176
     1
 90
        3
176
     1
 62
     5
420
      255
176
     1
290
     0
176
     1
 90
       50
176
     1
 90
       50
176
     1
 90
       50
176
     1
290
     0
176
     1
 90
       50
176
     1
 62
   256
176
     0
 40
1.0
176
     0
 90
        2
176
     1
  1
strokes_ogs.tif
176
     1
290
     0
176
     1
 40
1.0
176
     1
 40
1.0
176
     1
  0
VISUALSTYLE
  5
31
102
{ACAD_REACTORS
330
29
102
}
330
29
100
AcDbVisualStyle
  2
Hidden
 70
     6
177
     3
291
     0
 70
    58
 90
        1
176
     1
 90
        2
176
     1
 90
        2
176
     1
 90
        0
176
     1
 40
0.6
176
     1
 40
30.0
176
     1
 62
     7
420
 16777215
176
     1
 90
        2
176
     1
 90
        2
176
     1
 62
     7
176
     1
 62
   257
176
     1
 90
        2
176
     1
 90
        1
176
     1
 40
40.0
176
     1
 90
        0
176
     1
 62
   257
176
     1
 40
1.0
176
     1
 90
        1
176
     1
 90
        6
176
     1
 90
        2
176
     1
 62
     7
176
     1
 90
        3
176
     1
 90
        0
176
     1
 90
        0
176
     1
290
     0
176
     1
 90
        1
176
     1
 40
0.0
176
     1
 90
        0
176
     1
290
     0
176
     1
290
     1
176
     1
290
     1
176
     1
290
     0
176
     1
290
     0
176
     1
290
     0
176
     1
290
     0
176
     1
290
     0
176
     1
290
     0
176
     1
 90
       50
176
     1
 40
0.0
176
     1
 40
1.0
176
     1
 90
        0
176
     1
 62
    18
420
        0
176
     1
 90
       50
176
     1
 90
        3
176
     1
 62
     5
420
      255
176
     1
290
     0
176
     1
 90
       50
176
     1
 90
       50
176
     1
 90
       50
176
     1
290
     0
176
     1
 90
       50
176
     1
 62
   256
176
     0
 40
1.0
176
     0
 90
        2
176
     1
  1
strokes_ogs.tif
176
     1
290
     0
176
     1
 40
1.0
176
     1
 40
1.0
176
     1
  0
VISUALSTYLE
  5
3F
102
{ACAD_REACTORS
330
29
102
}
330
29
100
AcDbVisualStyle
  2
JitterOff
 70
    20
177
     3
291
     1
 70
    58
 90
        2
176
     0
 90
        2
176
     0
 90
        0
176
     0
 90
        0
176
     0
 40
0.6
176
     0
 40
30.0
176
     0
 62
     7
420
 16777215
176
     0
 90
        1
176
     0
 90
        4
176
     0
 62
     7
176
     0
 62
   257
176
     0
 90
        1
176
     0
 90
        1
176
     0
 40
1.0
176
     0
 90
       10
176
     2
 62
     7
176
     0
 40
1.0
176
     0
 90
        1
176
     0
 90
        6
176
     0
 90
        2
176
     0
 62
     7
176
     0
 90
        5
176
     0
 90
        0
176
     0
 90
        0
176
     0
290
     0
176
     0
 90
        1
176
     0
 40
0.0
176
     0
 90
        0
176
     0
290
     0
176
     0
290
     1
176
     0
290
     1
176
     0
290
     0
176
     0
290
     0
176
     0
290
     0
176
     0
290
     0
176
     0
290
     0
176
     0
290
     0
176
     0
 90
       50
176
     0
 40
0.0
176
     0
 40
1.0
176
     0
 90
        0
176
     0
 62
    18
420
        0
176
     0
 90
       50
176
     0
 90
        3
176
     0
 62
     5
420
      255
176
     0
290
     0
176
     0
 90
       50
176
     0
 90
       50
176
     0
 90
       50
176
     0
290
     0
176
     0
 90
       50
176
     0
 62
   256
176
     0
 40
1.0
176
     0
 90
        2
176
     0
  1
strokes_ogs.tif
176
     0
290
     0
176
     0
 40
1.0
176
     0
 40
1.0
176
     0
  0
VISUALSTYLE
  5
37
102
{ACAD_REACTORS
330
29
102
}
330
29
100
AcDbVisualStyle
  2
Linepattern
 70
    14
177
     3
291
     1
 70
    58
 90
        2
176
     1
 90
        2
176
     1
 90
        0
176
     1
 90
        0
176
     1
 40
0.6
176
     1
 40
30.0
176
     1
 62
     7
420
 16777215
176
     1
 90
        1
176
     1
 90
        4
176
     1
 62
     7
176
     1
 62
   257
176
     1
 90
        7
176
     1
 90
        7
176
     1
 40
1.0
176
     1
 90
        8
176
     1
 62
     7
176
     1
 40
1.0
176
     1
 90
        1
176
     1
 90
        6
176
     1
 90
        2
176
     1
 62
     7
176
     1
 90
        5
176
     1
 90
        0
176
     1
 90
        0
176
     1
290
     0
176
     1
 90
        1
176
     1
 40
0.0
176
     1
 90
        0
176
     1
290
     0
176
     1
290
     1
176
     1
290
     1
176
     1
290
     0
176
     1
290
     0
176
     1
290
     0
176
     1
290
     0
176
     1
290
     0
176
     1
290
     0
176
     1
 90
       50
176
     1
 40
0.0
176
     1
 40
1.0
176
     1
 90
        0
176
     1
 62
    18
420
        0
176
     1
 90
       50
176
     1
 90
        3
176
     1
 62
     5
420
      255
176
     1
290
     0
176
     1
 90
       50
176
     1
 90
       50
176
     1
 90
       50
176
     1
290
     0
176
     1
 90
       50
176
     1
 62
   256
176
     0
 40
1.0
176
     0
 90
        2
176
     1
  1
strokes_ogs.tif
176
     1
290
     0
176
     1
 40
1.0
176
     1
 40
1.0
176
     1
  0
VISUALSTYLE
  5
40
102
{ACAD_REACTORS
330
29
102
}
330
29
100
AcDbVisualStyle
  2
OverhangOff
 70
    21
177
     3
291
     1
 70
    58
 90
        2
176
     0
 90
        2
176
     0
 90
        0
176
     0
 90
        0
176
     0
 40
0.6
176
     0
 40
30.0
176
     0
 62
     7
420
 16777215
176
     0
 90
        1
176
     0
 90
        4
176
     0
 62
     7
176
     0
 62
   257
176
     0
 90
        1
176
     0
 90
        1
176
     0
 40
1.0
176
     0
 90
        9
176
     2
 62
     7
176
     0
 40
1.0
176
     0
 90
        1
176
     0
 90
        6
176
     0
 90
        2
176
     0
 62
     7
176
     0
 90
        5
176
     0
 90
        0
176
     0
 90
        0
176
     0
290
     0
176
     0
 90
        1
176
     0
 40
0.0
176
     0
 90
        0
176
     0
290
     0
176
     0
290
     1
176
     0
290
     1
176
     0
290
     0
176
     0
290
     0
176
     0
290
     0
176
     0
290
     0
176
     0
290
     0
176
     0
290
     0
176
     0
 90
       50
176
     0
 40
0.0
176
     0
 40
1.0
176
     0
 90
        0
176
     0
 62
    18
420
        0
176
     0
 90
       50
176
     0
 90
        3
176
     0
 62
     5
420
      255
176
     0
290
     0
176
     0
 90
       50
176
     0
 90
       50
176
     0
 90
       50
176
     0
290
     0
176
     0
 90
       50
176
     0
 62
   256
176
     0
 40
1.0
176
     0
 90
        2
176
     0
  1
strokes_ogs.tif
176
     0
290
     0
176
     0
 40
1.0
176
     0
 40
1.0
176
     0
  0
VISUALSTYLE
  5
33
102
{ACAD_REACTORS
330
29
102
}
330
29
100
AcDbVisualStyle
  2
Realistic
 70
     8
177
     3
291
     0
 70
    58
 90
        2
176
     1
 90
        3
176
     1
 90
        0
176
     1
 90
        2
176
     1
 40
0.6
176
     1
 40
30.0
176
     1
 62
     7
420
 16777215
176
     1
 90
        0
176
     1
 90
        0
176
     1
 62
     7
176
     1
 62
   257
176
     1
 90
        1
176
     1
 90
        1
176
     1
 40
1.0
176
     1
 90
        8
176
     1
 62
   257
176
     1
 40
1.0
176
     1
 90
        1
176
     1
 90
        6
176
     1
 90
        2
176
     1
 62
     7
176
     1
 90
        3
176
     1
 90
        0
176
     1
 90
        0
176
     1
290
     0
176
     1
 90
       13
176
     1
 40
0.0
176
     1
 90
        0
176
     1
290
     0
176
     1
290
     1
176
     1
290
     1
176
     1
290
     0
176
     1
290
     0
176
     1
290
     0
176
     1
290
     0
176
     1
290
     0
176
     1
290
     0
176
     1
 90
       50
176
     1
 40
0.0
176
     1
 40
1.0
176
     1
 90
        0
176
     1
 62
    18
420
        0
176
     1
 90
       50
176
     1
 90
        3
176
     1
 62
     5
420
      255
176
     1
290
     0
176
     1
 90
       50
176
     1
 90
       50
176
     1
 90
       50
176
     1
290
     0
176
     1
 90
       50
176
     1
 62
   256
176
     0
 40
1.0
176
     0
 90
        2
176
     1
  1
strokes_ogs.tif
176
     1
290
     0
176
     1
 40
1.0
176
     1
 40
1.0
176
     1
  0
VISUALSTYLE
  5
3E
102
{ACAD_REACTORS
330
29
102
}
330
29
100
AcDbVisualStyle
  2
Shaded
 70
    27
177
     3
291
     0
 70
    58
 90
        2
176
     1
 90
        2
176
     1
 90
        1
176
     1
 90
        2
176
     1
 40
0.6
176
     1
 40
30.0
176
     1
 62
     7
420
 16777215
176
     1
 90
        0
176
     1
 90
        4
176
     1
 62
     7
176
     1
 62
   257
176
     1
 90
        1
176
     1
 90
        1
176
     1
 40
1.0
176
     1
 90
        8
176
     1
 62
   257
176
     1
 40
1.0
176
     1
 90
        1
176
     1
 90
        6
176
     1
 90
        2
176
     1
 62
     8
420
  7895160
176
     1
 90
        3
176
     1
 90
        0
176
     1
 90
        0
176
     1
290
     0
176
     1
 90
        5
176
     1
 40
0.0
176
     1
 90
        0
176
     1
290
     0
176
     1
290
     1
176
     1
290
     1
176
     1
290
     0
176
     1
290
     0
176
     1
290
     0
176
     1
290
     0
176
     1
290
     0
176
     1
290
     0
176
     1
 90
       50
176
     1
 40
0.0
176
     1
 40
1.0
176
     1
 90
        0
176
     1
 62
    18
420
        0
176
     1
 90
       50
176
     1
 90
        3
176
     1
 62
     5
420
      255
176
     1
290
     0
176
     1
 90
       50
176
     1
 90
       50
176
     1
 90
       50
176
     1
290
     0
176
     1
 90
       50
176
     1
 62
   256
176
     0
 40
1.0
176
     0
 90
        2
176
     1
  1
strokes_ogs.tif
176
     1
290
     0
176
     1
 40
1.0
176
     1
 40
1.0
176
     1
  0
VISUALSTYLE
  5
3D
102
{ACAD_REACTORS
330
29
102
}
330
29
100
AcDbVisualStyle
  2
Shaded with edges
 70
    26
177
     3
291
     0
 70
    58
 90
        2
176
     1
 90
        2
176
     1
 90
        1
176
     1
 90
        2
176
     1
 40
0.6
176
     1
 40
30.0
176
     1
 62
     7
420
 16777215
176
     1
 90
        1
176
     1
 90
        2
176
     1
 62
     7
176
     1
 62
   257
176
     1
 90
        2
176
     1
 90
        1
176
     1
 40
1.0
176
     1
 90
        8
176
     1
 62
   257
176
     1
 40
1.0
176
     1
 90
        1
176
     1
 90
        6
176
     1
 90
        2
176
     1
 62
     7
176
     1
 90
        3
176
     1
 90
        0
176
     1
 90
        0
176
     1
290
     0
176
     1
 90
        5
176
     1
 40
0.0
176
     1
 90
        0
176
     1
290
     0
176
     1
290
     1
176
     1
290
     1
176
     1
290
     0
176
     1
290
     0
176
     1
290
     0
176
     1
290
     0
176
     1
290
     0
176
     1
290
     0
176
     1
 90
       50
176
     1
 40
0.0
176
     1
 40
1.0
176
     1
 90
        0
176
     1
 62
    18
420
        0
176
     1
 90
       50
176
     1
 90
        3
176
     1
 62
     5
420
      255
176
     1
290
     0
176
     1
 90
       50
176
     1
 90
       50
176
     1
 90
       50
176
     1
290
     0
176
     1
 90
       50
176
     1
 62
   256
176
     0
 40
1.0
176
     0
 90
        2
176
     1
  1
strokes_ogs.tif
176
     1
290
     0
176
     1
 40
1.0
176
     1
 40
1.0
176
     1
  0
VISUALSTYLE
  5
3A
102
{ACAD_REACTORS
330
29
102
}
330
29
100
AcDbVisualStyle
  2
Shades of Gray
 70
    23
177
     3
291
     0
 70
    58
 90
        2
176
     1
 90
        2
176
     1
 90
        3
176
     1
 90
        0
176
     1
 40
0.6
176
     1
 40
30.0
176
     1
 62
     7
420
 16777215
176
     1
 90
        2
176
     1
 90
        2
176
     1
 62
     7
176
     1
 62
     7
176
     1
 90
        1
176
     1
 90
        1
176
     1
 40
40.0
176
     1
 90
        8
176
     1
 62
     7
176
     1
 40
1.0
176
     1
 90
        1
176
     1
 90
        6
176
     1
 90
        2
176
     1
 62
     7
176
     1
 90
        3
176
     1
 90
        0
176
     1
 90
        0
176
     1
290
     0
176
     1
 90
        1
176
     1
 40
0.0
176
     1
 90
        0
176
     1
290
     0
176
     1
290
     1
176
     1
290
     1
176
     1
290
     0
176
     1
290
     0
176
     1
290
     0
176
     1
290
     0
176
     1
290
     0
176
     1
290
     0
176
     1
 90
       50
176
     1
 40
0.0
176
     1
 40
1.0
176
     1
 90
        0
176
     1
 62
    18
420
        0
176
     1
 90
       50
176
     1
 90
        3
176
     1
 62
     5
420
      255
176
     1
290
     0
176
     1
 90
       50
176
     1
 90
       50
176
     1
 90
       50
176
     1
290
     0
176
     1
 90
       50
176
     1
 62
   256
176
     0
 40
1.0
176
     0
 90
        2
176
     1
  1
strokes_ogs.tif
176
     1
290
     0
176
     1
 40
1.0
176
     1
 40
1.0
176
     1
  0
VISUALSTYLE
  5
3B
102
{ACAD_REACTORS
330
29
102
}
330
29
100
AcDbVisualStyle
  2
Sketchy
 70
    24
177
     3
291
     0
 70
    58
 90
        1
176
     1
 90
        2
176
     1
 90
        2
176
     1
 90
        0
176
     1
 40
0.6
176
     1
 40
30.0
176
     1
 62
     7
420
 16777215
176
     1
 90
        2
176
     1
 90
        2
176
     1
 62
     7
176
     1
 62
     7
176
     1
 90
        1
176
     1
 90
        1
176
     1
 40
40.0
176
     1
 90
       11
176
     1
 62
     7
176
     1
 40
1.0
176
     1
 90
        1
176
     1
 90
        6
176
     1
 90
        2
176
     1
 62
     7
176
     1
 90
        6
176
     1
 90
        0
176
     1
 90
        0
176
     1
290
     0
176
     1
 90
        1
176
     1
 40
0.0
176
     1
 90
        0
176
     1
290
     0
176
     1
290
     1
176
     1
290
     1
176
     1
290
     0
176
     1
290
     0
176
     1
290
     0
176
     1
290
     0
176
     1
290
     0
176
     1
290
     0
176
     1
 90
       50
176
     1
 40
0.0
176
     1
 40
1.0
176
     1
 90
        0
176
     1
 62
    18
420
        0
176
     1
 90
       50
176
     1
 90
        3
176
     1
 62
     5
420
      255
176
     1
290
     0
176
     1
 90
       50
176
     1
 90
       50
176
     1
 90
       50
176
     1
290
     0
176
     1
 90
       50
176
     1
 62
   256
176
     0
 40
1.0
176
     0
 90
        2
176
     1
  1
strokes_ogs.tif
176
     1
290
     0
176
     1
 40
1.0
176
     1
 40
1.0
176
     1
  0
VISUALSTYLE
  5
36
102
{ACAD_REACTORS
330
29
102
}
330
29
100
AcDbVisualStyle
  2
Thicken
 70
    13
177
     3
291
     1
 70
    58
 90
        2
176
     1
 90
        2
176
     1
 90
        0
176
     1
 90
        0
176
     1
 40
0.6
176
     1
 40
30.0
176
     1
 62
     7
420
 16777215
176
     1
 90
        1
176
     1
 90
        4
176
     1
 62
     7
176
     1
 62
   257
176
     1
 90
        1
176
     1
 90
        1
176
     1
 40
1.0
176
     1
 90
       12
176
     1
 62
     7
176
     1
 40
1.0
176
     1
 90
        1
176
     1
 90
        6
176
     1
 90
        2
176
     1
 62
     7
176
     1
 90
        5
176
     1
 90
        0
176
     1
 90
        0
176
     1
290
     0
176
     1
 90
        1
176
     1
 40
0.0
176
     1
 90
        0
176
     1
290
     0
176
     1
290
     1
176
     1
290
     1
176
     1
290
     0
176
     1
290
     0
176
     1
290
     0
176
     1
290
     0
176
     1
290
     0
176
     1
290
     0
176
     1
 90
       50
176
     1
 40
0.0
176
     1
 40
1.0
176
     1
 90
        0
176
     1
 62
    18
420
        0
176
     1
 90
       50
176
     1
 90
        3
176
     1
 62
     5
420
      255
176
     1
290
     0
176
     1
 90
       50
176
     1
 90
       50
176
     1
 90
       50
176
     1
290
     0
176
     1
 90
       50
176
     1
 62
   256
176
     0
 40
1.0
176
     0
 90
        2
176
     1
  1
strokes_ogs.tif
176
     1
290
     0
176
     1
 40
1.0
176
     1
 40
1.0
176
     1
  0
VISUALSTYLE
  5
30
102
{ACAD_REACTORS
330
29
102
}
330
29
100
AcDbVisualStyle
  2
Wireframe
 70
     5
177
     3
291
     0
 70
    58
 90
        0
176
     1
 90
        2
176
     1
 90
        0
176
     1
 90
        0
176
     1
 40
0.6
176
     1
 40
30.0
176
     1
 62
     7
420
 16777215
176
     1
 90
        1
176
     1
 90
        4
176
     1
 62
     7
176
     1
 62
   257
176
     1
 90
        1
176
     1
 90
        1
176
     1
 40
1.0
176
     1
 90
        0
176
     1
 62
   257
176
     1
 40
1.0
176
     1
 90
        1
176
     1
 90
        6
176
     1
 90
        2
176
     1
 62
     7
176
     1
 90
        3
176
     1
 90
        0
176
     1
 90
        0
176
     1
290
     0
176
     1
 90
        1
176
     1
 40
0.0
176
     1
 90
        0
176
     1
290
     0
176
     1
290
     1
176
     1
290
     1
176
     1
290
     0
176
     1
290
     0
176
     1
290
     0
176
     1
290
     0
176
     1
290
     0
176
     1
290
     0
176
     1
 90
       50
176
     1
 40
0.0
176
     1
 40
1.0
176
     1
 90
        0
176
     1
 62
    18
420
        0
176
     1
 90
       50
176
     1
 90
        3
176
     1
 62
     5
420
      255
176
     1
290
     0
176
     1
 90
       50
176
     1
 90
       50
176
     1
 90
       50
176
     1
290
     0
176
     1
 90
       50
176
     1
 62
   256
176
     0
 40
1.0
176
     0
 90
        2
176
     1
  1
strokes_ogs.tif
176
     1
290
     0
176
     1
 40
1.0
176
     1
 40
1.0
176
     1
  0
VISUALSTYLE
  5
3C
102
{ACAD_REACTORS
330
29
102
}
330
29
100
AcDbVisualStyle
  2
X-Ray
 70
    25
177
     3
291
     0
 70
    58
 90
        2
176
     1
 90
        2
176
     1
 90
        1
176
     1
 90
        1
176
     1
 40
0.5
176
     1
 40
30.0
176
     1
 62
     7
420
 16777215
176
     1
 90
        1
176
     1
 90
        0
176
     1
 62
     7
176
     1
 62
   257
176
     1
 90
        1
176
     1
 90
        1
176
     1
 40
1.0
176
     1
 90
        8
176
     1
 62
     7
176
     1
 40
1.0
176
     1
 90
        1
176
     1
 90
        6
176
     1
 90
        2
176
     1
 62
     7
176
     1
 90
        3
176
     1
 90
        0
176
     1
 90
        0
176
     1
290
     0
176
     1
 90
       13
176
     1
 40
0.0
176
     1
 90
        0
176
     1
290
     0
176
     1
290
     1
176
     1
290
     1
176
     1
290
     0
176
     1
290
     0
176
     1
290
     0
176
     1
290
     0
176
     1
290
     0
176
     1
290
     0
176
     1
 90
       50
176
     1
 40
0.0
176
     1
 40
1.0
176
     1
 90
        0
176
     1
 62
    18
420
        0
176
     1
 90
       50
176
     1
 90
        3
176
     1
 62
     5
420
      255
176
     1
290
     0
176
     1
 90
       50
176
     1
 90
       50
176
     1
 90
       50
176
     1
290
     0
176
     1
 90
       50
176
     1
 62
   256
176
     0
 40
1.0
176
     0
 90
        2
176
     1
  1
strokes_ogs.tif
176
     1
290
     0
176
     1
 40
1.0
176
     1
 40
1.0
176
     1
  0
DICTIONARYVAR
  5
13D
102
{ACAD_REACTORS
330
138
102
}
330
138
100
DictionaryVariables
280
     0
  1
1:1
  0
DICTIONARYVAR
  5
13A
102
{ACAD_REACTORS
330
138
102
}
330
138
100
DictionaryVariables
280
     0
  1
STANDARD
  0
DICTIONARYVAR
  5
139
102
{ACAD_REACTORS
330
138
102
}
330
138
100
DictionaryVariables
280
     0
  1
STANDARD
  0
DICTIONARYVAR
  5
13B
102
{ACAD_REACTORS
330
138
102
}
330
138
100
DictionaryVariables
280
     0
  1
Imperial24
  0
DICTIONARYVAR
  5
13C
102
{ACAD_REACTORS
330
138
102
}
330
138
100
DictionaryVariables
280
     0
  1
Imperial24
  0
DICTIONARY
  5
1A
330
19
100
AcDbDictionary
280
     1
281
     1
  3
BUMPTILE
360
1C
  3
DIFFUSETILE
360
1B
  3
OPACITYTILE
360
1F
  3
REFLECTIONTILE
360
1E
  3
REFRACTIONTILE
360
20
  3
SPECULARTILE
360
1D
  0
DICTIONARY
  5
12
330
11
100
AcDbDictionary
280
     1
281
     1
  3
BUMPTILE
360
14
  3
DIFFUSETILE
360
13
  3
OPACITYTILE
360
17
  3
REFLECTIONTILE
360
16
  3
REFRACTIONTILE
360
18
  3
SPECULARTILE
360
15
  0
DICTIONARY
  5
22
330
21
100
AcDbDictionary
280
     1
281
     1
  3
BUMPTILE
360
24
  3
DIFFUSETILE
360
23
  3
OPACITYTILE
360
27
  3
REFLECTIONTILE
360
26
  3
REFRACTIONTILE
360
28
  3
SPECULARTILE
360
25
  0
DICTIONARY
  5
13E
330
65
100
AcDbDictionary
280
     1
281
     1
  3
ACAD_ROUNDTRIP_2008_TABLESTYLE_CELLSTYLEMAP
360
13F
  0
XRECORD
  5
1C
102
{ACAD_REACTORS
330
1A
102
}
330
1A
100
AcDbXrecord
280
     1
270
     1
271
     1
  0
XRECORD
  5
1B
102
{ACAD_REACTORS
330
1A
102
}
330
1A
100
AcDbXrecord
280
     1
270
     1
271
     1
  0
XRECORD
  5
1F
102
{ACAD_REACTORS
330
1A
102
}
330
1A
100
AcDbXrecord
280
     1
270
     1
271
     1
  0
XRECORD
  5
1E
102
{ACAD_REACTORS
330
1A
102
}
330
1A
100
AcDbXrecord
280
     1
270
     1
271
     1
  0
XRECORD
  5
20
102
{ACAD_REACTORS
330
1A
102
}
330
1A
100
AcDbXrecord
280
     1
270
     1
271
     1
  0
XRECORD
  5
1D
102
{ACAD_REACTORS
330
1A
102
}
330
1A
100
AcDbXrecord
280
     1
270
     1
271
     1
  0
XRECORD
  5
14
102
{ACAD_REACTORS
330
12
102
}
330
12
100
AcDbXrecord
280
     1
270
     1
271
     1
  0
XRECORD
  5
13
102
{ACAD_REACTORS
330
12
102
}
330
12
100
AcDbXrecord
280
     1
270
     1
271
     1
  0
XRECORD
  5
17
102
{ACAD_REACTORS
330
12
102
}
330
12
100
AcDbXrecord
280
     1
270
     1
271
     1
  0
XRECORD
  5
16
102
{ACAD_REACTORS
330
12
102
}
330
12
100
AcDbXrecord
280
     1
270
     1
271
     1
  0
XRECORD
  5
18
102
{ACAD_REACTORS
330
12
102
}
330
12
100
AcDbXrecord
280
     1
270
     1
271
     1
  0
XRECORD
  5
15
102
{ACAD_REACTORS
330
12
102
}
330
12
100
AcDbXrecord
280
     1
270
     1
271
     1
  0
XRECORD
  5
24
102
{ACAD_REACTORS
330
22
102
}
330
22
100
AcDbXrecord
280
     1
270
     1
271
     1
  0
XRECORD
  5
23
102
{ACAD_REACTORS
330
22
102
}
330
22
100
AcDbXrecord
280
     1
270
     1
271
     1
  0
XRECORD
  5
27
102
{ACAD_REACTORS
330
22
102
}
330
22
100
AcDbXrecord
280
     1
270
     1
271
     1
  0
XRECORD
  5
26
102
{ACAD_REACTORS
330
22
102
}
330
22
100
AcDbXrecord
280
     1
270
     1
271
     1
  0
XRECORD
  5
28
102
{ACAD_REACTORS
330
22
102
}
330
22
100
AcDbXrecord
280
     1
270
     1
271
     1
  0
XRECORD
  5
25
102
{ACAD_REACTORS
330
22
102
}
330
22
100
AcDbXrecord
280
     1
270
     1
271
     1
  0
CELLSTYLEMAP
  5
13F
102
{ACAD_REACTORS
330
13E
102
}
330
13E
100
AcDbCellStyleMap
 90
        3
300
CELLSTYLE
  1
TABLEFORMAT_BEGIN
 90
        5
170
     1
 91
        0
 92
    32768
 62
   257
 93
        1
300
CONTENTFORMAT
  1
CONTENTFORMAT_BEGIN
 90
        0
 91
        0
 92
      512
 93
        0
300

 40
0.0
140
1.0
 94
        5
 62
     0
340
55
144
0.25
309
CONTENTFORMAT_END
171
     0
 94
        0
309
TABLEFORMAT_END
  1
CELLSTYLE_BEGIN
 90
        1
 91
        1
300
_TITLE
309
CELLSTYLE_END
300
CELLSTYLE
  1
TABLEFORMAT_BEGIN
 90
        5
170
     1
 91
        0
 92
        0
 62
   257
 93
        1
300
CONTENTFORMAT
  1
CONTENTFORMAT_BEGIN
 90
        0
 91
        0
 92
      512
 93
        0
300

 40
0.0
140
1.0
 94
        5
 62
     0
340
55
144
0.18
309
CONTENTFORMAT_END
171
     0
 94
        0
309
TABLEFORMAT_END
  1
CELLSTYLE_BEGIN
 90
        2
 91
        1
300
_HEADER
309
CELLSTYLE_END
300
CELLSTYLE
  1
TABLEFORMAT_BEGIN
 90
        5
170
     1
 91
        0
 92
        0
 62
   257
 93
        1
300
CONTENTFORMAT
  1
CONTENTFORMAT_BEGIN
 90
        0
 91
        0
 92
      512
 93
        0
300

 40
0.0
140
1.0
 94
        2
 62
     0
340
55
144
0.18
309
CONTENTFORMAT_END
171
     0
 94
        0
309
TABLEFORMAT_END
  1
CELLSTYLE_BEGIN
 90
        3
 91
        2
300
_DATA
309
CELLSTYLE_END
  0
ENDSEC
  0
EOF
