  0
SECTION
  2
HEADER
  9
$ACADVER
  1
AC1009
  0
ENDSEC
  0
SECTION
  2
TABLES
  0
TABLE
  2
LAYER
  70
3
  0
LAYER
  2
Layer_0
  70
0
  62
7
  6
CONTINUOUS
  0
LAYER
  2
Layer_7
  70
0
  62
6
  6
CONTINUOUS
  0
LAYER
  2
Layer_16
  70
0
  62
9
  6
CONTINUOUS
  0
ENDTAB
  0
ENDSEC
  0
SECTION
  2
ENTITIES
  0
POLYLINE
  5
90
  8
Layer_16
  62
9
  66
1
  10
0
  20
0
  30
0
  0
VERTEX
  5
90
  8
Layer_16
  10
374.75006
  20
299.99997
  0
VERTEX
  5
91
  8
Layer_16
  10
374.75006
  20
200
  0
SEQEND
  0
POLYLINE
  5
93
  8
Layer_16
  62
9
  66
1
  10
0
  20
0
  30
0
  0
VERTEX
  5
93
  8
Layer_16
  10
325.25006
  20
200
  0
VERTEX
  5
94
  8
Layer_16
  10
325.25006
  20
300
  0
SEQEND
  0
POLYLINE
  5
96
  8
Layer_7
  62
6
  70
1
  66
1
  10
0
  20
0
  30
0
  0
VERTEX
  5
96
  8
Layer_7
  10
367.30005
  20
252.05
  42
0.41421375
  0
VERTEX
  5
97
  8
Layer_7
  10
365.25006
  20
250
  42
0.4142135
  0
VERTEX
  5
98
  8
Layer_7
  10
367.30005
  20
247.95
  42
0.41421362
  0
VERTEX
  5
99
  8
Layer_7
  10
369.35007
  20
250
  42
0.41421375
  0
SEQEND
  0
POLYLINE
  5
9b
  8
Layer_7
  62
6
  70
1
  66
1
  10
0
  20
0
  30
0
  0
VERTEX
  5
9b
  8
Layer_7
  10
332.70007
  20
252.05
  42
0.41421362
  0
VERTEX
  5
9c
  8
Layer_7
  10
330.65005
  20
250
  42
0.41421362
  0
VERTEX
  5
9d
  8
Layer_7
  10
332.70007
  20
247.95
  42
0.41421356
  0
VERTEX
  5
9e
  8
Layer_7
  10
334.75006
  20
250
  42
0.41421356
  0
SEQEND
  0
POLYLINE
  5
a0
  8
Layer_7
  62
6
  70
1
  66
1
  10
0
  20
0
  30
0
  0
VERTEX
  5
a0
  8
Layer_7
  10
347.00006
  20
233.59982
  0
VERTEX
  5
a1
  8
Layer_7
  10
347.00006
  20
231.59982
  0
VERTEX
  5
a2
  8
Layer_7
  10
353.00006
  20
231.59982
  0
VERTEX
  5
a3
  8
Layer_7
  10
353.00006
  20
233.59982
  0
VERTEX
  5
a4
  8
Layer_7
  10
357.28458
  20
233.59982
  0
VERTEX
  5
a5
  8
Layer_7
  10
357.28458
  20
237.10001
  0
VERTEX
  5
a6
  8
Layer_7
  10
358.49869
  20
237.10001
  0
VERTEX
  5
a7
  8
Layer_7
  10
358.50165
  20
238.88034
  0
VERTEX
  5
a8
  8
Layer_7
  10
358.81427
  20
239.12628
  0
VERTEX
  5
a9
  8
Layer_7
  10
359.11942
  20
239.38071
  0
VERTEX
  5
aa
  8
Layer_7
  10
359.4169
  20
239.64343
  0
VERTEX
  5
ab
  8
Layer_7
  10
359.70657
  20
239.91428
  0
VERTEX
  5
ac
  8
Layer_7
  10
359.98831
  20
240.19302
  0
VERTEX
  5
ad
  8
Layer_7
  10
360.26193
  20
240.47946
  0
VERTEX
  5
ae
  8
Layer_7
  10
360.52725
  20
240.77344
  0
VERTEX
  5
af
  8
Layer_7
  10
360.78412
  20
241.07474
  0
VERTEX
  5
b0
  8
Layer_7
  10
361.03241
  20
241.38315
  0
VERTEX
  5
b1
  8
Layer_7
  10
361.27194
  20
241.69852
  0
VERTEX
  5
b2
  8
Layer_7
  10
361.50253
  20
242.02063
  0
VERTEX
  5
b3
  8
Layer_7
  10
361.72403
  20
242.3493
  0
VERTEX
  5
b4
  8
Layer_7
  10
361.93631
  20
242.68433
  0
VERTEX
  5
b5
  8
Layer_7
  10
362.13919
  20
243.02548
  0
VERTEX
  5
b6
  8
Layer_7
  10
362.33249
  20
243.37265
  0
VERTEX
  5
b7
  8
Layer_7
  10
362.51605
  20
243.72559
  0
VERTEX
  5
b8
  8
Layer_7
  10
362.68976
  20
244.08409
  0
VERTEX
  5
b9
  8
Layer_7
  10
362.85339
  20
244.448
  0
VERTEX
  5
ba
  8
Layer_7
  10
363.00684
  20
244.81709
  0
VERTEX
  5
bb
  8
Layer_7
  10
363.14993
  20
245.19119
  0
VERTEX
  5
bc
  8
Layer_7
  10
363.28247
  20
245.5701
  0
VERTEX
  5
bd
  8
Layer_7
  10
363.40436
  20
245.95361
  0
VERTEX
  5
be
  8
Layer_7
  10
363.51538
  20
246.34155
  0
VERTEX
  5
bf
  8
Layer_7
  10
363.61539
  20
246.73372
  0
VERTEX
  5
c0
  8
Layer_7
  10
363.70422
  20
247.12993
  0
VERTEX
  5
c1
  8
Layer_7
  10
363.78177
  20
247.52997
  0
VERTEX
  5
c2
  8
Layer_7
  10
363.84778
  20
247.93365
  0
VERTEX
  5
c3
  8
Layer_7
  10
363.90219
  20
248.34079
  0
VERTEX
  5
c4
  8
Layer_7
  10
363.94476
  20
248.75119
  0
VERTEX
  5
c5
  8
Layer_7
  10
363.97537
  20
249.16466
  0
VERTEX
  5
c6
  8
Layer_7
  10
363.99387
  20
249.58099
  0
VERTEX
  5
c7
  8
Layer_7
  10
364.00006
  20
250
  42
0.41421371
  0
VERTEX
  5
c8
  8
Layer_7
  10
350.00006
  20
264
  42
0.41421371
  0
VERTEX
  5
c9
  8
Layer_7
  10
336.00006
  20
250
  0
VERTEX
  5
ca
  8
Layer_7
  10
336.00635
  20
249.57648
  0
VERTEX
  5
cb
  8
Layer_7
  10
336.02509
  20
249.1561
  0
VERTEX
  5
cc
  8
Layer_7
  10
336.05609
  20
248.739
  0
VERTEX
  5
cd
  8
Layer_7
  10
336.09918
  20
248.32539
  0
VERTEX
  5
ce
  8
Layer_7
  10
336.15421
  20
247.91545
  0
VERTEX
  5
cf
  8
Layer_7
  10
336.22098
  20
247.50935
  0
VERTEX
  5
d0
  8
Layer_7
  10
336.29929
  20
247.10725
  0
VERTEX
  5
d1
  8
Layer_7
  10
336.38901
  20
246.70937
  0
VERTEX
  5
d2
  8
Layer_7
  10
336.48993
  20
246.31584
  0
VERTEX
  5
d3
  8
Layer_7
  10
336.6019
  20
245.92686
  0
VERTEX
  5
d4
  8
Layer_7
  10
336.7247
  20
245.54262
  0
VERTEX
  5
d5
  8
Layer_7
  10
336.85822
  20
245.16328
  0
VERTEX
  5
d6
  8
Layer_7
  10
337.0022
  20
244.78902
  0
VERTEX
  5
d7
  8
Layer_7
  10
337.15656
  20
244.42003
  0
VERTEX
  5
d8
  8
Layer_7
  10
337.32101
  20
244.05647
  0
VERTEX
  5
d9
  8
Layer_7
  10
337.49545
  20
243.69852
  0
VERTEX
  5
da
  8
Layer_7
  10
337.67972
  20
243.34637
  0
VERTEX
  5
db
  8
Layer_7
  10
337.87357
  20
243.00021
  0
VERTEX
  5
dc
  8
Layer_7
  10
338.07687
  20
242.66019
  0
VERTEX
  5
dd
  8
Layer_7
  10
338.28946
  20
242.32648
  0
VERTEX
  5
de
  8
Layer_7
  10
338.51111
  20
241.9993
  0
VERTEX
  5
df
  8
Layer_7
  10
338.74167
  20
241.67877
  0
VERTEX
  5
e0
  8
Layer_7
  10
338.98099
  20
241.36514
  0
VERTEX
  5
e1
  8
Layer_7
  10
339.22885
  20
241.05853
  0
VERTEX
  5
e2
  8
Layer_7
  10
339.48508
  20
240.75916
  0
VERTEX
  5
e3
  8
Layer_7
  10
339.74954
  20
240.46716
  0
VERTEX
  5
e4
  8
Layer_7
  10
340.022
  20
240.18274
  0
VERTEX
  5
e5
  8
Layer_7
  10
340.30234
  20
239.90607
  0
VERTEX
  5
e6
  8
Layer_7
  10
340.59033
  20
239.63733
  0
VERTEX
  5
e7
  8
Layer_7
  10
340.8858
  20
239.37668
  0
VERTEX
  5
e8
  8
Layer_7
  10
341.18863
  20
239.12433
  0
VERTEX
  5
e9
  8
Layer_7
  10
341.49857
  20
238.88046
  0
VERTEX
  5
ea
  8
Layer_7
  10
341.50143
  20
237.10001
  0
VERTEX
  5
eb
  8
Layer_7
  10
342.71555
  20
237.10001
  0
VERTEX
  5
ec
  8
Layer_7
  10
342.71555
  20
233.59982
  0
SEQEND
  0
POLYLINE
  5
ee
  8
Layer_0
  62
7
  66
1
  10
0
  20
0
  30
0
  0
VERTEX
  5
ee
  8
Layer_0
  10
374.75009
  20
299.99997
  0
VERTEX
  5
ef
  8
Layer_0
  10
458.75009
  20
299.99994
  0
VERTEX
  5
f0
  8
Layer_0
  10
458.75009
  20
199.99997
  0
VERTEX
  5
f1
  8
Layer_0
  10
374.75009
  20
200
  0
VERTEX
  5
f2
  8
Layer_0
  10
374.75009
  20
200.00003
  0
SEQEND
  0
POLYLINE
  5
f4
  8
Layer_0
  62
7
  66
1
  10
0
  20
0
  30
0
  0
VERTEX
  5
f4
  8
Layer_0
  10
325.24997
  20
300
  0
VERTEX
  5
f5
  8
Layer_0
  10
241.24997
  20
299.99998
  0
VERTEX
  5
f6
  8
Layer_0
  10
241.24997
  20
200
  0
VERTEX
  5
f7
  8
Layer_0
  10
325.24997
  20
200
  0
VERTEX
  5
f8
  8
Layer_0
  10
325.24994
  20
200
  0
SEQEND
  0
POLYLINE
  5
fa
  8
Layer_0
  62
7
  66
1
  10
0
  20
0
  30
0
  0
VERTEX
  5
fa
  8
Layer_0
  10
325.25006
  20
300
  0
VERTEX
  5
fb
  8
Layer_0
  10
374.75006
  20
299.99997
  0
SEQEND
  0
POLYLINE
  5
fd
  8
Layer_0
  62
7
  66
1
  10
0
  20
0
  30
0
  0
VERTEX
  5
fd
  8
Layer_0
  10
374.75006
  20
200
  0
VERTEX
  5
fe
  8
Layer_0
  10
325.25006
  20
200
  0
SEQEND
  0
POLYLINE
  5
100
  8
Layer_0
  62
7
  70
1
  66
1
  10
0
  20
0
  30
0
  0
VERTEX
  5
100
  8
Layer_0
  10
431.50131
  20
288.54144
  42
0.41421356
  0
VERTEX
  5
101
  8
Layer_0
  10
429.25131
  20
286.29144
  42
0.41421356
  0
VERTEX
  5
102
  8
Layer_0
  10
431.50131
  20
284.04144
  42
0.41421356
  0
VERTEX
  5
103
  8
Layer_0
  10
433.75131
  20
286.29144
  42
0.41421356
  0
SEQEND
  0
POLYLINE
  5
105
  8
Layer_0
  62
7
  70
1
  66
1
  10
0
  20
0
  30
0
  0
VERTEX
  5
105
  8
Layer_0
  10
431.50131
  20
215.9585
  42
0.41421356
  0
VERTEX
  5
106
  8
Layer_0
  10
429.25131
  20
213.7085
  42
0.41421356
  0
VERTEX
  5
107
  8
Layer_0
  10
431.50131
  20
211.4585
  42
0.41421356
  0
VERTEX
  5
108
  8
Layer_0
  10
433.75131
  20
213.7085
  42
0.41421356
  0
SEQEND
  0
POLYLINE
  5
10a
  8
Layer_0
  62
7
  70
1
  66
1
  10
0
  20
0
  30
0
  0
VERTEX
  5
10a
  8
Layer_0
  10
268.49875
  20
288.54147
  42
0.41421356
  0
VERTEX
  5
10b
  8
Layer_0
  10
266.24875
  20
286.29147
  42
0.41421356
  0
VERTEX
  5
10c
  8
Layer_0
  10
268.49875
  20
284.04147
  42
0.41421356
  0
VERTEX
  5
10d
  8
Layer_0
  10
270.74875
  20
286.29147
  42
0.41421356
  0
SEQEND
  0
POLYLINE
  5
10f
  8
Layer_0
  62
7
  70
1
  66
1
  10
0
  20
0
  30
0
  0
VERTEX
  5
10f
  8
Layer_0
  10
268.49875
  20
215.95853
  42
0.41421356
  0
VERTEX
  5
110
  8
Layer_0
  10
266.24875
  20
213.70853
  42
0.41421356
  0
VERTEX
  5
111
  8
Layer_0
  10
268.49875
  20
211.45853
  42
0.41421356
  0
VERTEX
  5
112
  8
Layer_0
  10
270.74875
  20
213.70853
  42
0.41421356
  0
SEQEND
  0
ENDSEC
  0
EOF
