  0
SECTION
  2
HEADER
  9
$ACADVER
  1
AC1024
  9
$ACADMAINTVER
 70
     6
  9
$DWGCODEPAGE
  3
UNDEFINED
  9
$INSBASE
 10
0.0
 20
0.0
 30
0.0
  9
$EXTMIN
 10
1.000000000000000E+20
 20
1.000000000000000E+20
 30
1.000000000000000E+20
  9
$EXTMAX
 10
-1.000000000000000E+20
 20
-1.000000000000000E+20
 30
-1.000000000000000E+20
  9
$LIMMIN
 10
0.0
 20
0.0
  9
$LIMMAX
 10
12.0
 20
9.0
  9
$ORTHOMODE
 70
     0
  9
$REGENMODE
 70
     1
  9
$FILLMODE
 70
     1
  9
$QTEXTMODE
 70
     0
  9
$MIRRTEXT
 70
     1
  9
$LTSCALE
 40
1.0
  9
$ATTMODE
 70
     1
  9
$TEXTSIZE
 40
0.2
  9
$TRACEWID
 40
0.05
  9
$TEXTSTYLE
  7
Standard
  9
$CLAYER
  8
0
  9
$CELTYPE
  6
ByLayer
  9
$CECOLOR
 62
   256
  9
$CELTSCALE
 40
1.0
  9
$DISPSILH
 70
     0
  9
$DIMSCALE
 40
1.0
  9
$DIMASZ
 40
0.18
  9
$DIMEXO
 40
0.0625
  9
$DIMDLI
 40
0.38
  9
$DIMRND
 40
0.0
  9
$DIMDLE
 40
0.0
  9
$DIMEXE
 40
0.18
  9
$DIMTP
 40
0.0
  9
$DIMTM
 40
0.0
  9
$DIMTXT
 40
0.18
  9
$DIMCEN
 40
0.09
  9
$DIMTSZ
 40
0.0
  9
$DIMTOL
 70
     0
  9
$DIMLIM
 70
     0
  9
$DIMTIH
 70
     1
  9
$DIMTOH
 70
     1
  9
$DIMSE1
 70
     0
  9
$DIMSE2
 70
     0
  9
$DIMTAD
 70
     0
  9
$DIMZIN
 70
     0
  9
$DIMBLK
  1

  9
$DIMASO
 70
     1
  9
$DIMSHO
 70
     1
  9
$DIMPOST
  1

  9
$DIMAPOST
  1

  9
$DIMALT
 70
     0
  9
$DIMALTD
 70
     2
  9
$DIMALTF
 40
25.4
  9
$DIMLFAC
 40
1.0
  9
$DIMTOFL
 70
     0
  9
$DIMTVP
 40
0.0
  9
$DIMTIX
 70
     0
  9
$DIMSOXD
 70
     0
  9
$DIMSAH
 70
     0
  9
$DIMBLK1
  1

  9
$DIMBLK2
  1

  9
$DIMSTYLE
  2
Standard
  9
$DIMCLRD
 70
     0
  9
$DIMCLRE
 70
     0
  9
$DIMCLRT
 70
     0
  9
$DIMTFAC
 40
1.0
  9
$DIMGAP
 40
0.09
  9
$DIMJUST
 70
     0
  9
$DIMSD1
 70
     0
  9
$DIMSD2
 70
     0
  9
$DIMTOLJ
 70
     1
  9
$DIMTZIN
 70
     0
  9
$DIMALTZ
 70
     0
  9
$DIMALTTZ
 70
     0
  9
$DIMUPT
 70
     0
  9
$DIMDEC
 70
     4
  9
$DIMTDEC
 70
     4
  9
$DIMALTU
 70
     2
  9
$DIMALTTD
 70
     2
  9
$DIMTXSTY
  7
Standard
  9
$DIMAUNIT
 70
     0
  9
$DIMADEC
 70
     0
  9
$DIMALTRND
 40
0.0
  9
$DIMAZIN
 70
     0
  9
$DIMDSEP
 70
    46
  9
$DIMATFIT
 70
     3
  9
$DIMFRAC
 70
     0
  9
$DIMLDRBLK
  1

  9
$DIMLUNIT
 70
     2
  9
$DIMLWD
 70
    -2
  9
$DIMLWE
 70
    -2
  9
$DIMTMOVE
 70
     0
  9
$DIMFXL
 40
1.0
  9
$DIMFXLON
 70
     0
  9
$DIMJOGANG
 40
0.7853981633974483
  9
$DIMTFILL
 70
     0
  9
$DIMTFILLCLR
 70
     0
  9
$DIMARCSYM
 70
     0
  9
$DIMLTYPE
  6

  9
$DIMLTEX1
  6

  9
$DIMLTEX2
  6

  9
$DIMTXTDIRECTION
 70
     0
  9
$LUNITS
 70
     2
  9
$LUPREC
 70
     4
  9
$SKETCHINC
 40
0.1
  9
$FILLETRAD
 40
0.5
  9
$AUNITS
 70
     0
  9
$AUPREC
 70
     0
  9
$MENU
  1
.
  9
$ELEVATION
 40
0.0
  9
$PELEVATION
 40
0.0
  9
$THICKNESS
 40
0.0
  9
$LIMCHECK
 70
     0
  9
$CHAMFERA
 40
0.5
  9
$CHAMFERB
 40
0.5
  9
$CHAMFERC
 40
1.0
  9
$CHAMFERD
 40
0.0
  9
$SKPOLY
 70
     0
  9
$TDCREATE
 40
2457695.782835637
  9
$TDUCREATE
 40
2457696.116168981
  9
$TDUPDATE
 40
2457695.782835637
  9
$TDUUPDATE
 40
2457696.116168981
  9
$TDINDWG
 40
0.0000000116
  9
$TDUSRTIMER
 40
0.0000000116
  9
$USRTIMER
 70
     1
  9
$ANGBASE
 50
0.0
  9
$ANGDIR
 70
     0
  9
$PDMODE
 70
     0
  9
$PDSIZE
 40
0.0
  9
$PLINEWID
 40
0.0
  9
$SPLFRAME
 70
     0
  9
$SPLINETYPE
 70
     6
  9
$SPLINESEGS
 70
     8
  9
$HANDSEED
  5
CB
  9
$SURFTAB1
 70
     6
  9
$SURFTAB2
 70
     6
  9
$SURFTYPE
 70
     6
  9
$SURFU
 70
     6
  9
$SURFV
 70
     6
  9
$UCSBASE
  2

  9
$UCSNAME
  2

  9
$UCSORG
 10
0.0
 20
0.0
 30
0.0
  9
$UCSXDIR
 10
1.0
 20
0.0
 30
0.0
  9
$UCSYDIR
 10
0.0
 20
1.0
 30
0.0
  9
$UCSORTHOREF
  2

  9
$UCSORTHOVIEW
 70
     0
  9
$UCSORGTOP
 10
0.0
 20
0.0
 30
0.0
  9
$UCSORGBOTTOM
 10
0.0
 20
0.0
 30
0.0
  9
$UCSORGLEFT
 10
0.0
 20
0.0
 30
0.0
  9
$UCSORGRIGHT
 10
0.0
 20
0.0
 30
0.0
  9
$UCSORGFRONT
 10
0.0
 20
0.0
 30
0.0
  9
$UCSORGBACK
 10
0.0
 20
0.0
 30
0.0
  9
$PUCSBASE
  2

  9
$PUCSNAME
  2

  9
$PUCSORG
 10
0.0
 20
0.0
 30
0.0
  9
$PUCSXDIR
 10
1.0
 20
0.0
 30
0.0
  9
$PUCSYDIR
 10
0.0
 20
1.0
 30
0.0
  9
$PUCSORTHOREF
  2

  9
$PUCSORTHOVIEW
 70
     0
  9
$PUCSORGTOP
 10
0.0
 20
0.0
 30
0.0
  9
$PUCSORGBOTTOM
 10
0.0
 20
0.0
 30
0.0
  9
$PUCSORGLEFT
 10
0.0
 20
0.0
 30
0.0
  9
$PUCSORGRIGHT
 10
0.0
 20
0.0
 30
0.0
  9
$PUCSORGFRONT
 10
0.0
 20
0.0
 30
0.0
  9
$PUCSORGBACK
 10
0.0
 20
0.0
 30
0.0
  9
$USERI1
 70
     0
  9
$USERI2
 70
     0
  9
$USERI3
 70
     0
  9
$USERI4
 70
     0
  9
$USERI5
 70
     0
  9
$USERR1
 40
0.0
  9
$USERR2
 40
0.0
  9
$USERR3
 40
0.0
  9
$USERR4
 40
0.0
  9
$USERR5
 40
0.0
  9
$WORLDVIEW
 70
     1
  9
$SHADEDGE
 70
     3
  9
$SHADEDIF
 70
    70
  9
$TILEMODE
 70
     1
  9
$MAXACTVP
 70
    64
  9
$PINSBASE
 10
0.0
 20
0.0
 30
0.0
  9
$PLIMCHECK
 70
     0
  9
$PEXTMIN
 10
1.000000000000000E+20
 20
1.000000000000000E+20
 30
1.000000000000000E+20
  9
$PEXTMAX
 10
-1.000000000000000E+20
 20
-1.000000000000000E+20
 30
-1.000000000000000E+20
  9
$PLIMMIN
 10
0.0
 20
0.0
  9
$PLIMMAX
 10
12.0
 20
9.0
  9
$UNITMODE
 70
     0
  9
$VISRETAIN
 70
     1
  9
$PLINEGEN
 70
     0
  9
$PSLTSCALE
 70
     1
  9
$TREEDEPTH
 70
  3020
  9
$CMLSTYLE
  2
Standard
  9
$CMLJUST
 70
     0
  9
$CMLSCALE
 40
1.0
  9
$PROXYGRAPHICS
 70
     1
  9
$MEASUREMENT
 70
     0
  9
$CELWEIGHT
370
    -1
  9
$ENDCAPS
280
     0
  9
$JOINSTYLE
280
     0
  9
$LWDISPLAY
290
     1
  9
$INSUNITS
 70
     1
  9
$HYPERLINKBASE
  1

  9
$STYLESHEET
  1

  9
$XEDIT
290
     1
  9
$CEPSNTYPE
380
     0
  9
$PSTYLEMODE
290
     1
  9
$FINGERPRINTGUID
  2
{D0C869D7-C8B6-2990-C848-059D1798A86A}
  9
$VERSIONGUID
  2
{FAEB1C32-E019-11D5-929B-00C0DF256EC4}
  9
$EXTNAMES
290
     1
  9
$PSVPSCALE
 40
0.0
  9
$OLESTARTUP
290
     0
  9
$SORTENTS
280
   127
  9
$INDEXCTL
280
     0
  9
$HIDETEXT
280
     1
  9
$XCLIPFRAME
280
     2
  9
$HALOGAP
280
     0
  9
$OBSCOLOR
 70
   257
  9
$OBSLTYPE
280
     0
  9
$INTERSECTIONDISPLAY
280
     0
  9
$INTERSECTIONCOLOR
 70
   257
  9
$DIMASSOC
280
     2
  9
$PROJECTNAME
  1

  9
$CAMERADISPLAY
290
     0
  9
$LENSLENGTH
 40
50.0
  9
$CAMERAHEIGHT
 40
0.0
  9
$STEPSPERSEC
 40
2.0
  9
$STEPSIZE
 40
6.0
  9
$3DDWFPREC
 40
2.0
  9
$PSOLWIDTH
 40
0.25
  9
$PSOLHEIGHT
 40
4.0
  9
$LOFTANG1
 40
1.570796326794897
  9
$LOFTANG2
 40
1.570796326794897
  9
$LOFTMAG1
 40
0.0
  9
$LOFTMAG2
 40
0.0
  9
$LOFTPARAM
 70
     7
  9
$LOFTNORMALS
280
     1
  9
$LATITUDE
 40
37.795
  9
$LONGITUDE
 40
-122.394
  9
$NORTHDIRECTION
 40
0.0
  9
$TIMEZONE
 70
 -8000
  9
$LIGHTGLYPHDISPLAY
280
     1
  9
$TILEMODELIGHTSYNCH
280
     1
  9
$CMATERIAL
347
3C
  9
$SOLIDHIST
280
     1
  9
$SHOWHIST
280
     1
  9
$DWFFRAME
280
     2
  9
$DGNFRAME
280
     2
  9
$REALWORLDSCALE
290
     1
  9
$INTERFERECOLOR
 62
   256
  9
$CSHADOW
280
     0
  9
$SHADOWPLANELOCATION
 40
0.0
  0
ENDSEC
  0
SECTION
  2
CLASSES
  0
CLASS
  1
ACDBDICTIONARYWDFLT
  2
AcDbDictionaryWithDefault
  3
ObjectDBX Classes
 90
        0
 91
        4
280
     0
281
     0
  0
CLASS
  1
VISUALSTYLE
  2
AcDbVisualStyle
  3
ObjectDBX Classes
 90
     4095
 91
        4
280
     0
281
     0
  0
CLASS
  1
MATERIAL
  2
AcDbMaterial
  3
ObjectDBX Classes
 90
     1153
 91
        4
280
     0
281
     0
  0
CLASS
  1
SUN
  2
AcDbSun
  3
SCENEOE
 90
     1024
 91
        4
280
     0
281
     0
  0
ENDSEC
  0
SECTION
  2
TABLES
  0
TABLE
  2
VPORT
  5
8
330
0
100
AcDbSymbolTable
 70
     1
  0
VPORT
  5
29
330
8
100
AcDbSymbolTableRecord
100
AcDbViewportTableRecord
  2
*Active
 70
     0
 10
0.0
 20
0.0
 11
1.0
 21
1.0
 12
0.0
 22
0.0
 13
0.0
 23
0.0
 14
0.5
 24
0.5
 15
0.5
 25
0.5
 16
0.0
 26
0.0
 36
1.0
 17
24.0
 27
24.0
 37
0.0
 40
48.0
 41
1.0
 42
50.0
 43
0.0
 44
0.0
 50
0.0
 51
0.0
 71
     0
 72
   100
 73
     1
 74
     3
 75
     0
 76
     0
 77
     0
 78
     0
281
     0
 65
     1
110
0.0
120
0.0
130
0.0
111
1.0
121
0.0
131
0.0
112
0.0
122
1.0
132
0.0
 79
     0
146
0.0
 60
     3
 61
     5
292
     1
282
     1
141
0.0
142
0.0
 63
   250
361
3F
  0
ENDTAB
  0
TABLE
  2
LTYPE
  5
5
330
0
100
AcDbSymbolTable
 70
     1
  0
LTYPE
  5
14
330
5
100
AcDbSymbolTableRecord
100
AcDbLinetypeTableRecord
  2
ByBlock
 70
     0
  3

 72
    65
 73
     0
 40
0.0
  0
LTYPE
  5
15
330
5
100
AcDbSymbolTableRecord
100
AcDbLinetypeTableRecord
  2
ByLayer
 70
     0
  3

 72
    65
 73
     0
 40
0.0
  0
LTYPE
  5
16
330
5
100
AcDbSymbolTableRecord
100
AcDbLinetypeTableRecord
  2
Continuous
 70
     0
  3
Solid line
 72
    65
 73
     0
 40
0.0
  0
ENDTAB
  0
TABLE
  2
LAYER
  5
2
330
0
100
AcDbSymbolTable
 70
     2
  0
LAYER
  5
10
330
2
100
AcDbSymbolTableRecord
100
AcDbLayerTableRecord
  2
0
 70
     0
 62
     7
  6
Continuous
370
    -3
390
F
347
3E
  0
LAYER
  5
40
330
2
100
AcDbSymbolTableRecord
100
AcDbLayerTableRecord
  2
Layer 1
 70
     0
 62
     7
  6
Continuous
370
    -3
390
F
347
3E
  0
ENDTAB
  0
TABLE
  2
STYLE
  5
3
330
0
100
AcDbSymbolTable
 70
     1
  0
STYLE
  5
11
330
3
100
AcDbSymbolTableRecord
100
AcDbTextStyleTableRecord
  2
Standard
 70
     0
 40
0.0
 41
1.0
 50
0.0
 71
     0
 42
0.2
  3
txt
  4

  0
ENDTAB
  0
TABLE
  2
VIEW
  5
6
330
0
100
AcDbSymbolTable
 70
     0
  0
ENDTAB
  0
TABLE
  2
UCS
  5
7
330
0
100
AcDbSymbolTable
 70
     0
  0
ENDTAB
  0
TABLE
  2
APPID
  5
9
330
0
100
AcDbSymbolTable
 70
     1
  0
APPID
  5
12
330
9
100
AcDbSymbolTableRecord
100
AcDbRegAppTableRecord
  2
ACAD
 70
     0
  0
ENDTAB
  0
TABLE
  2
DIMSTYLE
  5
A
330
0
100
AcDbSymbolTable
 70
     1
100
AcDbDimStyleTable
  0
DIMSTYLE
105
27
330
A
100
AcDbSymbolTableRecord
100
AcDbDimStyleTableRecord
  2
Standard
 70
     0
178
     0
340
11
  0
ENDTAB
  0
TABLE
  2
BLOCK_RECORD
  5
1
330
0
100
AcDbSymbolTable
 70
     2
  0
BLOCK_RECORD
  5
1F
330
1
100
AcDbSymbolTableRecord
100
AcDbBlockTableRecord
  2
*Model_Space
340
22
 70
     0
280
     1
281
     0
  0
BLOCK_RECORD
  5
1B
330
1
100
AcDbSymbolTableRecord
100
AcDbBlockTableRecord
  2
*Paper_Space
340
1E
 70
     0
280
     1
281
     0
  0
BLOCK_RECORD
  5
23
330
1
100
AcDbSymbolTableRecord
100
AcDbBlockTableRecord
  2
*Paper_Space0
340
26
 70
     0
280
     1
281
     0
  0
BLOCK_RECORD
  5
41
330
1
100
AcDbSymbolTableRecord
100
AcDbBlockTableRecord
  2
block 2
340
0
102
{BLKREFS
331
42
102
}
 70
     0
280
     1
281
     0
  0
ENDTAB
  0
ENDSEC
  0
SECTION
  2
BLOCKS
  0
BLOCK
  5
20
330
1F
100
AcDbEntity
  8
0
100
AcDbBlockBegin
  2
*Model_Space
 70
     0
 10
0.0
 20
0.0
 30
0.0
  3
*Model_Space
  1

  0
ENDBLK
  5
21
330
1F
100
AcDbEntity
  8
0
100
AcDbBlockEnd
  0
BLOCK
  5
1C
330
1B
100
AcDbEntity
 67
     1
  8
0
100
AcDbBlockBegin
  2
*Paper_Space
 70
     0
 10
0.0
 20
0.0
 30
0.0
  3
*Paper_Space
  1

  0
ENDBLK
  5
1D
330
1B
100
AcDbEntity
 67
     1
  8
0
100
AcDbBlockEnd
  0
BLOCK
  5
24
330
23
100
AcDbEntity
  8
0
100
AcDbBlockBegin
  2
*Paper_Space0
 70
     0
 10
0.0
 20
0.0
 30
0.0
  3
*Paper_Space0
  1

  0
ENDBLK
  5
25
330
23
100
AcDbEntity
  8
0
100
AcDbBlockEnd
  0
BLOCK
  5
43
330
41
100
AcDbEntity
  8
0
100
AcDbBlockBegin
  2
block 2
 70
     0
 10
0.0
 20
0.0
 30
0.0
  3
block 2
  1

  0
POLYLINE
  5
45
330
41
100
AcDbEntity
  8
Layer 1
 62
     7
420
 16777215
370
   100
100
AcDb2dPolyline
 66
     1
 10
0.0
 20
0.0
 30
0.0
  0
VERTEX
  5
46
330
45
100
AcDbEntity
  8
Layer 1
 62
     7
420
 16777215
370
   100
100
AcDbVertex
100
AcDb2dVertex
 10
15.82524062527551
 20
27.46642604139116
 30
0.0
  0
VERTEX
  5
47
330
45
100
AcDbEntity
  8
Layer 1
 62
     7
420
 16777215
370
   100
100
AcDbVertex
100
AcDb2dVertex
 10
17.0063421063953
 20
27.46642604139116
 30
0.0
  0
VERTEX
  5
48
330
45
100
AcDbEntity
  8
Layer 1
 62
     7
420
 16777215
370
   100
100
AcDbVertex
100
AcDb2dVertex
 10
17.0063421063953
 20
20.50279282199012
 30
0.0
  0
VERTEX
  5
49
330
45
100
AcDbEntity
  8
Layer 1
 62
     7
420
 16777215
370
   100
100
AcDbVertex
100
AcDb2dVertex
 10
15.82524062527551
 20
20.50279282199012
 30
0.0
  0
VERTEX
  5
4A
330
45
100
AcDbEntity
  8
Layer 1
 62
     7
420
 16777215
370
   100
100
AcDbVertex
100
AcDb2dVertex
 10
15.82524062527551
 20
27.46642604139116
 30
0.0
  0
SEQEND
  5
4B
330
45
100
AcDbEntity
  8
Layer 1
 62
     7
420
 16777215
370
   100
  0
SPLINE
  5
4C
330
41
100
AcDbEntity
  8
Layer 1
 62
     7
420
 16777215
370
   100
100
AcDbSpline
210
0.0
220
0.0
230
1.0
 70
    11
 71
     3
 72
    23
 73
    19
 74
     0
 42
0.0000000001
 43
0.0000000001
 12
1.0
 22
0.0
 32
0.0
 13
1.0
 23
0.0
 33
0.0
 40
0.0
 40
0.0
 40
0.0
 40
0.0
 40
1.0
 40
1.0
 40
1.0
 40
2.0
 40
2.0
 40
2.0
 40
3.0
 40
3.0
 40
3.0
 40
4.0
 40
4.0
 40
4.0
 40
5.0
 40
5.0
 40
5.0
 40
6.0
 40
6.0
 40
6.0
 40
6.0
 10
16.2189411189821
 20
25.90657089816199
 30
0.0
 10
16.2189411189821
 20
25.90657089816199
 30
0.0
 10
16.2189411189821
 20
25.90657089816199
 30
0.0
 10
16.2189411189821
 20
25.90657089816199
 30
0.0
 10
16.2189411189821
 20
25.85224282741547
 30
0.0
 10
16.17484660943349
 20
25.80814492702484
 30
0.0
 10
16.12051514784495
 20
25.80814492702484
 30
0.0
 10
16.06618707709842
 20
25.80814492702484
 30
0.0
 10
16.02209256754981
 20
25.85224282741547
 30
0.0
 10
16.02209256754981
 20
25.90657089816199
 30
0.0
 10
16.02209256754981
 20
25.96090235975053
 30
0.0
 10
16.06618707709842
 20
26.00499686929914
 30
0.0
 10
16.12051514784495
 20
26.00499686929914
 30
0.0
 10
16.17484660943349
 20
26.00499686929914
 30
0.0
 10
16.2189411189821
 20
25.96090235975053
 30
0.0
 10
16.2189411189821
 20
25.90657089816199
 30
0.0
 10
16.2189411189821
 20
25.90657089816199
 30
0.0
 10
16.2189411189821
 20
25.90657089816199
 30
0.0
 10
16.2189411189821
 20
25.90657089816199
 30
0.0
  0
SPLINE
  5
4D
330
41
100
AcDbEntity
  8
Layer 1
 62
     7
420
 16777215
370
   100
100
AcDbSpline
210
0.0
220
0.0
230
1.0
 70
    11
 71
     3
 72
    23
 73
    19
 74
     0
 42
0.0000000001
 43
0.0000000001
 12
1.0
 22
0.0
 32
0.0
 13
1.0
 23
0.0
 33
0.0
 40
0.0
 40
0.0
 40
0.0
 40
0.0
 40
1.0
 40
1.0
 40
1.0
 40
2.0
 40
2.0
 40
2.0
 40
3.0
 40
3.0
 40
3.0
 40
4.0
 40
4.0
 40
4.0
 40
5.0
 40
5.0
 40
5.0
 40
6.0
 40
6.0
 40
6.0
 40
6.0
 10
16.80949355496301
 20
25.90657089816199
 30
0.0
 10
16.80949355496301
 20
25.90657089816199
 30
0.0
 10
16.80949016412099
 20
25.90657089816199
 30
0.0
 10
16.80949016412099
 20
25.90657089816199
 30
0.0
 10
16.80949016412099
 20
25.85224282741547
 30
0.0
 10
16.76539565457238
 20
25.80814492702484
 30
0.0
 10
16.71106758382585
 20
25.80814492702484
 30
0.0
 10
16.65673612223731
 20
25.80814492702484
 30
0.0
 10
16.6126416126887
 20
25.85224282741547
 30
0.0
 10
16.6126416126887
 20
25.90657089816199
 30
0.0
 10
16.6126416126887
 20
25.96090235975053
 30
0.0
 10
16.65673612223731
 20
26.00499686929914
 30
0.0
 10
16.71106758382585
 20
26.00499686929914
 30
0.0
 10
16.76539565457238
 20
26.00499686929914
 30
0.0
 10
16.80949016412099
 20
25.96090235975053
 30
0.0
 10
16.80949016412099
 20
25.90657089816199
 30
0.0
 10
16.80949016412099
 20
25.90657089816199
 30
0.0
 10
16.80949355496301
 20
25.90657089816199
 30
0.0
 10
16.80949355496301
 20
25.90657089816199
 30
0.0
  0
SPLINE
  5
4E
330
41
100
AcDbEntity
  8
Layer 1
 62
     7
420
 16777215
370
   100
100
AcDbSpline
210
0.0
220
0.0
230
1.0
 70
    11
 71
     3
 72
    23
 73
    19
 74
     0
 42
0.0000000001
 43
0.0000000001
 12
1.0
 22
0.0
 32
0.0
 13
1.0
 23
0.0
 33
0.0
 40
0.0
 40
0.0
 40
0.0
 40
0.0
 40
1.0
 40
1.0
 40
1.0
 40
2.0
 40
2.0
 40
2.0
 40
3.0
 40
3.0
 40
3.0
 40
4.0
 40
4.0
 40
4.0
 40
5.0
 40
5.0
 40
5.0
 40
6.0
 40
6.0
 40
6.0
 40
6.0
 10
16.2189411189821
 20
22.06263779269324
 30
0.0
 10
16.2189411189821
 20
22.06263779269324
 30
0.0
 10
16.2189411189821
 20
22.06263779269324
 30
0.0
 10
16.2189411189821
 20
22.06263779269324
 30
0.0
 10
16.2189411189821
 20
22.0083063311047
 30
0.0
 10
16.17484660943349
 20
21.96421182155609
 30
0.0
 10
16.12051514784495
 20
21.96421182155609
 30
0.0
 10
16.06618707709842
 20
21.96421182155609
 30
0.0
 10
16.02209256754981
 20
22.0083063311047
 30
0.0
 10
16.02209256754981
 20
22.06263779269324
 30
0.0
 10
16.02209256754981
 20
22.11696925428178
 30
0.0
 10
16.06618707709842
 20
22.16106376383039
 30
0.0
 10
16.12051514784495
 20
22.16106376383039
 30
0.0
 10
16.17484660943349
 20
22.16106376383039
 30
0.0
 10
16.2189411189821
 20
22.11696925428178
 30
0.0
 10
16.2189411189821
 20
22.06263779269324
 30
0.0
 10
16.2189411189821
 20
22.06263779269324
 30
0.0
 10
16.2189411189821
 20
22.06263779269324
 30
0.0
 10
16.2189411189821
 20
22.06263779269324
 30
0.0
  0
SPLINE
  5
4F
330
41
100
AcDbEntity
  8
Layer 1
 62
     7
420
 16777215
370
   100
100
AcDbSpline
210
0.0
220
0.0
230
1.0
 70
    11
 71
     3
 72
    23
 73
    19
 74
     0
 42
0.0000000001
 43
0.0000000001
 12
1.0
 22
0.0
 32
0.0
 13
1.0
 23
0.0
 33
0.0
 40
0.0
 40
0.0
 40
0.0
 40
0.0
 40
1.0
 40
1.0
 40
1.0
 40
2.0
 40
2.0
 40
2.0
 40
3.0
 40
3.0
 40
3.0
 40
4.0
 40
4.0
 40
4.0
 40
5.0
 40
5.0
 40
5.0
 40
6.0
 40
6.0
 40
6.0
 40
6.0
 10
16.80949355496301
 20
22.06263779269324
 30
0.0
 10
16.80949355496301
 20
22.06263779269324
 30
0.0
 10
16.80949016412099
 20
22.06263779269324
 30
0.0
 10
16.80949016412099
 20
22.06263779269324
 30
0.0
 10
16.80949016412099
 20
22.0083063311047
 30
0.0
 10
16.76539565457238
 20
21.96421182155609
 30
0.0
 10
16.71106758382585
 20
21.96421182155609
 30
0.0
 10
16.65673612223731
 20
21.96421182155609
 30
0.0
 10
16.6126416126887
 20
22.0083063311047
 30
0.0
 10
16.6126416126887
 20
22.06263779269324
 30
0.0
 10
16.6126416126887
 20
22.11696925428178
 30
0.0
 10
16.65673612223731
 20
22.16106376383039
 30
0.0
 10
16.71106758382585
 20
22.16106376383039
 30
0.0
 10
16.76539565457238
 20
22.16106376383039
 30
0.0
 10
16.80949016412099
 20
22.11696925428178
 30
0.0
 10
16.80949016412099
 20
22.06263779269324
 30
0.0
 10
16.80949016412099
 20
22.06263779269324
 30
0.0
 10
16.80949355496301
 20
22.06263779269324
 30
0.0
 10
16.80949355496301
 20
22.06263779269324
 30
0.0
  0
POLYLINE
  5
50
330
41
100
AcDbEntity
  8
Layer 1
 62
     7
420
 16777215
370
   100
100
AcDb2dPolyline
 66
     1
 10
0.0
 20
0.0
 30
0.0
  0
VERTEX
  5
51
330
50
100
AcDbEntity
  8
Layer 1
 62
     7
420
 16777215
370
   100
100
AcDbVertex
100
AcDb2dVertex
 10
17.2031940486696
 20
27.36730494764116
 30
0.0
  0
VERTEX
  5
52
330
50
100
AcDbEntity
  8
Layer 1
 62
     7
420
 16777215
370
   100
100
AcDbVertex
100
AcDb2dVertex
 10
18.38429892063141
 20
27.36730494764116
 30
0.0
  0
VERTEX
  5
53
330
50
100
AcDbEntity
  8
Layer 1
 62
     7
420
 16777215
370
   100
100
AcDbVertex
100
AcDb2dVertex
 10
18.38429892063141
 20
20.60193765163422
 30
0.0
  0
VERTEX
  5
54
330
50
100
AcDbEntity
  8
Layer 1
 62
     7
420
 16777215
370
   100
100
AcDbVertex
100
AcDb2dVertex
 10
17.2031940486696
 20
20.60193765163422
 30
0.0
  0
VERTEX
  5
55
330
50
100
AcDbEntity
  8
Layer 1
 62
     7
420
 16777215
370
   100
100
AcDbVertex
100
AcDb2dVertex
 10
17.2031940486696
 20
27.36730494764116
 30
0.0
  0
SEQEND
  5
56
330
50
100
AcDbEntity
  8
Layer 1
 62
     7
420
 16777215
370
   100
  0
SPLINE
  5
57
330
41
100
AcDbEntity
  8
Layer 1
 62
     7
420
 16777215
370
   100
100
AcDbSpline
210
0.0
220
0.0
230
1.0
 70
    11
 71
     3
 72
    23
 73
    19
 74
     0
 42
0.0000000001
 43
0.0000000001
 12
1.0
 22
0.0
 32
0.0
 13
1.0
 23
0.0
 33
0.0
 40
0.0
 40
0.0
 40
0.0
 40
0.0
 40
1.0
 40
1.0
 40
1.0
 40
2.0
 40
2.0
 40
2.0
 40
3.0
 40
3.0
 40
3.0
 40
4.0
 40
4.0
 40
4.0
 40
5.0
 40
5.0
 40
5.0
 40
6.0
 40
6.0
 40
6.0
 40
6.0
 10
17.59689793321821
 20
25.85185966226789
 30
0.0
 10
17.59689793321821
 20
25.85185966226789
 30
0.0
 10
17.59689793321821
 20
25.85185966226789
 30
0.0
 10
17.59689793321821
 20
25.85185966226789
 30
0.0
 10
17.59689793321821
 20
25.79752820067935
 30
0.0
 10
17.55280003282759
 20
25.75343369113074
 30
0.0
 10
17.49847196208106
 20
25.75343369113074
 30
0.0
 10
17.44414389133453
 20
25.75343369113074
 30
0.0
 10
17.40004938178592
 20
25.79752820067935
 30
0.0
 10
17.40004938178592
 20
25.85185966226789
 30
0.0
 10
17.40004938178592
 20
25.90619112385644
 30
0.0
 10
17.44414389133453
 20
25.95028563340505
 30
0.0
 10
17.49847196208106
 20
25.95028563340505
 30
0.0
 10
17.55280003282759
 20
25.95028563340505
 30
0.0
 10
17.59689793321821
 20
25.90619112385644
 30
0.0
 10
17.59689793321821
 20
25.85185966226789
 30
0.0
 10
17.59689793321821
 20
25.85185966226789
 30
0.0
 10
17.59689793321821
 20
25.85185966226789
 30
0.0
 10
17.59689793321821
 20
25.85185966226789
 30
0.0
  0
SPLINE
  5
58
330
41
100
AcDbEntity
  8
Layer 1
 62
     7
420
 16777215
370
   100
100
AcDbSpline
210
0.0
220
0.0
230
1.0
 70
    11
 71
     3
 72
    23
 73
    19
 74
     0
 42
0.0000000001
 43
0.0000000001
 12
1.0
 22
0.0
 32
0.0
 13
1.0
 23
0.0
 33
0.0
 40
0.0
 40
0.0
 40
0.0
 40
0.0
 40
1.0
 40
1.0
 40
1.0
 40
2.0
 40
2.0
 40
2.0
 40
3.0
 40
3.0
 40
3.0
 40
4.0
 40
4.0
 40
4.0
 40
5.0
 40
5.0
 40
5.0
 40
6.0
 40
6.0
 40
6.0
 40
6.0
 10
18.18745036919912
 20
25.85185966226789
 30
0.0
 10
18.18745036919912
 20
25.85185966226789
 30
0.0
 10
18.1874469783571
 20
25.85185966226789
 30
0.0
 10
18.1874469783571
 20
25.85185966226789
 30
0.0
 10
18.1874469783571
 20
25.79752820067935
 30
0.0
 10
18.14335246880849
 20
25.75343369113074
 30
0.0
 10
18.08902100721995
 20
25.75343369113074
 30
0.0
 10
18.03469293647342
 20
25.75343369113074
 30
0.0
 10
17.99059842692481
 20
25.79752820067935
 30
0.0
 10
17.99059842692481
 20
25.85185966226789
 30
0.0
 10
17.99059842692481
 20
25.90619112385644
 30
0.0
 10
18.03469293647342
 20
25.95028563340505
 30
0.0
 10
18.08902100721995
 20
25.95028563340505
 30
0.0
 10
18.14335246880849
 20
25.95028563340505
 30
0.0
 10
18.1874469783571
 20
25.90619112385644
 30
0.0
 10
18.1874469783571
 20
25.85185966226789
 30
0.0
 10
18.1874469783571
 20
25.85185966226789
 30
0.0
 10
18.18745036919912
 20
25.85185966226789
 30
0.0
 10
18.18745036919912
 20
25.85185966226789
 30
0.0
  0
SPLINE
  5
59
330
41
100
AcDbEntity
  8
Layer 1
 62
     7
420
 16777215
370
   100
100
AcDbSpline
210
0.0
220
0.0
230
1.0
 70
    11
 71
     3
 72
    23
 73
    19
 74
     0
 42
0.0000000001
 43
0.0000000001
 12
1.0
 22
0.0
 32
0.0
 13
1.0
 23
0.0
 33
0.0
 40
0.0
 40
0.0
 40
0.0
 40
0.0
 40
1.0
 40
1.0
 40
1.0
 40
2.0
 40
2.0
 40
2.0
 40
3.0
 40
3.0
 40
3.0
 40
4.0
 40
4.0
 40
4.0
 40
5.0
 40
5.0
 40
5.0
 40
6.0
 40
6.0
 40
6.0
 40
6.0
 10
17.59689793321821
 20
22.11736259195539
 30
0.0
 10
17.59689793321821
 20
22.11736259195539
 30
0.0
 10
17.59689793321821
 20
22.11736259195539
 30
0.0
 10
17.59689793321821
 20
22.11736259195539
 30
0.0
 10
17.59689793321821
 20
22.06303113036686
 30
0.0
 10
17.55280003282759
 20
22.01893662081824
 30
0.0
 10
17.49847196208106
 20
22.01893662081824
 30
0.0
 10
17.44414389133453
 20
22.01893662081824
 30
0.0
 10
17.40004938178592
 20
22.06303113036686
 30
0.0
 10
17.40004938178592
 20
22.11736259195539
 30
0.0
 10
17.40004938178592
 20
22.17169405354394
 30
0.0
 10
17.44414389133453
 20
22.21578856309255
 30
0.0
 10
17.49847196208106
 20
22.21578856309255
 30
0.0
 10
17.55280003282759
 20
22.21578856309255
 30
0.0
 10
17.59689793321821
 20
22.17169405354394
 30
0.0
 10
17.59689793321821
 20
22.11736259195539
 30
0.0
 10
17.59689793321821
 20
22.11736259195539
 30
0.0
 10
17.59689793321821
 20
22.11736259195539
 30
0.0
 10
17.59689793321821
 20
22.11736259195539
 30
0.0
  0
SPLINE
  5
5A
330
41
100
AcDbEntity
  8
Layer 1
 62
     7
420
 16777215
370
   100
100
AcDbSpline
210
0.0
220
0.0
230
1.0
 70
    11
 71
     3
 72
    23
 73
    19
 74
     0
 42
0.0000000001
 43
0.0000000001
 12
1.0
 22
0.0
 32
0.0
 13
1.0
 23
0.0
 33
0.0
 40
0.0
 40
0.0
 40
0.0
 40
0.0
 40
1.0
 40
1.0
 40
1.0
 40
2.0
 40
2.0
 40
2.0
 40
3.0
 40
3.0
 40
3.0
 40
4.0
 40
4.0
 40
4.0
 40
5.0
 40
5.0
 40
5.0
 40
6.0
 40
6.0
 40
6.0
 40
6.0
 10
18.18745036919912
 20
22.11736259195539
 30
0.0
 10
18.18745036919912
 20
22.11736259195539
 30
0.0
 10
18.1874469783571
 20
22.11736259195539
 30
0.0
 10
18.1874469783571
 20
22.11736259195539
 30
0.0
 10
18.1874469783571
 20
22.06303113036686
 30
0.0
 10
18.14335246880849
 20
22.01893662081824
 30
0.0
 10
18.08902100721995
 20
22.01893662081824
 30
0.0
 10
18.03469293647342
 20
22.01893662081824
 30
0.0
 10
17.99059842692481
 20
22.06303113036686
 30
0.0
 10
17.99059842692481
 20
22.11736259195539
 30
0.0
 10
17.99059842692481
 20
22.17169405354394
 30
0.0
 10
18.03469293647342
 20
22.21578856309255
 30
0.0
 10
18.08902100721995
 20
22.21578856309255
 30
0.0
 10
18.14335246880849
 20
22.21578856309255
 30
0.0
 10
18.1874469783571
 20
22.17169405354394
 30
0.0
 10
18.1874469783571
 20
22.11736259195539
 30
0.0
 10
18.1874469783571
 20
22.11736259195539
 30
0.0
 10
18.18745036919912
 20
22.11736259195539
 30
0.0
 10
18.18745036919912
 20
22.11736259195539
 30
0.0
  0
POLYLINE
  5
5B
330
41
100
AcDbEntity
  8
Layer 1
 62
     7
420
 16777215
370
   100
100
AcDb2dPolyline
 66
     1
 10
0.0
 20
0.0
 30
0.0
  0
VERTEX
  5
5C
330
5B
100
AcDbEntity
  8
Layer 1
 62
     7
420
 16777215
370
   100
100
AcDbVertex
100
AcDb2dVertex
 10
18.58115086290571
 20
27.27100503444672
 30
0.0
  0
VERTEX
  5
5D
330
5B
100
AcDbEntity
  8
Layer 1
 62
     7
420
 16777215
370
   100
100
AcDbVertex
100
AcDb2dVertex
 10
19.76225573486752
 20
27.27100503444672
 30
0.0
  0
VERTEX
  5
5E
330
5B
100
AcDbEntity
  8
Layer 1
 62
     7
420
 16777215
370
   100
100
AcDbVertex
100
AcDb2dVertex
 10
19.76225573486752
 20
20.69824095567067
 30
0.0
  0
VERTEX
  5
5F
330
5B
100
AcDbEntity
  8
Layer 1
 62
     7
420
 16777215
370
   100
100
AcDbVertex
100
AcDb2dVertex
 10
18.58115086290571
 20
20.69824095567067
 30
0.0
  0
VERTEX
  5
60
330
5B
100
AcDbEntity
  8
Layer 1
 62
     7
420
 16777215
370
   100
100
AcDbVertex
100
AcDb2dVertex
 10
18.58115086290571
 20
27.27100503444672
 30
0.0
  0
SEQEND
  5
61
330
5B
100
AcDbEntity
  8
Layer 1
 62
     7
420
 16777215
370
   100
  0
SPLINE
  5
62
330
41
100
AcDbEntity
  8
Layer 1
 62
     7
420
 16777215
370
   100
100
AcDbSpline
210
0.0
220
0.0
230
1.0
 70
    11
 71
     3
 72
    23
 73
    19
 74
     0
 42
0.0000000001
 43
0.0000000001
 12
1.0
 22
0.0
 32
0.0
 13
1.0
 23
0.0
 33
0.0
 40
0.0
 40
0.0
 40
0.0
 40
0.0
 40
1.0
 40
1.0
 40
1.0
 40
2.0
 40
2.0
 40
2.0
 40
3.0
 40
3.0
 40
3.0
 40
4.0
 40
4.0
 40
4.0
 40
5.0
 40
5.0
 40
5.0
 40
6.0
 40
6.0
 40
6.0
 40
6.0
 10
18.97485135661231
 20
25.79870143201616
 30
0.0
 10
18.97485135661231
 20
25.79870143201616
 30
0.0
 10
18.9748479657703
 20
25.79870143201616
 30
0.0
 10
18.9748479657703
 20
25.79870143201616
 30
0.0
 10
18.9748479657703
 20
25.74437336126963
 30
0.0
 10
18.93075345622168
 20
25.70027546087901
 30
0.0
 10
18.87642538547516
 20
25.70027546087901
 30
0.0
 10
18.82209392388662
 20
25.70027546087901
 30
0.0
 10
18.77799941433801
 20
25.74437336126963
 30
0.0
 10
18.77799941433801
 20
25.79870143201616
 30
0.0
 10
18.77799941433801
 20
25.8530328936047
 30
0.0
 10
18.82209392388662
 20
25.89712740315331
 30
0.0
 10
18.87642538547516
 20
25.89712740315331
 30
0.0
 10
18.93075345622168
 20
25.89712740315331
 30
0.0
 10
18.9748479657703
 20
25.8530328936047
 30
0.0
 10
18.9748479657703
 20
25.79870143201616
 30
0.0
 10
18.9748479657703
 20
25.79870143201616
 30
0.0
 10
18.97485135661231
 20
25.79870143201616
 30
0.0
 10
18.97485135661231
 20
25.79870143201616
 30
0.0
  0
SPLINE
  5
63
330
41
100
AcDbEntity
  8
Layer 1
 62
     7
420
 16777215
370
   100
100
AcDbSpline
210
0.0
220
0.0
230
1.0
 70
    11
 71
     3
 72
    23
 73
    19
 74
     0
 42
0.0000000001
 43
0.0000000001
 12
1.0
 22
0.0
 32
0.0
 13
1.0
 23
0.0
 33
0.0
 40
0.0
 40
0.0
 40
0.0
 40
0.0
 40
1.0
 40
1.0
 40
1.0
 40
2.0
 40
2.0
 40
2.0
 40
3.0
 40
3.0
 40
3.0
 40
4.0
 40
4.0
 40
4.0
 40
5.0
 40
5.0
 40
5.0
 40
6.0
 40
6.0
 40
6.0
 40
6.0
 10
19.56540379259321
 20
25.79870143201616
 30
0.0
 10
19.56540379259321
 20
25.79870143201616
 30
0.0
 10
19.56540379259321
 20
25.79870143201616
 30
0.0
 10
19.56540379259321
 20
25.79870143201616
 30
0.0
 10
19.56540379259321
 20
25.74437336126963
 30
0.0
 10
19.52130589220259
 20
25.70027546087901
 30
0.0
 10
19.46697782145606
 20
25.70027546087901
 30
0.0
 10
19.41264975070953
 20
25.70027546087901
 30
0.0
 10
19.36855524116092
 20
25.74437336126963
 30
0.0
 10
19.36855524116092
 20
25.79870143201616
 30
0.0
 10
19.36855524116092
 20
25.8530328936047
 30
0.0
 10
19.41264975070953
 20
25.89712740315331
 30
0.0
 10
19.46697782145606
 20
25.89712740315331
 30
0.0
 10
19.52130589220259
 20
25.89712740315331
 30
0.0
 10
19.56540379259321
 20
25.8530328936047
 30
0.0
 10
19.56540379259321
 20
25.79870143201616
 30
0.0
 10
19.56540379259321
 20
25.79870143201616
 30
0.0
 10
19.56540379259321
 20
25.79870143201616
 30
0.0
 10
19.56540379259321
 20
25.79870143201616
 30
0.0
  0
SPLINE
  5
64
330
41
100
AcDbEntity
  8
Layer 1
 62
     7
420
 16777215
370
   100
100
AcDbSpline
210
0.0
220
0.0
230
1.0
 70
    11
 71
     3
 72
    23
 73
    19
 74
     0
 42
0.0000000001
 43
0.0000000001
 12
1.0
 22
0.0
 32
0.0
 13
1.0
 23
0.0
 33
0.0
 40
0.0
 40
0.0
 40
0.0
 40
0.0
 40
1.0
 40
1.0
 40
1.0
 40
2.0
 40
2.0
 40
2.0
 40
3.0
 40
3.0
 40
3.0
 40
4.0
 40
4.0
 40
4.0
 40
5.0
 40
5.0
 40
5.0
 40
6.0
 40
6.0
 40
6.0
 40
6.0
 10
18.97485135661231
 20
22.17051064968109
 30
0.0
 10
18.97485135661231
 20
22.17051064968109
 30
0.0
 10
18.9748479657703
 20
22.17051064968109
 30
0.0
 10
18.9748479657703
 20
22.17051064968109
 30
0.0
 10
18.9748479657703
 20
22.11617918809255
 30
0.0
 10
18.93075345622168
 20
22.07208467854394
 30
0.0
 10
18.87642538547516
 20
22.07208467854394
 30
0.0
 10
18.82209392388662
 20
22.07208467854394
 30
0.0
 10
18.77799941433801
 20
22.11617918809255
 30
0.0
 10
18.77799941433801
 20
22.17051064968109
 30
0.0
 10
18.77799941433801
 20
22.22484211126963
 30
0.0
 10
18.82209392388662
 20
22.26893662081824
 30
0.0
 10
18.87642538547516
 20
22.26893662081824
 30
0.0
 10
18.93075345622168
 20
22.26893662081824
 30
0.0
 10
18.9748479657703
 20
22.22484211126963
 30
0.0
 10
18.9748479657703
 20
22.17051064968109
 30
0.0
 10
18.9748479657703
 20
22.17051064968109
 30
0.0
 10
18.97485135661231
 20
22.17051064968109
 30
0.0
 10
18.97485135661231
 20
22.17051064968109
 30
0.0
  0
SPLINE
  5
65
330
41
100
AcDbEntity
  8
Layer 1
 62
     7
420
 16777215
370
   100
100
AcDbSpline
210
0.0
220
0.0
230
1.0
 70
    11
 71
     3
 72
    23
 73
    19
 74
     0
 42
0.0000000001
 43
0.0000000001
 12
1.0
 22
0.0
 32
0.0
 13
1.0
 23
0.0
 33
0.0
 40
0.0
 40
0.0
 40
0.0
 40
0.0
 40
1.0
 40
1.0
 40
1.0
 40
2.0
 40
2.0
 40
2.0
 40
3.0
 40
3.0
 40
3.0
 40
4.0
 40
4.0
 40
4.0
 40
5.0
 40
5.0
 40
5.0
 40
6.0
 40
6.0
 40
6.0
 40
6.0
 10
19.56540379259321
 20
22.17051064968109
 30
0.0
 10
19.56540379259321
 20
22.17051064968109
 30
0.0
 10
19.56540379259321
 20
22.17051064968109
 30
0.0
 10
19.56540379259321
 20
22.17051064968109
 30
0.0
 10
19.56540379259321
 20
22.11617918809255
 30
0.0
 10
19.52130589220259
 20
22.07208467854394
 30
0.0
 10
19.46697782145606
 20
22.07208467854394
 30
0.0
 10
19.41264975070953
 20
22.07208467854394
 30
0.0
 10
19.36855524116092
 20
22.11617918809255
 30
0.0
 10
19.36855524116092
 20
22.17051064968109
 30
0.0
 10
19.36855524116092
 20
22.22484211126963
 30
0.0
 10
19.41264975070953
 20
22.26893662081824
 30
0.0
 10
19.46697782145606
 20
22.26893662081824
 30
0.0
 10
19.52130589220259
 20
22.26893662081824
 30
0.0
 10
19.56540379259321
 20
22.22484211126963
 30
0.0
 10
19.56540379259321
 20
22.17051064968109
 30
0.0
 10
19.56540379259321
 20
22.17051064968109
 30
0.0
 10
19.56540379259321
 20
22.17051064968109
 30
0.0
 10
19.56540379259321
 20
22.17051064968109
 30
0.0
  0
POLYLINE
  5
66
330
41
100
AcDbEntity
  8
Layer 1
 62
     7
420
 16777215
370
   100
100
AcDb2dPolyline
 66
     1
 10
0.0
 20
0.0
 30
0.0
  0
VERTEX
  5
67
330
66
100
AcDbEntity
  8
Layer 1
 62
     7
420
 16777215
370
   100
100
AcDbVertex
100
AcDb2dVertex
 10
19.95910428629981
 20
27.17744492159949
 30
0.0
  0
VERTEX
  5
68
330
66
100
AcDbEntity
  8
Layer 1
 62
     7
420
 16777215
370
   100
100
AcDbVertex
100
AcDb2dVertex
 10
21.14020915826162
 20
27.17744492159949
 30
0.0
  0
VERTEX
  5
69
330
66
100
AcDbEntity
  8
Layer 1
 62
     7
420
 16777215
370
   100
100
AcDbVertex
100
AcDb2dVertex
 10
21.14020915826162
 20
20.79177055093977
 30
0.0
  0
VERTEX
  5
6A
330
66
100
AcDbEntity
  8
Layer 1
 62
     7
420
 16777215
370
   100
100
AcDbVertex
100
AcDb2dVertex
 10
19.95910428629981
 20
20.79177055093977
 30
0.0
  0
VERTEX
  5
6B
330
66
100
AcDbEntity
  8
Layer 1
 62
     7
420
 16777215
370
   100
100
AcDbVertex
100
AcDb2dVertex
 10
19.95910428629981
 20
27.17744492159949
 30
0.0
  0
SEQEND
  5
6C
330
66
100
AcDbEntity
  8
Layer 1
 62
     7
420
 16777215
370
   100
  0
SPLINE
  5
6D
330
41
100
AcDbEntity
  8
Layer 1
 62
     7
420
 16777215
370
   100
100
AcDbSpline
210
0.0
220
0.0
230
1.0
 70
    11
 71
     3
 72
    23
 73
    19
 74
     0
 42
0.0000000001
 43
0.0000000001
 12
1.0
 22
0.0
 32
0.0
 13
1.0
 23
0.0
 33
0.0
 40
0.0
 40
0.0
 40
0.0
 40
0.0
 40
1.0
 40
1.0
 40
1.0
 40
2.0
 40
2.0
 40
2.0
 40
3.0
 40
3.0
 40
3.0
 40
4.0
 40
4.0
 40
4.0
 40
5.0
 40
5.0
 40
5.0
 40
6.0
 40
6.0
 40
6.0
 40
6.0
 10
20.35280478000641
 20
25.74705890814463
 30
0.0
 10
20.35280478000641
 20
25.74705890814463
 30
0.0
 10
20.35280478000641
 20
25.74705890814463
 30
0.0
 10
20.35280478000641
 20
25.74705890814463
 30
0.0
 10
20.35280478000641
 20
25.6927308373981
 30
0.0
 10
20.3087102704578
 20
25.64863293700748
 30
0.0
 10
20.25437880886926
 20
25.64863293700748
 30
0.0
 10
20.20005073812273
 20
25.64863293700748
 30
0.0
 10
20.15595622857412
 20
25.6927308373981
 30
0.0
 10
20.15595622857412
 20
25.74705890814463
 30
0.0
 10
20.15595622857412
 20
25.80139036973317
 30
0.0
 10
20.20005073812273
 20
25.8454882701238
 30
0.0
 10
20.25437880886926
 20
25.8454882701238
 30
0.0
 10
20.3087102704578
 20
25.8454882701238
 30
0.0
 10
20.35280478000641
 20
25.80139036973317
 30
0.0
 10
20.35280478000641
 20
25.74705890814463
 30
0.0
 10
20.35280478000641
 20
25.74705890814463
 30
0.0
 10
20.35280478000641
 20
25.74705890814463
 30
0.0
 10
20.35280478000641
 20
25.74705890814463
 30
0.0
  0
SPLINE
  5
6E
330
41
100
AcDbEntity
  8
Layer 1
 62
     7
420
 16777215
370
   100
100
AcDbSpline
210
0.0
220
0.0
230
1.0
 70
    11
 71
     3
 72
    23
 73
    19
 74
     0
 42
0.0000000001
 43
0.0000000001
 12
1.0
 22
0.0
 32
0.0
 13
1.0
 23
0.0
 33
0.0
 40
0.0
 40
0.0
 40
0.0
 40
0.0
 40
1.0
 40
1.0
 40
1.0
 40
2.0
 40
2.0
 40
2.0
 40
3.0
 40
3.0
 40
3.0
 40
4.0
 40
4.0
 40
4.0
 40
5.0
 40
5.0
 40
5.0
 40
6.0
 40
6.0
 40
6.0
 40
6.0
 10
20.94335721598731
 20
25.74705890814463
 30
0.0
 10
20.94335721598731
 20
25.74705890814463
 30
0.0
 10
20.94335721598731
 20
25.74705890814463
 30
0.0
 10
20.94335721598731
 20
25.74705890814463
 30
0.0
 10
20.94335721598731
 20
25.6927308373981
 30
0.0
 10
20.8992627064387
 20
25.64863293700748
 30
0.0
 10
20.84493463569217
 20
25.64863293700748
 30
0.0
 10
20.79060317410363
 20
25.64863293700748
 30
0.0
 10
20.74650866455502
 20
25.6927308373981
 30
0.0
 10
20.74650866455502
 20
25.74705890814463
 30
0.0
 10
20.74650866455502
 20
25.80139036973317
 30
0.0
 10
20.79060317410363
 20
25.8454882701238
 30
0.0
 10
20.84493463569217
 20
25.8454882701238
 30
0.0
 10
20.8992627064387
 20
25.8454882701238
 30
0.0
 10
20.94335721598731
 20
25.80139036973317
 30
0.0
 10
20.94335721598731
 20
25.74705890814463
 30
0.0
 10
20.94335721598731
 20
25.74705890814463
 30
0.0
 10
20.94335721598731
 20
25.74705890814463
 30
0.0
 10
20.94335721598731
 20
25.74705890814463
 30
0.0
  0
SPLINE
  5
6F
330
41
100
AcDbEntity
  8
Layer 1
 62
     7
420
 16777215
370
   100
100
AcDbSpline
210
0.0
220
0.0
230
1.0
 70
    11
 71
     3
 72
    23
 73
    19
 74
     0
 42
0.0000000001
 43
0.0000000001
 12
1.0
 22
0.0
 32
0.0
 13
1.0
 23
0.0
 33
0.0
 40
0.0
 40
0.0
 40
0.0
 40
0.0
 40
1.0
 40
1.0
 40
1.0
 40
2.0
 40
2.0
 40
2.0
 40
3.0
 40
3.0
 40
3.0
 40
4.0
 40
4.0
 40
4.0
 40
5.0
 40
5.0
 40
5.0
 40
6.0
 40
6.0
 40
6.0
 40
6.0
 10
20.35280478000641
 20
22.22216334607866
 30
0.0
 10
20.35280478000641
 20
22.22216334607866
 30
0.0
 10
20.35280478000641
 20
22.22216334607866
 30
0.0
 10
20.35280478000641
 20
22.22216334607866
 30
0.0
 10
20.35280478000641
 20
22.16783527533213
 30
0.0
 10
20.3087102704578
 20
22.12373737494151
 30
0.0
 10
20.25437880886926
 20
22.12373737494151
 30
0.0
 10
20.20005073812273
 20
22.12373737494151
 30
0.0
 10
20.15595622857412
 20
22.16783527533213
 30
0.0
 10
20.15595622857412
 20
22.22216334607866
 30
0.0
 10
20.15595622857412
 20
22.2764948076672
 30
0.0
 10
20.20005073812273
 20
22.32058931721581
 30
0.0
 10
20.25437880886926
 20
22.32058931721581
 30
0.0
 10
20.3087102704578
 20
22.32058931721581
 30
0.0
 10
20.35280478000641
 20
22.2764948076672
 30
0.0
 10
20.35280478000641
 20
22.22216334607866
 30
0.0
 10
20.35280478000641
 20
22.22216334607866
 30
0.0
 10
20.35280478000641
 20
22.22216334607866
 30
0.0
 10
20.35280478000641
 20
22.22216334607866
 30
0.0
  0
SPLINE
  5
70
330
41
100
AcDbEntity
  8
Layer 1
 62
     7
420
 16777215
370
   100
100
AcDbSpline
210
0.0
220
0.0
230
1.0
 70
    11
 71
     3
 72
    23
 73
    19
 74
     0
 42
0.0000000001
 43
0.0000000001
 12
1.0
 22
0.0
 32
0.0
 13
1.0
 23
0.0
 33
0.0
 40
0.0
 40
0.0
 40
0.0
 40
0.0
 40
1.0
 40
1.0
 40
1.0
 40
2.0
 40
2.0
 40
2.0
 40
3.0
 40
3.0
 40
3.0
 40
4.0
 40
4.0
 40
4.0
 40
5.0
 40
5.0
 40
5.0
 40
6.0
 40
6.0
 40
6.0
 40
6.0
 10
20.94335721598731
 20
22.22216334607866
 30
0.0
 10
20.94335721598731
 20
22.22216334607866
 30
0.0
 10
20.94335721598731
 20
22.22216334607866
 30
0.0
 10
20.94335721598731
 20
22.22216334607866
 30
0.0
 10
20.94335721598731
 20
22.16783527533213
 30
0.0
 10
20.8992627064387
 20
22.12373737494151
 30
0.0
 10
20.84493463569217
 20
22.12373737494151
 30
0.0
 10
20.79060317410363
 20
22.12373737494151
 30
0.0
 10
20.74650866455502
 20
22.16783527533213
 30
0.0
 10
20.74650866455502
 20
22.22216334607866
 30
0.0
 10
20.74650866455502
 20
22.2764948076672
 30
0.0
 10
20.79060317410363
 20
22.32058931721581
 30
0.0
 10
20.84493463569217
 20
22.32058931721581
 30
0.0
 10
20.8992627064387
 20
22.32058931721581
 30
0.0
 10
20.94335721598731
 20
22.2764948076672
 30
0.0
 10
20.94335721598731
 20
22.22216334607866
 30
0.0
 10
20.94335721598731
 20
22.22216334607866
 30
0.0
 10
20.94335721598731
 20
22.22216334607866
 30
0.0
 10
20.94335721598731
 20
22.22216334607866
 30
0.0
  0
POLYLINE
  5
71
330
41
100
AcDbEntity
  8
Layer 1
 62
     7
420
 16777215
370
   100
100
AcDb2dPolyline
 66
     1
 10
0.0
 20
0.0
 30
0.0
  0
VERTEX
  5
72
330
71
100
AcDbEntity
  8
Layer 1
 62
     7
420
 16777215
370
   100
100
AcDbVertex
100
AcDb2dVertex
 10
21.33706110053592
 20
27.0865534014172
 30
0.0
  0
VERTEX
  5
73
330
71
100
AcDbEntity
  8
Layer 1
 62
     7
420
 16777215
370
   100
100
AcDbVertex
100
AcDb2dVertex
 10
22.51816258165571
 20
27.0865534014172
 30
0.0
  0
VERTEX
  5
74
330
71
100
AcDbEntity
  8
Layer 1
 62
     7
420
 16777215
370
   100
100
AcDbVertex
100
AcDb2dVertex
 10
22.51816258165571
 20
20.88268580701616
 30
0.0
  0
VERTEX
  5
75
330
71
100
AcDbEntity
  8
Layer 1
 62
     7
420
 16777215
370
   100
100
AcDbVertex
100
AcDb2dVertex
 10
21.33706110053592
 20
20.88268580701616
 30
0.0
  0
VERTEX
  5
76
330
71
100
AcDbEntity
  8
Layer 1
 62
     7
420
 16777215
370
   100
100
AcDbVertex
100
AcDb2dVertex
 10
21.33706110053592
 20
27.0865534014172
 30
0.0
  0
SEQEND
  5
77
330
71
100
AcDbEntity
  8
Layer 1
 62
     7
420
 16777215
370
   100
  0
SPLINE
  5
78
330
41
100
AcDbEntity
  8
Layer 1
 62
     7
420
 16777215
370
   100
100
AcDbSpline
210
0.0
220
0.0
230
1.0
 70
    11
 71
     3
 72
    23
 73
    19
 74
     0
 42
0.0000000001
 43
0.0000000001
 12
1.0
 22
0.0
 32
0.0
 13
1.0
 23
0.0
 33
0.0
 40
0.0
 40
0.0
 40
0.0
 40
0.0
 40
1.0
 40
1.0
 40
1.0
 40
2.0
 40
2.0
 40
2.0
 40
3.0
 40
3.0
 40
3.0
 40
4.0
 40
4.0
 40
4.0
 40
5.0
 40
5.0
 40
5.0
 40
6.0
 40
6.0
 40
6.0
 40
6.0
 10
21.73076159424252
 20
25.69688800970713
 30
0.0
 10
21.73076159424252
 20
25.69688800970713
 30
0.0
 10
21.73076159424252
 20
25.69688800970713
 30
0.0
 10
21.73076159424252
 20
25.69688800970713
 30
0.0
 10
21.73076159424252
 20
25.64255654811859
 30
0.0
 10
21.68666708469391
 20
25.59846203856998
 30
0.0
 10
21.63233562310537
 20
25.59846203856998
 30
0.0
 10
21.57800755235884
 20
25.59846203856998
 30
0.0
 10
21.53391304281023
 20
25.64255654811859
 30
0.0
 10
21.53391304281023
 20
25.69688800970713
 30
0.0
 10
21.53391304281023
 20
25.75121608045366
 30
0.0
 10
21.57800755235884
 20
25.79531398084428
 30
0.0
 10
21.63233562310537
 20
25.79531398084428
 30
0.0
 10
21.68666708469391
 20
25.79531398084428
 30
0.0
 10
21.73076159424252
 20
25.75121608045366
 30
0.0
 10
21.73076159424252
 20
25.69688800970713
 30
0.0
 10
21.73076159424252
 20
25.69688800970713
 30
0.0
 10
21.73076159424252
 20
25.69688800970713
 30
0.0
 10
21.73076159424252
 20
25.69688800970713
 30
0.0
  0
SPLINE
  5
79
330
41
100
AcDbEntity
  8
Layer 1
 62
     7
420
 16777215
370
   100
100
AcDbSpline
210
0.0
220
0.0
230
1.0
 70
    11
 71
     3
 72
    23
 73
    19
 74
     0
 42
0.0000000001
 43
0.0000000001
 12
1.0
 22
0.0
 32
0.0
 13
1.0
 23
0.0
 33
0.0
 40
0.0
 40
0.0
 40
0.0
 40
0.0
 40
1.0
 40
1.0
 40
1.0
 40
2.0
 40
2.0
 40
2.0
 40
3.0
 40
3.0
 40
3.0
 40
4.0
 40
4.0
 40
4.0
 40
5.0
 40
5.0
 40
5.0
 40
6.0
 40
6.0
 40
6.0
 40
6.0
 10
22.32131403022342
 20
25.69688800970713
 30
0.0
 10
22.32131403022342
 20
25.69688800970713
 30
0.0
 10
22.32131063938141
 20
25.69688800970713
 30
0.0
 10
22.32131063938141
 20
25.69688800970713
 30
0.0
 10
22.32131063938141
 20
25.64255654811859
 30
0.0
 10
22.2772161298328
 20
25.59846203856998
 30
0.0
 10
22.22288805908627
 20
25.59846203856998
 30
0.0
 10
22.16855659749773
 20
25.59846203856998
 30
0.0
 10
22.12446208794912
 20
25.64255654811859
 30
0.0
 10
22.12446208794912
 20
25.69688800970713
 30
0.0
 10
22.12446208794912
 20
25.75121608045366
 30
0.0
 10
22.16855659749773
 20
25.79531398084428
 30
0.0
 10
22.22288805908627
 20
25.79531398084428
 30
0.0
 10
22.2772161298328
 20
25.79531398084428
 30
0.0
 10
22.32131063938141
 20
25.75121608045366
 30
0.0
 10
22.32131063938141
 20
25.69688800970713
 30
0.0
 10
22.32131063938141
 20
25.69688800970713
 30
0.0
 10
22.32131403022342
 20
25.69688800970713
 30
0.0
 10
22.32131403022342
 20
25.69688800970713
 30
0.0
  0
SPLINE
  5
7A
330
41
100
AcDbEntity
  8
Layer 1
 62
     7
420
 16777215
370
   100
100
AcDbSpline
210
0.0
220
0.0
230
1.0
 70
    11
 71
     3
 72
    23
 73
    19
 74
     0
 42
0.0000000001
 43
0.0000000001
 12
1.0
 22
0.0
 32
0.0
 13
1.0
 23
0.0
 33
0.0
 40
0.0
 40
0.0
 40
0.0
 40
0.0
 40
1.0
 40
1.0
 40
1.0
 40
2.0
 40
2.0
 40
2.0
 40
3.0
 40
3.0
 40
3.0
 40
4.0
 40
4.0
 40
4.0
 40
5.0
 40
5.0
 40
5.0
 40
6.0
 40
6.0
 40
6.0
 40
6.0
 10
21.73076159424252
 20
22.27236137125227
 30
0.0
 10
21.73076159424252
 20
22.27236137125227
 30
0.0
 10
21.73076159424252
 20
22.27236137125227
 30
0.0
 10
21.73076159424252
 20
22.27236137125227
 30
0.0
 10
21.73076159424252
 20
22.21803330050574
 30
0.0
 10
21.68666708469391
 20
22.17393879095713
 30
0.0
 10
21.63233562310537
 20
22.17393879095713
 30
0.0
 10
21.57800755235884
 20
22.17393879095713
 30
0.0
 10
21.53391304281023
 20
22.21803330050574
 30
0.0
 10
21.53391304281023
 20
22.27236137125227
 30
0.0
 10
21.53391304281023
 20
22.32669283284081
 30
0.0
 10
21.57800755235884
 20
22.37079073323144
 30
0.0
 10
21.63233562310537
 20
22.37079073323144
 30
0.0
 10
21.68666708469391
 20
22.37079073323144
 30
0.0
 10
21.73076159424252
 20
22.32669283284081
 30
0.0
 10
21.73076159424252
 20
22.27236137125227
 30
0.0
 10
21.73076159424252
 20
22.27236137125227
 30
0.0
 10
21.73076159424252
 20
22.27236137125227
 30
0.0
 10
21.73076159424252
 20
22.27236137125227
 30
0.0
  0
SPLINE
  5
7B
330
41
100
AcDbEntity
  8
Layer 1
 62
     7
420
 16777215
370
   100
100
AcDbSpline
210
0.0
220
0.0
230
1.0
 70
    11
 71
     3
 72
    23
 73
    19
 74
     0
 42
0.0000000001
 43
0.0000000001
 12
1.0
 22
0.0
 32
0.0
 13
1.0
 23
0.0
 33
0.0
 40
0.0
 40
0.0
 40
0.0
 40
0.0
 40
1.0
 40
1.0
 40
1.0
 40
2.0
 40
2.0
 40
2.0
 40
3.0
 40
3.0
 40
3.0
 40
4.0
 40
4.0
 40
4.0
 40
5.0
 40
5.0
 40
5.0
 40
6.0
 40
6.0
 40
6.0
 40
6.0
 10
22.32131403022342
 20
22.27236137125227
 30
0.0
 10
22.32131403022342
 20
22.27236137125227
 30
0.0
 10
22.32131063938141
 20
22.27236137125227
 30
0.0
 10
22.32131063938141
 20
22.27236137125227
 30
0.0
 10
22.32131063938141
 20
22.21803330050574
 30
0.0
 10
22.2772161298328
 20
22.17393879095713
 30
0.0
 10
22.22288805908627
 20
22.17393879095713
 30
0.0
 10
22.16855659749773
 20
22.17393879095713
 30
0.0
 10
22.12446208794912
 20
22.21803330050574
 30
0.0
 10
22.12446208794912
 20
22.27236137125227
 30
0.0
 10
22.12446208794912
 20
22.32669283284081
 30
0.0
 10
22.16855659749773
 20
22.37079073323144
 30
0.0
 10
22.22288805908627
 20
22.37079073323144
 30
0.0
 10
22.2772161298328
 20
22.37079073323144
 30
0.0
 10
22.32131063938141
 20
22.32669283284081
 30
0.0
 10
22.32131063938141
 20
22.27236137125227
 30
0.0
 10
22.32131063938141
 20
22.27236137125227
 30
0.0
 10
22.32131403022342
 20
22.27236137125227
 30
0.0
 10
22.32131403022342
 20
22.27236137125227
 30
0.0
  0
POLYLINE
  5
7C
330
41
100
AcDbEntity
  8
Layer 1
 62
     7
420
 16777215
370
   100
100
AcDb2dPolyline
 66
     1
 10
0.0
 20
0.0
 30
0.0
  0
VERTEX
  5
7D
330
7C
100
AcDbEntity
  8
Layer 1
 62
     7
420
 16777215
370
   100
100
AcDbVertex
100
AcDb2dVertex
 10
22.71501452393002
 20
26.99824570284949
 30
0.0
  0
VERTEX
  5
7E
330
7C
100
AcDbEntity
  8
Layer 1
 62
     7
420
 16777215
370
   100
100
AcDbVertex
100
AcDb2dVertex
 10
23.89611939589182
 20
26.99824570284949
 30
0.0
  0
VERTEX
  5
7F
330
7C
100
AcDbEntity
  8
Layer 1
 62
     7
420
 16777215
370
   100
100
AcDbVertex
100
AcDb2dVertex
 10
23.89611939589182
 20
20.97099350558387
 30
0.0
  0
VERTEX
  5
80
330
7C
100
AcDbEntity
  8
Layer 1
 62
     7
420
 16777215
370
   100
100
AcDbVertex
100
AcDb2dVertex
 10
22.71501452393002
 20
20.97099350558387
 30
0.0
  0
VERTEX
  5
81
330
7C
100
AcDbEntity
  8
Layer 1
 62
     7
420
 16777215
370
   100
100
AcDbVertex
100
AcDb2dVertex
 10
22.71501452393002
 20
26.99824570284949
 30
0.0
  0
SEQEND
  5
82
330
7C
100
AcDbEntity
  8
Layer 1
 62
     7
420
 16777215
370
   100
  0
SPLINE
  5
83
330
41
100
AcDbEntity
  8
Layer 1
 62
     7
420
 16777215
370
   100
100
AcDbSpline
210
0.0
220
0.0
230
1.0
 70
    11
 71
     3
 72
    23
 73
    19
 74
     0
 42
0.0000000001
 43
0.0000000001
 12
1.0
 22
0.0
 32
0.0
 13
1.0
 23
0.0
 33
0.0
 40
0.0
 40
0.0
 40
0.0
 40
0.0
 40
1.0
 40
1.0
 40
1.0
 40
2.0
 40
2.0
 40
2.0
 40
3.0
 40
3.0
 40
3.0
 40
4.0
 40
4.0
 40
4.0
 40
5.0
 40
5.0
 40
5.0
 40
6.0
 40
6.0
 40
6.0
 40
6.0
 10
23.10871501763662
 20
25.64814126491547
 30
0.0
 10
23.10871501763662
 20
25.64814126491547
 30
0.0
 10
23.1087116267946
 20
25.64814126491547
 30
0.0
 10
23.1087116267946
 20
25.64814126491547
 30
0.0
 10
23.1087116267946
 20
25.59380641248491
 30
0.0
 10
23.06461711724599
 20
25.5497119029363
 30
0.0
 10
23.01028904649946
 20
25.5497119029363
 30
0.0
 10
22.95596097575293
 20
25.5497119029363
 30
0.0
 10
22.91186307536231
 20
25.59380641248491
 30
0.0
 10
22.91186307536231
 20
25.64814126491547
 30
0.0
 10
22.91186307536231
 20
25.70246933566199
 30
0.0
 10
22.95596097575293
 20
25.7465638452106
 30
0.0
 10
23.01028904649946
 20
25.7465638452106
 30
0.0
 10
23.06461711724599
 20
25.7465638452106
 30
0.0
 10
23.1087116267946
 20
25.70246933566199
 30
0.0
 10
23.1087116267946
 20
25.64814126491547
 30
0.0
 10
23.1087116267946
 20
25.64814126491547
 30
0.0
 10
23.10871501763662
 20
25.64814126491547
 30
0.0
 10
23.10871501763662
 20
25.64814126491547
 30
0.0
  0
SPLINE
  5
84
330
41
100
AcDbEntity
  8
Layer 1
 62
     7
420
 16777215
370
   100
100
AcDbSpline
210
0.0
220
0.0
230
1.0
 70
    11
 71
     3
 72
    23
 73
    19
 74
     0
 42
0.0000000001
 43
0.0000000001
 12
1.0
 22
0.0
 32
0.0
 13
1.0
 23
0.0
 33
0.0
 40
0.0
 40
0.0
 40
0.0
 40
0.0
 40
1.0
 40
1.0
 40
1.0
 40
2.0
 40
2.0
 40
2.0
 40
3.0
 40
3.0
 40
3.0
 40
4.0
 40
4.0
 40
4.0
 40
5.0
 40
5.0
 40
5.0
 40
6.0
 40
6.0
 40
6.0
 40
6.0
 10
23.69926745361752
 20
25.64814126491547
 30
0.0
 10
23.69926745361752
 20
25.64814126491547
 30
0.0
 10
23.69926745361752
 20
25.64814126491547
 30
0.0
 10
23.69926745361752
 20
25.64814126491547
 30
0.0
 10
23.69926745361752
 20
25.59380641248491
 30
0.0
 10
23.65517294406891
 20
25.5497119029363
 30
0.0
 10
23.60084148248037
 20
25.5497119029363
 30
0.0
 10
23.54651341173384
 20
25.5497119029363
 30
0.0
 10
23.50241890218523
 20
25.59380641248491
 30
0.0
 10
23.50241890218523
 20
25.64814126491547
 30
0.0
 10
23.50241890218523
 20
25.70246933566199
 30
0.0
 10
23.54651341173384
 20
25.7465638452106
 30
0.0
 10
23.60084148248037
 20
25.7465638452106
 30
0.0
 10
23.65517294406891
 20
25.7465638452106
 30
0.0
 10
23.69926745361752
 20
25.70246933566199
 30
0.0
 10
23.69926745361752
 20
25.64814126491547
 30
0.0
 10
23.69926745361752
 20
25.64814126491547
 30
0.0
 10
23.69926745361752
 20
25.64814126491547
 30
0.0
 10
23.69926745361752
 20
25.64814126491547
 30
0.0
  0
SPLINE
  5
85
330
41
100
AcDbEntity
  8
Layer 1
 62
     7
420
 16777215
370
   100
100
AcDbSpline
210
0.0
220
0.0
230
1.0
 70
    11
 71
     3
 72
    23
 73
    19
 74
     0
 42
0.0000000001
 43
0.0000000001
 12
1.0
 22
0.0
 32
0.0
 13
1.0
 23
0.0
 33
0.0
 40
0.0
 40
0.0
 40
0.0
 40
0.0
 40
1.0
 40
1.0
 40
1.0
 40
2.0
 40
2.0
 40
2.0
 40
3.0
 40
3.0
 40
3.0
 40
4.0
 40
4.0
 40
4.0
 40
5.0
 40
5.0
 40
5.0
 40
6.0
 40
6.0
 40
6.0
 40
6.0
 10
23.10871501763662
 20
22.32110133435991
 30
0.0
 10
23.10871501763662
 20
22.32110133435991
 30
0.0
 10
23.1087116267946
 20
22.32110133435991
 30
0.0
 10
23.1087116267946
 20
22.32110133435991
 30
0.0
 10
23.1087116267946
 20
22.26677326361338
 30
0.0
 10
23.06461711724599
 20
22.22267875406477
 30
0.0
 10
23.01028904649946
 20
22.22267875406477
 30
0.0
 10
22.95596097575293
 20
22.22267875406477
 30
0.0
 10
22.91186307536231
 20
22.26677326361338
 30
0.0
 10
22.91186307536231
 20
22.32110133435991
 30
0.0
 10
22.91186307536231
 20
22.37543618679047
 30
0.0
 10
22.95596097575293
 20
22.41953069633908
 30
0.0
 10
23.01028904649946
 20
22.41953069633908
 30
0.0
 10
23.06461711724599
 20
22.41953069633908
 30
0.0
 10
23.1087116267946
 20
22.37543618679047
 30
0.0
 10
23.1087116267946
 20
22.32110133435991
 30
0.0
 10
23.1087116267946
 20
22.32110133435991
 30
0.0
 10
23.10871501763662
 20
22.32110133435991
 30
0.0
 10
23.10871501763662
 20
22.32110133435991
 30
0.0
  0
SPLINE
  5
86
330
41
100
AcDbEntity
  8
Layer 1
 62
     7
420
 16777215
370
   100
100
AcDbSpline
210
0.0
220
0.0
230
1.0
 70
    11
 71
     3
 72
    23
 73
    19
 74
     0
 42
0.0000000001
 43
0.0000000001
 12
1.0
 22
0.0
 32
0.0
 13
1.0
 23
0.0
 33
0.0
 40
0.0
 40
0.0
 40
0.0
 40
0.0
 40
1.0
 40
1.0
 40
1.0
 40
2.0
 40
2.0
 40
2.0
 40
3.0
 40
3.0
 40
3.0
 40
4.0
 40
4.0
 40
4.0
 40
5.0
 40
5.0
 40
5.0
 40
6.0
 40
6.0
 40
6.0
 40
6.0
 10
23.69926745361752
 20
22.32110133435991
 30
0.0
 10
23.69926745361752
 20
22.32110133435991
 30
0.0
 10
23.69926745361752
 20
22.32110133435991
 30
0.0
 10
23.69926745361752
 20
22.32110133435991
 30
0.0
 10
23.69926745361752
 20
22.26677326361338
 30
0.0
 10
23.65517294406891
 20
22.22267875406477
 30
0.0
 10
23.60084148248037
 20
22.22267875406477
 30
0.0
 10
23.54651341173384
 20
22.22267875406477
 30
0.0
 10
23.50241890218523
 20
22.26677326361338
 30
0.0
 10
23.50241890218523
 20
22.32110133435991
 30
0.0
 10
23.50241890218523
 20
22.37543618679047
 30
0.0
 10
23.54651341173384
 20
22.41953069633908
 30
0.0
 10
23.60084148248037
 20
22.41953069633908
 30
0.0
 10
23.65517294406891
 20
22.41953069633908
 30
0.0
 10
23.69926745361752
 20
22.37543618679047
 30
0.0
 10
23.69926745361752
 20
22.32110133435991
 30
0.0
 10
23.69926745361752
 20
22.32110133435991
 30
0.0
 10
23.69926745361752
 20
22.32110133435991
 30
0.0
 10
23.69926745361752
 20
22.32110133435991
 30
0.0
  0
POLYLINE
  5
87
330
41
100
AcDbEntity
  8
Layer 1
 62
     7
420
 16777215
370
   100
100
AcDb2dPolyline
 66
     1
 10
0.0
 20
0.0
 30
0.0
  0
VERTEX
  5
88
330
87
100
AcDbEntity
  8
Layer 1
 62
     7
420
 16777215
370
   100
100
AcDbVertex
100
AcDb2dVertex
 10
24.09297133816613
 20
26.9124573998981
 30
0.0
  0
VERTEX
  5
89
330
87
100
AcDbEntity
  8
Layer 1
 62
     7
420
 16777215
370
   100
100
AcDbVertex
100
AcDb2dVertex
 10
25.27407451470693
 20
26.9124573998981
 30
0.0
  0
VERTEX
  5
8A
330
87
100
AcDbEntity
  8
Layer 1
 62
     7
420
 16777215
370
   100
100
AcDbVertex
100
AcDb2dVertex
 10
25.27407451470693
 20
21.05677841769324
 30
0.0
  0
VERTEX
  5
8B
330
87
100
AcDbEntity
  8
Layer 1
 62
     7
420
 16777215
370
   100
100
AcDbVertex
100
AcDb2dVertex
 10
24.09297133816613
 20
21.05677841769324
 30
0.0
  0
VERTEX
  5
8C
330
87
100
AcDbEntity
  8
Layer 1
 62
     7
420
 16777215
370
   100
100
AcDbVertex
100
AcDb2dVertex
 10
24.09297133816613
 20
26.9124573998981
 30
0.0
  0
SEQEND
  5
8D
330
87
100
AcDbEntity
  8
Layer 1
 62
     7
420
 16777215
370
   100
  0
SPLINE
  5
8E
330
41
100
AcDbEntity
  8
Layer 1
 62
     7
420
 16777215
370
   100
100
AcDbSpline
210
0.0
220
0.0
230
1.0
 70
    11
 71
     3
 72
    23
 73
    19
 74
     0
 42
0.0000000001
 43
0.0000000001
 12
1.0
 22
0.0
 32
0.0
 13
1.0
 23
0.0
 33
0.0
 40
0.0
 40
0.0
 40
0.0
 40
0.0
 40
1.0
 40
1.0
 40
1.0
 40
2.0
 40
2.0
 40
2.0
 40
3.0
 40
3.0
 40
3.0
 40
4.0
 40
4.0
 40
4.0
 40
5.0
 40
5.0
 40
5.0
 40
6.0
 40
6.0
 40
6.0
 40
6.0
 10
24.48666844103071
 20
25.60078476534949
 30
0.0
 10
24.48666844103071
 20
25.60078476534949
 30
0.0
 10
24.48666844103071
 20
25.60078476534949
 30
0.0
 10
24.48666844103071
 20
25.60078476534949
 30
0.0
 10
24.48666844103071
 20
25.54645330376095
 30
0.0
 10
24.4425739314821
 20
25.50235540337033
 30
0.0
 10
24.38824586073557
 20
25.50235540337033
 30
0.0
 10
24.33391439914703
 20
25.50235540337033
 30
0.0
 10
24.28981988959842
 20
25.54645330376095
 30
0.0
 10
24.28981988959842
 20
25.60078476534949
 30
0.0
 10
24.28981988959842
 20
25.65511283609602
 30
0.0
 10
24.33391439914703
 20
25.69921073648664
 30
0.0
 10
24.38824586073557
 20
25.69921073648664
 30
0.0
 10
24.4425739314821
 20
25.69921073648664
 30
0.0
 10
24.48666844103071
 20
25.65511283609602
 30
0.0
 10
24.48666844103071
 20
25.60078476534949
 30
0.0
 10
24.48666844103071
 20
25.60078476534949
 30
0.0
 10
24.48666844103071
 20
25.60078476534949
 30
0.0
 10
24.48666844103071
 20
25.60078476534949
 30
0.0
  0
SPLINE
  5
8F
330
41
100
AcDbEntity
  8
Layer 1
 62
     7
420
 16777215
370
   100
100
AcDbSpline
210
0.0
220
0.0
230
1.0
 70
    11
 71
     3
 72
    23
 73
    19
 74
     0
 42
0.0000000001
 43
0.0000000001
 12
1.0
 22
0.0
 32
0.0
 13
1.0
 23
0.0
 33
0.0
 40
0.0
 40
0.0
 40
0.0
 40
0.0
 40
1.0
 40
1.0
 40
1.0
 40
2.0
 40
2.0
 40
2.0
 40
3.0
 40
3.0
 40
3.0
 40
4.0
 40
4.0
 40
4.0
 40
5.0
 40
5.0
 40
5.0
 40
6.0
 40
6.0
 40
6.0
 40
6.0
 10
25.07722257243262
 20
25.60078476534949
 30
0.0
 10
25.07722257243262
 20
25.60078476534949
 30
0.0
 10
25.07722257243262
 20
25.60078476534949
 30
0.0
 10
25.07722257243262
 20
25.60078476534949
 30
0.0
 10
25.07722257243262
 20
25.54645330376095
 30
0.0
 10
25.03312806288401
 20
25.50235540337033
 30
0.0
 10
24.97879829671648
 20
25.50235540337033
 30
0.0
 10
24.92446853054894
 20
25.50235540337033
 30
0.0
 10
24.88037402100033
 20
25.54645330376095
 30
0.0
 10
24.88037402100033
 20
25.60078476534949
 30
0.0
 10
24.88037402100033
 20
25.65511283609602
 30
0.0
 10
24.92446853054894
 20
25.69921073648664
 30
0.0
 10
24.97879829671648
 20
25.69921073648664
 30
0.0
 10
25.03312806288401
 20
25.69921073648664
 30
0.0
 10
25.07722257243262
 20
25.65511283609602
 30
0.0
 10
25.07722257243262
 20
25.60078476534949
 30
0.0
 10
25.07722257243262
 20
25.60078476534949
 30
0.0
 10
25.07722257243262
 20
25.60078476534949
 30
0.0
 10
25.07722257243262
 20
25.60078476534949
 30
0.0
  0
SPLINE
  5
90
330
41
100
AcDbEntity
  8
Layer 1
 62
     7
420
 16777215
370
   100
100
AcDbSpline
210
0.0
220
0.0
230
1.0
 70
    11
 71
     3
 72
    23
 73
    19
 74
     0
 42
0.0000000001
 43
0.0000000001
 12
1.0
 22
0.0
 32
0.0
 13
1.0
 23
0.0
 33
0.0
 40
0.0
 40
0.0
 40
0.0
 40
0.0
 40
1.0
 40
1.0
 40
1.0
 40
2.0
 40
2.0
 40
2.0
 40
3.0
 40
3.0
 40
3.0
 40
4.0
 40
4.0
 40
4.0
 40
5.0
 40
5.0
 40
5.0
 40
6.0
 40
6.0
 40
6.0
 40
6.0
 10
24.48666844103071
 20
22.36846461560991
 30
0.0
 10
24.48666844103071
 20
22.36846461560991
 30
0.0
 10
24.48666844103071
 20
22.36846461560991
 30
0.0
 10
24.48666844103071
 20
22.36846461560991
 30
0.0
 10
24.48666844103071
 20
22.31413315402137
 30
0.0
 10
24.4425739314821
 20
22.27003864447276
 30
0.0
 10
24.38824586073557
 20
22.27003864447276
 30
0.0
 10
24.33391439914703
 20
22.27003864447276
 30
0.0
 10
24.28981988959842
 20
22.31413315402137
 30
0.0
 10
24.28981988959842
 20
22.36846461560991
 30
0.0
 10
24.28981988959842
 20
22.42279607719845
 30
0.0
 10
24.33391439914703
 20
22.46689058674706
 30
0.0
 10
24.38824586073557
 20
22.46689058674706
 30
0.0
 10
24.4425739314821
 20
22.46689058674706
 30
0.0
 10
24.48666844103071
 20
22.42279607719845
 30
0.0
 10
24.48666844103071
 20
22.36846461560991
 30
0.0
 10
24.48666844103071
 20
22.36846461560991
 30
0.0
 10
24.48666844103071
 20
22.36846461560991
 30
0.0
 10
24.48666844103071
 20
22.36846461560991
 30
0.0
  0
SPLINE
  5
91
330
41
100
AcDbEntity
  8
Layer 1
 62
     7
420
 16777215
370
   100
100
AcDbSpline
210
0.0
220
0.0
230
1.0
 70
    11
 71
     3
 72
    23
 73
    19
 74
     0
 42
0.0000000001
 43
0.0000000001
 12
1.0
 22
0.0
 32
0.0
 13
1.0
 23
0.0
 33
0.0
 40
0.0
 40
0.0
 40
0.0
 40
0.0
 40
1.0
 40
1.0
 40
1.0
 40
2.0
 40
2.0
 40
2.0
 40
3.0
 40
3.0
 40
3.0
 40
4.0
 40
4.0
 40
4.0
 40
5.0
 40
5.0
 40
5.0
 40
6.0
 40
6.0
 40
6.0
 40
6.0
 10
25.07722257243262
 20
22.36846461560991
 30
0.0
 10
25.07722257243262
 20
22.36846461560991
 30
0.0
 10
25.07722257243262
 20
22.36846461560991
 30
0.0
 10
25.07722257243262
 20
22.36846461560991
 30
0.0
 10
25.07722257243262
 20
22.31413315402137
 30
0.0
 10
25.03312806288401
 20
22.27003864447276
 30
0.0
 10
24.97879829671648
 20
22.27003864447276
 30
0.0
 10
24.92446853054894
 20
22.27003864447276
 30
0.0
 10
24.88037402100033
 20
22.31413315402137
 30
0.0
 10
24.88037402100033
 20
22.36846461560991
 30
0.0
 10
24.88037402100033
 20
22.42279607719845
 30
0.0
 10
24.92446853054894
 20
22.46689058674706
 30
0.0
 10
24.97879829671648
 20
22.46689058674706
 30
0.0
 10
25.03312806288401
 20
22.46689058674706
 30
0.0
 10
25.07722257243262
 20
22.42279607719845
 30
0.0
 10
25.07722257243262
 20
22.36846461560991
 30
0.0
 10
25.07722257243262
 20
22.36846461560991
 30
0.0
 10
25.07722257243262
 20
22.36846461560991
 30
0.0
 10
25.07722257243262
 20
22.36846461560991
 30
0.0
  0
POLYLINE
  5
92
330
41
100
AcDbEntity
  8
Layer 1
 62
     7
420
 16777215
370
   100
100
AcDb2dPolyline
 66
     1
 10
0.0
 20
0.0
 30
0.0
  0
VERTEX
  5
93
330
92
100
AcDbEntity
  8
Layer 1
 62
     7
420
 16777215
370
   100
100
AcDbVertex
100
AcDb2dVertex
 10
25.47092306613922
 20
26.82910372151269
 30
0.0
  0
VERTEX
  5
94
330
92
100
AcDbEntity
  8
Layer 1
 62
     7
420
 16777215
370
   100
100
AcDbVertex
100
AcDb2dVertex
 10
26.65202963352203
 20
26.82910372151269
 30
0.0
  0
VERTEX
  5
95
330
92
100
AcDbEntity
  8
Layer 1
 62
     7
420
 16777215
370
   100
100
AcDbVertex
100
AcDb2dVertex
 10
26.65202963352203
 20
21.14011853271061
 30
0.0
  0
VERTEX
  5
96
330
92
100
AcDbEntity
  8
Layer 1
 62
     7
420
 16777215
370
   100
100
AcDbVertex
100
AcDb2dVertex
 10
25.47092306613922
 20
21.14011853271061
 30
0.0
  0
VERTEX
  5
97
330
92
100
AcDbEntity
  8
Layer 1
 62
     7
420
 16777215
370
   100
100
AcDbVertex
100
AcDb2dVertex
 10
25.47092306613922
 20
26.82910372151269
 30
0.0
  0
SEQEND
  5
98
330
92
100
AcDbEntity
  8
Layer 1
 62
     7
420
 16777215
370
   100
  0
SPLINE
  5
99
330
41
100
AcDbEntity
  8
Layer 1
 62
     7
420
 16777215
370
   100
100
AcDbSpline
210
0.0
220
0.0
230
1.0
 70
    11
 71
     3
 72
    23
 73
    19
 74
     0
 42
0.0000000001
 43
0.0000000001
 12
1.0
 22
0.0
 32
0.0
 13
1.0
 23
0.0
 33
0.0
 40
0.0
 40
0.0
 40
0.0
 40
0.0
 40
1.0
 40
1.0
 40
1.0
 40
2.0
 40
2.0
 40
2.0
 40
3.0
 40
3.0
 40
3.0
 40
4.0
 40
4.0
 40
4.0
 40
5.0
 40
5.0
 40
5.0
 40
6.0
 40
6.0
 40
6.0
 40
6.0
 10
25.86462525526682
 20
25.55477103922102
 30
0.0
 10
25.86462525526682
 20
25.55477103922102
 30
0.0
 10
25.86462525526682
 20
25.55477103922102
 30
0.0
 10
25.86462525526682
 20
25.55477103922102
 30
0.0
 10
25.86462525526682
 20
25.50043957763248
 30
0.0
 10
25.82052905029721
 20
25.45634506808387
 30
0.0
 10
25.76620097955068
 20
25.45634506808387
 30
0.0
 10
25.71187121338314
 20
25.45634506808387
 30
0.0
 10
25.66777670383453
 20
25.50043957763248
 30
0.0
 10
25.66777670383453
 20
25.55477103922102
 30
0.0
 10
25.66777670383453
 20
25.60910250080956
 30
0.0
 10
25.71187121338314
 20
25.65319701035817
 30
0.0
 10
25.76620097955068
 20
25.65319701035817
 30
0.0
 10
25.82052905029721
 20
25.65319701035817
 30
0.0
 10
25.86462525526682
 20
25.60910250080956
 30
0.0
 10
25.86462525526682
 20
25.55477103922102
 30
0.0
 10
25.86462525526682
 20
25.55477103922102
 30
0.0
 10
25.86462525526682
 20
25.55477103922102
 30
0.0
 10
25.86462525526682
 20
25.55477103922102
 30
0.0
  0
SPLINE
  5
9A
330
41
100
AcDbEntity
  8
Layer 1
 62
     7
420
 16777215
370
   100
100
AcDbSpline
210
0.0
220
0.0
230
1.0
 70
    11
 71
     3
 72
    23
 73
    19
 74
     0
 42
0.0000000001
 43
0.0000000001
 12
1.0
 22
0.0
 32
0.0
 13
1.0
 23
0.0
 33
0.0
 40
0.0
 40
0.0
 40
0.0
 40
0.0
 40
1.0
 40
1.0
 40
1.0
 40
2.0
 40
2.0
 40
2.0
 40
3.0
 40
3.0
 40
3.0
 40
4.0
 40
4.0
 40
4.0
 40
5.0
 40
5.0
 40
5.0
 40
6.0
 40
6.0
 40
6.0
 40
6.0
 10
26.45517769124773
 20
25.55477103922102
 30
0.0
 10
26.45517769124773
 20
25.55477103922102
 30
0.0
 10
26.45517938666873
 20
25.55477103922102
 30
0.0
 10
26.45517938666873
 20
25.55477103922102
 30
0.0
 10
26.45517938666873
 20
25.50043957763248
 30
0.0
 10
26.41108487712012
 20
25.45634506808387
 30
0.0
 10
26.35675341553158
 20
25.45634506808387
 30
0.0
 10
26.30242195394304
 20
25.45634506808387
 30
0.0
 10
26.25832744439443
 20
25.50043957763248
 30
0.0
 10
26.25832744439443
 20
25.55477103922102
 30
0.0
 10
26.25832744439443
 20
25.60910250080956
 30
0.0
 10
26.30242195394304
 20
25.65319701035817
 30
0.0
 10
26.35675341553158
 20
25.65319701035817
 30
0.0
 10
26.41108487712012
 20
25.65319701035817
 30
0.0
 10
26.45517938666873
 20
25.60910250080956
 30
0.0
 10
26.45517938666873
 20
25.55477103922102
 30
0.0
 10
26.45517938666873
 20
25.55477103922102
 30
0.0
 10
26.45517769124773
 20
25.55477103922102
 30
0.0
 10
26.45517769124773
 20
25.55477103922102
 30
0.0
  0
SPLINE
  5
9B
330
41
100
AcDbEntity
  8
Layer 1
 62
     7
420
 16777215
370
   100
100
AcDbSpline
210
0.0
220
0.0
230
1.0
 70
    11
 71
     3
 72
    23
 73
    19
 74
     0
 42
0.0000000001
 43
0.0000000001
 12
1.0
 22
0.0
 32
0.0
 13
1.0
 23
0.0
 33
0.0
 40
0.0
 40
0.0
 40
0.0
 40
0.0
 40
1.0
 40
1.0
 40
1.0
 40
2.0
 40
2.0
 40
2.0
 40
3.0
 40
3.0
 40
3.0
 40
4.0
 40
4.0
 40
4.0
 40
5.0
 40
5.0
 40
5.0
 40
6.0
 40
6.0
 40
6.0
 40
6.0
 10
25.86462525526682
 20
22.41445121500227
 30
0.0
 10
25.86462525526682
 20
22.41445121500227
 30
0.0
 10
25.86462525526682
 20
22.41445121500227
 30
0.0
 10
25.86462525526682
 20
22.41445121500227
 30
0.0
 10
25.86462525526682
 20
22.36011636257172
 30
0.0
 10
25.82052905029721
 20
22.31602185302311
 30
0.0
 10
25.76620097955068
 20
22.31602185302311
 30
0.0
 10
25.71187121338314
 20
22.31602185302311
 30
0.0
 10
25.66777670383453
 20
22.36011636257172
 30
0.0
 10
25.66777670383453
 20
22.41445121500227
 30
0.0
 10
25.66777670383453
 20
22.4687792857488
 30
0.0
 10
25.71187121338314
 20
22.51287379529741
 30
0.0
 10
25.76620097955068
 20
22.51287379529741
 30
0.0
 10
25.82052905029721
 20
22.51287379529741
 30
0.0
 10
25.86462525526682
 20
22.4687792857488
 30
0.0
 10
25.86462525526682
 20
22.41445121500227
 30
0.0
 10
25.86462525526682
 20
22.41445121500227
 30
0.0
 10
25.86462525526682
 20
22.41445121500227
 30
0.0
 10
25.86462525526682
 20
22.41445121500227
 30
0.0
  0
SPLINE
  5
9C
330
41
100
AcDbEntity
  8
Layer 1
 62
     7
420
 16777215
370
   100
100
AcDbSpline
210
0.0
220
0.0
230
1.0
 70
    11
 71
     3
 72
    23
 73
    19
 74
     0
 42
0.0000000001
 43
0.0000000001
 12
1.0
 22
0.0
 32
0.0
 13
1.0
 23
0.0
 33
0.0
 40
0.0
 40
0.0
 40
0.0
 40
0.0
 40
1.0
 40
1.0
 40
1.0
 40
2.0
 40
2.0
 40
2.0
 40
3.0
 40
3.0
 40
3.0
 40
4.0
 40
4.0
 40
4.0
 40
5.0
 40
5.0
 40
5.0
 40
6.0
 40
6.0
 40
6.0
 40
6.0
 10
26.45517769124773
 20
22.41445121500227
 30
0.0
 10
26.45517769124773
 20
22.41445121500227
 30
0.0
 10
26.45517938666873
 20
22.41445121500227
 30
0.0
 10
26.45517938666873
 20
22.41445121500227
 30
0.0
 10
26.45517938666873
 20
22.36011636257172
 30
0.0
 10
26.41108487712012
 20
22.31602185302311
 30
0.0
 10
26.35675341553158
 20
22.31602185302311
 30
0.0
 10
26.30242195394304
 20
22.31602185302311
 30
0.0
 10
26.25832744439443
 20
22.36011636257172
 30
0.0
 10
26.25832744439443
 20
22.41445121500227
 30
0.0
 10
26.25832744439443
 20
22.4687792857488
 30
0.0
 10
26.30242195394304
 20
22.51287379529741
 30
0.0
 10
26.35675341553158
 20
22.51287379529741
 30
0.0
 10
26.41108487712012
 20
22.51287379529741
 30
0.0
 10
26.45517938666873
 20
22.4687792857488
 30
0.0
 10
26.45517938666873
 20
22.41445121500227
 30
0.0
 10
26.45517938666873
 20
22.41445121500227
 30
0.0
 10
26.45517769124773
 20
22.41445121500227
 30
0.0
 10
26.45517769124773
 20
22.41445121500227
 30
0.0
  0
POLYLINE
  5
9D
330
41
100
AcDbEntity
  8
Layer 1
 62
     7
420
 16777215
370
   100
100
AcDb2dPolyline
 66
     1
 10
0.0
 20
0.0
 30
0.0
  0
VERTEX
  5
9E
330
9D
100
AcDbEntity
  8
Layer 1
 62
     7
420
 16777215
370
   100
100
AcDbVertex
100
AcDb2dVertex
 10
26.84887988037533
 20
26.74813041422102
 30
0.0
  0
VERTEX
  5
9F
330
9D
100
AcDbEntity
  8
Layer 1
 62
     7
420
 16777215
370
   100
100
AcDbVertex
100
AcDb2dVertex
 10
28.02998305691613
 20
26.74813041422102
 30
0.0
  0
VERTEX
  5
A0
330
9D
100
AcDbEntity
  8
Layer 1
 62
     7
420
 16777215
370
   100
100
AcDbVertex
100
AcDb2dVertex
 10
28.02998305691613
 20
21.22111218505436
 30
0.0
  0
VERTEX
  5
A1
330
9D
100
AcDbEntity
  8
Layer 1
 62
     7
420
 16777215
370
   100
100
AcDbVertex
100
AcDb2dVertex
 10
26.84887988037533
 20
21.22111218505436
 30
0.0
  0
VERTEX
  5
A2
330
9D
100
AcDbEntity
  8
Layer 1
 62
     7
420
 16777215
370
   100
100
AcDbVertex
100
AcDb2dVertex
 10
26.84887988037533
 20
26.74813041422102
 30
0.0
  0
SEQEND
  5
A3
330
9D
100
AcDbEntity
  8
Layer 1
 62
     7
420
 16777215
370
   100
  0
SPLINE
  5
A4
330
41
100
AcDbEntity
  8
Layer 1
 62
     7
420
 16777215
370
   100
100
AcDbSpline
210
0.0
220
0.0
230
1.0
 70
    11
 71
     3
 72
    23
 73
    19
 74
     0
 42
0.0000000001
 43
0.0000000001
 12
1.0
 22
0.0
 32
0.0
 13
1.0
 23
0.0
 33
0.0
 40
0.0
 40
0.0
 40
0.0
 40
0.0
 40
1.0
 40
1.0
 40
1.0
 40
2.0
 40
2.0
 40
2.0
 40
3.0
 40
3.0
 40
3.0
 40
4.0
 40
4.0
 40
4.0
 40
5.0
 40
5.0
 40
5.0
 40
6.0
 40
6.0
 40
6.0
 40
6.0
 10
27.24258037408193
 20
25.51007635063595
 30
0.0
 10
27.24258037408193
 20
25.51007635063595
 30
0.0
 10
27.24258206950293
 20
25.51007635063595
 30
0.0
 10
27.24258206950293
 20
25.51007635063595
 30
0.0
 10
27.24258206950293
 20
25.45574488904741
 30
0.0
 10
27.19848755995432
 20
25.4116503794988
 30
0.0
 10
27.14415609836578
 20
25.4116503794988
 30
0.0
 10
27.08982463677724
 20
25.4116503794988
 30
0.0
 10
27.04573012722863
 20
25.45574488904741
 30
0.0
 10
27.04573012722863
 20
25.51007635063595
 30
0.0
 10
27.04573012722863
 20
25.56440781222449
 30
0.0
 10
27.08982463677724
 20
25.6085023217731
 30
0.0
 10
27.14415609836578
 20
25.6085023217731
 30
0.0
 10
27.19848755995432
 20
25.6085023217731
 30
0.0
 10
27.24258206950293
 20
25.56440781222449
 30
0.0
 10
27.24258206950293
 20
25.51007635063595
 30
0.0
 10
27.24258206950293
 20
25.51007635063595
 30
0.0
 10
27.24258037408193
 20
25.51007635063595
 30
0.0
 10
27.24258037408193
 20
25.51007635063595
 30
0.0
  0
SPLINE
  5
A5
330
41
100
AcDbEntity
  8
Layer 1
 62
     7
420
 16777215
370
   100
100
AcDbSpline
210
0.0
220
0.0
230
1.0
 70
    11
 71
     3
 72
    23
 73
    19
 74
     0
 42
0.0000000001
 43
0.0000000001
 12
1.0
 22
0.0
 32
0.0
 13
1.0
 23
0.0
 33
0.0
 40
0.0
 40
0.0
 40
0.0
 40
0.0
 40
1.0
 40
1.0
 40
1.0
 40
2.0
 40
2.0
 40
2.0
 40
3.0
 40
3.0
 40
3.0
 40
4.0
 40
4.0
 40
4.0
 40
5.0
 40
5.0
 40
5.0
 40
6.0
 40
6.0
 40
6.0
 40
6.0
 10
27.83313450548384
 20
25.51007635063595
 30
0.0
 10
27.83313450548384
 20
25.51007635063595
 30
0.0
 10
27.83313450548384
 20
25.51007635063595
 30
0.0
 10
27.83313450548384
 20
25.51007635063595
 30
0.0
 10
27.83313450548384
 20
25.45574488904741
 30
0.0
 10
27.78903830051422
 20
25.4116503794988
 30
0.0
 10
27.73470853434668
 20
25.4116503794988
 30
0.0
 10
27.68037707275814
 20
25.4116503794988
 30
0.0
 10
27.63628256320953
 20
25.45574488904741
 30
0.0
 10
27.63628256320953
 20
25.51007635063595
 30
0.0
 10
27.63628256320953
 20
25.56440781222449
 30
0.0
 10
27.68037707275814
 20
25.6085023217731
 30
0.0
 10
27.73470853434668
 20
25.6085023217731
 30
0.0
 10
27.78903830051422
 20
25.6085023217731
 30
0.0
 10
27.83313450548384
 20
25.56440781222449
 30
0.0
 10
27.83313450548384
 20
25.51007635063595
 30
0.0
 10
27.83313450548384
 20
25.51007635063595
 30
0.0
 10
27.83313450548384
 20
25.51007635063595
 30
0.0
 10
27.83313450548384
 20
25.51007635063595
 30
0.0
  0
SPLINE
  5
A6
330
41
100
AcDbEntity
  8
Layer 1
 62
     7
420
 16777215
370
   100
100
AcDbSpline
210
0.0
220
0.0
230
1.0
 70
    11
 71
     3
 72
    23
 73
    19
 74
     0
 42
0.0000000001
 43
0.0000000001
 12
1.0
 22
0.0
 32
0.0
 13
1.0
 23
0.0
 33
0.0
 40
0.0
 40
0.0
 40
0.0
 40
0.0
 40
1.0
 40
1.0
 40
1.0
 40
2.0
 40
2.0
 40
2.0
 40
3.0
 40
3.0
 40
3.0
 40
4.0
 40
4.0
 40
4.0
 40
5.0
 40
5.0
 40
5.0
 40
6.0
 40
6.0
 40
6.0
 40
6.0
 10
27.24258037408193
 20
22.45917303032345
 30
0.0
 10
27.24258037408193
 20
22.45917303032345
 30
0.0
 10
27.24258206950293
 20
22.45917303032345
 30
0.0
 10
27.24258206950293
 20
22.45917303032345
 30
0.0
 10
27.24258206950293
 20
22.40484156873491
 30
0.0
 10
27.19848755995432
 20
22.3607470591863
 30
0.0
 10
27.14415609836578
 20
22.3607470591863
 30
0.0
 10
27.08982463677724
 20
22.3607470591863
 30
0.0
 10
27.04573012722863
 20
22.40484156873491
 30
0.0
 10
27.04573012722863
 20
22.45917303032345
 30
0.0
 10
27.04573012722863
 20
22.51350449191199
 30
0.0
 10
27.08982463677724
 20
22.55759900146061
 30
0.0
 10
27.14415609836578
 20
22.55759900146061
 30
0.0
 10
27.19848755995432
 20
22.55759900146061
 30
0.0
 10
27.24258206950293
 20
22.51350449191199
 30
0.0
 10
27.24258206950293
 20
22.45917303032345
 30
0.0
 10
27.24258206950293
 20
22.45917303032345
 30
0.0
 10
27.24258037408193
 20
22.45917303032345
 30
0.0
 10
27.24258037408193
 20
22.45917303032345
 30
0.0
  0
SPLINE
  5
A7
330
41
100
AcDbEntity
  8
Layer 1
 62
     7
420
 16777215
370
   100
100
AcDbSpline
210
0.0
220
0.0
230
1.0
 70
    11
 71
     3
 72
    23
 73
    19
 74
     0
 42
0.0000000001
 43
0.0000000001
 12
1.0
 22
0.0
 32
0.0
 13
1.0
 23
0.0
 33
0.0
 40
0.0
 40
0.0
 40
0.0
 40
0.0
 40
1.0
 40
1.0
 40
1.0
 40
2.0
 40
2.0
 40
2.0
 40
3.0
 40
3.0
 40
3.0
 40
4.0
 40
4.0
 40
4.0
 40
5.0
 40
5.0
 40
5.0
 40
6.0
 40
6.0
 40
6.0
 40
6.0
 10
27.83313450548384
 20
22.45917303032345
 30
0.0
 10
27.83313450548384
 20
22.45917303032345
 30
0.0
 10
27.83313450548384
 20
22.45917303032345
 30
0.0
 10
27.83313450548384
 20
22.45917303032345
 30
0.0
 10
27.83313450548384
 20
22.40484156873491
 30
0.0
 10
27.78903830051422
 20
22.3607470591863
 30
0.0
 10
27.73470853434668
 20
22.3607470591863
 30
0.0
 10
27.68037707275814
 20
22.3607470591863
 30
0.0
 10
27.63628256320953
 20
22.40484156873491
 30
0.0
 10
27.63628256320953
 20
22.45917303032345
 30
0.0
 10
27.63628256320953
 20
22.51350449191199
 30
0.0
 10
27.68037707275814
 20
22.55759900146061
 30
0.0
 10
27.73470853434668
 20
22.55759900146061
 30
0.0
 10
27.78903830051422
 20
22.55759900146061
 30
0.0
 10
27.83313450548384
 20
22.51350449191199
 30
0.0
 10
27.83313450548384
 20
22.45917303032345
 30
0.0
 10
27.83313450548384
 20
22.45917303032345
 30
0.0
 10
27.83313450548384
 20
22.45917303032345
 30
0.0
 10
27.83313450548384
 20
22.45917303032345
 30
0.0
  0
POLYLINE
  5
A8
330
41
100
AcDbEntity
  8
Layer 1
 62
     7
420
 16777215
370
   100
100
AcDb2dPolyline
 66
     1
 10
0.0
 20
0.0
 30
0.0
  0
VERTEX
  5
A9
330
A8
100
AcDbEntity
  8
Layer 1
 62
     7
420
 16777215
370
   100
100
AcDbVertex
100
AcDb2dVertex
 10
28.22683499919043
 20
26.66945609781477
 30
0.0
  0
VERTEX
  5
AA
330
A8
100
AcDbEntity
  8
Layer 1
 62
     7
420
 16777215
370
   100
100
AcDbVertex
100
AcDb2dVertex
 10
29.40793817573123
 20
26.66945609781477
 30
0.0
  0
VERTEX
  5
AB
330
A8
100
AcDbEntity
  8
Layer 1
 62
     7
420
 16777215
370
   100
100
AcDbVertex
100
AcDb2dVertex
 10
29.40793817573123
 20
21.29975937472449
 30
0.0
  0
VERTEX
  5
AC
330
A8
100
AcDbEntity
  8
Layer 1
 62
     7
420
 16777215
370
   100
100
AcDbVertex
100
AcDb2dVertex
 10
28.22683499919043
 20
21.29975937472449
 30
0.0
  0
VERTEX
  5
AD
330
A8
100
AcDbEntity
  8
Layer 1
 62
     7
420
 16777215
370
   100
100
AcDbVertex
100
AcDb2dVertex
 10
28.22683499919043
 20
26.66945609781477
 30
0.0
  0
SEQEND
  5
AE
330
A8
100
AcDbEntity
  8
Layer 1
 62
     7
420
 16777215
370
   100
  0
SPLINE
  5
AF
330
41
100
AcDbEntity
  8
Layer 1
 62
     7
420
 16777215
370
   100
100
AcDbSpline
210
0.0
220
0.0
230
1.0
 70
    11
 71
     3
 72
    23
 73
    19
 74
     0
 42
0.0000000001
 43
0.0000000001
 12
1.0
 22
0.0
 32
0.0
 13
1.0
 23
0.0
 33
0.0
 40
0.0
 40
0.0
 40
0.0
 40
0.0
 40
1.0
 40
1.0
 40
1.0
 40
2.0
 40
2.0
 40
2.0
 40
3.0
 40
3.0
 40
3.0
 40
4.0
 40
4.0
 40
4.0
 40
5.0
 40
5.0
 40
5.0
 40
6.0
 40
6.0
 40
6.0
 40
6.0
 10
28.62053718831804
 20
25.46664644612206
 30
0.0
 10
28.62053718831804
 20
25.46664644612206
 30
0.0
 10
28.62053718831804
 20
25.46664644612206
 30
0.0
 10
28.62053718831804
 20
25.46664644612206
 30
0.0
 10
28.62053718831804
 20
25.41231498453352
 30
0.0
 10
28.57644098334842
 20
25.36822047498491
 30
0.0
 10
28.52210952175988
 20
25.36822047498491
 30
0.0
 10
28.46777975559235
 20
25.36822047498491
 30
0.0
 10
28.42368355062273
 20
25.41231498453352
 30
0.0
 10
28.42368355062273
 20
25.46664644612206
 30
0.0
 10
28.42368355062273
 20
25.5209779077106
 30
0.0
 10
28.46777975559235
 20
25.56507241725922
 30
0.0
 10
28.52210952175988
 20
25.56507241725922
 30
0.0
 10
28.57644098334842
 20
25.56507241725922
 30
0.0
 10
28.62053718831804
 20
25.5209779077106
 30
0.0
 10
28.62053718831804
 20
25.46664644612206
 30
0.0
 10
28.62053718831804
 20
25.46664644612206
 30
0.0
 10
28.62053718831804
 20
25.46664644612206
 30
0.0
 10
28.62053718831804
 20
25.46664644612206
 30
0.0
  0
SPLINE
  5
B0
330
41
100
AcDbEntity
  8
Layer 1
 62
     7
420
 16777215
370
   100
100
AcDbSpline
210
0.0
220
0.0
230
1.0
 70
    11
 71
     3
 72
    23
 73
    19
 74
     0
 42
0.0000000001
 43
0.0000000001
 12
1.0
 22
0.0
 32
0.0
 13
1.0
 23
0.0
 33
0.0
 40
0.0
 40
0.0
 40
0.0
 40
0.0
 40
1.0
 40
1.0
 40
1.0
 40
2.0
 40
2.0
 40
2.0
 40
3.0
 40
3.0
 40
3.0
 40
4.0
 40
4.0
 40
4.0
 40
5.0
 40
5.0
 40
5.0
 40
6.0
 40
6.0
 40
6.0
 40
6.0
 10
29.21108792887793
 20
25.46664644612206
 30
0.0
 10
29.21108792887793
 20
25.46664644612206
 30
0.0
 10
29.21108792887793
 20
25.46664644612206
 30
0.0
 10
29.21108792887793
 20
25.46664644612206
 30
0.0
 10
29.21108792887793
 20
25.41231498453352
 30
0.0
 10
29.16699341932932
 20
25.36822047498491
 30
0.0
 10
29.11266195774078
 20
25.36822047498491
 30
0.0
 10
29.05833049615224
 20
25.36822047498491
 30
0.0
 10
29.01423598660363
 20
25.41231498453352
 30
0.0
 10
29.01423598660363
 20
25.46664644612206
 30
0.0
 10
29.01423598660363
 20
25.5209779077106
 30
0.0
 10
29.05833049615224
 20
25.56507241725922
 30
0.0
 10
29.11266195774078
 20
25.56507241725922
 30
0.0
 10
29.16699341932932
 20
25.56507241725922
 30
0.0
 10
29.21108792887793
 20
25.5209779077106
 30
0.0
 10
29.21108792887793
 20
25.46664644612206
 30
0.0
 10
29.21108792887793
 20
25.46664644612206
 30
0.0
 10
29.21108792887793
 20
25.46664644612206
 30
0.0
 10
29.21108792887793
 20
25.46664644612206
 30
0.0
  0
SPLINE
  5
B1
330
41
100
AcDbEntity
  8
Layer 1
 62
     7
420
 16777215
370
   100
100
AcDbSpline
210
0.0
220
0.0
230
1.0
 70
    11
 71
     3
 72
    23
 73
    19
 74
     0
 42
0.0000000001
 43
0.0000000001
 12
1.0
 22
0.0
 32
0.0
 13
1.0
 23
0.0
 33
0.0
 40
0.0
 40
0.0
 40
0.0
 40
0.0
 40
1.0
 40
1.0
 40
1.0
 40
2.0
 40
2.0
 40
2.0
 40
3.0
 40
3.0
 40
3.0
 40
4.0
 40
4.0
 40
4.0
 40
5.0
 40
5.0
 40
5.0
 40
6.0
 40
6.0
 40
6.0
 40
6.0
 10
28.62053718831804
 20
22.50259954399533
 30
0.0
 10
28.62053718831804
 20
22.50259954399533
 30
0.0
 10
28.62053718831804
 20
22.50259954399533
 30
0.0
 10
28.62053718831804
 20
22.50259954399533
 30
0.0
 10
28.62053718831804
 20
22.44826808240678
 30
0.0
 10
28.57644098334842
 20
22.40417018201616
 30
0.0
 10
28.52210952175988
 20
22.40417018201616
 30
0.0
 10
28.46777975559235
 20
22.40417018201616
 30
0.0
 10
28.42368355062273
 20
22.44826808240678
 30
0.0
 10
28.42368355062273
 20
22.50259954399533
 30
0.0
 10
28.42368355062273
 20
22.55692761474186
 30
0.0
 10
28.46777975559235
 20
22.60102212429047
 30
0.0
 10
28.52210952175988
 20
22.60102212429047
 30
0.0
 10
28.57644098334842
 20
22.60102212429047
 30
0.0
 10
28.62053718831804
 20
22.55692761474186
 30
0.0
 10
28.62053718831804
 20
22.50259954399533
 30
0.0
 10
28.62053718831804
 20
22.50259954399533
 30
0.0
 10
28.62053718831804
 20
22.50259954399533
 30
0.0
 10
28.62053718831804
 20
22.50259954399533
 30
0.0
  0
SPLINE
  5
B2
330
41
100
AcDbEntity
  8
Layer 1
 62
     7
420
 16777215
370
   100
100
AcDbSpline
210
0.0
220
0.0
230
1.0
 70
    11
 71
     3
 72
    23
 73
    19
 74
     0
 42
0.0000000001
 43
0.0000000001
 12
1.0
 22
0.0
 32
0.0
 13
1.0
 23
0.0
 33
0.0
 40
0.0
 40
0.0
 40
0.0
 40
0.0
 40
1.0
 40
1.0
 40
1.0
 40
2.0
 40
2.0
 40
2.0
 40
3.0
 40
3.0
 40
3.0
 40
4.0
 40
4.0
 40
4.0
 40
5.0
 40
5.0
 40
5.0
 40
6.0
 40
6.0
 40
6.0
 40
6.0
 10
29.21108792887793
 20
22.50259954399533
 30
0.0
 10
29.21108792887793
 20
22.50259954399533
 30
0.0
 10
29.21108792887793
 20
22.50259954399533
 30
0.0
 10
29.21108792887793
 20
22.50259954399533
 30
0.0
 10
29.21108792887793
 20
22.44826808240678
 30
0.0
 10
29.16699341932932
 20
22.40417018201616
 30
0.0
 10
29.11266195774078
 20
22.40417018201616
 30
0.0
 10
29.05833049615224
 20
22.40417018201616
 30
0.0
 10
29.01423598660363
 20
22.44826808240678
 30
0.0
 10
29.01423598660363
 20
22.50259954399533
 30
0.0
 10
29.01423598660363
 20
22.55692761474186
 30
0.0
 10
29.05833049615224
 20
22.60102212429047
 30
0.0
 10
29.11266195774078
 20
22.60102212429047
 30
0.0
 10
29.16699341932932
 20
22.60102212429047
 30
0.0
 10
29.21108792887793
 20
22.55692761474186
 30
0.0
 10
29.21108792887793
 20
22.50259954399533
 30
0.0
 10
29.21108792887793
 20
22.50259954399533
 30
0.0
 10
29.21108792887793
 20
22.50259954399533
 30
0.0
 10
29.21108792887793
 20
22.50259954399533
 30
0.0
  0
POLYLINE
  5
B3
330
41
100
AcDbEntity
  8
Layer 1
 62
     7
420
 16777215
370
   100
100
AcDb2dPolyline
 66
     1
 10
0.0
 20
0.0
 30
0.0
  0
VERTEX
  5
B4
330
B3
100
AcDbEntity
  8
Layer 1
 62
     7
420
 16777215
370
   100
100
AcDbVertex
100
AcDb2dVertex
 10
29.60479011800554
 20
26.59302651882172
 30
0.0
  0
VERTEX
  5
B5
330
B3
100
AcDbEntity
  8
Layer 1
 62
     7
420
 16777215
370
   100
100
AcDbVertex
100
AcDb2dVertex
 10
30.78589329454634
 20
26.59302651882172
 30
0.0
  0
VERTEX
  5
B6
330
B3
100
AcDbEntity
  8
Layer 1
 62
     7
420
 16777215
370
   100
100
AcDbVertex
100
AcDb2dVertex
 10
30.78589329454634
 20
21.37620929876963
 30
0.0
  0
VERTEX
  5
B7
330
B3
100
AcDbEntity
  8
Layer 1
 62
     7
420
 16777215
370
   100
100
AcDbVertex
100
AcDb2dVertex
 10
29.60479011800554
 20
21.37620929876963
 30
0.0
  0
VERTEX
  5
B8
330
B3
100
AcDbEntity
  8
Layer 1
 62
     7
420
 16777215
370
   100
100
AcDbVertex
100
AcDb2dVertex
 10
29.60479011800554
 20
26.59302651882172
 30
0.0
  0
SEQEND
  5
B9
330
B3
100
AcDbEntity
  8
Layer 1
 62
     7
420
 16777215
370
   100
  0
SPLINE
  5
BA
330
41
100
AcDbEntity
  8
Layer 1
 62
     7
420
 16777215
370
   100
100
AcDbSpline
210
0.0
220
0.0
230
1.0
 70
    11
 71
     3
 72
    23
 73
    19
 74
     0
 42
0.0000000001
 43
0.0000000001
 12
1.0
 22
0.0
 32
0.0
 13
1.0
 23
0.0
 33
0.0
 40
0.0
 40
0.0
 40
0.0
 40
0.0
 40
1.0
 40
1.0
 40
1.0
 40
2.0
 40
2.0
 40
2.0
 40
3.0
 40
3.0
 40
3.0
 40
4.0
 40
4.0
 40
4.0
 40
5.0
 40
5.0
 40
5.0
 40
6.0
 40
6.0
 40
6.0
 40
6.0
 10
29.99849061171214
 20
25.42445758978526
 30
0.0
 10
29.99849061171214
 20
25.42445758978526
 30
0.0
 10
29.99849230713314
 20
25.42445758978526
 30
0.0
 10
29.99849230713314
 20
25.42445758978526
 30
0.0
 10
29.99849230713314
 20
25.37012612819672
 30
0.0
 10
29.95439779758453
 20
25.3260316186481
 30
0.0
 10
29.90006633599599
 20
25.3260316186481
 30
0.0
 10
29.84573487440745
 20
25.3260316186481
 30
0.0
 10
29.80164036485884
 20
25.37012612819672
 30
0.0
 10
29.80164036485884
 20
25.42445758978526
 30
0.0
 10
29.80164036485884
 20
25.4787890513738
 30
0.0
 10
29.84573487440745
 20
25.52288356092241
 30
0.0
 10
29.90006633599599
 20
25.52288356092241
 30
0.0
 10
29.95439779758453
 20
25.52288356092241
 30
0.0
 10
29.99849230713314
 20
25.4787890513738
 30
0.0
 10
29.99849230713314
 20
25.42445758978526
 30
0.0
 10
29.99849230713314
 20
25.42445758978526
 30
0.0
 10
29.99849061171214
 20
25.42445758978526
 30
0.0
 10
29.99849061171214
 20
25.42445758978526
 30
0.0
  0
SPLINE
  5
BB
330
41
100
AcDbEntity
  8
Layer 1
 62
     7
420
 16777215
370
   100
100
AcDbSpline
210
0.0
220
0.0
230
1.0
 70
    11
 71
     3
 72
    23
 73
    19
 74
     0
 42
0.0000000001
 43
0.0000000001
 12
1.0
 22
0.0
 32
0.0
 13
1.0
 23
0.0
 33
0.0
 40
0.0
 40
0.0
 40
0.0
 40
0.0
 40
1.0
 40
1.0
 40
1.0
 40
2.0
 40
2.0
 40
2.0
 40
3.0
 40
3.0
 40
3.0
 40
4.0
 40
4.0
 40
4.0
 40
5.0
 40
5.0
 40
5.0
 40
6.0
 40
6.0
 40
6.0
 40
6.0
 10
30.58904304769304
 20
25.42445758978526
 30
0.0
 10
30.58904304769304
 20
25.42445758978526
 30
0.0
 10
30.58904474311404
 20
25.42445758978526
 30
0.0
 10
30.58904474311404
 20
25.42445758978526
 30
0.0
 10
30.58904474311404
 20
25.37012612819672
 30
0.0
 10
30.54494853814443
 20
25.3260316186481
 30
0.0
 10
30.49061707655589
 20
25.3260316186481
 30
0.0
 10
30.43628731038835
 20
25.3260316186481
 30
0.0
 10
30.39219110541873
 20
25.37012612819672
 30
0.0
 10
30.39219110541873
 20
25.42445758978526
 30
0.0
 10
30.39219110541873
 20
25.4787890513738
 30
0.0
 10
30.43628731038835
 20
25.52288356092241
 30
0.0
 10
30.49061707655589
 20
25.52288356092241
 30
0.0
 10
30.54494853814443
 20
25.52288356092241
 30
0.0
 10
30.58904474311404
 20
25.4787890513738
 30
0.0
 10
30.58904474311404
 20
25.42445758978526
 30
0.0
 10
30.58904474311404
 20
25.42445758978526
 30
0.0
 10
30.58904304769304
 20
25.42445758978526
 30
0.0
 10
30.58904304769304
 20
25.42445758978526
 30
0.0
  0
SPLINE
  5
BC
330
41
100
AcDbEntity
  8
Layer 1
 62
     7
420
 16777215
370
   100
100
AcDbSpline
210
0.0
220
0.0
230
1.0
 70
    11
 71
     3
 72
    23
 73
    19
 74
     0
 42
0.0000000001
 43
0.0000000001
 12
1.0
 22
0.0
 32
0.0
 13
1.0
 23
0.0
 33
0.0
 40
0.0
 40
0.0
 40
0.0
 40
0.0
 40
1.0
 40
1.0
 40
1.0
 40
2.0
 40
2.0
 40
2.0
 40
3.0
 40
3.0
 40
3.0
 40
4.0
 40
4.0
 40
4.0
 40
5.0
 40
5.0
 40
5.0
 40
6.0
 40
6.0
 40
6.0
 40
6.0
 10
29.99849061171214
 20
22.54476466443803
 30
0.0
 10
29.99849061171214
 20
22.54476466443803
 30
0.0
 10
29.99849230713314
 20
22.54476466443803
 30
0.0
 10
29.99849230713314
 20
22.54476466443803
 30
0.0
 10
29.99849230713314
 20
22.49043320284949
 30
0.0
 10
29.95439779758453
 20
22.44633869330088
 30
0.0
 10
29.90006633599599
 20
22.44633869330088
 30
0.0
 10
29.84573487440745
 20
22.44633869330088
 30
0.0
 10
29.80164036485884
 20
22.49043320284949
 30
0.0
 10
29.80164036485884
 20
22.54476466443803
 30
0.0
 10
29.80164036485884
 20
22.59909612602658
 30
0.0
 10
29.84573487440745
 20
22.64319063557519
 30
0.0
 10
29.90006633599599
 20
22.64319063557519
 30
0.0
 10
29.95439779758453
 20
22.64319063557519
 30
0.0
 10
29.99849230713314
 20
22.59909612602658
 30
0.0
 10
29.99849230713314
 20
22.54476466443803
 30
0.0
 10
29.99849230713314
 20
22.54476466443803
 30
0.0
 10
29.99849061171214
 20
22.54476466443803
 30
0.0
 10
29.99849061171214
 20
22.54476466443803
 30
0.0
  0
SPLINE
  5
BD
330
41
100
AcDbEntity
  8
Layer 1
 62
     7
420
 16777215
370
   100
100
AcDbSpline
210
0.0
220
0.0
230
1.0
 70
    11
 71
     3
 72
    23
 73
    19
 74
     0
 42
0.0000000001
 43
0.0000000001
 12
1.0
 22
0.0
 32
0.0
 13
1.0
 23
0.0
 33
0.0
 40
0.0
 40
0.0
 40
0.0
 40
0.0
 40
1.0
 40
1.0
 40
1.0
 40
2.0
 40
2.0
 40
2.0
 40
3.0
 40
3.0
 40
3.0
 40
4.0
 40
4.0
 40
4.0
 40
5.0
 40
5.0
 40
5.0
 40
6.0
 40
6.0
 40
6.0
 40
6.0
 10
30.58904304769304
 20
22.54476466443803
 30
0.0
 10
30.58904304769304
 20
22.54476466443803
 30
0.0
 10
30.58904474311404
 20
22.54476466443803
 30
0.0
 10
30.58904474311404
 20
22.54476466443803
 30
0.0
 10
30.58904474311404
 20
22.49043320284949
 30
0.0
 10
30.54494853814443
 20
22.44633869330088
 30
0.0
 10
30.49061707655589
 20
22.44633869330088
 30
0.0
 10
30.43628731038835
 20
22.44633869330088
 30
0.0
 10
30.39219110541873
 20
22.49043320284949
 30
0.0
 10
30.39219110541873
 20
22.54476466443803
 30
0.0
 10
30.39219110541873
 20
22.59909612602658
 30
0.0
 10
30.43628731038835
 20
22.64319063557519
 30
0.0
 10
30.49061707655589
 20
22.64319063557519
 30
0.0
 10
30.54494853814443
 20
22.64319063557519
 30
0.0
 10
30.58904474311404
 20
22.59909612602658
 30
0.0
 10
30.58904474311404
 20
22.54476466443803
 30
0.0
 10
30.58904474311404
 20
22.54476466443803
 30
0.0
 10
30.58904304769304
 20
22.54476466443803
 30
0.0
 10
30.58904304769304
 20
22.54476466443803
 30
0.0
  0
POLYLINE
  5
BE
330
41
100
AcDbEntity
  8
Layer 1
 62
     7
420
 16777215
370
   100
100
AcDb2dPolyline
 66
     1
 10
0.0
 20
0.0
 30
0.0
  0
VERTEX
  5
BF
330
BE
100
AcDbEntity
  8
Layer 1
 62
     7
420
 16777215
370
   100
100
AcDbVertex
100
AcDb2dVertex
 10
30.98274354139964
 20
26.51877046955956
 30
0.0
  0
VERTEX
  5
C0
330
BE
100
AcDbEntity
  8
Layer 1
 62
     7
420
 16777215
370
   100
100
AcDbVertex
100
AcDb2dVertex
 10
32.16384841336144
 20
26.51877046955956
 30
0.0
  0
VERTEX
  5
C1
330
BE
100
AcDbEntity
  8
Layer 1
 62
     7
420
 16777215
370
   100
100
AcDbVertex
100
AcDb2dVertex
 10
32.16384841336144
 20
21.45045517550574
 30
0.0
  0
VERTEX
  5
C2
330
BE
100
AcDbEntity
  8
Layer 1
 62
     7
420
 16777215
370
   100
100
AcDbVertex
100
AcDb2dVertex
 10
30.98274354139964
 20
21.45045517550574
 30
0.0
  0
VERTEX
  5
C3
330
BE
100
AcDbEntity
  8
Layer 1
 62
     7
420
 16777215
370
   100
100
AcDbVertex
100
AcDb2dVertex
 10
30.98274354139964
 20
26.51877046955956
 30
0.0
  0
SEQEND
  5
C4
330
BE
100
AcDbEntity
  8
Layer 1
 62
     7
420
 16777215
370
   100
  0
SPLINE
  5
C5
330
41
100
AcDbEntity
  8
Layer 1
 62
     7
420
 16777215
370
   100
100
AcDbSpline
210
0.0
220
0.0
230
1.0
 70
    11
 71
     3
 72
    23
 73
    19
 74
     0
 42
0.0000000001
 43
0.0000000001
 12
1.0
 22
0.0
 32
0.0
 13
1.0
 23
0.0
 33
0.0
 40
0.0
 40
0.0
 40
0.0
 40
0.0
 40
1.0
 40
1.0
 40
1.0
 40
2.0
 40
2.0
 40
2.0
 40
3.0
 40
3.0
 40
3.0
 40
4.0
 40
4.0
 40
4.0
 40
5.0
 40
5.0
 40
5.0
 40
6.0
 40
6.0
 40
6.0
 40
6.0
 10
31.37644573052724
 20
25.38346909152137
 30
0.0
 10
31.37644573052724
 20
25.38346909152137
 30
0.0
 10
31.37644573052724
 20
25.38346909152137
 30
0.0
 10
31.37644573052724
 20
25.38346909152137
 30
0.0
 10
31.37644573052724
 20
25.32913762993283
 30
0.0
 10
31.33235122097863
 20
25.28504312038422
 30
0.0
 10
31.27801975939009
 20
25.28504312038422
 30
0.0
 10
31.22368999322255
 20
25.28504312038422
 30
0.0
 10
31.17959378825293
 20
25.32913762993283
 30
0.0
 10
31.17959378825293
 20
25.38346909152137
 30
0.0
 10
31.17959378825293
 20
25.43780055310991
 30
0.0
 10
31.22368999322255
 20
25.48189506265852
 30
0.0
 10
31.27801975939009
 20
25.48189506265852
 30
0.0
 10
31.33235122097863
 20
25.48189506265852
 30
0.0
 10
31.37644573052724
 20
25.43780055310991
 30
0.0
 10
31.37644573052724
 20
25.38346909152137
 30
0.0
 10
31.37644573052724
 20
25.38346909152137
 30
0.0
 10
31.37644573052724
 20
25.38346909152137
 30
0.0
 10
31.37644573052724
 20
25.38346909152137
 30
0.0
  0
SPLINE
  5
C6
330
41
100
AcDbEntity
  8
Layer 1
 62
     7
420
 16777215
370
   100
100
AcDbSpline
210
0.0
220
0.0
230
1.0
 70
    11
 71
     3
 72
    23
 73
    19
 74
     0
 42
0.0000000001
 43
0.0000000001
 12
1.0
 22
0.0
 32
0.0
 13
1.0
 23
0.0
 33
0.0
 40
0.0
 40
0.0
 40
0.0
 40
0.0
 40
1.0
 40
1.0
 40
1.0
 40
2.0
 40
2.0
 40
2.0
 40
3.0
 40
3.0
 40
3.0
 40
4.0
 40
4.0
 40
4.0
 40
5.0
 40
5.0
 40
5.0
 40
6.0
 40
6.0
 40
6.0
 40
6.0
 10
31.96699816650814
 20
25.38346909152137
 30
0.0
 10
31.96699816650814
 20
25.38346909152137
 30
0.0
 10
31.96699816650814
 20
25.38346909152137
 30
0.0
 10
31.96699816650814
 20
25.38346909152137
 30
0.0
 10
31.96699816650814
 20
25.32913762993283
 30
0.0
 10
31.92290365695953
 20
25.28504312038422
 30
0.0
 10
31.86857219537099
 20
25.28504312038422
 30
0.0
 10
31.81424073378245
 20
25.28504312038422
 30
0.0
 10
31.77014622423384
 20
25.32913762993283
 30
0.0
 10
31.77014622423384
 20
25.38346909152137
 30
0.0
 10
31.77014622423384
 20
25.43780055310991
 30
0.0
 10
31.81424073378245
 20
25.48189506265852
 30
0.0
 10
31.86857219537099
 20
25.48189506265852
 30
0.0
 10
31.92290365695953
 20
25.48189506265852
 30
0.0
 10
31.96699816650814
 20
25.43780055310991
 30
0.0
 10
31.96699816650814
 20
25.38346909152137
 30
0.0
 10
31.96699816650814
 20
25.38346909152137
 30
0.0
 10
31.96699816650814
 20
25.38346909152137
 30
0.0
 10
31.96699816650814
 20
25.38346909152137
 30
0.0
  0
SPLINE
  5
C7
330
41
100
AcDbEntity
  8
Layer 1
 62
     7
420
 16777215
370
   100
100
AcDbSpline
210
0.0
220
0.0
230
1.0
 70
    11
 71
     3
 72
    23
 73
    19
 74
     0
 42
0.0000000001
 43
0.0000000001
 12
1.0
 22
0.0
 32
0.0
 13
1.0
 23
0.0
 33
0.0
 40
0.0
 40
0.0
 40
0.0
 40
0.0
 40
1.0
 40
1.0
 40
1.0
 40
2.0
 40
2.0
 40
2.0
 40
3.0
 40
3.0
 40
3.0
 40
4.0
 40
4.0
 40
4.0
 40
5.0
 40
5.0
 40
5.0
 40
6.0
 40
6.0
 40
6.0
 40
6.0
 10
31.37644573052724
 20
22.58574977185991
 30
0.0
 10
31.37644573052724
 20
22.58574977185991
 30
0.0
 10
31.37644573052724
 20
22.58574977185991
 30
0.0
 10
31.37644573052724
 20
22.58574977185991
 30
0.0
 10
31.37644573052724
 20
22.53141491942936
 30
0.0
 10
31.33235122097863
 20
22.48732040988074
 30
0.0
 10
31.27801975939009
 20
22.48732040988074
 30
0.0
 10
31.22368999322255
 20
22.48732040988074
 30
0.0
 10
31.17959378825293
 20
22.53141491942936
 30
0.0
 10
31.17959378825293
 20
22.58574977185991
 30
0.0
 10
31.17959378825293
 20
22.64007784260644
 30
0.0
 10
31.22368999322255
 20
22.68417235215505
 30
0.0
 10
31.27801975939009
 20
22.68417235215505
 30
0.0
 10
31.33235122097863
 20
22.68417235215505
 30
0.0
 10
31.37644573052724
 20
22.64007784260644
 30
0.0
 10
31.37644573052724
 20
22.58574977185991
 30
0.0
 10
31.37644573052724
 20
22.58574977185991
 30
0.0
 10
31.37644573052724
 20
22.58574977185991
 30
0.0
 10
31.37644573052724
 20
22.58574977185991
 30
0.0
  0
SPLINE
  5
C8
330
41
100
AcDbEntity
  8
Layer 1
 62
     7
420
 16777215
370
   100
100
AcDbSpline
210
0.0
220
0.0
230
1.0
 70
    11
 71
     3
 72
    23
 73
    19
 74
     0
 42
0.0000000001
 43
0.0000000001
 12
1.0
 22
0.0
 32
0.0
 13
1.0
 23
0.0
 33
0.0
 40
0.0
 40
0.0
 40
0.0
 40
0.0
 40
1.0
 40
1.0
 40
1.0
 40
2.0
 40
2.0
 40
2.0
 40
3.0
 40
3.0
 40
3.0
 40
4.0
 40
4.0
 40
4.0
 40
5.0
 40
5.0
 40
5.0
 40
6.0
 40
6.0
 40
6.0
 40
6.0
 10
31.96699816650814
 20
22.58574977185991
 30
0.0
 10
31.96699816650814
 20
22.58574977185991
 30
0.0
 10
31.96699816650814
 20
22.58574977185991
 30
0.0
 10
31.96699816650814
 20
22.58574977185991
 30
0.0
 10
31.96699816650814
 20
22.53141491942936
 30
0.0
 10
31.92290365695953
 20
22.48732040988074
 30
0.0
 10
31.86857219537099
 20
22.48732040988074
 30
0.0
 10
31.81424073378245
 20
22.48732040988074
 30
0.0
 10
31.77014622423384
 20
22.53141491942936
 30
0.0
 10
31.77014622423384
 20
22.58574977185991
 30
0.0
 10
31.77014622423384
 20
22.64007784260644
 30
0.0
 10
31.81424073378245
 20
22.68417235215505
 30
0.0
 10
31.86857219537099
 20
22.68417235215505
 30
0.0
 10
31.92290365695953
 20
22.68417235215505
 30
0.0
 10
31.96699816650814
 20
22.64007784260644
 30
0.0
 10
31.96699816650814
 20
22.58574977185991
 30
0.0
 10
31.96699816650814
 20
22.58574977185991
 30
0.0
 10
31.96699816650814
 20
22.58574977185991
 30
0.0
 10
31.96699816650814
 20
22.58574977185991
 30
0.0
  0
ENDBLK
  5
44
330
41
100
AcDbEntity
  8
0
100
AcDbBlockEnd
  0
ENDSEC
  0
SECTION
  2
ENTITIES
  0
INSERT
  5
42
330
1F
100
AcDbEntity
  8
Layer 1
100
AcDbBlockReference
  2
block 2
 10
0.0
 20
0.0
 30
0.0
  0
ENDSEC
  0
SECTION
  2
OBJECTS
  0
DICTIONARY
  5
C
330
0
100
AcDbDictionary
281
     1
  3
ACAD_GROUP
350
D
  3
ACAD_LAYOUT
350
1A
  3
ACAD_MATERIAL
350
3B
  3
ACAD_MLEADERSTYLE
350
CA
  3
ACAD_MLINESTYLE
350
17
  3
ACAD_PLOTSETTINGS
350
19
  3
ACAD_PLOTSTYLENAME
350
E
  3
ACAD_TABLESTYLE
350
C9
  3
ACAD_VISUALSTYLE
350
2A
  0
SUN
  5
3F
330
29
100
AcDbSun
 90
        1
290
     0
 63
     7
421
 16777215
 40
1.0
291
     1
 91
  2455826
 92
 54000000
292
     0
 70
     2
 71
   256
280
     1
  0
DICTIONARY
  5
D
102
{ACAD_REACTORS
330
C
102
}
330
C
100
AcDbDictionary
281
     1
  0
DICTIONARY
  5
1A
102
{ACAD_REACTORS
330
C
102
}
330
C
100
AcDbDictionary
281
     1
  3
Layout1
350
1E
  3
Layout2
350
26
  3
Model
350
22
  0
DICTIONARY
  5
3B
102
{ACAD_REACTORS
330
C
102
}
330
C
100
AcDbDictionary
281
     1
  3
ByBlock
350
3D
  3
ByLayer
350
3C
  3
Global
350
3E
  0
DICTIONARY
  5
CA
102
{ACAD_REACTORS
330
C
102
}
330
C
100
AcDbDictionary
281
     1
  0
DICTIONARY
  5
17
102
{ACAD_REACTORS
330
C
102
}
330
C
100
AcDbDictionary
281
     1
  3
Standard
350
18
  0
DICTIONARY
  5
19
102
{ACAD_REACTORS
330
C
102
}
330
C
100
AcDbDictionary
281
     1
  0
ACDBDICTIONARYWDFLT
  5
E
102
{ACAD_REACTORS
330
C
102
}
330
C
100
AcDbDictionary
281
     1
  3
Normal
350
F
100
AcDbDictionaryWithDefault
340
F
  0
DICTIONARY
  5
C9
102
{ACAD_REACTORS
330
C
102
}
330
C
100
AcDbDictionary
281
     1
  0
DICTIONARY
  5
2A
102
{ACAD_REACTORS
330
C
102
}
330
C
100
AcDbDictionary
281
     1
  3
2dWireframe
350
2F
  3
3D Hidden
350
31
  3
3dWireframe
350
30
  3
Basic
350
32
  3
Brighten
350
36
  3
ColorChange
350
3A
  3
Conceptual
350
34
  3
Dim
350
35
  3
Facepattern
350
39
  3
Flat
350
2B
  3
FlatWithEdges
350
2C
  3
Gouraud
350
2D
  3
GouraudWithEdges
350
2E
  3
Linepattern
350
38
  3
Realistic
350
33
  3
Thicken
350
37
  0
LAYOUT
  5
1E
102
{ACAD_REACTORS
330
1A
102
}
330
1A
100
AcDbPlotSettings
  1

  2
none_device
  4

  6

 40
0.0
 41
0.0
 42
0.0
 43
0.0
 44
0.0
 45
0.0
 46
0.0
 47
0.0
 48
0.0
 49
0.0
140
0.0
141
0.0
142
1.0
143
1.0
 70
   688
 72
     0
 73
     0
 74
     5
  7

 75
    16
 76
     0
 77
     2
 78
   300
147
1.0
148
0.0
149
0.0
100
AcDbLayout
  1
Layout1
 70
     1
 71
     1
 10
0.0
 20
0.0
 11
12.0
 21
9.0
 12
0.0
 22
0.0
 32
0.0
 14
1.000000000000000E+20
 24
1.000000000000000E+20
 34
1.000000000000000E+20
 15
-1.000000000000000E+20
 25
-1.000000000000000E+20
 35
-1.000000000000000E+20
146
0.0
 13
0.0
 23
0.0
 33
0.0
 16
1.0
 26
0.0
 36
0.0
 17
0.0
 27
1.0
 37
0.0
 76
     0
330
1B
  0
LAYOUT
  5
26
102
{ACAD_REACTORS
330
1A
102
}
330
1A
100
AcDbPlotSettings
  1

  2
none_device
  4

  6

 40
0.0
 41
0.0
 42
0.0
 43
0.0
 44
0.0
 45
0.0
 46
0.0
 47
0.0
 48
0.0
 49
0.0
140
0.0
141
0.0
142
1.0
143
1.0
 70
   688
 72
     0
 73
     0
 74
     5
  7

 75
    16
 76
     0
 77
     2
 78
   300
147
1.0
148
0.0
149
0.0
100
AcDbLayout
  1
Layout2
 70
     1
 71
     2
 10
0.0
 20
0.0
 11
0.0
 21
0.0
 12
0.0
 22
0.0
 32
0.0
 14
0.0
 24
0.0
 34
0.0
 15
0.0
 25
0.0
 35
0.0
146
0.0
 13
0.0
 23
0.0
 33
0.0
 16
1.0
 26
0.0
 36
0.0
 17
0.0
 27
1.0
 37
0.0
 76
     0
330
23
  0
LAYOUT
  5
22
102
{ACAD_REACTORS
330
1A
102
}
330
1A
100
AcDbPlotSettings
  1

  2
none_device
  4

  6

 40
0.0
 41
0.0
 42
0.0
 43
0.0
 44
0.0
 45
0.0
 46
0.0
 47
0.0
 48
0.0
 49
0.0
140
0.0
141
0.0
142
1.0
143
1.0
 70
  1712
 72
     0
 73
     0
 74
     0
  7

 75
     0
 76
     0
 77
     2
 78
   300
147
1.0
148
0.0
149
0.0
100
AcDbLayout
  1
Model
 70
     1
 71
     0
 10
0.0
 20
0.0
 11
12.0
 21
9.0
 12
0.0
 22
0.0
 32
0.0
 14
1.000000000000000E+20
 24
1.000000000000000E+20
 34
1.000000000000000E+20
 15
-1.000000000000000E+20
 25
-1.000000000000000E+20
 35
-1.000000000000000E+20
146
0.0
 13
0.0
 23
0.0
 33
0.0
 16
1.0
 26
0.0
 36
0.0
 17
0.0
 27
1.0
 37
0.0
 76
     0
330
1F
331
29
  0
MATERIAL
  5
3D
102
{ACAD_REACTORS
330
3B
102
}
330
3B
100
AcDbMaterial
  1
ByBlock
 72
     1
 94
      127
  0
MATERIAL
  5
3C
102
{ACAD_REACTORS
330
3B
102
}
330
3B
100
AcDbMaterial
  1
ByLayer
 72
     1
 94
      127
  0
MATERIAL
  5
3E
102
{ACAD_REACTORS
330
3B
102
}
330
3B
100
AcDbMaterial
  1
Global
 72
     1
 94
      127
  0
MLINESTYLE
  5
18
102
{ACAD_REACTORS
330
17
102
}
330
17
100
AcDbMlineStyle
  2
Standard
 70
     0
  3

 62
   256
 51
90.0
 52
90.0
 71
     2
 49
0.5
 62
   256
  6
BYLAYER
 49
-0.5
 62
   256
  6
BYLAYER
  0
ACDBPLACEHOLDER
  5
F
102
{ACAD_REACTORS
330
E
102
}
330
E
  0
VISUALSTYLE
  5
2F
102
{ACAD_REACTORS
330
2A
102
}
330
2A
100
AcDbVisualStyle
  2
2dWireframe
 70
     4
177
     2
291
     0
 71
     0
176
     1
 72
     2
176
     1
 73
     0
176
     1
 90
        0
176
     1
 40
-0.6
176
     1
 41
-30.0
176
     1
 62
     5
 63
     7
421
 16777215
176
     1
 74
     1
176
     1
 91
        4
176
     1
 64
     7
176
     1
 65
   257
176
     1
 75
     1
176
     1
175
     1
176
     1
 42
1.0
176
     1
 92
        0
176
     1
 66
   257
176
     1
 43
1.0
176
     1
 76
     1
176
     1
 77
     6
176
     1
 78
     2
176
     1
 67
     7
176
     1
 79
     5
176
     1
170
     0
176
     1
171
     0
176
     1
290
     0
176
     1
 93
        1
176
     1
 44
0.0
176
     1
173
     0
176
     1
  0
VISUALSTYLE
  5
31
102
{ACAD_REACTORS
330
2A
102
}
330
2A
100
AcDbVisualStyle
  2
3D Hidden
 70
     6
177
     2
291
     0
 71
     1
176
     1
 72
     2
176
     1
 73
     2
176
     1
 90
        0
176
     1
 40
-0.6
176
     1
 41
-30.0
176
     1
 62
     5
 63
     7
421
 16777215
176
     1
 74
     2
176
     1
 91
        2
176
     1
 64
     7
176
     1
 65
   257
176
     1
 75
     2
176
     1
175
     1
176
     1
 42
40.0
176
     1
 92
        0
176
     1
 66
   257
176
     1
 43
1.0
176
     1
 76
     1
176
     1
 77
     6
176
     1
 78
     2
176
     1
 67
     7
176
     1
 79
     3
176
     1
170
     0
176
     1
171
     0
176
     1
290
     0
176
     1
 93
        1
176
     1
 44
0.0
176
     1
173
     0
176
     1
  0
VISUALSTYLE
  5
30
102
{ACAD_REACTORS
330
2A
102
}
330
2A
100
AcDbVisualStyle
  2
3dWireframe
 70
     5
177
     2
291
     0
 71
     0
176
     1
 72
     2
176
     1
 73
     0
176
     1
 90
        0
176
     1
 40
-0.6
176
     1
 41
-30.0
176
     1
 62
     5
 63
     7
421
 16777215
176
     1
 74
     1
176
     1
 91
        4
176
     1
 64
     7
176
     1
 65
   257
176
     1
 75
     1
176
     1
175
     1
176
     1
 42
1.0
176
     1
 92
        0
176
     1
 66
   257
176
     1
 43
1.0
176
     1
 76
     1
176
     1
 77
     6
176
     1
 78
     2
176
     1
 67
     7
176
     1
 79
     5
176
     1
170
     0
176
     1
171
     0
176
     1
290
     0
176
     1
 93
        1
176
     1
 44
0.0
176
     1
173
     0
176
     1
  0
VISUALSTYLE
  5
32
102
{ACAD_REACTORS
330
2A
102
}
330
2A
100
AcDbVisualStyle
  2
Basic
 70
     7
177
     2
291
     1
 71
     1
176
     1
 72
     0
176
     1
 73
     1
176
     1
 90
        0
176
     1
 40
-0.6
176
     1
 41
-30.0
176
     1
 62
     5
 63
     7
421
 16777215
176
     1
 74
     0
176
     1
 91
        4
176
     1
 64
     7
176
     1
 65
   257
176
     1
 75
     1
176
     1
175
     1
176
     1
 42
1.0
176
     1
 92
        8
176
     1
 66
     7
176
     1
 43
1.0
176
     1
 76
     1
176
     1
 77
     6
176
     1
 78
     2
176
     1
 67
     7
176
     1
 79
     5
176
     1
170
     0
176
     1
171
     0
176
     1
290
     0
176
     1
 93
        1
176
     1
 44
0.0
176
     1
173
     0
176
     1
  0
VISUALSTYLE
  5
36
102
{ACAD_REACTORS
330
2A
102
}
330
2A
100
AcDbVisualStyle
  2
Brighten
 70
    12
177
     2
291
     1
 71
     2
176
     1
 72
     2
176
     1
 73
     0
176
     1
 90
        0
176
     1
 40
-0.6
176
     1
 41
-30.0
176
     1
 62
     5
 63
     7
421
 16777215
176
     1
 74
     1
176
     1
 91
        4
176
     1
 64
     7
176
     1
 65
   257
176
     1
 75
     1
176
     1
175
     1
176
     1
 42
1.0
176
     1
 92
        8
176
     1
 66
     7
176
     1
 43
1.0
176
     1
 76
     1
176
     1
 77
     6
176
     1
 78
     2
176
     1
 67
     7
176
     1
 79
     5
176
     1
170
     0
176
     1
171
     0
176
     1
290
     0
176
     1
 93
        1
176
     1
 44
50.0
176
     1
173
     0
176
     1
  0
VISUALSTYLE
  5
3A
102
{ACAD_REACTORS
330
2A
102
}
330
2A
100
AcDbVisualStyle
  2
ColorChange
 70
    16
177
     2
291
     1
 71
     2
176
     1
 72
     2
176
     1
 73
     3
176
     1
 90
        0
176
     1
 40
-0.6
176
     1
 41
-30.0
176
     1
 62
     5
 63
     8
421
  8421504
176
     1
 74
     1
176
     1
 91
        4
176
     1
 64
     7
176
     1
 65
   257
176
     1
 75
     1
176
     1
175
     1
176
     1
 42
1.0
176
     1
 92
        8
176
     1
 66
     8
424
  8421504
176
     1
 43
1.0
176
     1
 76
     1
176
     1
 77
     6
176
     1
 78
     2
176
     1
 67
     7
176
     1
 79
     5
176
     1
170
     0
176
     1
171
     0
176
     1
290
     0
176
     1
 93
        1
176
     1
 44
0.0
176
     1
173
     0
176
     1
  0
VISUALSTYLE
  5
34
102
{ACAD_REACTORS
330
2A
102
}
330
2A
100
AcDbVisualStyle
  2
Conceptual
 70
     9
177
     2
291
     0
 71
     3
176
     1
 72
     2
176
     1
 73
     0
176
     1
 90
        0
176
     1
 40
-0.6
176
     1
 41
-30.0
176
     1
 62
     5
 63
     7
421
 16777215
176
     1
 74
     2
176
     1
 91
        2
176
     1
 64
     7
176
     1
 65
   257
176
     1
 75
     1
176
     1
175
     1
176
     1
 42
40.0
176
     1
 92
        8
176
     1
 66
     7
176
     1
 43
1.0
176
     1
 76
     1
176
     1
 77
     6
176
     1
 78
     2
176
     1
 67
     7
176
     1
 79
     3
176
     1
170
     0
176
     1
171
     0
176
     1
290
     0
176
     1
 93
        1
176
     1
 44
0.0
176
     1
173
     0
176
     1
  0
VISUALSTYLE
  5
35
102
{ACAD_REACTORS
330
2A
102
}
330
2A
100
AcDbVisualStyle
  2
Dim
 70
    11
177
     2
291
     1
 71
     2
176
     1
 72
     2
176
     1
 73
     0
176
     1
 90
        0
176
     1
 40
-0.6
176
     1
 41
-30.0
176
     1
 62
     5
 63
     7
421
 16777215
176
     1
 74
     1
176
     1
 91
        4
176
     1
 64
     7
176
     1
 65
   257
176
     1
 75
     1
176
     1
175
     1
176
     1
 42
1.0
176
     1
 92
        8
176
     1
 66
     7
176
     1
 43
1.0
176
     1
 76
     1
176
     1
 77
     6
176
     1
 78
     2
176
     1
 67
     7
176
     1
 79
     5
176
     1
170
     0
176
     1
171
     0
176
     1
290
     0
176
     1
 93
        1
176
     1
 44
-50.0
176
     1
173
     0
176
     1
  0
VISUALSTYLE
  5
39
102
{ACAD_REACTORS
330
2A
102
}
330
2A
100
AcDbVisualStyle
  2
Facepattern
 70
    15
177
     2
291
     1
 71
     2
176
     1
 72
     2
176
     1
 73
     0
176
     1
 90
        0
176
     1
 40
-0.6
176
     1
 41
-30.0
176
     1
 62
     5
 63
     7
421
 16777215
176
     1
 74
     1
176
     1
 91
        4
176
     1
 64
     7
176
     1
 65
   257
176
     1
 75
     1
176
     1
175
     1
176
     1
 42
1.0
176
     1
 92
        8
176
     1
 66
     7
176
     1
 43
1.0
176
     1
 76
     1
176
     1
 77
     6
176
     1
 78
     2
176
     1
 67
     7
176
     1
 79
     5
176
     1
170
     0
176
     1
171
     0
176
     1
290
     0
176
     1
 93
        1
176
     1
 44
0.0
176
     1
173
     0
176
     1
  0
VISUALSTYLE
  5
2B
102
{ACAD_REACTORS
330
2A
102
}
330
2A
100
AcDbVisualStyle
  2
Flat
 70
     0
177
     2
291
     1
 71
     2
176
     1
 72
     1
176
     1
 73
     1
176
     1
 90
        2
176
     1
 40
-0.6
176
     1
 41
30.0
176
     1
 62
     5
 63
     7
421
 16777215
176
     1
 74
     0
176
     1
 91
        4
176
     1
 64
     7
176
     1
 65
   257
176
     1
 75
     1
176
     1
175
     1
176
     1
 42
1.0
176
     1
 92
        8
176
     1
 66
     7
176
     1
 43
1.0
176
     1
 76
     1
176
     1
 77
     6
176
     1
 78
     2
176
     1
 67
     7
176
     1
 79
     5
176
     1
170
     0
176
     1
171
     0
176
     1
290
     0
176
     1
 93
       13
176
     1
 44
0.0
176
     1
173
     0
176
     1
  0
VISUALSTYLE
  5
2C
102
{ACAD_REACTORS
330
2A
102
}
330
2A
100
AcDbVisualStyle
  2
FlatWithEdges
 70
     1
177
     2
291
     1
 71
     2
176
     1
 72
     1
176
     1
 73
     1
176
     1
 90
        2
176
     1
 40
-0.6
176
     1
 41
30.0
176
     1
 62
     5
 63
     7
421
 16777215
176
     1
 74
     1
176
     1
 91
        4
176
     1
 64
     7
176
     1
 65
   257
176
     1
 75
     1
176
     1
175
     1
176
     1
 42
1.0
176
     1
 92
        0
176
     1
 66
   257
176
     1
 43
1.0
176
     1
 76
     1
176
     1
 77
     6
176
     1
 78
     2
176
     1
 67
     7
176
     1
 79
     5
176
     1
170
     0
176
     1
171
     0
176
     1
290
     0
176
     1
 93
       13
176
     1
 44
0.0
176
     1
173
     0
176
     1
  0
VISUALSTYLE
  5
2D
102
{ACAD_REACTORS
330
2A
102
}
330
2A
100
AcDbVisualStyle
  2
Gouraud
 70
     2
177
     2
291
     1
 71
     2
176
     1
 72
     2
176
     1
 73
     1
176
     1
 90
        2
176
     1
 40
-0.6
176
     1
 41
30.0
176
     1
 62
     5
 63
     7
421
 16777215
176
     1
 74
     0
176
     1
 91
        4
176
     1
 64
     7
176
     1
 65
   257
176
     1
 75
     1
176
     1
175
     1
176
     1
 42
1.0
176
     1
 92
        0
176
     1
 66
     7
176
     1
 43
1.0
176
     1
 76
     1
176
     1
 77
     6
176
     1
 78
     2
176
     1
 67
     7
176
     1
 79
     5
176
     1
170
     0
176
     1
171
     0
176
     1
290
     0
176
     1
 93
       13
176
     1
 44
0.0
176
     1
173
     0
176
     1
  0
VISUALSTYLE
  5
2E
102
{ACAD_REACTORS
330
2A
102
}
330
2A
100
AcDbVisualStyle
  2
GouraudWithEdges
 70
     3
177
     2
291
     1
 71
     2
176
     1
 72
     2
176
     1
 73
     1
176
     1
 90
        2
176
     1
 40
-0.6
176
     1
 41
30.0
176
     1
 62
     5
 63
     7
421
 16777215
176
     1
 74
     1
176
     1
 91
        4
176
     1
 64
     7
176
     1
 65
   257
176
     1
 75
     1
176
     1
175
     1
176
     1
 42
1.0
176
     1
 92
        0
176
     1
 66
   257
176
     1
 43
1.0
176
     1
 76
     1
176
     1
 77
     6
176
     1
 78
     2
176
     1
 67
     7
176
     1
 79
     5
176
     1
170
     0
176
     1
171
     0
176
     1
290
     0
176
     1
 93
       13
176
     1
 44
0.0
176
     1
173
     0
176
     1
  0
VISUALSTYLE
  5
38
102
{ACAD_REACTORS
330
2A
102
}
330
2A
100
AcDbVisualStyle
  2
Linepattern
 70
    14
177
     2
291
     1
 71
     2
176
     1
 72
     2
176
     1
 73
     0
176
     1
 90
        0
176
     1
 40
-0.6
176
     1
 41
-30.0
176
     1
 62
     5
 63
     7
421
 16777215
176
     1
 74
     1
176
     1
 91
        4
176
     1
 64
     7
176
     1
 65
   257
176
     1
 75
     7
176
     1
175
     7
176
     1
 42
1.0
176
     1
 92
        8
176
     1
 66
     7
176
     1
 43
1.0
176
     1
 76
     1
176
     1
 77
     6
176
     1
 78
     2
176
     1
 67
     7
176
     1
 79
     5
176
     1
170
     0
176
     1
171
     0
176
     1
290
     0
176
     1
 93
        1
176
     1
 44
0.0
176
     1
173
     0
176
     1
  0
VISUALSTYLE
  5
33
102
{ACAD_REACTORS
330
2A
102
}
330
2A
100
AcDbVisualStyle
  2
Realistic
 70
     8
177
     2
291
     0
 71
     2
176
     1
 72
     2
176
     1
 73
     0
176
     1
 90
        0
176
     1
 40
-0.6
176
     1
 41
-30.0
176
     1
 62
     5
 63
     7
421
 16777215
176
     1
 74
     1
176
     1
 91
        0
176
     1
 64
     7
176
     1
 65
   257
176
     1
 75
     1
176
     1
175
     1
176
     1
 42
1.0
176
     1
 92
        8
176
     1
 66
     8
424
  7895160
176
     1
 43
1.0
176
     1
 76
     1
176
     1
 77
     6
176
     1
 78
     2
176
     1
 67
     7
176
     1
 79
     5
176
     1
170
     0
176
     1
171
     0
176
     1
290
     0
176
     1
 93
       13
176
     1
 44
0.0
176
     1
173
     0
176
     1
  0
VISUALSTYLE
  5
37
102
{ACAD_REACTORS
330
2A
102
}
330
2A
100
AcDbVisualStyle
  2
Thicken
 70
    13
177
     2
291
     1
 71
     2
176
     1
 72
     2
176
     1
 73
     0
176
     1
 90
        0
176
     1
 40
-0.6
176
     1
 41
-30.0
176
     1
 62
     5
 63
     7
421
 16777215
176
     1
 74
     1
176
     1
 91
        4
176
     1
 64
     7
176
     1
 65
   257
176
     1
 75
     1
176
     1
175
     1
176
     1
 42
1.0
176
     1
 92
       12
176
     1
 66
     7
176
     1
 43
1.0
176
     1
 76
     1
176
     1
 77
     6
176
     1
 78
     2
176
     1
 67
     7
176
     1
 79
     5
176
     1
170
     0
176
     1
171
     0
176
     1
290
     0
176
     1
 93
        1
176
     1
 44
0.0
176
     1
173
     0
176
     1
  0
ENDSEC
  0
EOF
