  0
SECTION
  2
HEADER
  9
$ACADVER
  1
AC1009
  0
ENDSEC
  0
SECTION
  2
TABLES
  0
TABLE
  2
LAYER
  70
1
  0
LAYER
  2
Layer_0
  70
0
  62
7
  6
CONTINUOUS
  0
ENDTAB
  0
ENDSEC
  0
SECTION
  2
ENTITIES
  0
POLYLINE
  5
90
  8
Layer_0
  62
7
  70
1
  66
1
  10
0
  20
0
  30
0
  0
VERTEX
  5
90
  8
Layer_0
  10
488.41092
  20
369.90833
  0
VERTEX
  5
91
  8
Layer_0
  10
460.21094
  20
369.90833
  0
VERTEX
  5
92
  8
Layer_0
  10
460.21094
  20
339.0083
  0
VERTEX
  5
93
  8
Layer_0
  10
488.41092
  20
339.0083
  0
SEQEND
  0
POLYLINE
  5
95
  8
Layer_0
  62
7
  70
1
  66
1
  10
0
  20
0
  30
0
  0
VERTEX
  5
95
  8
Layer_0
  10
492.09741
  20
355.88489
  0
VERTEX
  5
96
  8
Layer_0
  10
491.67926
  20
355.67181
  0
VERTEX
  5
97
  8
Layer_0
  10
491.34741
  20
355.33997
  0
VERTEX
  5
98
  8
Layer_0
  10
491.13434
  20
354.92181
  0
VERTEX
  5
99
  8
Layer_0
  10
491.06091
  20
354.45831
  0
VERTEX
  5
9a
  8
Layer_0
  10
491.13434
  20
353.99481
  0
VERTEX
  5
9b
  8
Layer_0
  10
491.34741
  20
353.57666
  0
VERTEX
  5
9c
  8
Layer_0
  10
491.67926
  20
353.24481
  0
VERTEX
  5
9d
  8
Layer_0
  10
492.09741
  20
353.03174
  0
VERTEX
  5
9e
  8
Layer_0
  10
492.56091
  20
352.95831
  0
VERTEX
  5
9f
  8
Layer_0
  10
493.02444
  20
353.03174
  0
VERTEX
  5
a0
  8
Layer_0
  10
493.4426
  20
353.24481
  0
VERTEX
  5
a1
  8
Layer_0
  10
493.77448
  20
353.57666
  0
VERTEX
  5
a2
  8
Layer_0
  10
493.98752
  20
353.99481
  0
VERTEX
  5
a3
  8
Layer_0
  10
494.06091
  20
354.45831
  0
VERTEX
  5
a4
  8
Layer_0
  10
493.98752
  20
354.92181
  0
VERTEX
  5
a5
  8
Layer_0
  10
493.77448
  20
355.33997
  0
VERTEX
  5
a6
  8
Layer_0
  10
493.4426
  20
355.67181
  0
VERTEX
  5
a7
  8
Layer_0
  10
493.02444
  20
355.88489
  0
VERTEX
  5
a8
  8
Layer_0
  10
492.56091
  20
355.95831
  0
SEQEND
  0
POLYLINE
  5
aa
  8
Layer_0
  62
7
  70
1
  66
1
  10
0
  20
0
  30
0
  0
VERTEX
  5
aa
  8
Layer_0
  10
454.63434
  20
354.92181
  0
VERTEX
  5
ab
  8
Layer_0
  10
454.84738
  20
355.33997
  0
VERTEX
  5
ac
  8
Layer_0
  10
455.17923
  20
355.67181
  0
VERTEX
  5
ad
  8
Layer_0
  10
455.59741
  20
355.88489
  0
VERTEX
  5
ae
  8
Layer_0
  10
456.06091
  20
355.95831
  0
VERTEX
  5
af
  8
Layer_0
  10
456.52444
  20
355.88489
  0
VERTEX
  5
b0
  8
Layer_0
  10
456.94257
  20
355.67181
  0
VERTEX
  5
b1
  8
Layer_0
  10
457.27441
  20
355.33997
  0
VERTEX
  5
b2
  8
Layer_0
  10
457.48749
  20
354.92181
  0
VERTEX
  5
b3
  8
Layer_0
  10
457.56091
  20
354.45831
  0
VERTEX
  5
b4
  8
Layer_0
  10
457.48749
  20
353.99481
  0
VERTEX
  5
b5
  8
Layer_0
  10
457.27441
  20
353.57666
  0
VERTEX
  5
b6
  8
Layer_0
  10
456.94257
  20
353.24481
  0
VERTEX
  5
b7
  8
Layer_0
  10
456.52444
  20
353.03174
  0
VERTEX
  5
b8
  8
Layer_0
  10
456.06091
  20
352.95831
  0
VERTEX
  5
b9
  8
Layer_0
  10
455.59741
  20
353.03174
  0
VERTEX
  5
ba
  8
Layer_0
  10
455.17923
  20
353.24481
  0
VERTEX
  5
bb
  8
Layer_0
  10
454.84738
  20
353.57666
  0
VERTEX
  5
bc
  8
Layer_0
  10
454.63434
  20
353.99481
  0
VERTEX
  5
bd
  8
Layer_0
  10
454.56091
  20
354.45831
  0
SEQEND
  0
POLYLINE
  5
bf
  8
Layer_0
  62
7
  70
1
  66
1
  10
0
  20
0
  30
0
  0
VERTEX
  5
bf
  8
Layer_0
  10
196.68903
  20
358.49847
  0
VERTEX
  5
c0
  8
Layer_0
  10
196.68903
  20
349.79846
  0
VERTEX
  5
c1
  8
Layer_0
  10
210.68901
  20
349.79846
  0
VERTEX
  5
c2
  8
Layer_0
  10
210.68901
  20
358.49847
  0
SEQEND
  0
POLYLINE
  5
c4
  8
Layer_0
  62
7
  70
1
  66
1
  10
0
  20
0
  30
0
  0
VERTEX
  5
c4
  8
Layer_0
  10
28.252502
  20
329.36835
  0
VERTEX
  5
c5
  8
Layer_0
  10
27.920715
  20
329.0365
  0
VERTEX
  5
c6
  8
Layer_0
  10
27.502563
  20
328.82343
  0
VERTEX
  5
c7
  8
Layer_0
  10
27.039001
  20
328.75006
  0
VERTEX
  5
c8
  8
Layer_0
  10
26.5755
  20
328.82343
  0
VERTEX
  5
c9
  8
Layer_0
  10
26.157349
  20
329.0365
  0
VERTEX
  5
ca
  8
Layer_0
  10
25.8255
  20
329.36835
  0
VERTEX
  5
cb
  8
Layer_0
  10
25.612488
  20
329.7865
  0
VERTEX
  5
cc
  8
Layer_0
  10
25.539063
  20
330.25006
  0
VERTEX
  5
cd
  8
Layer_0
  10
25.612488
  20
330.71356
  0
VERTEX
  5
ce
  8
Layer_0
  10
25.8255
  20
331.13171
  0
VERTEX
  5
cf
  8
Layer_0
  10
26.157349
  20
331.46356
  0
VERTEX
  5
d0
  8
Layer_0
  10
26.5755
  20
331.67664
  0
VERTEX
  5
d1
  8
Layer_0
  10
27.039001
  20
331.75006
  0
VERTEX
  5
d2
  8
Layer_0
  10
27.502563
  20
331.67664
  0
VERTEX
  5
d3
  8
Layer_0
  10
27.920715
  20
331.46356
  0
VERTEX
  5
d4
  8
Layer_0
  10
28.252502
  20
331.13171
  0
VERTEX
  5
d5
  8
Layer_0
  10
28.465637
  20
330.71356
  0
VERTEX
  5
d6
  8
Layer_0
  10
28.539001
  20
330.25006
  0
VERTEX
  5
d7
  8
Layer_0
  10
28.465637
  20
329.7865
  0
SEQEND
  0
POLYLINE
  5
d9
  8
Layer_0
  62
7
  70
1
  66
1
  10
0
  20
0
  30
0
  0
VERTEX
  5
d9
  8
Layer_0
  10
28.252502
  20
360.86835
  0
VERTEX
  5
da
  8
Layer_0
  10
27.920715
  20
360.5365
  0
VERTEX
  5
db
  8
Layer_0
  10
27.502563
  20
360.32343
  0
VERTEX
  5
dc
  8
Layer_0
  10
27.039001
  20
360.25006
  0
VERTEX
  5
dd
  8
Layer_0
  10
26.5755
  20
360.32343
  0
VERTEX
  5
de
  8
Layer_0
  10
26.157349
  20
360.5365
  0
VERTEX
  5
df
  8
Layer_0
  10
25.8255
  20
360.86835
  0
VERTEX
  5
e0
  8
Layer_0
  10
25.612488
  20
361.2865
  0
VERTEX
  5
e1
  8
Layer_0
  10
25.539063
  20
361.75006
  0
VERTEX
  5
e2
  8
Layer_0
  10
25.612488
  20
362.21356
  0
VERTEX
  5
e3
  8
Layer_0
  10
25.8255
  20
362.63171
  0
VERTEX
  5
e4
  8
Layer_0
  10
26.157349
  20
362.96356
  0
VERTEX
  5
e5
  8
Layer_0
  10
26.5755
  20
363.17664
  0
VERTEX
  5
e6
  8
Layer_0
  10
27.039001
  20
363.25006
  0
VERTEX
  5
e7
  8
Layer_0
  10
27.502563
  20
363.17664
  0
VERTEX
  5
e8
  8
Layer_0
  10
27.920715
  20
362.96356
  0
VERTEX
  5
e9
  8
Layer_0
  10
28.252502
  20
362.63171
  0
VERTEX
  5
ea
  8
Layer_0
  10
28.465637
  20
362.21356
  0
VERTEX
  5
eb
  8
Layer_0
  10
28.539001
  20
361.75006
  0
VERTEX
  5
ec
  8
Layer_0
  10
28.465637
  20
361.2865
  0
SEQEND
  0
POLYLINE
  5
ee
  8
Layer_0
  62
7
  70
1
  66
1
  10
0
  20
0
  30
0
  0
VERTEX
  5
ee
  8
Layer_0
  10
-57.810974
  20
333.60004
  0
VERTEX
  5
ef
  8
Layer_0
  10
-57.810974
  20
358.40002
  0
VERTEX
  5
f0
  8
Layer_0
  10
25.189026
  20
358.40002
  0
VERTEX
  5
f1
  8
Layer_0
  10
25.189026
  20
333.60004
  0
SEQEND
  0
POLYLINE
  5
f3
  8
Layer_0
  62
7
  70
1
  66
1
  10
0
  20
0
  30
0
  0
VERTEX
  5
f3
  8
Layer_0
  10
88.787231
  20
283.20313
  0
VERTEX
  5
f4
  8
Layer_0
  10
88.677246
  20
283.66125
  0
VERTEX
  5
f5
  8
Layer_0
  10
88.543457
  20
284.11298
  0
VERTEX
  5
f6
  8
Layer_0
  10
88.386162
  20
284.55713
  0
VERTEX
  5
f7
  8
Layer_0
  10
88.205872
  20
284.99237
  0
VERTEX
  5
f8
  8
Layer_0
  10
88.003052
  20
285.4176
  0
VERTEX
  5
f9
  8
Layer_0
  10
87.778198
  20
285.83167
  0
VERTEX
  5
fa
  8
Layer_0
  10
87.532043
  20
286.2334
  0
VERTEX
  5
fb
  8
Layer_0
  10
87.265198
  20
286.62164
  0
VERTEX
  5
fc
  8
Layer_0
  10
86.978394
  20
286.99542
  0
VERTEX
  5
fd
  8
Layer_0
  10
86.672424
  20
287.3537
  0
VERTEX
  5
fe
  8
Layer_0
  10
86.348083
  20
287.69543
  0
VERTEX
  5
ff
  8
Layer_0
  10
86.006348
  20
288.01971
  0
VERTEX
  5
100
  8
Layer_0
  10
85.648071
  20
288.32574
  0
VERTEX
  5
101
  8
Layer_0
  10
85.274292
  20
288.61255
  0
VERTEX
  5
102
  8
Layer_0
  10
84.886047
  20
288.87939
  0
VERTEX
  5
103
  8
Layer_0
  10
84.484314
  20
289.12555
  0
VERTEX
  5
104
  8
Layer_0
  10
84.070251
  20
289.3504
  0
VERTEX
  5
105
  8
Layer_0
  10
83.64502
  20
289.55322
  0
VERTEX
  5
106
  8
Layer_0
  10
83.209778
  20
289.73352
  0
VERTEX
  5
107
  8
Layer_0
  10
82.765686
  20
289.89075
  0
VERTEX
  5
108
  8
Layer_0
  10
82.313904
  20
290.0246
  0
VERTEX
  5
109
  8
Layer_0
  10
81.855835
  20
290.13458
  0
VERTEX
  5
10a
  8
Layer_0
  10
81.392578
  20
290.22046
  0
VERTEX
  5
10b
  8
Layer_0
  10
80.925476
  20
290.28192
  0
VERTEX
  5
10c
  8
Layer_0
  10
80.45575
  20
290.31891
  0
VERTEX
  5
10d
  8
Layer_0
  10
79.984741
  20
290.33124
  0
VERTEX
  5
10e
  8
Layer_0
  10
-82.017029
  20
290.33124
  0
VERTEX
  5
10f
  8
Layer_0
  10
-82.487976
  20
290.31891
  0
VERTEX
  5
110
  8
Layer_0
  10
-82.957703
  20
290.28192
  0
VERTEX
  5
111
  8
Layer_0
  10
-83.424805
  20
290.22046
  0
VERTEX
  5
112
  8
Layer_0
  10
-83.888062
  20
290.13458
  0
VERTEX
  5
113
  8
Layer_0
  10
-84.34613
  20
290.0246
  0
VERTEX
  5
114
  8
Layer_0
  10
-84.797913
  20
289.89075
  0
VERTEX
  5
115
  8
Layer_0
  10
-85.242004
  20
289.73352
  0
VERTEX
  5
116
  8
Layer_0
  10
-85.677307
  20
289.55322
  0
VERTEX
  5
117
  8
Layer_0
  10
-86.102539
  20
289.3504
  0
VERTEX
  5
118
  8
Layer_0
  10
-86.516541
  20
289.12555
  0
VERTEX
  5
119
  8
Layer_0
  10
-86.918274
  20
288.87939
  0
VERTEX
  5
11a
  8
Layer_0
  10
-87.30658
  20
288.61255
  0
VERTEX
  5
11b
  8
Layer_0
  10
-87.680359
  20
288.32574
  0
VERTEX
  5
11c
  8
Layer_0
  10
-88.038574
  20
288.01971
  0
VERTEX
  5
11d
  8
Layer_0
  10
-88.380371
  20
287.69543
  0
VERTEX
  5
11e
  8
Layer_0
  10
-88.704651
  20
287.3537
  0
VERTEX
  5
11f
  8
Layer_0
  10
-89.01062
  20
286.99542
  0
VERTEX
  5
120
  8
Layer_0
  10
-89.297424
  20
286.62164
  0
VERTEX
  5
121
  8
Layer_0
  10
-89.564331
  20
286.2334
  0
VERTEX
  5
122
  8
Layer_0
  10
-89.810486
  20
285.83167
  0
VERTEX
  5
123
  8
Layer_0
  10
-90.035278
  20
285.4176
  0
VERTEX
  5
124
  8
Layer_0
  10
-90.238098
  20
284.99237
  0
VERTEX
  5
125
  8
Layer_0
  10
-90.418396
  20
284.55713
  0
VERTEX
  5
126
  8
Layer_0
  10
-90.575684
  20
284.11298
  0
VERTEX
  5
127
  8
Layer_0
  10
-90.709473
  20
283.66125
  0
VERTEX
  5
128
  8
Layer_0
  10
-90.819458
  20
283.20313
  0
VERTEX
  5
129
  8
Layer_0
  10
-90.905334
  20
282.73987
  0
VERTEX
  5
12a
  8
Layer_0
  10
-90.966858
  20
282.27277
  0
VERTEX
  5
12b
  8
Layer_0
  10
-91.003784
  20
281.8031
  0
VERTEX
  5
12c
  8
Layer_0
  10
-91.016113
  20
281.33209
  0
VERTEX
  5
12d
  8
Layer_0
  10
-91.016113
  20
69.330307
  0
VERTEX
  5
12e
  8
Layer_0
  10
-91.003784
  20
68.859329
  0
VERTEX
  5
12f
  8
Layer_0
  10
-90.966858
  20
68.389648
  0
VERTEX
  5
130
  8
Layer_0
  10
-90.905334
  20
67.922546
  0
VERTEX
  5
131
  8
Layer_0
  10
-90.819458
  20
67.45929
  0
VERTEX
  5
132
  8
Layer_0
  10
-90.709473
  20
67.00116
  0
VERTEX
  5
133
  8
Layer_0
  10
-90.575684
  20
66.549438
  0
VERTEX
  5
134
  8
Layer_0
  10
-90.418396
  20
66.105316
  0
VERTEX
  5
135
  8
Layer_0
  10
-90.238098
  20
65.670044
  0
VERTEX
  5
136
  8
Layer_0
  10
-90.035278
  20
65.244812
  0
VERTEX
  5
137
  8
Layer_0
  10
-89.810486
  20
64.83075
  0
VERTEX
  5
138
  8
Layer_0
  10
-89.564331
  20
64.429047
  0
VERTEX
  5
139
  8
Layer_0
  10
-89.297424
  20
64.040771
  0
VERTEX
  5
13a
  8
Layer_0
  10
-89.01062
  20
63.666992
  0
VERTEX
  5
13b
  8
Layer_0
  10
-88.704651
  20
63.308731
  0
VERTEX
  5
13c
  8
Layer_0
  10
-88.380371
  20
62.96698
  0
VERTEX
  5
13d
  8
Layer_0
  10
-88.038574
  20
62.64267
  0
VERTEX
  5
13e
  8
Layer_0
  10
-87.680359
  20
62.336685
  0
VERTEX
  5
13f
  8
Layer_0
  10
-87.30658
  20
62.049881
  0
VERTEX
  5
140
  8
Layer_0
  10
-86.918274
  20
61.78302
  0
VERTEX
  5
141
  8
Layer_0
  10
-86.516541
  20
61.536865
  0
VERTEX
  5
142
  8
Layer_0
  10
-86.102539
  20
61.312057
  0
VERTEX
  5
143
  8
Layer_0
  10
-85.677307
  20
61.109222
  0
VERTEX
  5
144
  8
Layer_0
  10
-85.242004
  20
60.928925
  0
VERTEX
  5
145
  8
Layer_0
  10
-84.797913
  20
60.771652
  0
VERTEX
  5
146
  8
Layer_0
  10
-84.34613
  20
60.637848
  0
VERTEX
  5
147
  8
Layer_0
  10
-83.888062
  20
60.527863
  0
VERTEX
  5
148
  8
Layer_0
  10
-83.424805
  20
60.442001
  0
VERTEX
  5
149
  8
Layer_0
  10
-82.957703
  20
60.380508
  0
VERTEX
  5
14a
  8
Layer_0
  10
-82.487976
  20
60.343536
  0
VERTEX
  5
14b
  8
Layer_0
  10
-82.017029
  20
60.331207
  0
VERTEX
  5
14c
  8
Layer_0
  10
79.984741
  20
60.331207
  0
VERTEX
  5
14d
  8
Layer_0
  10
80.45575
  20
60.343536
  0
VERTEX
  5
14e
  8
Layer_0
  10
80.925476
  20
60.380508
  0
VERTEX
  5
14f
  8
Layer_0
  10
81.392578
  20
60.442001
  0
VERTEX
  5
150
  8
Layer_0
  10
81.855835
  20
60.527863
  0
VERTEX
  5
151
  8
Layer_0
  10
82.313904
  20
60.637848
  0
VERTEX
  5
152
  8
Layer_0
  10
82.765686
  20
60.771652
  0
VERTEX
  5
153
  8
Layer_0
  10
83.209778
  20
60.928925
  0
VERTEX
  5
154
  8
Layer_0
  10
83.64502
  20
61.109222
  0
VERTEX
  5
155
  8
Layer_0
  10
84.070251
  20
61.312057
  0
VERTEX
  5
156
  8
Layer_0
  10
84.484314
  20
61.536865
  0
VERTEX
  5
157
  8
Layer_0
  10
84.886047
  20
61.78302
  0
VERTEX
  5
158
  8
Layer_0
  10
85.274292
  20
62.049881
  0
VERTEX
  5
159
  8
Layer_0
  10
85.648071
  20
62.336685
  0
VERTEX
  5
15a
  8
Layer_0
  10
86.006348
  20
62.64267
  0
VERTEX
  5
15b
  8
Layer_0
  10
86.348083
  20
62.96698
  0
VERTEX
  5
15c
  8
Layer_0
  10
86.672424
  20
63.308731
  0
VERTEX
  5
15d
  8
Layer_0
  10
86.978394
  20
63.666992
  0
VERTEX
  5
15e
  8
Layer_0
  10
87.265198
  20
64.040771
  0
VERTEX
  5
15f
  8
Layer_0
  10
87.532043
  20
64.429047
  0
VERTEX
  5
160
  8
Layer_0
  10
87.778198
  20
64.83075
  0
VERTEX
  5
161
  8
Layer_0
  10
88.003052
  20
65.244812
  0
VERTEX
  5
162
  8
Layer_0
  10
88.205872
  20
65.670044
  0
VERTEX
  5
163
  8
Layer_0
  10
88.386162
  20
66.105316
  0
VERTEX
  5
164
  8
Layer_0
  10
88.543457
  20
66.549438
  0
VERTEX
  5
165
  8
Layer_0
  10
88.677246
  20
67.00116
  0
VERTEX
  5
166
  8
Layer_0
  10
88.787231
  20
67.45929
  0
VERTEX
  5
167
  8
Layer_0
  10
88.873108
  20
67.922546
  0
VERTEX
  5
168
  8
Layer_0
  10
88.934578
  20
68.389648
  0
VERTEX
  5
169
  8
Layer_0
  10
88.971558
  20
68.859329
  0
VERTEX
  5
16a
  8
Layer_0
  10
88.983887
  20
69.330307
  0
VERTEX
  5
16b
  8
Layer_0
  10
88.983887
  20
281.33209
  0
VERTEX
  5
16c
  8
Layer_0
  10
88.971558
  20
281.8031
  0
VERTEX
  5
16d
  8
Layer_0
  10
88.934578
  20
282.27277
  0
VERTEX
  5
16e
  8
Layer_0
  10
88.873108
  20
282.73987
  0
SEQEND
  0
POLYLINE
  5
170
  8
Layer_0
  62
7
  70
1
  66
1
  10
0
  20
0
  30
0
  0
VERTEX
  5
170
  8
Layer_0
  10
276.00635
  20
288.01971
  0
VERTEX
  5
171
  8
Layer_0
  10
276.34808
  20
287.69543
  0
VERTEX
  5
172
  8
Layer_0
  10
276.67242
  20
287.3537
  0
VERTEX
  5
173
  8
Layer_0
  10
276.97839
  20
286.99542
  0
VERTEX
  5
174
  8
Layer_0
  10
277.2652
  20
286.62164
  0
VERTEX
  5
175
  8
Layer_0
  10
277.5321
  20
286.2334
  0
VERTEX
  5
176
  8
Layer_0
  10
277.77826
  20
285.83167
  0
VERTEX
  5
177
  8
Layer_0
  10
278.00305
  20
285.4176
  0
VERTEX
  5
178
  8
Layer_0
  10
278.20587
  20
284.99237
  0
VERTEX
  5
179
  8
Layer_0
  10
278.38617
  20
284.55713
  0
VERTEX
  5
17a
  8
Layer_0
  10
278.54346
  20
284.11298
  0
VERTEX
  5
17b
  8
Layer_0
  10
278.67725
  20
283.66125
  0
VERTEX
  5
17c
  8
Layer_0
  10
278.78723
  20
283.20313
  0
VERTEX
  5
17d
  8
Layer_0
  10
278.87311
  20
282.73987
  0
VERTEX
  5
17e
  8
Layer_0
  10
278.93457
  20
282.27277
  0
VERTEX
  5
17f
  8
Layer_0
  10
278.97156
  20
281.8031
  0
VERTEX
  5
180
  8
Layer_0
  10
278.98389
  20
281.33209
  0
VERTEX
  5
181
  8
Layer_0
  10
278.98389
  20
69.330307
  0
VERTEX
  5
182
  8
Layer_0
  10
278.97156
  20
68.859329
  0
VERTEX
  5
183
  8
Layer_0
  10
278.93457
  20
68.389648
  0
VERTEX
  5
184
  8
Layer_0
  10
278.87311
  20
67.922546
  0
VERTEX
  5
185
  8
Layer_0
  10
278.78723
  20
67.45929
  0
VERTEX
  5
186
  8
Layer_0
  10
278.67725
  20
67.00116
  0
VERTEX
  5
187
  8
Layer_0
  10
278.54346
  20
66.549438
  0
VERTEX
  5
188
  8
Layer_0
  10
278.38617
  20
66.105316
  0
VERTEX
  5
189
  8
Layer_0
  10
278.20587
  20
65.670044
  0
VERTEX
  5
18a
  8
Layer_0
  10
278.00305
  20
65.244812
  0
VERTEX
  5
18b
  8
Layer_0
  10
277.77826
  20
64.83075
  0
VERTEX
  5
18c
  8
Layer_0
  10
277.5321
  20
64.429047
  0
VERTEX
  5
18d
  8
Layer_0
  10
277.2652
  20
64.040771
  0
VERTEX
  5
18e
  8
Layer_0
  10
276.97839
  20
63.666992
  0
VERTEX
  5
18f
  8
Layer_0
  10
276.67242
  20
63.308731
  0
VERTEX
  5
190
  8
Layer_0
  10
276.34808
  20
62.96698
  0
VERTEX
  5
191
  8
Layer_0
  10
276.00635
  20
62.64267
  0
VERTEX
  5
192
  8
Layer_0
  10
275.64813
  20
62.336685
  0
VERTEX
  5
193
  8
Layer_0
  10
275.27429
  20
62.049881
  0
VERTEX
  5
194
  8
Layer_0
  10
274.88605
  20
61.78302
  0
VERTEX
  5
195
  8
Layer_0
  10
274.48431
  20
61.536865
  0
VERTEX
  5
196
  8
Layer_0
  10
274.07025
  20
61.312057
  0
VERTEX
  5
197
  8
Layer_0
  10
273.64502
  20
61.109222
  0
VERTEX
  5
198
  8
Layer_0
  10
273.20978
  20
60.928925
  0
VERTEX
  5
199
  8
Layer_0
  10
272.76563
  20
60.771652
  0
VERTEX
  5
19a
  8
Layer_0
  10
272.3139
  20
60.637848
  0
VERTEX
  5
19b
  8
Layer_0
  10
271.85583
  20
60.527863
  0
VERTEX
  5
19c
  8
Layer_0
  10
271.39258
  20
60.442001
  0
VERTEX
  5
19d
  8
Layer_0
  10
270.92548
  20
60.380508
  0
VERTEX
  5
19e
  8
Layer_0
  10
270.45575
  20
60.343536
  0
VERTEX
  5
19f
  8
Layer_0
  10
269.98474
  20
60.331207
  0
VERTEX
  5
1a0
  8
Layer_0
  10
107.98297
  20
60.331207
  0
VERTEX
  5
1a1
  8
Layer_0
  10
107.51202
  20
60.343536
  0
VERTEX
  5
1a2
  8
Layer_0
  10
107.0423
  20
60.380508
  0
VERTEX
  5
1a3
  8
Layer_0
  10
106.5752
  20
60.442001
  0
VERTEX
  5
1a4
  8
Layer_0
  10
106.11193
  20
60.527863
  0
VERTEX
  5
1a5
  8
Layer_0
  10
105.6538
  20
60.637848
  0
VERTEX
  5
1a6
  8
Layer_0
  10
105.20209
  20
60.771652
  0
VERTEX
  5
1a7
  8
Layer_0
  10
104.758
  20
60.928925
  0
VERTEX
  5
1a8
  8
Layer_0
  10
104.32275
  20
61.109222
  0
VERTEX
  5
1a9
  8
Layer_0
  10
103.89746
  20
61.312057
  0
VERTEX
  5
1aa
  8
Layer_0
  10
103.48339
  20
61.536865
  0
VERTEX
  5
1ab
  8
Layer_0
  10
103.08173
  20
61.78302
  0
VERTEX
  5
1ac
  8
Layer_0
  10
102.69343
  20
62.049881
  0
VERTEX
  5
1ad
  8
Layer_0
  10
102.3197
  20
62.336685
  0
VERTEX
  5
1ae
  8
Layer_0
  10
101.96143
  20
62.64267
  0
VERTEX
  5
1af
  8
Layer_0
  10
101.6197
  20
62.96698
  0
VERTEX
  5
1b0
  8
Layer_0
  10
101.29534
  20
63.308731
  0
VERTEX
  5
1b1
  8
Layer_0
  10
100.98939
  20
63.666992
  0
VERTEX
  5
1b2
  8
Layer_0
  10
100.70251
  20
64.040771
  0
VERTEX
  5
1b3
  8
Layer_0
  10
100.43574
  20
64.429047
  0
VERTEX
  5
1b4
  8
Layer_0
  10
100.18958
  20
64.83075
  0
VERTEX
  5
1b5
  8
Layer_0
  10
99.964783
  20
65.244812
  0
VERTEX
  5
1b6
  8
Layer_0
  10
99.761902
  20
65.670044
  0
VERTEX
  5
1b7
  8
Layer_0
  10
99.581604
  20
66.105316
  0
VERTEX
  5
1b8
  8
Layer_0
  10
99.424316
  20
66.549438
  0
VERTEX
  5
1b9
  8
Layer_0
  10
99.290527
  20
67.00116
  0
VERTEX
  5
1ba
  8
Layer_0
  10
99.180542
  20
67.45929
  0
VERTEX
  5
1bb
  8
Layer_0
  10
99.094666
  20
67.922546
  0
VERTEX
  5
1bc
  8
Layer_0
  10
99.033203
  20
68.389648
  0
VERTEX
  5
1bd
  8
Layer_0
  10
98.996216
  20
68.859329
  0
VERTEX
  5
1be
  8
Layer_0
  10
98.983887
  20
69.330307
  0
VERTEX
  5
1bf
  8
Layer_0
  10
98.983887
  20
281.33209
  0
VERTEX
  5
1c0
  8
Layer_0
  10
98.996216
  20
281.8031
  0
VERTEX
  5
1c1
  8
Layer_0
  10
99.033203
  20
282.27277
  0
VERTEX
  5
1c2
  8
Layer_0
  10
99.094666
  20
282.73987
  0
VERTEX
  5
1c3
  8
Layer_0
  10
99.180542
  20
283.20313
  0
VERTEX
  5
1c4
  8
Layer_0
  10
99.290527
  20
283.66125
  0
VERTEX
  5
1c5
  8
Layer_0
  10
99.424316
  20
284.11298
  0
VERTEX
  5
1c6
  8
Layer_0
  10
99.581604
  20
284.55713
  0
VERTEX
  5
1c7
  8
Layer_0
  10
99.761902
  20
284.99237
  0
VERTEX
  5
1c8
  8
Layer_0
  10
99.964783
  20
285.4176
  0
VERTEX
  5
1c9
  8
Layer_0
  10
100.18958
  20
285.83167
  0
VERTEX
  5
1ca
  8
Layer_0
  10
100.43574
  20
286.2334
  0
VERTEX
  5
1cb
  8
Layer_0
  10
100.70251
  20
286.62164
  0
VERTEX
  5
1cc
  8
Layer_0
  10
100.98939
  20
286.99542
  0
VERTEX
  5
1cd
  8
Layer_0
  10
101.29534
  20
287.3537
  0
VERTEX
  5
1ce
  8
Layer_0
  10
101.6197
  20
287.69543
  0
VERTEX
  5
1cf
  8
Layer_0
  10
101.96143
  20
288.01971
  0
VERTEX
  5
1d0
  8
Layer_0
  10
102.3197
  20
288.32574
  0
VERTEX
  5
1d1
  8
Layer_0
  10
102.69343
  20
288.61255
  0
VERTEX
  5
1d2
  8
Layer_0
  10
103.08173
  20
288.87939
  0
VERTEX
  5
1d3
  8
Layer_0
  10
103.48339
  20
289.12555
  0
VERTEX
  5
1d4
  8
Layer_0
  10
103.89746
  20
289.3504
  0
VERTEX
  5
1d5
  8
Layer_0
  10
104.32275
  20
289.55322
  0
VERTEX
  5
1d6
  8
Layer_0
  10
104.758
  20
289.73352
  0
VERTEX
  5
1d7
  8
Layer_0
  10
105.20209
  20
289.89075
  0
VERTEX
  5
1d8
  8
Layer_0
  10
105.6538
  20
290.0246
  0
VERTEX
  5
1d9
  8
Layer_0
  10
106.11193
  20
290.13458
  0
VERTEX
  5
1da
  8
Layer_0
  10
106.5752
  20
290.22046
  0
VERTEX
  5
1db
  8
Layer_0
  10
107.0423
  20
290.28192
  0
VERTEX
  5
1dc
  8
Layer_0
  10
107.51202
  20
290.31891
  0
VERTEX
  5
1dd
  8
Layer_0
  10
107.98297
  20
290.33124
  0
VERTEX
  5
1de
  8
Layer_0
  10
269.98474
  20
290.33124
  0
VERTEX
  5
1df
  8
Layer_0
  10
270.45575
  20
290.31891
  0
VERTEX
  5
1e0
  8
Layer_0
  10
270.92548
  20
290.28192
  0
VERTEX
  5
1e1
  8
Layer_0
  10
271.39258
  20
290.22046
  0
VERTEX
  5
1e2
  8
Layer_0
  10
271.85583
  20
290.13458
  0
VERTEX
  5
1e3
  8
Layer_0
  10
272.3139
  20
290.0246
  0
VERTEX
  5
1e4
  8
Layer_0
  10
272.76563
  20
289.89075
  0
VERTEX
  5
1e5
  8
Layer_0
  10
273.20978
  20
289.73352
  0
VERTEX
  5
1e6
  8
Layer_0
  10
273.64502
  20
289.55322
  0
VERTEX
  5
1e7
  8
Layer_0
  10
274.07025
  20
289.3504
  0
VERTEX
  5
1e8
  8
Layer_0
  10
274.48431
  20
289.12555
  0
VERTEX
  5
1e9
  8
Layer_0
  10
274.88605
  20
288.87939
  0
VERTEX
  5
1ea
  8
Layer_0
  10
275.27429
  20
288.61255
  0
VERTEX
  5
1eb
  8
Layer_0
  10
275.64813
  20
288.32574
  0
SEQEND
  0
POLYLINE
  5
1ed
  8
Layer_0
  62
7
  70
1
  66
1
  10
0
  20
0
  30
0
  0
VERTEX
  5
1ed
  8
Layer_0
  10
467.2652
  20
286.62164
  0
VERTEX
  5
1ee
  8
Layer_0
  10
466.97839
  20
286.99542
  0
VERTEX
  5
1ef
  8
Layer_0
  10
466.67236
  20
287.3537
  0
VERTEX
  5
1f0
  8
Layer_0
  10
466.34814
  20
287.69543
  0
VERTEX
  5
1f1
  8
Layer_0
  10
466.00635
  20
288.01971
  0
VERTEX
  5
1f2
  8
Layer_0
  10
465.64807
  20
288.32574
  0
VERTEX
  5
1f3
  8
Layer_0
  10
465.27429
  20
288.61255
  0
VERTEX
  5
1f4
  8
Layer_0
  10
464.88605
  20
288.87939
  0
VERTEX
  5
1f5
  8
Layer_0
  10
464.48438
  20
289.12555
  0
VERTEX
  5
1f6
  8
Layer_0
  10
464.07031
  20
289.3504
  0
VERTEX
  5
1f7
  8
Layer_0
  10
463.64502
  20
289.55322
  0
VERTEX
  5
1f8
  8
Layer_0
  10
463.20978
  20
289.73352
  0
VERTEX
  5
1f9
  8
Layer_0
  10
462.76569
  20
289.89075
  0
VERTEX
  5
1fa
  8
Layer_0
  10
462.31396
  20
290.0246
  0
VERTEX
  5
1fb
  8
Layer_0
  10
461.85583
  20
290.13458
  0
VERTEX
  5
1fc
  8
Layer_0
  10
461.39258
  20
290.22046
  0
VERTEX
  5
1fd
  8
Layer_0
  10
460.92548
  20
290.28192
  0
VERTEX
  5
1fe
  8
Layer_0
  10
460.45575
  20
290.31891
  0
VERTEX
  5
1ff
  8
Layer_0
  10
459.98474
  20
290.33124
  0
VERTEX
  5
200
  8
Layer_0
  10
297.98297
  20
290.33124
  0
VERTEX
  5
201
  8
Layer_0
  10
297.51202
  20
290.31891
  0
VERTEX
  5
202
  8
Layer_0
  10
297.0423
  20
290.28192
  0
VERTEX
  5
203
  8
Layer_0
  10
296.57526
  20
290.22046
  0
VERTEX
  5
204
  8
Layer_0
  10
296.112
  20
290.13458
  0
VERTEX
  5
205
  8
Layer_0
  10
295.65381
  20
290.0246
  0
VERTEX
  5
206
  8
Layer_0
  10
295.20209
  20
289.89075
  0
VERTEX
  5
207
  8
Layer_0
  10
294.758
  20
289.73352
  0
VERTEX
  5
208
  8
Layer_0
  10
294.32275
  20
289.55322
  0
VERTEX
  5
209
  8
Layer_0
  10
293.89746
  20
289.3504
  0
VERTEX
  5
20a
  8
Layer_0
  10
293.4834
  20
289.12555
  0
VERTEX
  5
20b
  8
Layer_0
  10
293.08173
  20
288.87939
  0
VERTEX
  5
20c
  8
Layer_0
  10
292.69342
  20
288.61255
  0
VERTEX
  5
20d
  8
Layer_0
  10
292.3197
  20
288.32574
  0
VERTEX
  5
20e
  8
Layer_0
  10
291.96143
  20
288.01971
  0
VERTEX
  5
20f
  8
Layer_0
  10
291.61969
  20
287.69543
  0
VERTEX
  5
210
  8
Layer_0
  10
291.29535
  20
287.3537
  0
VERTEX
  5
211
  8
Layer_0
  10
290.98938
  20
286.99542
  0
VERTEX
  5
212
  8
Layer_0
  10
290.70251
  20
286.62164
  0
VERTEX
  5
213
  8
Layer_0
  10
290.43573
  20
286.2334
  0
VERTEX
  5
214
  8
Layer_0
  10
290.18958
  20
285.83167
  0
VERTEX
  5
215
  8
Layer_0
  10
289.96472
  20
285.4176
  0
VERTEX
  5
216
  8
Layer_0
  10
289.7619
  20
284.99237
  0
VERTEX
  5
217
  8
Layer_0
  10
289.5816
  20
284.55713
  0
VERTEX
  5
218
  8
Layer_0
  10
289.42432
  20
284.11298
  0
VERTEX
  5
219
  8
Layer_0
  10
289.29053
  20
283.66125
  0
VERTEX
  5
21a
  8
Layer_0
  10
289.18054
  20
283.20313
  0
VERTEX
  5
21b
  8
Layer_0
  10
289.09467
  20
282.73987
  0
VERTEX
  5
21c
  8
Layer_0
  10
289.0332
  20
282.27277
  0
VERTEX
  5
21d
  8
Layer_0
  10
288.99622
  20
281.8031
  0
VERTEX
  5
21e
  8
Layer_0
  10
288.98389
  20
281.33209
  0
VERTEX
  5
21f
  8
Layer_0
  10
288.98389
  20
69.330307
  0
VERTEX
  5
220
  8
Layer_0
  10
288.99622
  20
68.859329
  0
VERTEX
  5
221
  8
Layer_0
  10
289.0332
  20
68.389648
  0
VERTEX
  5
222
  8
Layer_0
  10
289.09467
  20
67.922546
  0
VERTEX
  5
223
  8
Layer_0
  10
289.18054
  20
67.45929
  0
VERTEX
  5
224
  8
Layer_0
  10
289.29053
  20
67.00116
  0
VERTEX
  5
225
  8
Layer_0
  10
289.42432
  20
66.549438
  0
VERTEX
  5
226
  8
Layer_0
  10
289.5816
  20
66.105316
  0
VERTEX
  5
227
  8
Layer_0
  10
289.7619
  20
65.670044
  0
VERTEX
  5
228
  8
Layer_0
  10
289.96472
  20
65.244812
  0
VERTEX
  5
229
  8
Layer_0
  10
290.18958
  20
64.83075
  0
VERTEX
  5
22a
  8
Layer_0
  10
290.43573
  20
64.429047
  0
VERTEX
  5
22b
  8
Layer_0
  10
290.70251
  20
64.040771
  0
VERTEX
  5
22c
  8
Layer_0
  10
290.98938
  20
63.666992
  0
VERTEX
  5
22d
  8
Layer_0
  10
291.29535
  20
63.308731
  0
VERTEX
  5
22e
  8
Layer_0
  10
291.61969
  20
62.96698
  0
VERTEX
  5
22f
  8
Layer_0
  10
291.96143
  20
62.64267
  0
VERTEX
  5
230
  8
Layer_0
  10
292.3197
  20
62.336685
  0
VERTEX
  5
231
  8
Layer_0
  10
292.69342
  20
62.049881
  0
VERTEX
  5
232
  8
Layer_0
  10
293.08173
  20
61.78302
  0
VERTEX
  5
233
  8
Layer_0
  10
293.4834
  20
61.536865
  0
VERTEX
  5
234
  8
Layer_0
  10
293.89746
  20
61.312057
  0
VERTEX
  5
235
  8
Layer_0
  10
294.32275
  20
61.109222
  0
VERTEX
  5
236
  8
Layer_0
  10
294.758
  20
60.928925
  0
VERTEX
  5
237
  8
Layer_0
  10
295.20209
  20
60.771652
  0
VERTEX
  5
238
  8
Layer_0
  10
295.65381
  20
60.637848
  0
VERTEX
  5
239
  8
Layer_0
  10
296.112
  20
60.527863
  0
VERTEX
  5
23a
  8
Layer_0
  10
296.57526
  20
60.442001
  0
VERTEX
  5
23b
  8
Layer_0
  10
297.0423
  20
60.380508
  0
VERTEX
  5
23c
  8
Layer_0
  10
297.51202
  20
60.343536
  0
VERTEX
  5
23d
  8
Layer_0
  10
297.98297
  20
60.331207
  0
VERTEX
  5
23e
  8
Layer_0
  10
459.98474
  20
60.331207
  0
VERTEX
  5
23f
  8
Layer_0
  10
460.45575
  20
60.343536
  0
VERTEX
  5
240
  8
Layer_0
  10
460.92548
  20
60.380508
  0
VERTEX
  5
241
  8
Layer_0
  10
461.39258
  20
60.442001
  0
VERTEX
  5
242
  8
Layer_0
  10
461.85583
  20
60.527863
  0
VERTEX
  5
243
  8
Layer_0
  10
462.31396
  20
60.637848
  0
VERTEX
  5
244
  8
Layer_0
  10
462.76569
  20
60.771652
  0
VERTEX
  5
245
  8
Layer_0
  10
463.20978
  20
60.928925
  0
VERTEX
  5
246
  8
Layer_0
  10
463.64502
  20
61.109222
  0
VERTEX
  5
247
  8
Layer_0
  10
464.07031
  20
61.312057
  0
VERTEX
  5
248
  8
Layer_0
  10
464.48438
  20
61.536865
  0
VERTEX
  5
249
  8
Layer_0
  10
464.88605
  20
61.78302
  0
VERTEX
  5
24a
  8
Layer_0
  10
465.27429
  20
62.049881
  0
VERTEX
  5
24b
  8
Layer_0
  10
465.64807
  20
62.336685
  0
VERTEX
  5
24c
  8
Layer_0
  10
466.00635
  20
62.64267
  0
VERTEX
  5
24d
  8
Layer_0
  10
466.34814
  20
62.96698
  0
VERTEX
  5
24e
  8
Layer_0
  10
466.67236
  20
63.308731
  0
VERTEX
  5
24f
  8
Layer_0
  10
466.97839
  20
63.666992
  0
VERTEX
  5
250
  8
Layer_0
  10
467.2652
  20
64.040771
  0
VERTEX
  5
251
  8
Layer_0
  10
467.5321
  20
64.429047
  0
VERTEX
  5
252
  8
Layer_0
  10
467.7782
  20
64.83075
  0
VERTEX
  5
253
  8
Layer_0
  10
468.00305
  20
65.244812
  0
VERTEX
  5
254
  8
Layer_0
  10
468.20593
  20
65.670044
  0
VERTEX
  5
255
  8
Layer_0
  10
468.38617
  20
66.105316
  0
VERTEX
  5
256
  8
Layer_0
  10
468.54346
  20
66.549438
  0
VERTEX
  5
257
  8
Layer_0
  10
468.67725
  20
67.00116
  0
VERTEX
  5
258
  8
Layer_0
  10
468.78723
  20
67.45929
  0
VERTEX
  5
259
  8
Layer_0
  10
468.87311
  20
67.922546
  0
VERTEX
  5
25a
  8
Layer_0
  10
468.93457
  20
68.389648
  0
VERTEX
  5
25b
  8
Layer_0
  10
468.97156
  20
68.859329
  0
VERTEX
  5
25c
  8
Layer_0
  10
468.98389
  20
69.330307
  0
VERTEX
  5
25d
  8
Layer_0
  10
468.98389
  20
281.33209
  0
VERTEX
  5
25e
  8
Layer_0
  10
468.97156
  20
281.8031
  0
VERTEX
  5
25f
  8
Layer_0
  10
468.93457
  20
282.27277
  0
VERTEX
  5
260
  8
Layer_0
  10
468.87311
  20
282.73987
  0
VERTEX
  5
261
  8
Layer_0
  10
468.78723
  20
283.20313
  0
VERTEX
  5
262
  8
Layer_0
  10
468.67725
  20
283.66125
  0
VERTEX
  5
263
  8
Layer_0
  10
468.54346
  20
284.11298
  0
VERTEX
  5
264
  8
Layer_0
  10
468.38617
  20
284.55713
  0
VERTEX
  5
265
  8
Layer_0
  10
468.20593
  20
284.99237
  0
VERTEX
  5
266
  8
Layer_0
  10
468.00305
  20
285.4176
  0
VERTEX
  5
267
  8
Layer_0
  10
467.7782
  20
285.83167
  0
VERTEX
  5
268
  8
Layer_0
  10
467.5321
  20
286.2334
  0
SEQEND
  0
POLYLINE
  5
26a
  8
Layer_0
  62
7
  70
1
  66
1
  10
0
  20
0
  30
0
  0
VERTEX
  5
26a
  8
Layer_0
  10
-3.9935913
  20
281.24005
  0
VERTEX
  5
26b
  8
Layer_0
  10
-4.5466919
  20
280.68695
  0
VERTEX
  5
26c
  8
Layer_0
  10
-5.2435913
  20
280.33191
  0
VERTEX
  5
26d
  8
Layer_0
  10
-6.0161133
  20
280.20953
  0
VERTEX
  5
26e
  8
Layer_0
  10
-6.7886963
  20
280.33191
  0
VERTEX
  5
26f
  8
Layer_0
  10
-7.4855957
  20
280.68695
  0
VERTEX
  5
270
  8
Layer_0
  10
-8.0386963
  20
281.24005
  0
VERTEX
  5
271
  8
Layer_0
  10
-8.3937988
  20
281.93695
  0
VERTEX
  5
272
  8
Layer_0
  10
-8.5161133
  20
282.70953
  0
VERTEX
  5
273
  8
Layer_0
  10
-8.3937988
  20
283.48206
  0
VERTEX
  5
274
  8
Layer_0
  10
-8.0386963
  20
284.17896
  0
VERTEX
  5
275
  8
Layer_0
  10
-7.4855957
  20
284.73206
  0
VERTEX
  5
276
  8
Layer_0
  10
-6.7886963
  20
285.08716
  0
VERTEX
  5
277
  8
Layer_0
  10
-6.0161133
  20
285.20953
  0
VERTEX
  5
278
  8
Layer_0
  10
-5.2435913
  20
285.08716
  0
VERTEX
  5
279
  8
Layer_0
  10
-4.5466919
  20
284.73206
  0
VERTEX
  5
27a
  8
Layer_0
  10
-3.9935913
  20
284.17896
  0
VERTEX
  5
27b
  8
Layer_0
  10
-3.6384888
  20
283.48206
  0
VERTEX
  5
27c
  8
Layer_0
  10
-3.5161133
  20
282.70953
  0
VERTEX
  5
27d
  8
Layer_0
  10
-3.6384888
  20
281.93695
  0
SEQEND
  0
POLYLINE
  5
27f
  8
Layer_0
  62
7
  70
1
  66
1
  10
0
  20
0
  30
0
  0
VERTEX
  5
27f
  8
Layer_0
  10
6.0064087
  20
281.24005
  0
VERTEX
  5
280
  8
Layer_0
  10
5.4533081
  20
280.68695
  0
VERTEX
  5
281
  8
Layer_0
  10
4.7564087
  20
280.33191
  0
VERTEX
  5
282
  8
Layer_0
  10
3.9838867
  20
280.20953
  0
VERTEX
  5
283
  8
Layer_0
  10
3.2113037
  20
280.33191
  0
VERTEX
  5
284
  8
Layer_0
  10
2.5144043
  20
280.68695
  0
VERTEX
  5
285
  8
Layer_0
  10
1.9613037
  20
281.24005
  0
VERTEX
  5
286
  8
Layer_0
  10
1.6062012
  20
281.93695
  0
VERTEX
  5
287
  8
Layer_0
  10
1.4838867
  20
282.70953
  0
VERTEX
  5
288
  8
Layer_0
  10
1.6062012
  20
283.48206
  0
VERTEX
  5
289
  8
Layer_0
  10
1.9613037
  20
284.17896
  0
VERTEX
  5
28a
  8
Layer_0
  10
2.5144043
  20
284.73206
  0
VERTEX
  5
28b
  8
Layer_0
  10
3.2113037
  20
285.08716
  0
VERTEX
  5
28c
  8
Layer_0
  10
3.9838867
  20
285.20953
  0
VERTEX
  5
28d
  8
Layer_0
  10
4.7564087
  20
285.08716
  0
VERTEX
  5
28e
  8
Layer_0
  10
5.4533081
  20
284.73206
  0
VERTEX
  5
28f
  8
Layer_0
  10
6.0064087
  20
284.17896
  0
VERTEX
  5
290
  8
Layer_0
  10
6.3615112
  20
283.48206
  0
VERTEX
  5
291
  8
Layer_0
  10
6.4838867
  20
282.70953
  0
VERTEX
  5
292
  8
Layer_0
  10
6.3615112
  20
281.93695
  0
SEQEND
  0
POLYLINE
  5
294
  8
Layer_0
  62
7
  70
1
  66
1
  10
0
  20
0
  30
0
  0
VERTEX
  5
294
  8
Layer_0
  10
200.57104
  20
287.70947
  0
VERTEX
  5
295
  8
Layer_0
  10
200.57104
  20
277.70947
  0
VERTEX
  5
296
  8
Layer_0
  10
177.39673
  20
277.70947
  0
VERTEX
  5
297
  8
Layer_0
  10
177.39673
  20
287.70947
  0
SEQEND
  0
POLYLINE
  5
299
  8
Layer_0
  62
7
  70
1
  66
1
  10
0
  20
0
  30
0
  0
VERTEX
  5
299
  8
Layer_0
  10
310.86945
  20
112.4034
  0
VERTEX
  5
29a
  8
Layer_0
  10
313.86945
  20
112.4034
  0
VERTEX
  5
29b
  8
Layer_0
  10
313.86945
  20
126.40016
  0
VERTEX
  5
29c
  8
Layer_0
  10
310.86945
  20
126.40016
  0
SEQEND
  0
POLYLINE
  5
29e
  8
Layer_0
  62
7
  70
1
  66
1
  10
0
  20
0
  30
0
  0
VERTEX
  5
29e
  8
Layer_0
  10
310.86945
  20
77.888733
  0
VERTEX
  5
29f
  8
Layer_0
  10
313.86945
  20
77.888733
  0
VERTEX
  5
2a0
  8
Layer_0
  10
313.86945
  20
92.289276
  0
VERTEX
  5
2a1
  8
Layer_0
  10
310.86945
  20
92.289276
  0
SEQEND
  0
POLYLINE
  5
2a3
  8
Layer_0
  62
7
  70
1
  66
1
  10
0
  20
0
  30
0
  0
VERTEX
  5
2a3
  8
Layer_0
  10
444.09839
  20
112.4034
  0
VERTEX
  5
2a4
  8
Layer_0
  10
447.09839
  20
112.4034
  0
VERTEX
  5
2a5
  8
Layer_0
  10
447.09839
  20
126.40016
  0
VERTEX
  5
2a6
  8
Layer_0
  10
444.09839
  20
126.40016
  0
SEQEND
  0
POLYLINE
  5
2a8
  8
Layer_0
  62
7
  70
1
  66
1
  10
0
  20
0
  30
0
  0
VERTEX
  5
2a8
  8
Layer_0
  10
444.09839
  20
77.888733
  0
VERTEX
  5
2a9
  8
Layer_0
  10
447.09839
  20
77.888733
  0
VERTEX
  5
2aa
  8
Layer_0
  10
447.09839
  20
92.289276
  0
VERTEX
  5
2ab
  8
Layer_0
  10
444.09839
  20
92.289276
  0
SEQEND
  0
POLYLINE
  5
2ad
  8
Layer_0
  62
7
  70
1
  66
1
  10
0
  20
0
  30
0
  0
VERTEX
  5
2ad
  8
Layer_0
  10
113.98389
  20
75.331207
  0
VERTEX
  5
2ae
  8
Layer_0
  10
113.98389
  20
275.33124
  0
VERTEX
  5
2af
  8
Layer_0
  10
263.98389
  20
275.33124
  0
VERTEX
  5
2b0
  8
Layer_0
  10
263.98389
  20
75.331207
  0
SEQEND
  0
POLYLINE
  5
2b2
  8
Layer_0
  62
7
  70
1
  66
1
  10
0
  20
0
  30
0
  0
VERTEX
  5
2b2
  8
Layer_0
  10
-74.734131
  20
77.064056
  0
VERTEX
  5
2b3
  8
Layer_0
  10
-74.734131
  20
273.59833
  0
VERTEX
  5
2b4
  8
Layer_0
  10
72.701843
  20
273.59833
  0
VERTEX
  5
2b5
  8
Layer_0
  10
72.701843
  20
77.064056
  0
SEQEND
  0
POLYLINE
  5
2b7
  8
Layer_0
  62
7
  70
1
  66
1
  10
0
  20
0
  30
0
  0
VERTEX
  5
2b7
  8
Layer_0
  10
390.57104
  20
287.70947
  0
VERTEX
  5
2b8
  8
Layer_0
  10
390.57104
  20
277.70947
  0
VERTEX
  5
2b9
  8
Layer_0
  10
383.98389
  20
277.70947
  0
VERTEX
  5
2ba
  8
Layer_0
  10
383.98389
  20
101.82889
  0
VERTEX
  5
2bb
  8
Layer_0
  10
373.98389
  20
101.82889
  0
VERTEX
  5
2bc
  8
Layer_0
  10
373.98389
  20
277.70947
  0
VERTEX
  5
2bd
  8
Layer_0
  10
367.39673
  20
277.70947
  0
VERTEX
  5
2be
  8
Layer_0
  10
367.39673
  20
287.70947
  0
SEQEND
  0
POLYLINE
  5
2c0
  8
Layer_0
  62
7
  70
1
  66
1
  10
0
  20
0
  30
0
  0
VERTEX
  5
2c0
  8
Layer_0
  10
-15.83374
  20
252.18457
  0
VERTEX
  5
2c1
  8
Layer_0
  10
11.934204
  20
252.18457
  0
VERTEX
  5
2c2
  8
Layer_0
  10
11.934204
  20
100.8566
  0
VERTEX
  5
2c3
  8
Layer_0
  10
-15.83374
  20
100.8566
  0
SEQEND
  0
POLYLINE
  5
2c5
  8
Layer_0
  62
7
  70
1
  66
1
  10
0
  20
0
  30
0
  0
VERTEX
  5
2c5
  8
Layer_0
  10
-81.731201
  20
323.07239
  0
VERTEX
  5
2c6
  8
Layer_0
  10
-81.961914
  20
323.07239
  0
VERTEX
  5
2c7
  8
Layer_0
  10
-82.192688
  20
323.07239
  0
VERTEX
  5
2c8
  8
Layer_0
  10
-82.423462
  20
323.07239
  0
VERTEX
  5
2c9
  8
Layer_0
  10
-82.654236
  20
323.07239
  0
VERTEX
  5
2ca
  8
Layer_0
  10
-82.88501
  20
323.07239
  0
VERTEX
  5
2cb
  8
Layer_0
  10
-83.115784
  20
323.07239
  0
VERTEX
  5
2cc
  8
Layer_0
  10
-83.346558
  20
323.07239
  0
VERTEX
  5
2cd
  8
Layer_0
  10
-83.577271
  20
323.07239
  0
VERTEX
  5
2ce
  8
Layer_0
  10
-83.808044
  20
323.07239
  0
VERTEX
  5
2cf
  8
Layer_0
  10
-84.038818
  20
323.07239
  0
VERTEX
  5
2d0
  8
Layer_0
  10
-84.269592
  20
323.07239
  0
VERTEX
  5
2d1
  8
Layer_0
  10
-84.500366
  20
323.07239
  0
VERTEX
  5
2d2
  8
Layer_0
  10
-84.500366
  20
338.22241
  0
VERTEX
  5
2d3
  8
Layer_0
  10
-84.269592
  20
338.22241
  0
VERTEX
  5
2d4
  8
Layer_0
  10
-84.038818
  20
338.22241
  0
VERTEX
  5
2d5
  8
Layer_0
  10
-83.808044
  20
338.22241
  0
VERTEX
  5
2d6
  8
Layer_0
  10
-83.577271
  20
338.22241
  0
VERTEX
  5
2d7
  8
Layer_0
  10
-83.346558
  20
338.22241
  0
VERTEX
  5
2d8
  8
Layer_0
  10
-83.115784
  20
338.22241
  0
VERTEX
  5
2d9
  8
Layer_0
  10
-82.88501
  20
338.22241
  0
VERTEX
  5
2da
  8
Layer_0
  10
-82.654236
  20
338.22241
  0
VERTEX
  5
2db
  8
Layer_0
  10
-82.423462
  20
338.22241
  0
VERTEX
  5
2dc
  8
Layer_0
  10
-82.192688
  20
338.22241
  0
VERTEX
  5
2dd
  8
Layer_0
  10
-81.961914
  20
338.22241
  0
VERTEX
  5
2de
  8
Layer_0
  10
-81.731201
  20
338.22241
  0
VERTEX
  5
2df
  8
Layer_0
  10
-81.500427
  20
338.22241
  0
VERTEX
  5
2e0
  8
Layer_0
  10
-81.500427
  20
338.42517
  0
VERTEX
  5
2e1
  8
Layer_0
  10
-81.500427
  20
338.62793
  0
VERTEX
  5
2e2
  8
Layer_0
  10
-81.500427
  20
338.83075
  0
VERTEX
  5
2e3
  8
Layer_0
  10
-81.500427
  20
339.03351
  0
VERTEX
  5
2e4
  8
Layer_0
  10
-81.500427
  20
339.23627
  0
VERTEX
  5
2e5
  8
Layer_0
  10
-81.500427
  20
339.43903
  0
VERTEX
  5
2e6
  8
Layer_0
  10
-81.500427
  20
339.64185
  0
VERTEX
  5
2e7
  8
Layer_0
  10
-81.500427
  20
339.8446
  0
VERTEX
  5
2e8
  8
Layer_0
  10
-81.500427
  20
340.04736
  0
VERTEX
  5
2e9
  8
Layer_0
  10
-81.500427
  20
340.25018
  0
VERTEX
  5
2ea
  8
Layer_0
  10
-81.500427
  20
340.45294
  0
VERTEX
  5
2eb
  8
Layer_0
  10
-81.500427
  20
340.6557
  0
VERTEX
  5
2ec
  8
Layer_0
  10
-81.500427
  20
340.85846
  0
VERTEX
  5
2ed
  8
Layer_0
  10
-81.500427
  20
341.06128
  0
VERTEX
  5
2ee
  8
Layer_0
  10
-81.500427
  20
341.26404
  0
VERTEX
  5
2ef
  8
Layer_0
  10
-81.500427
  20
341.4668
  0
VERTEX
  5
2f0
  8
Layer_0
  10
-81.500427
  20
341.66956
  0
VERTEX
  5
2f1
  8
Layer_0
  10
-81.500427
  20
341.87238
  0
VERTEX
  5
2f2
  8
Layer_0
  10
-81.500427
  20
342.07513
  0
VERTEX
  5
2f3
  8
Layer_0
  10
-81.500427
  20
342.27789
  0
VERTEX
  5
2f4
  8
Layer_0
  10
-81.500427
  20
342.48065
  0
VERTEX
  5
2f5
  8
Layer_0
  10
-81.500427
  20
342.68347
  0
VERTEX
  5
2f6
  8
Layer_0
  10
-81.500427
  20
342.88623
  0
VERTEX
  5
2f7
  8
Layer_0
  10
-81.500427
  20
343.08899
  0
VERTEX
  5
2f8
  8
Layer_0
  10
-81.500427
  20
343.29175
  0
VERTEX
  5
2f9
  8
Layer_0
  10
-81.500427
  20
343.49457
  0
VERTEX
  5
2fa
  8
Layer_0
  10
-81.500427
  20
343.69733
  0
VERTEX
  5
2fb
  8
Layer_0
  10
-81.500427
  20
343.90009
  0
VERTEX
  5
2fc
  8
Layer_0
  10
-81.500427
  20
344.10284
  0
VERTEX
  5
2fd
  8
Layer_0
  10
-81.500427
  20
344.30566
  0
VERTEX
  5
2fe
  8
Layer_0
  10
-81.500427
  20
344.50842
  0
VERTEX
  5
2ff
  8
Layer_0
  10
-81.500427
  20
344.71118
  0
VERTEX
  5
300
  8
Layer_0
  10
-81.500427
  20
344.914
  0
VERTEX
  5
301
  8
Layer_0
  10
-81.500427
  20
345.11676
  0
VERTEX
  5
302
  8
Layer_0
  10
-81.500427
  20
345.31952
  0
VERTEX
  5
303
  8
Layer_0
  10
-81.500427
  20
345.52228
  0
VERTEX
  5
304
  8
Layer_0
  10
-81.500427
  20
345.7251
  0
VERTEX
  5
305
  8
Layer_0
  10
-81.500427
  20
345.92786
  0
VERTEX
  5
306
  8
Layer_0
  10
-81.500427
  20
346.13062
  0
VERTEX
  5
307
  8
Layer_0
  10
-81.500427
  20
346.33337
  0
VERTEX
  5
308
  8
Layer_0
  10
-81.500427
  20
346.53619
  0
VERTEX
  5
309
  8
Layer_0
  10
-81.500427
  20
346.73895
  0
VERTEX
  5
30a
  8
Layer_0
  10
-81.500427
  20
346.94171
  0
VERTEX
  5
30b
  8
Layer_0
  10
-81.500427
  20
347.14447
  0
VERTEX
  5
30c
  8
Layer_0
  10
-81.500427
  20
347.34729
  0
VERTEX
  5
30d
  8
Layer_0
  10
-81.500427
  20
347.55005
  0
VERTEX
  5
30e
  8
Layer_0
  10
-81.500427
  20
347.75281
  0
VERTEX
  5
30f
  8
Layer_0
  10
-81.500427
  20
347.95557
  0
VERTEX
  5
310
  8
Layer_0
  10
-81.500427
  20
348.15839
  0
VERTEX
  5
311
  8
Layer_0
  10
-81.500427
  20
348.36115
  0
VERTEX
  5
312
  8
Layer_0
  10
-81.500427
  20
348.5639
  0
VERTEX
  5
313
  8
Layer_0
  10
-81.500427
  20
348.76666
  0
VERTEX
  5
314
  8
Layer_0
  10
-81.500427
  20
348.96948
  0
VERTEX
  5
315
  8
Layer_0
  10
-81.500427
  20
349.17224
  0
VERTEX
  5
316
  8
Layer_0
  10
-81.500427
  20
349.375
  0
VERTEX
  5
317
  8
Layer_0
  10
-81.500427
  20
349.57782
  0
VERTEX
  5
318
  8
Layer_0
  10
-81.500427
  20
349.78058
  0
VERTEX
  5
319
  8
Layer_0
  10
-81.500427
  20
349.98334
  0
VERTEX
  5
31a
  8
Layer_0
  10
-81.500427
  20
350.1861
  0
VERTEX
  5
31b
  8
Layer_0
  10
-81.500427
  20
350.38892
  0
VERTEX
  5
31c
  8
Layer_0
  10
-81.500427
  20
350.59167
  0
VERTEX
  5
31d
  8
Layer_0
  10
-81.500427
  20
350.79443
  0
VERTEX
  5
31e
  8
Layer_0
  10
-81.500427
  20
350.99719
  0
VERTEX
  5
31f
  8
Layer_0
  10
-81.500427
  20
351.20001
  0
VERTEX
  5
320
  8
Layer_0
  10
-81.500427
  20
351.40277
  0
VERTEX
  5
321
  8
Layer_0
  10
-81.500427
  20
351.60553
  0
VERTEX
  5
322
  8
Layer_0
  10
-81.500427
  20
351.80829
  0
VERTEX
  5
323
  8
Layer_0
  10
-81.500427
  20
352.01111
  0
VERTEX
  5
324
  8
Layer_0
  10
-81.500427
  20
352.21387
  0
VERTEX
  5
325
  8
Layer_0
  10
-81.500427
  20
352.41663
  0
VERTEX
  5
326
  8
Layer_0
  10
-81.500427
  20
352.61938
  0
VERTEX
  5
327
  8
Layer_0
  10
-81.500427
  20
352.8222
  0
VERTEX
  5
328
  8
Layer_0
  10
-81.500427
  20
353.02496
  0
VERTEX
  5
329
  8
Layer_0
  10
-81.500427
  20
353.22772
  0
VERTEX
  5
32a
  8
Layer_0
  10
-81.500427
  20
353.43048
  0
VERTEX
  5
32b
  8
Layer_0
  10
-81.500427
  20
353.6333
  0
VERTEX
  5
32c
  8
Layer_0
  10
-81.500427
  20
353.83606
  0
VERTEX
  5
32d
  8
Layer_0
  10
-81.500427
  20
354.03882
  0
VERTEX
  5
32e
  8
Layer_0
  10
-81.500427
  20
354.24164
  0
VERTEX
  5
32f
  8
Layer_0
  10
-81.500427
  20
354.4444
  0
VERTEX
  5
330
  8
Layer_0
  10
-81.500427
  20
354.64716
  0
VERTEX
  5
331
  8
Layer_0
  10
-81.500427
  20
354.84991
  0
VERTEX
  5
332
  8
Layer_0
  10
-81.731201
  20
354.84991
  0
VERTEX
  5
333
  8
Layer_0
  10
-81.961914
  20
354.84991
  0
VERTEX
  5
334
  8
Layer_0
  10
-82.192688
  20
354.84991
  0
VERTEX
  5
335
  8
Layer_0
  10
-82.423462
  20
354.84991
  0
VERTEX
  5
336
  8
Layer_0
  10
-82.654236
  20
354.84991
  0
VERTEX
  5
337
  8
Layer_0
  10
-82.88501
  20
354.84991
  0
VERTEX
  5
338
  8
Layer_0
  10
-83.115784
  20
354.84991
  0
VERTEX
  5
339
  8
Layer_0
  10
-83.346558
  20
354.84991
  0
VERTEX
  5
33a
  8
Layer_0
  10
-83.577271
  20
354.84991
  0
VERTEX
  5
33b
  8
Layer_0
  10
-83.808044
  20
354.84991
  0
VERTEX
  5
33c
  8
Layer_0
  10
-84.038818
  20
354.84991
  0
VERTEX
  5
33d
  8
Layer_0
  10
-84.269592
  20
354.84991
  0
VERTEX
  5
33e
  8
Layer_0
  10
-84.500366
  20
354.84991
  0
VERTEX
  5
33f
  8
Layer_0
  10
-84.500366
  20
369.99994
  0
VERTEX
  5
340
  8
Layer_0
  10
-84.269592
  20
369.99994
  0
VERTEX
  5
341
  8
Layer_0
  10
-84.038818
  20
369.99994
  0
VERTEX
  5
342
  8
Layer_0
  10
-83.808044
  20
369.99994
  0
VERTEX
  5
343
  8
Layer_0
  10
-83.577271
  20
369.99994
  0
VERTEX
  5
344
  8
Layer_0
  10
-83.346558
  20
369.99994
  0
VERTEX
  5
345
  8
Layer_0
  10
-83.115784
  20
369.99994
  0
VERTEX
  5
346
  8
Layer_0
  10
-82.88501
  20
369.99994
  0
VERTEX
  5
347
  8
Layer_0
  10
-82.654236
  20
369.99994
  0
VERTEX
  5
348
  8
Layer_0
  10
-82.423462
  20
369.99994
  0
VERTEX
  5
349
  8
Layer_0
  10
-82.192688
  20
369.99994
  0
VERTEX
  5
34a
  8
Layer_0
  10
-81.961914
  20
369.99994
  0
VERTEX
  5
34b
  8
Layer_0
  10
-81.731201
  20
369.99994
  0
VERTEX
  5
34c
  8
Layer_0
  10
-81.500427
  20
369.99994
  0
VERTEX
  5
34d
  8
Layer_0
  10
-81.500427
  20
370.20642
  0
VERTEX
  5
34e
  8
Layer_0
  10
-81.500427
  20
370.4129
  0
VERTEX
  5
34f
  8
Layer_0
  10
-81.500427
  20
370.61932
  0
VERTEX
  5
350
  8
Layer_0
  10
-81.500427
  20
370.82581
  0
VERTEX
  5
351
  8
Layer_0
  10
-81.500427
  20
371.03229
  0
VERTEX
  5
352
  8
Layer_0
  10
-81.500427
  20
371.23877
  0
VERTEX
  5
353
  8
Layer_0
  10
-81.500427
  20
371.44525
  0
VERTEX
  5
354
  8
Layer_0
  10
-81.500427
  20
371.65173
  0
VERTEX
  5
355
  8
Layer_0
  10
-81.500427
  20
371.85822
  0
VERTEX
  5
356
  8
Layer_0
  10
-81.500427
  20
372.0647
  0
VERTEX
  5
357
  8
Layer_0
  10
-81.500427
  20
372.27112
  0
VERTEX
  5
358
  8
Layer_0
  10
-81.500427
  20
372.4776
  0
VERTEX
  5
359
  8
Layer_0
  10
-81.500427
  20
372.68408
  0
VERTEX
  5
35a
  8
Layer_0
  10
-81.500427
  20
372.89056
  0
VERTEX
  5
35b
  8
Layer_0
  10
-81.500427
  20
373.09705
  0
VERTEX
  5
35c
  8
Layer_0
  10
-81.500427
  20
373.30353
  0
VERTEX
  5
35d
  8
Layer_0
  10
-81.500427
  20
373.51001
  0
VERTEX
  5
35e
  8
Layer_0
  10
-81.500427
  20
373.71643
  0
VERTEX
  5
35f
  8
Layer_0
  10
-81.500427
  20
373.92291
  0
VERTEX
  5
360
  8
Layer_0
  10
-81.500427
  20
374.12939
  0
VERTEX
  5
361
  8
Layer_0
  10
-81.500427
  20
374.33588
  0
VERTEX
  5
362
  8
Layer_0
  10
-81.500427
  20
374.54236
  0
VERTEX
  5
363
  8
Layer_0
  10
-81.500427
  20
374.74884
  0
VERTEX
  5
364
  8
Layer_0
  10
-81.500427
  20
374.95532
  0
VERTEX
  5
365
  8
Layer_0
  10
-81.500427
  20
375.16174
  0
VERTEX
  5
366
  8
Layer_0
  10
-81.500427
  20
375.36823
  0
VERTEX
  5
367
  8
Layer_0
  10
-81.500427
  20
375.57471
  0
VERTEX
  5
368
  8
Layer_0
  10
-81.500427
  20
375.78119
  0
VERTEX
  5
369
  8
Layer_0
  10
-81.500427
  20
375.98767
  0
VERTEX
  5
36a
  8
Layer_0
  10
-81.500427
  20
376.19415
  0
VERTEX
  5
36b
  8
Layer_0
  10
-81.500427
  20
376.40063
  0
VERTEX
  5
36c
  8
Layer_0
  10
-81.500427
  20
376.60712
  0
VERTEX
  5
36d
  8
Layer_0
  10
-81.500427
  20
376.81354
  0
VERTEX
  5
36e
  8
Layer_0
  10
-81.500427
  20
377.02002
  0
VERTEX
  5
36f
  8
Layer_0
  10
-81.500427
  20
377.2265
  0
VERTEX
  5
370
  8
Layer_0
  10
-81.500427
  20
377.43298
  0
VERTEX
  5
371
  8
Layer_0
  10
-81.500427
  20
377.63947
  0
VERTEX
  5
372
  8
Layer_0
  10
-81.500427
  20
377.84595
  0
VERTEX
  5
373
  8
Layer_0
  10
-81.500427
  20
378.05243
  0
VERTEX
  5
374
  8
Layer_0
  10
-81.500427
  20
378.25885
  0
VERTEX
  5
375
  8
Layer_0
  10
-81.500427
  20
378.46533
  0
VERTEX
  5
376
  8
Layer_0
  10
-81.500427
  20
378.67181
  0
VERTEX
  5
377
  8
Layer_0
  10
-81.500427
  20
378.8783
  0
VERTEX
  5
378
  8
Layer_0
  10
-81.500427
  20
379.08478
  0
VERTEX
  5
379
  8
Layer_0
  10
-81.500427
  20
379.29126
  0
VERTEX
  5
37a
  8
Layer_0
  10
-81.500427
  20
379.49774
  0
VERTEX
  5
37b
  8
Layer_0
  10
-81.500427
  20
379.70416
  0
VERTEX
  5
37c
  8
Layer_0
  10
-81.500427
  20
379.91064
  0
VERTEX
  5
37d
  8
Layer_0
  10
-81.500427
  20
380.11713
  0
VERTEX
  5
37e
  8
Layer_0
  10
-81.500427
  20
380.32361
  0
VERTEX
  5
37f
  8
Layer_0
  10
-81.500427
  20
380.53009
  0
VERTEX
  5
380
  8
Layer_0
  10
-81.500427
  20
380.73657
  0
VERTEX
  5
381
  8
Layer_0
  10
-81.500427
  20
380.94305
  0
VERTEX
  5
382
  8
Layer_0
  10
-81.500427
  20
381.14954
  0
VERTEX
  5
383
  8
Layer_0
  10
-81.500427
  20
381.35596
  0
VERTEX
  5
384
  8
Layer_0
  10
-81.500427
  20
381.56244
  0
VERTEX
  5
385
  8
Layer_0
  10
-81.500427
  20
381.76892
  0
VERTEX
  5
386
  8
Layer_0
  10
-81.500427
  20
384.84393
  0
VERTEX
  5
387
  8
Layer_0
  10
-64.804626
  20
384.84393
  0
VERTEX
  5
388
  8
Layer_0
  10
-64.804626
  20
384.62964
  0
VERTEX
  5
389
  8
Layer_0
  10
-64.804626
  20
384.41534
  0
VERTEX
  5
38a
  8
Layer_0
  10
-64.804626
  20
384.20105
  0
VERTEX
  5
38b
  8
Layer_0
  10
-64.804626
  20
383.98682
  0
VERTEX
  5
38c
  8
Layer_0
  10
-64.804626
  20
383.77252
  0
VERTEX
  5
38d
  8
Layer_0
  10
-64.804626
  20
383.55823
  0
VERTEX
  5
38e
  8
Layer_0
  10
-64.804626
  20
383.34393
  0
VERTEX
  5
38f
  8
Layer_0
  10
-64.804626
  20
383.12964
  0
VERTEX
  5
390
  8
Layer_0
  10
-64.804626
  20
382.91534
  0
VERTEX
  5
391
  8
Layer_0
  10
-64.804626
  20
382.70105
  0
VERTEX
  5
392
  8
Layer_0
  10
-64.804626
  20
382.48682
  0
VERTEX
  5
393
  8
Layer_0
  10
-64.804626
  20
382.27252
  0
VERTEX
  5
394
  8
Layer_0
  10
-64.804626
  20
382.05823
  0
VERTEX
  5
395
  8
Layer_0
  10
-64.804626
  20
381.84393
  0
VERTEX
  5
396
  8
Layer_0
  10
-64.602112
  20
381.84393
  0
VERTEX
  5
397
  8
Layer_0
  10
-64.399536
  20
381.84393
  0
VERTEX
  5
398
  8
Layer_0
  10
-64.19696
  20
381.84393
  0
VERTEX
  5
399
  8
Layer_0
  10
-63.994446
  20
381.84393
  0
VERTEX
  5
39a
  8
Layer_0
  10
-63.79187
  20
381.84393
  0
VERTEX
  5
39b
  8
Layer_0
  10
-63.589355
  20
381.84393
  0
VERTEX
  5
39c
  8
Layer_0
  10
-63.38678
  20
381.84393
  0
VERTEX
  5
39d
  8
Layer_0
  10
-63.184204
  20
381.84393
  0
VERTEX
  5
39e
  8
Layer_0
  10
-62.981689
  20
381.84393
  0
VERTEX
  5
39f
  8
Layer_0
  10
-62.779114
  20
381.84393
  0
VERTEX
  5
3a0
  8
Layer_0
  10
-62.576599
  20
381.84393
  0
VERTEX
  5
3a1
  8
Layer_0
  10
-62.374023
  20
381.84393
  0
VERTEX
  5
3a2
  8
Layer_0
  10
-62.171448
  20
381.84393
  0
VERTEX
  5
3a3
  8
Layer_0
  10
-61.968933
  20
381.84393
  0
VERTEX
  5
3a4
  8
Layer_0
  10
-61.766357
  20
381.84393
  0
VERTEX
  5
3a5
  8
Layer_0
  10
-61.563843
  20
381.84393
  0
VERTEX
  5
3a6
  8
Layer_0
  10
-61.361267
  20
381.84393
  0
VERTEX
  5
3a7
  8
Layer_0
  10
-61.158691
  20
381.84393
  0
VERTEX
  5
3a8
  8
Layer_0
  10
-60.956177
  20
381.84393
  0
VERTEX
  5
3a9
  8
Layer_0
  10
-60.753601
  20
381.84393
  0
VERTEX
  5
3aa
  8
Layer_0
  10
-60.551086
  20
381.84393
  0
VERTEX
  5
3ab
  8
Layer_0
  10
-60.348511
  20
381.84393
  0
VERTEX
  5
3ac
  8
Layer_0
  10
-60.145935
  20
381.84393
  0
VERTEX
  5
3ad
  8
Layer_0
  10
-59.94342
  20
381.84393
  0
VERTEX
  5
3ae
  8
Layer_0
  10
-59.740845
  20
381.84393
  0
VERTEX
  5
3af
  8
Layer_0
  10
-59.53833
  20
381.84393
  0
VERTEX
  5
3b0
  8
Layer_0
  10
-59.335754
  20
381.84393
  0
VERTEX
  5
3b1
  8
Layer_0
  10
-59.13324
  20
381.84393
  0
VERTEX
  5
3b2
  8
Layer_0
  10
-58.930664
  20
381.84393
  0
VERTEX
  5
3b3
  8
Layer_0
  10
-58.728088
  20
381.84393
  0
VERTEX
  5
3b4
  8
Layer_0
  10
-58.525574
  20
381.84393
  0
VERTEX
  5
3b5
  8
Layer_0
  10
-58.322998
  20
381.84393
  0
VERTEX
  5
3b6
  8
Layer_0
  10
-58.120483
  20
381.84393
  0
VERTEX
  5
3b7
  8
Layer_0
  10
-57.917908
  20
381.84393
  0
VERTEX
  5
3b8
  8
Layer_0
  10
-57.715332
  20
381.84393
  0
VERTEX
  5
3b9
  8
Layer_0
  10
-57.512817
  20
381.84393
  0
VERTEX
  5
3ba
  8
Layer_0
  10
-57.310242
  20
381.84393
  0
VERTEX
  5
3bb
  8
Layer_0
  10
-57.107727
  20
381.84393
  0
VERTEX
  5
3bc
  8
Layer_0
  10
-56.905151
  20
381.84393
  0
VERTEX
  5
3bd
  8
Layer_0
  10
-56.702576
  20
381.84393
  0
VERTEX
  5
3be
  8
Layer_0
  10
-56.500061
  20
381.84393
  0
VERTEX
  5
3bf
  8
Layer_0
  10
-56.297485
  20
381.84393
  0
VERTEX
  5
3c0
  8
Layer_0
  10
-56.094971
  20
381.84393
  0
VERTEX
  5
3c1
  8
Layer_0
  10
-55.892395
  20
381.84393
  0
VERTEX
  5
3c2
  8
Layer_0
  10
-55.689819
  20
381.84393
  0
VERTEX
  5
3c3
  8
Layer_0
  10
-55.487305
  20
381.84393
  0
VERTEX
  5
3c4
  8
Layer_0
  10
-55.284729
  20
381.84393
  0
VERTEX
  5
3c5
  8
Layer_0
  10
-55.082214
  20
381.84393
  0
VERTEX
  5
3c6
  8
Layer_0
  10
-54.879639
  20
381.84393
  0
VERTEX
  5
3c7
  8
Layer_0
  10
-54.677063
  20
381.84393
  0
VERTEX
  5
3c8
  8
Layer_0
  10
-54.474548
  20
381.84393
  0
VERTEX
  5
3c9
  8
Layer_0
  10
-54.271973
  20
381.84393
  0
VERTEX
  5
3ca
  8
Layer_0
  10
-54.069458
  20
381.84393
  0
VERTEX
  5
3cb
  8
Layer_0
  10
-53.866882
  20
381.84393
  0
VERTEX
  5
3cc
  8
Layer_0
  10
-53.664307
  20
381.84393
  0
VERTEX
  5
3cd
  8
Layer_0
  10
-53.461792
  20
381.84393
  0
VERTEX
  5
3ce
  8
Layer_0
  10
-53.259216
  20
381.84393
  0
VERTEX
  5
3cf
  8
Layer_0
  10
-53.056702
  20
381.84393
  0
VERTEX
  5
3d0
  8
Layer_0
  10
-52.854126
  20
381.84393
  0
VERTEX
  5
3d1
  8
Layer_0
  10
-52.65155
  20
381.84393
  0
VERTEX
  5
3d2
  8
Layer_0
  10
-52.449036
  20
381.84393
  0
VERTEX
  5
3d3
  8
Layer_0
  10
-52.24646
  20
381.84393
  0
VERTEX
  5
3d4
  8
Layer_0
  10
-52.043945
  20
381.84393
  0
VERTEX
  5
3d5
  8
Layer_0
  10
-51.84137
  20
381.84393
  0
VERTEX
  5
3d6
  8
Layer_0
  10
-51.638794
  20
381.84393
  0
VERTEX
  5
3d7
  8
Layer_0
  10
-51.436279
  20
381.84393
  0
VERTEX
  5
3d8
  8
Layer_0
  10
-51.233704
  20
381.84393
  0
VERTEX
  5
3d9
  8
Layer_0
  10
-51.031189
  20
381.84393
  0
VERTEX
  5
3da
  8
Layer_0
  10
-50.828613
  20
381.84393
  0
VERTEX
  5
3db
  8
Layer_0
  10
-50.626038
  20
381.84393
  0
VERTEX
  5
3dc
  8
Layer_0
  10
-50.423523
  20
381.84393
  0
VERTEX
  5
3dd
  8
Layer_0
  10
-50.220947
  20
381.84393
  0
VERTEX
  5
3de
  8
Layer_0
  10
-50.018433
  20
381.84393
  0
VERTEX
  5
3df
  8
Layer_0
  10
-49.815857
  20
381.84393
  0
VERTEX
  5
3e0
  8
Layer_0
  10
-49.613342
  20
381.84393
  0
VERTEX
  5
3e1
  8
Layer_0
  10
-49.410767
  20
381.84393
  0
VERTEX
  5
3e2
  8
Layer_0
  10
-49.208191
  20
381.84393
  0
VERTEX
  5
3e3
  8
Layer_0
  10
-49.005676
  20
381.84393
  0
VERTEX
  5
3e4
  8
Layer_0
  10
-48.803101
  20
381.84393
  0
VERTEX
  5
3e5
  8
Layer_0
  10
-48.600586
  20
381.84393
  0
VERTEX
  5
3e6
  8
Layer_0
  10
-48.39801
  20
381.84393
  0
VERTEX
  5
3e7
  8
Layer_0
  10
-48.195435
  20
381.84393
  0
VERTEX
  5
3e8
  8
Layer_0
  10
-47.99292
  20
381.84393
  0
VERTEX
  5
3e9
  8
Layer_0
  10
-47.790344
  20
381.84393
  0
VERTEX
  5
3ea
  8
Layer_0
  10
-47.58783
  20
381.84393
  0
VERTEX
  5
3eb
  8
Layer_0
  10
-47.385254
  20
381.84393
  0
VERTEX
  5
3ec
  8
Layer_0
  10
-47.182678
  20
381.84393
  0
VERTEX
  5
3ed
  8
Layer_0
  10
-46.980164
  20
381.84393
  0
VERTEX
  5
3ee
  8
Layer_0
  10
-46.777588
  20
381.84393
  0
VERTEX
  5
3ef
  8
Layer_0
  10
-46.575073
  20
381.84393
  0
VERTEX
  5
3f0
  8
Layer_0
  10
-46.372498
  20
381.84393
  0
VERTEX
  5
3f1
  8
Layer_0
  10
-46.169922
  20
381.84393
  0
VERTEX
  5
3f2
  8
Layer_0
  10
-45.967407
  20
381.84393
  0
VERTEX
  5
3f3
  8
Layer_0
  10
-45.764832
  20
381.84393
  0
VERTEX
  5
3f4
  8
Layer_0
  10
-45.562317
  20
381.84393
  0
VERTEX
  5
3f5
  8
Layer_0
  10
-45.359741
  20
381.84393
  0
VERTEX
  5
3f6
  8
Layer_0
  10
-45.157166
  20
381.84393
  0
VERTEX
  5
3f7
  8
Layer_0
  10
-44.954651
  20
381.84393
  0
VERTEX
  5
3f8
  8
Layer_0
  10
-44.954651
  20
382.05823
  0
VERTEX
  5
3f9
  8
Layer_0
  10
-44.954651
  20
382.27252
  0
VERTEX
  5
3fa
  8
Layer_0
  10
-44.954651
  20
382.48682
  0
VERTEX
  5
3fb
  8
Layer_0
  10
-44.954651
  20
382.70105
  0
VERTEX
  5
3fc
  8
Layer_0
  10
-44.954651
  20
382.91534
  0
VERTEX
  5
3fd
  8
Layer_0
  10
-44.954651
  20
383.12964
  0
VERTEX
  5
3fe
  8
Layer_0
  10
-44.954651
  20
383.34393
  0
VERTEX
  5
3ff
  8
Layer_0
  10
-44.954651
  20
383.55823
  0
VERTEX
  5
400
  8
Layer_0
  10
-44.954651
  20
383.77252
  0
VERTEX
  5
401
  8
Layer_0
  10
-44.954651
  20
383.98682
  0
VERTEX
  5
402
  8
Layer_0
  10
-44.954651
  20
384.20105
  0
VERTEX
  5
403
  8
Layer_0
  10
-44.954651
  20
384.41534
  0
VERTEX
  5
404
  8
Layer_0
  10
-44.954651
  20
384.62964
  0
VERTEX
  5
405
  8
Layer_0
  10
-44.954651
  20
384.84393
  0
VERTEX
  5
406
  8
Layer_0
  10
-26.235962
  20
384.84393
  0
VERTEX
  5
407
  8
Layer_0
  10
-26.235962
  20
384.62964
  0
VERTEX
  5
408
  8
Layer_0
  10
-26.235962
  20
384.41534
  0
VERTEX
  5
409
  8
Layer_0
  10
-26.235962
  20
384.20105
  0
VERTEX
  5
40a
  8
Layer_0
  10
-26.235962
  20
383.98682
  0
VERTEX
  5
40b
  8
Layer_0
  10
-26.235962
  20
383.77252
  0
VERTEX
  5
40c
  8
Layer_0
  10
-26.235962
  20
383.55823
  0
VERTEX
  5
40d
  8
Layer_0
  10
-26.235962
  20
383.34393
  0
VERTEX
  5
40e
  8
Layer_0
  10
-26.235962
  20
383.12964
  0
VERTEX
  5
40f
  8
Layer_0
  10
-26.235962
  20
382.91534
  0
VERTEX
  5
410
  8
Layer_0
  10
-26.235962
  20
382.70105
  0
VERTEX
  5
411
  8
Layer_0
  10
-26.235962
  20
382.48682
  0
VERTEX
  5
412
  8
Layer_0
  10
-26.235962
  20
382.27252
  0
VERTEX
  5
413
  8
Layer_0
  10
-26.235962
  20
382.05823
  0
VERTEX
  5
414
  8
Layer_0
  10
-26.235962
  20
381.84393
  0
VERTEX
  5
415
  8
Layer_0
  10
-26.033447
  20
381.84393
  0
VERTEX
  5
416
  8
Layer_0
  10
-25.830872
  20
381.84393
  0
VERTEX
  5
417
  8
Layer_0
  10
-25.628296
  20
381.84393
  0
VERTEX
  5
418
  8
Layer_0
  10
-25.425781
  20
381.84393
  0
VERTEX
  5
419
  8
Layer_0
  10
-25.223206
  20
381.84393
  0
VERTEX
  5
41a
  8
Layer_0
  10
-25.020691
  20
381.84393
  0
VERTEX
  5
41b
  8
Layer_0
  10
-24.818115
  20
381.84393
  0
VERTEX
  5
41c
  8
Layer_0
  10
-24.61554
  20
381.84393
  0
VERTEX
  5
41d
  8
Layer_0
  10
-24.413025
  20
381.84393
  0
VERTEX
  5
41e
  8
Layer_0
  10
-24.210449
  20
381.84393
  0
VERTEX
  5
41f
  8
Layer_0
  10
-24.007935
  20
381.84393
  0
VERTEX
  5
420
  8
Layer_0
  10
-23.805359
  20
381.84393
  0
VERTEX
  5
421
  8
Layer_0
  10
-23.602783
  20
381.84393
  0
VERTEX
  5
422
  8
Layer_0
  10
-23.400269
  20
381.84393
  0
VERTEX
  5
423
  8
Layer_0
  10
-23.197693
  20
381.84393
  0
VERTEX
  5
424
  8
Layer_0
  10
-22.995178
  20
381.84393
  0
VERTEX
  5
425
  8
Layer_0
  10
-22.792603
  20
381.84393
  0
VERTEX
  5
426
  8
Layer_0
  10
-22.590027
  20
381.84393
  0
VERTEX
  5
427
  8
Layer_0
  10
-22.387512
  20
381.84393
  0
VERTEX
  5
428
  8
Layer_0
  10
-22.184937
  20
381.84393
  0
VERTEX
  5
429
  8
Layer_0
  10
-21.982422
  20
381.84393
  0
VERTEX
  5
42a
  8
Layer_0
  10
-21.779846
  20
381.84393
  0
VERTEX
  5
42b
  8
Layer_0
  10
-21.577271
  20
381.84393
  0
VERTEX
  5
42c
  8
Layer_0
  10
-21.374756
  20
381.84393
  0
VERTEX
  5
42d
  8
Layer_0
  10
-21.17218
  20
381.84393
  0
VERTEX
  5
42e
  8
Layer_0
  10
-20.969666
  20
381.84393
  0
VERTEX
  5
42f
  8
Layer_0
  10
-20.76709
  20
381.84393
  0
VERTEX
  5
430
  8
Layer_0
  10
-20.564575
  20
381.84393
  0
VERTEX
  5
431
  8
Layer_0
  10
-20.362
  20
381.84393
  0
VERTEX
  5
432
  8
Layer_0
  10
-20.159424
  20
381.84393
  0
VERTEX
  5
433
  8
Layer_0
  10
-19.956909
  20
381.84393
  0
VERTEX
  5
434
  8
Layer_0
  10
-19.754333
  20
381.84393
  0
VERTEX
  5
435
  8
Layer_0
  10
-19.551819
  20
381.84393
  0
VERTEX
  5
436
  8
Layer_0
  10
-19.349243
  20
381.84393
  0
VERTEX
  5
437
  8
Layer_0
  10
-19.146667
  20
381.84393
  0
VERTEX
  5
438
  8
Layer_0
  10
-18.944153
  20
381.84393
  0
VERTEX
  5
439
  8
Layer_0
  10
-18.741577
  20
381.84393
  0
VERTEX
  5
43a
  8
Layer_0
  10
-18.539063
  20
381.84393
  0
VERTEX
  5
43b
  8
Layer_0
  10
-18.336487
  20
381.84393
  0
VERTEX
  5
43c
  8
Layer_0
  10
-18.133911
  20
381.84393
  0
VERTEX
  5
43d
  8
Layer_0
  10
-17.931396
  20
381.84393
  0
VERTEX
  5
43e
  8
Layer_0
  10
-17.728821
  20
381.84393
  0
VERTEX
  5
43f
  8
Layer_0
  10
-17.526306
  20
381.84393
  0
VERTEX
  5
440
  8
Layer_0
  10
-17.32373
  20
381.84393
  0
VERTEX
  5
441
  8
Layer_0
  10
-17.121216
  20
381.84393
  0
VERTEX
  5
442
  8
Layer_0
  10
-16.91864
  20
381.84393
  0
VERTEX
  5
443
  8
Layer_0
  10
-16.716064
  20
381.84393
  0
VERTEX
  5
444
  8
Layer_0
  10
-16.51355
  20
381.84393
  0
VERTEX
  5
445
  8
Layer_0
  10
-16.310974
  20
381.84393
  0
VERTEX
  5
446
  8
Layer_0
  10
-16.108459
  20
381.84393
  0
VERTEX
  5
447
  8
Layer_0
  10
-15.905884
  20
381.84393
  0
VERTEX
  5
448
  8
Layer_0
  10
-15.703308
  20
381.84393
  0
VERTEX
  5
449
  8
Layer_0
  10
-15.500793
  20
381.84393
  0
VERTEX
  5
44a
  8
Layer_0
  10
-15.298218
  20
381.84393
  0
VERTEX
  5
44b
  8
Layer_0
  10
-15.095703
  20
381.84393
  0
VERTEX
  5
44c
  8
Layer_0
  10
-14.893127
  20
381.84393
  0
VERTEX
  5
44d
  8
Layer_0
  10
-14.690552
  20
381.84393
  0
VERTEX
  5
44e
  8
Layer_0
  10
-14.488037
  20
381.84393
  0
VERTEX
  5
44f
  8
Layer_0
  10
-14.285461
  20
381.84393
  0
VERTEX
  5
450
  8
Layer_0
  10
-14.082947
  20
381.84393
  0
VERTEX
  5
451
  8
Layer_0
  10
-13.880371
  20
381.84393
  0
VERTEX
  5
452
  8
Layer_0
  10
-13.677856
  20
381.84393
  0
VERTEX
  5
453
  8
Layer_0
  10
-13.475281
  20
381.84393
  0
VERTEX
  5
454
  8
Layer_0
  10
-13.272705
  20
381.84393
  0
VERTEX
  5
455
  8
Layer_0
  10
-13.07019
  20
381.84393
  0
VERTEX
  5
456
  8
Layer_0
  10
-12.867615
  20
381.84393
  0
VERTEX
  5
457
  8
Layer_0
  10
-12.6651
  20
381.84393
  0
VERTEX
  5
458
  8
Layer_0
  10
-12.462524
  20
381.84393
  0
VERTEX
  5
459
  8
Layer_0
  10
-12.259949
  20
381.84393
  0
VERTEX
  5
45a
  8
Layer_0
  10
-12.057434
  20
381.84393
  0
VERTEX
  5
45b
  8
Layer_0
  10
-11.854858
  20
381.84393
  0
VERTEX
  5
45c
  8
Layer_0
  10
-11.652344
  20
381.84393
  0
VERTEX
  5
45d
  8
Layer_0
  10
-11.449768
  20
381.84393
  0
VERTEX
  5
45e
  8
Layer_0
  10
-11.247192
  20
381.84393
  0
VERTEX
  5
45f
  8
Layer_0
  10
-11.044678
  20
381.84393
  0
VERTEX
  5
460
  8
Layer_0
  10
-10.842102
  20
381.84393
  0
VERTEX
  5
461
  8
Layer_0
  10
-10.639587
  20
381.84393
  0
VERTEX
  5
462
  8
Layer_0
  10
-10.437012
  20
381.84393
  0
VERTEX
  5
463
  8
Layer_0
  10
-10.234436
  20
381.84393
  0
VERTEX
  5
464
  8
Layer_0
  10
-10.031921
  20
381.84393
  0
VERTEX
  5
465
  8
Layer_0
  10
-9.8293457
  20
381.84393
  0
VERTEX
  5
466
  8
Layer_0
  10
-9.6268311
  20
381.84393
  0
VERTEX
  5
467
  8
Layer_0
  10
-9.4242554
  20
381.84393
  0
VERTEX
  5
468
  8
Layer_0
  10
-9.2216797
  20
381.84393
  0
VERTEX
  5
469
  8
Layer_0
  10
-9.019165
  20
381.84393
  0
VERTEX
  5
46a
  8
Layer_0
  10
-8.8165894
  20
381.84393
  0
VERTEX
  5
46b
  8
Layer_0
  10
-8.6140747
  20
381.84393
  0
VERTEX
  5
46c
  8
Layer_0
  10
-8.411499
  20
381.84393
  0
VERTEX
  5
46d
  8
Layer_0
  10
-8.2089233
  20
381.84393
  0
VERTEX
  5
46e
  8
Layer_0
  10
-8.0064087
  20
381.84393
  0
VERTEX
  5
46f
  8
Layer_0
  10
-7.803833
  20
381.84393
  0
VERTEX
  5
470
  8
Layer_0
  10
-7.6013184
  20
381.84393
  0
VERTEX
  5
471
  8
Layer_0
  10
-7.3987427
  20
381.84393
  0
VERTEX
  5
472
  8
Layer_0
  10
-7.196167
  20
381.84393
  0
VERTEX
  5
473
  8
Layer_0
  10
-6.9936523
  20
381.84393
  0
VERTEX
  5
474
  8
Layer_0
  10
-6.7910767
  20
381.84393
  0
VERTEX
  5
475
  8
Layer_0
  10
-6.588562
  20
381.84393
  0
VERTEX
  5
476
  8
Layer_0
  10
-6.3859863
  20
381.84393
  0
VERTEX
  5
477
  8
Layer_0
  10
-6.3859863
  20
382.05823
  0
VERTEX
  5
478
  8
Layer_0
  10
-6.3859863
  20
382.27252
  0
VERTEX
  5
479
  8
Layer_0
  10
-6.3859863
  20
382.48682
  0
VERTEX
  5
47a
  8
Layer_0
  10
-6.3859863
  20
382.70105
  0
VERTEX
  5
47b
  8
Layer_0
  10
-6.3859863
  20
382.91534
  0
VERTEX
  5
47c
  8
Layer_0
  10
-6.3859863
  20
383.12964
  0
VERTEX
  5
47d
  8
Layer_0
  10
-6.3859863
  20
383.34393
  0
VERTEX
  5
47e
  8
Layer_0
  10
-6.3859863
  20
383.55823
  0
VERTEX
  5
47f
  8
Layer_0
  10
-6.3859863
  20
383.77252
  0
VERTEX
  5
480
  8
Layer_0
  10
-6.3859863
  20
383.98682
  0
VERTEX
  5
481
  8
Layer_0
  10
-6.3859863
  20
384.20105
  0
VERTEX
  5
482
  8
Layer_0
  10
-6.3859863
  20
384.41534
  0
VERTEX
  5
483
  8
Layer_0
  10
-6.3859863
  20
384.62964
  0
VERTEX
  5
484
  8
Layer_0
  10
-6.3859863
  20
384.84393
  0
VERTEX
  5
485
  8
Layer_0
  10
12.332642
  20
384.84393
  0
VERTEX
  5
486
  8
Layer_0
  10
12.332642
  20
384.62964
  0
VERTEX
  5
487
  8
Layer_0
  10
12.332642
  20
384.41534
  0
VERTEX
  5
488
  8
Layer_0
  10
12.332642
  20
384.20105
  0
VERTEX
  5
489
  8
Layer_0
  10
12.332642
  20
383.98682
  0
VERTEX
  5
48a
  8
Layer_0
  10
12.332642
  20
383.77252
  0
VERTEX
  5
48b
  8
Layer_0
  10
12.332642
  20
383.55823
  0
VERTEX
  5
48c
  8
Layer_0
  10
12.332642
  20
383.34393
  0
VERTEX
  5
48d
  8
Layer_0
  10
12.332642
  20
383.12964
  0
VERTEX
  5
48e
  8
Layer_0
  10
12.332642
  20
382.91534
  0
VERTEX
  5
48f
  8
Layer_0
  10
12.332642
  20
382.70105
  0
VERTEX
  5
490
  8
Layer_0
  10
12.332642
  20
382.48682
  0
VERTEX
  5
491
  8
Layer_0
  10
12.332642
  20
382.27252
  0
VERTEX
  5
492
  8
Layer_0
  10
12.332642
  20
382.05823
  0
VERTEX
  5
493
  8
Layer_0
  10
12.332642
  20
381.84393
  0
VERTEX
  5
494
  8
Layer_0
  10
12.535156
  20
381.84393
  0
VERTEX
  5
495
  8
Layer_0
  10
12.737732
  20
381.84393
  0
VERTEX
  5
496
  8
Layer_0
  10
12.940247
  20
381.84393
  0
VERTEX
  5
497
  8
Layer_0
  10
13.142822
  20
381.84393
  0
VERTEX
  5
498
  8
Layer_0
  10
13.345398
  20
381.84393
  0
VERTEX
  5
499
  8
Layer_0
  10
13.547913
  20
381.84393
  0
VERTEX
  5
49a
  8
Layer_0
  10
13.750488
  20
381.84393
  0
VERTEX
  5
49b
  8
Layer_0
  10
13.953003
  20
381.84393
  0
VERTEX
  5
49c
  8
Layer_0
  10
14.155579
  20
381.84393
  0
VERTEX
  5
49d
  8
Layer_0
  10
14.358154
  20
381.84393
  0
VERTEX
  5
49e
  8
Layer_0
  10
14.560669
  20
381.84393
  0
VERTEX
  5
49f
  8
Layer_0
  10
14.763245
  20
381.84393
  0
VERTEX
  5
4a0
  8
Layer_0
  10
14.965759
  20
381.84393
  0
VERTEX
  5
4a1
  8
Layer_0
  10
15.168335
  20
381.84393
  0
VERTEX
  5
4a2
  8
Layer_0
  10
15.37085
  20
381.84393
  0
VERTEX
  5
4a3
  8
Layer_0
  10
15.573425
  20
381.84393
  0
VERTEX
  5
4a4
  8
Layer_0
  10
15.776001
  20
381.84393
  0
VERTEX
  5
4a5
  8
Layer_0
  10
15.978516
  20
381.84393
  0
VERTEX
  5
4a6
  8
Layer_0
  10
16.181091
  20
381.84393
  0
VERTEX
  5
4a7
  8
Layer_0
  10
16.383606
  20
381.84393
  0
VERTEX
  5
4a8
  8
Layer_0
  10
16.586182
  20
381.84393
  0
VERTEX
  5
4a9
  8
Layer_0
  10
16.788757
  20
381.84393
  0
VERTEX
  5
4aa
  8
Layer_0
  10
16.991272
  20
381.84393
  0
VERTEX
  5
4ab
  8
Layer_0
  10
17.193848
  20
381.84393
  0
VERTEX
  5
4ac
  8
Layer_0
  10
17.396362
  20
381.84393
  0
VERTEX
  5
4ad
  8
Layer_0
  10
17.598938
  20
381.84393
  0
VERTEX
  5
4ae
  8
Layer_0
  10
17.801514
  20
381.84393
  0
VERTEX
  5
4af
  8
Layer_0
  10
18.004028
  20
381.84393
  0
VERTEX
  5
4b0
  8
Layer_0
  10
18.206604
  20
381.84393
  0
VERTEX
  5
4b1
  8
Layer_0
  10
18.409119
  20
381.84393
  0
VERTEX
  5
4b2
  8
Layer_0
  10
18.611694
  20
381.84393
  0
VERTEX
  5
4b3
  8
Layer_0
  10
18.81427
  20
381.84393
  0
VERTEX
  5
4b4
  8
Layer_0
  10
19.016785
  20
381.84393
  0
VERTEX
  5
4b5
  8
Layer_0
  10
19.21936
  20
381.84393
  0
VERTEX
  5
4b6
  8
Layer_0
  10
19.421875
  20
381.84393
  0
VERTEX
  5
4b7
  8
Layer_0
  10
19.624451
  20
381.84393
  0
VERTEX
  5
4b8
  8
Layer_0
  10
19.827026
  20
381.84393
  0
VERTEX
  5
4b9
  8
Layer_0
  10
20.029541
  20
381.84393
  0
VERTEX
  5
4ba
  8
Layer_0
  10
20.232117
  20
381.84393
  0
VERTEX
  5
4bb
  8
Layer_0
  10
20.434631
  20
381.84393
  0
VERTEX
  5
4bc
  8
Layer_0
  10
20.637207
  20
381.84393
  0
VERTEX
  5
4bd
  8
Layer_0
  10
20.839783
  20
381.84393
  0
VERTEX
  5
4be
  8
Layer_0
  10
21.042297
  20
381.84393
  0
VERTEX
  5
4bf
  8
Layer_0
  10
21.244873
  20
381.84393
  0
VERTEX
  5
4c0
  8
Layer_0
  10
21.447388
  20
381.84393
  0
VERTEX
  5
4c1
  8
Layer_0
  10
21.649963
  20
381.84393
  0
VERTEX
  5
4c2
  8
Layer_0
  10
21.852539
  20
381.84393
  0
VERTEX
  5
4c3
  8
Layer_0
  10
22.055054
  20
381.84393
  0
VERTEX
  5
4c4
  8
Layer_0
  10
22.257629
  20
381.84393
  0
VERTEX
  5
4c5
  8
Layer_0
  10
22.460144
  20
381.84393
  0
VERTEX
  5
4c6
  8
Layer_0
  10
22.66272
  20
381.84393
  0
VERTEX
  5
4c7
  8
Layer_0
  10
22.865295
  20
381.84393
  0
VERTEX
  5
4c8
  8
Layer_0
  10
23.06781
  20
381.84393
  0
VERTEX
  5
4c9
  8
Layer_0
  10
23.270386
  20
381.84393
  0
VERTEX
  5
4ca
  8
Layer_0
  10
23.4729
  20
381.84393
  0
VERTEX
  5
4cb
  8
Layer_0
  10
23.675476
  20
381.84393
  0
VERTEX
  5
4cc
  8
Layer_0
  10
23.878052
  20
381.84393
  0
VERTEX
  5
4cd
  8
Layer_0
  10
24.080566
  20
381.84393
  0
VERTEX
  5
4ce
  8
Layer_0
  10
24.283142
  20
381.84393
  0
VERTEX
  5
4cf
  8
Layer_0
  10
24.485657
  20
381.84393
  0
VERTEX
  5
4d0
  8
Layer_0
  10
24.688232
  20
381.84393
  0
VERTEX
  5
4d1
  8
Layer_0
  10
24.890747
  20
381.84393
  0
VERTEX
  5
4d2
  8
Layer_0
  10
25.093323
  20
381.84393
  0
VERTEX
  5
4d3
  8
Layer_0
  10
25.295898
  20
381.84393
  0
VERTEX
  5
4d4
  8
Layer_0
  10
25.498413
  20
381.84393
  0
VERTEX
  5
4d5
  8
Layer_0
  10
25.700989
  20
381.84393
  0
VERTEX
  5
4d6
  8
Layer_0
  10
25.903503
  20
381.84393
  0
VERTEX
  5
4d7
  8
Layer_0
  10
26.106079
  20
381.84393
  0
VERTEX
  5
4d8
  8
Layer_0
  10
26.308655
  20
381.84393
  0
VERTEX
  5
4d9
  8
Layer_0
  10
26.511169
  20
381.84393
  0
VERTEX
  5
4da
  8
Layer_0
  10
26.713745
  20
381.84393
  0
VERTEX
  5
4db
  8
Layer_0
  10
26.91626
  20
381.84393
  0
VERTEX
  5
4dc
  8
Layer_0
  10
27.118835
  20
381.84393
  0
VERTEX
  5
4dd
  8
Layer_0
  10
27.321411
  20
381.84393
  0
VERTEX
  5
4de
  8
Layer_0
  10
27.523926
  20
381.84393
  0
VERTEX
  5
4df
  8
Layer_0
  10
27.726501
  20
381.84393
  0
VERTEX
  5
4e0
  8
Layer_0
  10
27.929016
  20
381.84393
  0
VERTEX
  5
4e1
  8
Layer_0
  10
28.131592
  20
381.84393
  0
VERTEX
  5
4e2
  8
Layer_0
  10
28.334167
  20
381.84393
  0
VERTEX
  5
4e3
  8
Layer_0
  10
28.536682
  20
381.84393
  0
VERTEX
  5
4e4
  8
Layer_0
  10
28.739258
  20
381.84393
  0
VERTEX
  5
4e5
  8
Layer_0
  10
28.941772
  20
381.84393
  0
VERTEX
  5
4e6
  8
Layer_0
  10
29.144348
  20
381.84393
  0
VERTEX
  5
4e7
  8
Layer_0
  10
29.346924
  20
381.84393
  0
VERTEX
  5
4e8
  8
Layer_0
  10
29.549438
  20
381.84393
  0
VERTEX
  5
4e9
  8
Layer_0
  10
29.752014
  20
381.84393
  0
VERTEX
  5
4ea
  8
Layer_0
  10
29.954529
  20
381.84393
  0
VERTEX
  5
4eb
  8
Layer_0
  10
30.157104
  20
381.84393
  0
VERTEX
  5
4ec
  8
Layer_0
  10
30.35968
  20
381.84393
  0
VERTEX
  5
4ed
  8
Layer_0
  10
30.562195
  20
381.84393
  0
VERTEX
  5
4ee
  8
Layer_0
  10
30.764771
  20
381.84393
  0
VERTEX
  5
4ef
  8
Layer_0
  10
30.967285
  20
381.84393
  0
VERTEX
  5
4f0
  8
Layer_0
  10
31.169861
  20
381.84393
  0
VERTEX
  5
4f1
  8
Layer_0
  10
31.372437
  20
381.84393
  0
VERTEX
  5
4f2
  8
Layer_0
  10
31.574951
  20
381.84393
  0
VERTEX
  5
4f3
  8
Layer_0
  10
31.777527
  20
381.84393
  0
VERTEX
  5
4f4
  8
Layer_0
  10
31.980042
  20
381.84393
  0
VERTEX
  5
4f5
  8
Layer_0
  10
32.182617
  20
381.84393
  0
VERTEX
  5
4f6
  8
Layer_0
  10
32.182617
  20
382.05823
  0
VERTEX
  5
4f7
  8
Layer_0
  10
32.182617
  20
382.27252
  0
VERTEX
  5
4f8
  8
Layer_0
  10
32.182617
  20
382.48682
  0
VERTEX
  5
4f9
  8
Layer_0
  10
32.182617
  20
382.70105
  0
VERTEX
  5
4fa
  8
Layer_0
  10
32.182617
  20
382.91534
  0
VERTEX
  5
4fb
  8
Layer_0
  10
32.182617
  20
383.12964
  0
VERTEX
  5
4fc
  8
Layer_0
  10
32.182617
  20
383.34393
  0
VERTEX
  5
4fd
  8
Layer_0
  10
32.182617
  20
383.55823
  0
VERTEX
  5
4fe
  8
Layer_0
  10
32.182617
  20
383.77252
  0
VERTEX
  5
4ff
  8
Layer_0
  10
32.182617
  20
383.98682
  0
VERTEX
  5
500
  8
Layer_0
  10
32.182617
  20
384.20105
  0
VERTEX
  5
501
  8
Layer_0
  10
32.182617
  20
384.41534
  0
VERTEX
  5
502
  8
Layer_0
  10
32.182617
  20
384.62964
  0
VERTEX
  5
503
  8
Layer_0
  10
32.182617
  20
384.84393
  0
VERTEX
  5
504
  8
Layer_0
  10
48.878479
  20
384.84393
  0
VERTEX
  5
505
  8
Layer_0
  10
48.878479
  20
381.76892
  0
VERTEX
  5
506
  8
Layer_0
  10
48.878479
  20
381.56244
  0
VERTEX
  5
507
  8
Layer_0
  10
48.878479
  20
381.35596
  0
VERTEX
  5
508
  8
Layer_0
  10
48.878479
  20
381.14954
  0
VERTEX
  5
509
  8
Layer_0
  10
48.878479
  20
380.94305
  0
VERTEX
  5
50a
  8
Layer_0
  10
48.878479
  20
380.73657
  0
VERTEX
  5
50b
  8
Layer_0
  10
48.878479
  20
380.53009
  0
VERTEX
  5
50c
  8
Layer_0
  10
48.878479
  20
380.32361
  0
VERTEX
  5
50d
  8
Layer_0
  10
48.878479
  20
380.11713
  0
VERTEX
  5
50e
  8
Layer_0
  10
48.878479
  20
379.91064
  0
VERTEX
  5
50f
  8
Layer_0
  10
48.878479
  20
379.70416
  0
VERTEX
  5
510
  8
Layer_0
  10
48.878479
  20
379.49774
  0
VERTEX
  5
511
  8
Layer_0
  10
48.878479
  20
379.29126
  0
VERTEX
  5
512
  8
Layer_0
  10
48.878479
  20
379.08478
  0
VERTEX
  5
513
  8
Layer_0
  10
48.878479
  20
378.8783
  0
VERTEX
  5
514
  8
Layer_0
  10
48.878479
  20
378.67181
  0
VERTEX
  5
515
  8
Layer_0
  10
48.878479
  20
378.46533
  0
VERTEX
  5
516
  8
Layer_0
  10
48.878479
  20
378.25885
  0
VERTEX
  5
517
  8
Layer_0
  10
48.878479
  20
378.05243
  0
VERTEX
  5
518
  8
Layer_0
  10
48.878479
  20
377.84595
  0
VERTEX
  5
519
  8
Layer_0
  10
48.878479
  20
377.63947
  0
VERTEX
  5
51a
  8
Layer_0
  10
48.878479
  20
377.43298
  0
VERTEX
  5
51b
  8
Layer_0
  10
48.878479
  20
377.2265
  0
VERTEX
  5
51c
  8
Layer_0
  10
48.878479
  20
377.02002
  0
VERTEX
  5
51d
  8
Layer_0
  10
48.878479
  20
376.81354
  0
VERTEX
  5
51e
  8
Layer_0
  10
48.878479
  20
376.60712
  0
VERTEX
  5
51f
  8
Layer_0
  10
48.878479
  20
376.40063
  0
VERTEX
  5
520
  8
Layer_0
  10
48.878479
  20
376.19415
  0
VERTEX
  5
521
  8
Layer_0
  10
48.878479
  20
375.98767
  0
VERTEX
  5
522
  8
Layer_0
  10
48.878479
  20
375.78119
  0
VERTEX
  5
523
  8
Layer_0
  10
48.878479
  20
375.57471
  0
VERTEX
  5
524
  8
Layer_0
  10
48.878479
  20
375.36823
  0
VERTEX
  5
525
  8
Layer_0
  10
48.878479
  20
375.16174
  0
VERTEX
  5
526
  8
Layer_0
  10
48.878479
  20
374.95532
  0
VERTEX
  5
527
  8
Layer_0
  10
48.878479
  20
374.74884
  0
VERTEX
  5
528
  8
Layer_0
  10
48.878479
  20
374.54236
  0
VERTEX
  5
529
  8
Layer_0
  10
48.878479
  20
374.33588
  0
VERTEX
  5
52a
  8
Layer_0
  10
48.878479
  20
374.12939
  0
VERTEX
  5
52b
  8
Layer_0
  10
48.878479
  20
373.92291
  0
VERTEX
  5
52c
  8
Layer_0
  10
48.878479
  20
373.71643
  0
VERTEX
  5
52d
  8
Layer_0
  10
48.878479
  20
373.51001
  0
VERTEX
  5
52e
  8
Layer_0
  10
48.878479
  20
373.30353
  0
VERTEX
  5
52f
  8
Layer_0
  10
48.878479
  20
373.09705
  0
VERTEX
  5
530
  8
Layer_0
  10
48.878479
  20
372.89056
  0
VERTEX
  5
531
  8
Layer_0
  10
48.878479
  20
372.68408
  0
VERTEX
  5
532
  8
Layer_0
  10
48.878479
  20
372.4776
  0
VERTEX
  5
533
  8
Layer_0
  10
48.878479
  20
372.27112
  0
VERTEX
  5
534
  8
Layer_0
  10
48.878479
  20
372.0647
  0
VERTEX
  5
535
  8
Layer_0
  10
48.878479
  20
371.85822
  0
VERTEX
  5
536
  8
Layer_0
  10
48.878479
  20
371.65173
  0
VERTEX
  5
537
  8
Layer_0
  10
48.878479
  20
371.44525
  0
VERTEX
  5
538
  8
Layer_0
  10
48.878479
  20
371.23877
  0
VERTEX
  5
539
  8
Layer_0
  10
48.878479
  20
371.03229
  0
VERTEX
  5
53a
  8
Layer_0
  10
48.878479
  20
370.82581
  0
VERTEX
  5
53b
  8
Layer_0
  10
48.878479
  20
370.61932
  0
VERTEX
  5
53c
  8
Layer_0
  10
48.878479
  20
370.4129
  0
VERTEX
  5
53d
  8
Layer_0
  10
48.878479
  20
370.20642
  0
VERTEX
  5
53e
  8
Layer_0
  10
48.878479
  20
369.99994
  0
VERTEX
  5
53f
  8
Layer_0
  10
49.092712
  20
369.99994
  0
VERTEX
  5
540
  8
Layer_0
  10
49.307007
  20
369.99994
  0
VERTEX
  5
541
  8
Layer_0
  10
49.521301
  20
369.99994
  0
VERTEX
  5
542
  8
Layer_0
  10
49.735596
  20
369.99994
  0
VERTEX
  5
543
  8
Layer_0
  10
49.94989
  20
369.99994
  0
VERTEX
  5
544
  8
Layer_0
  10
50.164185
  20
369.99994
  0
VERTEX
  5
545
  8
Layer_0
  10
50.378479
  20
369.99994
  0
VERTEX
  5
546
  8
Layer_0
  10
50.592712
  20
369.99994
  0
VERTEX
  5
547
  8
Layer_0
  10
50.807007
  20
369.99994
  0
VERTEX
  5
548
  8
Layer_0
  10
51.021301
  20
369.99994
  0
VERTEX
  5
549
  8
Layer_0
  10
51.235596
  20
369.99994
  0
VERTEX
  5
54a
  8
Layer_0
  10
51.44989
  20
369.99994
  0
VERTEX
  5
54b
  8
Layer_0
  10
51.664185
  20
369.99994
  0
VERTEX
  5
54c
  8
Layer_0
  10
51.878479
  20
369.99994
  0
VERTEX
  5
54d
  8
Layer_0
  10
51.878479
  20
354.84991
  0
VERTEX
  5
54e
  8
Layer_0
  10
51.664185
  20
354.84991
  0
VERTEX
  5
54f
  8
Layer_0
  10
51.44989
  20
354.84991
  0
VERTEX
  5
550
  8
Layer_0
  10
51.235596
  20
354.84991
  0
VERTEX
  5
551
  8
Layer_0
  10
51.021301
  20
354.84991
  0
VERTEX
  5
552
  8
Layer_0
  10
50.807007
  20
354.84991
  0
VERTEX
  5
553
  8
Layer_0
  10
50.592712
  20
354.84991
  0
VERTEX
  5
554
  8
Layer_0
  10
50.378479
  20
354.84991
  0
VERTEX
  5
555
  8
Layer_0
  10
50.164185
  20
354.84991
  0
VERTEX
  5
556
  8
Layer_0
  10
49.94989
  20
354.84991
  0
VERTEX
  5
557
  8
Layer_0
  10
49.735596
  20
354.84991
  0
VERTEX
  5
558
  8
Layer_0
  10
49.521301
  20
354.84991
  0
VERTEX
  5
559
  8
Layer_0
  10
49.307007
  20
354.84991
  0
VERTEX
  5
55a
  8
Layer_0
  10
49.092712
  20
354.84991
  0
VERTEX
  5
55b
  8
Layer_0
  10
48.878479
  20
354.84991
  0
VERTEX
  5
55c
  8
Layer_0
  10
48.878479
  20
354.64716
  0
VERTEX
  5
55d
  8
Layer_0
  10
48.878479
  20
354.4444
  0
VERTEX
  5
55e
  8
Layer_0
  10
48.878479
  20
354.24164
  0
VERTEX
  5
55f
  8
Layer_0
  10
48.878479
  20
354.03882
  0
VERTEX
  5
560
  8
Layer_0
  10
48.878479
  20
353.83606
  0
VERTEX
  5
561
  8
Layer_0
  10
48.878479
  20
353.6333
  0
VERTEX
  5
562
  8
Layer_0
  10
48.878479
  20
353.43048
  0
VERTEX
  5
563
  8
Layer_0
  10
48.878479
  20
353.22772
  0
VERTEX
  5
564
  8
Layer_0
  10
48.878479
  20
353.02496
  0
VERTEX
  5
565
  8
Layer_0
  10
48.878479
  20
352.8222
  0
VERTEX
  5
566
  8
Layer_0
  10
48.878479
  20
352.61938
  0
VERTEX
  5
567
  8
Layer_0
  10
48.878479
  20
352.41663
  0
VERTEX
  5
568
  8
Layer_0
  10
48.878479
  20
352.21387
  0
VERTEX
  5
569
  8
Layer_0
  10
48.878479
  20
352.01111
  0
VERTEX
  5
56a
  8
Layer_0
  10
48.878479
  20
351.80829
  0
VERTEX
  5
56b
  8
Layer_0
  10
48.878479
  20
351.60553
  0
VERTEX
  5
56c
  8
Layer_0
  10
48.878479
  20
351.40277
  0
VERTEX
  5
56d
  8
Layer_0
  10
48.878479
  20
351.20001
  0
VERTEX
  5
56e
  8
Layer_0
  10
48.878479
  20
350.99719
  0
VERTEX
  5
56f
  8
Layer_0
  10
48.878479
  20
350.79443
  0
VERTEX
  5
570
  8
Layer_0
  10
48.878479
  20
350.59167
  0
VERTEX
  5
571
  8
Layer_0
  10
48.878479
  20
350.38892
  0
VERTEX
  5
572
  8
Layer_0
  10
48.878479
  20
350.1861
  0
VERTEX
  5
573
  8
Layer_0
  10
48.878479
  20
349.98334
  0
VERTEX
  5
574
  8
Layer_0
  10
48.878479
  20
349.78058
  0
VERTEX
  5
575
  8
Layer_0
  10
48.878479
  20
349.57782
  0
VERTEX
  5
576
  8
Layer_0
  10
48.878479
  20
349.375
  0
VERTEX
  5
577
  8
Layer_0
  10
48.878479
  20
349.17224
  0
VERTEX
  5
578
  8
Layer_0
  10
48.878479
  20
348.96948
  0
VERTEX
  5
579
  8
Layer_0
  10
48.878479
  20
348.76666
  0
VERTEX
  5
57a
  8
Layer_0
  10
48.878479
  20
348.5639
  0
VERTEX
  5
57b
  8
Layer_0
  10
48.878479
  20
348.36115
  0
VERTEX
  5
57c
  8
Layer_0
  10
48.878479
  20
348.15839
  0
VERTEX
  5
57d
  8
Layer_0
  10
48.878479
  20
347.95557
  0
VERTEX
  5
57e
  8
Layer_0
  10
48.878479
  20
347.75281
  0
VERTEX
  5
57f
  8
Layer_0
  10
48.878479
  20
347.55005
  0
VERTEX
  5
580
  8
Layer_0
  10
48.878479
  20
347.34729
  0
VERTEX
  5
581
  8
Layer_0
  10
48.878479
  20
347.14447
  0
VERTEX
  5
582
  8
Layer_0
  10
48.878479
  20
346.94171
  0
VERTEX
  5
583
  8
Layer_0
  10
48.878479
  20
346.73895
  0
VERTEX
  5
584
  8
Layer_0
  10
48.878479
  20
346.53619
  0
VERTEX
  5
585
  8
Layer_0
  10
48.878479
  20
346.33337
  0
VERTEX
  5
586
  8
Layer_0
  10
48.878479
  20
346.13062
  0
VERTEX
  5
587
  8
Layer_0
  10
48.878479
  20
345.92786
  0
VERTEX
  5
588
  8
Layer_0
  10
48.878479
  20
345.7251
  0
VERTEX
  5
589
  8
Layer_0
  10
48.878479
  20
345.52228
  0
VERTEX
  5
58a
  8
Layer_0
  10
48.878479
  20
345.31952
  0
VERTEX
  5
58b
  8
Layer_0
  10
48.878479
  20
345.11676
  0
VERTEX
  5
58c
  8
Layer_0
  10
48.878479
  20
344.914
  0
VERTEX
  5
58d
  8
Layer_0
  10
48.878479
  20
344.71118
  0
VERTEX
  5
58e
  8
Layer_0
  10
48.878479
  20
344.50842
  0
VERTEX
  5
58f
  8
Layer_0
  10
48.878479
  20
344.30566
  0
VERTEX
  5
590
  8
Layer_0
  10
48.878479
  20
344.10284
  0
VERTEX
  5
591
  8
Layer_0
  10
48.878479
  20
343.90009
  0
VERTEX
  5
592
  8
Layer_0
  10
48.878479
  20
343.69733
  0
VERTEX
  5
593
  8
Layer_0
  10
48.878479
  20
343.49457
  0
VERTEX
  5
594
  8
Layer_0
  10
48.878479
  20
343.29175
  0
VERTEX
  5
595
  8
Layer_0
  10
48.878479
  20
343.08899
  0
VERTEX
  5
596
  8
Layer_0
  10
48.878479
  20
342.88623
  0
VERTEX
  5
597
  8
Layer_0
  10
48.878479
  20
342.68347
  0
VERTEX
  5
598
  8
Layer_0
  10
48.878479
  20
342.48065
  0
VERTEX
  5
599
  8
Layer_0
  10
48.878479
  20
342.27789
  0
VERTEX
  5
59a
  8
Layer_0
  10
48.878479
  20
342.07513
  0
VERTEX
  5
59b
  8
Layer_0
  10
48.878479
  20
341.87238
  0
VERTEX
  5
59c
  8
Layer_0
  10
48.878479
  20
341.66956
  0
VERTEX
  5
59d
  8
Layer_0
  10
48.878479
  20
341.4668
  0
VERTEX
  5
59e
  8
Layer_0
  10
48.878479
  20
341.26404
  0
VERTEX
  5
59f
  8
Layer_0
  10
48.878479
  20
341.06128
  0
VERTEX
  5
5a0
  8
Layer_0
  10
48.878479
  20
340.85846
  0
VERTEX
  5
5a1
  8
Layer_0
  10
48.878479
  20
340.6557
  0
VERTEX
  5
5a2
  8
Layer_0
  10
48.878479
  20
340.45294
  0
VERTEX
  5
5a3
  8
Layer_0
  10
48.878479
  20
340.25018
  0
VERTEX
  5
5a4
  8
Layer_0
  10
48.878479
  20
340.04736
  0
VERTEX
  5
5a5
  8
Layer_0
  10
48.878479
  20
339.8446
  0
VERTEX
  5
5a6
  8
Layer_0
  10
48.878479
  20
339.64185
  0
VERTEX
  5
5a7
  8
Layer_0
  10
48.878479
  20
339.43903
  0
VERTEX
  5
5a8
  8
Layer_0
  10
48.878479
  20
339.23627
  0
VERTEX
  5
5a9
  8
Layer_0
  10
48.878479
  20
339.03351
  0
VERTEX
  5
5aa
  8
Layer_0
  10
48.878479
  20
338.83075
  0
VERTEX
  5
5ab
  8
Layer_0
  10
48.878479
  20
338.62793
  0
VERTEX
  5
5ac
  8
Layer_0
  10
48.878479
  20
338.42517
  0
VERTEX
  5
5ad
  8
Layer_0
  10
48.878479
  20
338.22241
  0
VERTEX
  5
5ae
  8
Layer_0
  10
49.092712
  20
338.22241
  0
VERTEX
  5
5af
  8
Layer_0
  10
49.307007
  20
338.22241
  0
VERTEX
  5
5b0
  8
Layer_0
  10
49.521301
  20
338.22241
  0
VERTEX
  5
5b1
  8
Layer_0
  10
49.735596
  20
338.22241
  0
VERTEX
  5
5b2
  8
Layer_0
  10
49.94989
  20
338.22241
  0
VERTEX
  5
5b3
  8
Layer_0
  10
50.164185
  20
338.22241
  0
VERTEX
  5
5b4
  8
Layer_0
  10
50.378479
  20
338.22241
  0
VERTEX
  5
5b5
  8
Layer_0
  10
50.592712
  20
338.22241
  0
VERTEX
  5
5b6
  8
Layer_0
  10
50.807007
  20
338.22241
  0
VERTEX
  5
5b7
  8
Layer_0
  10
51.021301
  20
338.22241
  0
VERTEX
  5
5b8
  8
Layer_0
  10
51.235596
  20
338.22241
  0
VERTEX
  5
5b9
  8
Layer_0
  10
51.44989
  20
338.22241
  0
VERTEX
  5
5ba
  8
Layer_0
  10
51.664185
  20
338.22241
  0
VERTEX
  5
5bb
  8
Layer_0
  10
51.878479
  20
338.22241
  0
VERTEX
  5
5bc
  8
Layer_0
  10
51.878479
  20
323.07239
  0
VERTEX
  5
5bd
  8
Layer_0
  10
51.664185
  20
323.07239
  0
VERTEX
  5
5be
  8
Layer_0
  10
51.44989
  20
323.07239
  0
VERTEX
  5
5bf
  8
Layer_0
  10
51.235596
  20
323.07239
  0
VERTEX
  5
5c0
  8
Layer_0
  10
51.021301
  20
323.07239
  0
VERTEX
  5
5c1
  8
Layer_0
  10
50.807007
  20
323.07239
  0
VERTEX
  5
5c2
  8
Layer_0
  10
50.592712
  20
323.07239
  0
VERTEX
  5
5c3
  8
Layer_0
  10
50.378479
  20
323.07239
  0
VERTEX
  5
5c4
  8
Layer_0
  10
50.164185
  20
323.07239
  0
VERTEX
  5
5c5
  8
Layer_0
  10
49.94989
  20
323.07239
  0
VERTEX
  5
5c6
  8
Layer_0
  10
49.735596
  20
323.07239
  0
VERTEX
  5
5c7
  8
Layer_0
  10
49.521301
  20
323.07239
  0
VERTEX
  5
5c8
  8
Layer_0
  10
49.307007
  20
323.07239
  0
VERTEX
  5
5c9
  8
Layer_0
  10
49.092712
  20
323.07239
  0
VERTEX
  5
5ca
  8
Layer_0
  10
48.878479
  20
323.07239
  0
VERTEX
  5
5cb
  8
Layer_0
  10
48.878479
  20
322.86859
  0
VERTEX
  5
5cc
  8
Layer_0
  10
48.878479
  20
322.66473
  0
VERTEX
  5
5cd
  8
Layer_0
  10
48.878479
  20
322.46094
  0
VERTEX
  5
5ce
  8
Layer_0
  10
48.878479
  20
322.25708
  0
VERTEX
  5
5cf
  8
Layer_0
  10
48.878479
  20
322.05328
  0
VERTEX
  5
5d0
  8
Layer_0
  10
48.878479
  20
321.84943
  0
VERTEX
  5
5d1
  8
Layer_0
  10
48.878479
  20
321.64557
  0
VERTEX
  5
5d2
  8
Layer_0
  10
48.878479
  20
321.44177
  0
VERTEX
  5
5d3
  8
Layer_0
  10
48.878479
  20
321.23792
  0
VERTEX
  5
5d4
  8
Layer_0
  10
48.878479
  20
321.03412
  0
VERTEX
  5
5d5
  8
Layer_0
  10
48.878479
  20
320.83026
  0
VERTEX
  5
5d6
  8
Layer_0
  10
48.878479
  20
320.62646
  0
VERTEX
  5
5d7
  8
Layer_0
  10
48.878479
  20
320.42261
  0
VERTEX
  5
5d8
  8
Layer_0
  10
48.878479
  20
320.21881
  0
VERTEX
  5
5d9
  8
Layer_0
  10
48.878479
  20
320.01495
  0
VERTEX
  5
5da
  8
Layer_0
  10
48.878479
  20
319.81116
  0
VERTEX
  5
5db
  8
Layer_0
  10
48.878479
  20
319.6073
  0
VERTEX
  5
5dc
  8
Layer_0
  10
48.878479
  20
319.4035
  0
VERTEX
  5
5dd
  8
Layer_0
  10
48.878479
  20
319.19965
  0
VERTEX
  5
5de
  8
Layer_0
  10
48.878479
  20
318.99579
  0
VERTEX
  5
5df
  8
Layer_0
  10
48.878479
  20
318.79199
  0
VERTEX
  5
5e0
  8
Layer_0
  10
48.878479
  20
318.58813
  0
VERTEX
  5
5e1
  8
Layer_0
  10
48.878479
  20
318.38434
  0
VERTEX
  5
5e2
  8
Layer_0
  10
48.878479
  20
318.18048
  0
VERTEX
  5
5e3
  8
Layer_0
  10
48.878479
  20
317.97668
  0
VERTEX
  5
5e4
  8
Layer_0
  10
48.878479
  20
317.77283
  0
VERTEX
  5
5e5
  8
Layer_0
  10
48.878479
  20
317.56903
  0
VERTEX
  5
5e6
  8
Layer_0
  10
48.878479
  20
317.36517
  0
VERTEX
  5
5e7
  8
Layer_0
  10
48.878479
  20
317.16138
  0
VERTEX
  5
5e8
  8
Layer_0
  10
48.878479
  20
316.95752
  0
VERTEX
  5
5e9
  8
Layer_0
  10
48.878479
  20
316.75366
  0
VERTEX
  5
5ea
  8
Layer_0
  10
48.878479
  20
316.54987
  0
VERTEX
  5
5eb
  8
Layer_0
  10
48.878479
  20
316.34601
  0
VERTEX
  5
5ec
  8
Layer_0
  10
48.878479
  20
316.14221
  0
VERTEX
  5
5ed
  8
Layer_0
  10
48.878479
  20
315.93835
  0
VERTEX
  5
5ee
  8
Layer_0
  10
48.878479
  20
315.73456
  0
VERTEX
  5
5ef
  8
Layer_0
  10
48.878479
  20
315.5307
  0
VERTEX
  5
5f0
  8
Layer_0
  10
48.878479
  20
315.3269
  0
VERTEX
  5
5f1
  8
Layer_0
  10
48.878479
  20
315.12305
  0
VERTEX
  5
5f2
  8
Layer_0
  10
48.878479
  20
314.91919
  0
VERTEX
  5
5f3
  8
Layer_0
  10
48.878479
  20
314.71539
  0
VERTEX
  5
5f4
  8
Layer_0
  10
48.878479
  20
314.51154
  0
VERTEX
  5
5f5
  8
Layer_0
  10
48.878479
  20
314.30774
  0
VERTEX
  5
5f6
  8
Layer_0
  10
48.878479
  20
314.10388
  0
VERTEX
  5
5f7
  8
Layer_0
  10
48.878479
  20
313.90009
  0
VERTEX
  5
5f8
  8
Layer_0
  10
48.878479
  20
313.69623
  0
VERTEX
  5
5f9
  8
Layer_0
  10
48.878479
  20
313.49243
  0
VERTEX
  5
5fa
  8
Layer_0
  10
48.878479
  20
313.28857
  0
VERTEX
  5
5fb
  8
Layer_0
  10
48.878479
  20
313.08478
  0
VERTEX
  5
5fc
  8
Layer_0
  10
48.878479
  20
312.88092
  0
VERTEX
  5
5fd
  8
Layer_0
  10
48.878479
  20
312.67706
  0
VERTEX
  5
5fe
  8
Layer_0
  10
48.878479
  20
312.47327
  0
VERTEX
  5
5ff
  8
Layer_0
  10
48.878479
  20
312.26941
  0
VERTEX
  5
600
  8
Layer_0
  10
48.878479
  20
312.06561
  0
VERTEX
  5
601
  8
Layer_0
  10
48.878479
  20
311.86176
  0
VERTEX
  5
602
  8
Layer_0
  10
48.878479
  20
311.65796
  0
VERTEX
  5
603
  8
Layer_0
  10
48.878479
  20
311.4541
  0
VERTEX
  5
604
  8
Layer_0
  10
48.878479
  20
311.25031
  0
VERTEX
  5
605
  8
Layer_0
  10
48.878479
  20
311.04645
  0
VERTEX
  5
606
  8
Layer_0
  10
48.878479
  20
310.84265
  0
VERTEX
  5
607
  8
Layer_0
  10
48.878479
  20
310.63879
  0
VERTEX
  5
608
  8
Layer_0
  10
48.878479
  20
310.43494
  0
VERTEX
  5
609
  8
Layer_0
  10
48.878479
  20
310.23114
  0
VERTEX
  5
60a
  8
Layer_0
  10
48.878479
  20
307.15613
  0
VERTEX
  5
60b
  8
Layer_0
  10
32.182617
  20
307.15613
  0
VERTEX
  5
60c
  8
Layer_0
  10
32.182617
  20
307.3869
  0
VERTEX
  5
60d
  8
Layer_0
  10
32.182617
  20
307.61768
  0
VERTEX
  5
60e
  8
Layer_0
  10
32.182617
  20
307.84845
  0
VERTEX
  5
60f
  8
Layer_0
  10
32.182617
  20
308.07922
  0
VERTEX
  5
610
  8
Layer_0
  10
32.182617
  20
308.31
  0
VERTEX
  5
611
  8
Layer_0
  10
32.182617
  20
308.54077
  0
VERTEX
  5
612
  8
Layer_0
  10
32.182617
  20
308.77155
  0
VERTEX
  5
613
  8
Layer_0
  10
32.182617
  20
309.00232
  0
VERTEX
  5
614
  8
Layer_0
  10
32.182617
  20
309.23303
  0
VERTEX
  5
615
  8
Layer_0
  10
32.182617
  20
309.46381
  0
VERTEX
  5
616
  8
Layer_0
  10
32.182617
  20
309.69458
  0
VERTEX
  5
617
  8
Layer_0
  10
32.182617
  20
309.92535
  0
VERTEX
  5
618
  8
Layer_0
  10
32.182617
  20
310.15613
  0
VERTEX
  5
619
  8
Layer_0
  10
31.980042
  20
310.15613
  0
VERTEX
  5
61a
  8
Layer_0
  10
31.777527
  20
310.15613
  0
VERTEX
  5
61b
  8
Layer_0
  10
31.574951
  20
310.15613
  0
VERTEX
  5
61c
  8
Layer_0
  10
31.372437
  20
310.15613
  0
VERTEX
  5
61d
  8
Layer_0
  10
31.169861
  20
310.15613
  0
VERTEX
  5
61e
  8
Layer_0
  10
30.967285
  20
310.15613
  0
VERTEX
  5
61f
  8
Layer_0
  10
30.764771
  20
310.15613
  0
VERTEX
  5
620
  8
Layer_0
  10
30.562195
  20
310.15613
  0
VERTEX
  5
621
  8
Layer_0
  10
30.35968
  20
310.15613
  0
VERTEX
  5
622
  8
Layer_0
  10
30.157104
  20
310.15613
  0
VERTEX
  5
623
  8
Layer_0
  10
29.954529
  20
310.15613
  0
VERTEX
  5
624
  8
Layer_0
  10
29.752014
  20
310.15613
  0
VERTEX
  5
625
  8
Layer_0
  10
29.549438
  20
310.15613
  0
VERTEX
  5
626
  8
Layer_0
  10
29.346924
  20
310.15613
  0
VERTEX
  5
627
  8
Layer_0
  10
29.144348
  20
310.15613
  0
VERTEX
  5
628
  8
Layer_0
  10
28.941772
  20
310.15613
  0
VERTEX
  5
629
  8
Layer_0
  10
28.739258
  20
310.15613
  0
VERTEX
  5
62a
  8
Layer_0
  10
28.536682
  20
310.15613
  0
VERTEX
  5
62b
  8
Layer_0
  10
28.334167
  20
310.15613
  0
VERTEX
  5
62c
  8
Layer_0
  10
28.131592
  20
310.15613
  0
VERTEX
  5
62d
  8
Layer_0
  10
27.929016
  20
310.15613
  0
VERTEX
  5
62e
  8
Layer_0
  10
27.726501
  20
310.15613
  0
VERTEX
  5
62f
  8
Layer_0
  10
27.523926
  20
310.15613
  0
VERTEX
  5
630
  8
Layer_0
  10
27.321411
  20
310.15613
  0
VERTEX
  5
631
  8
Layer_0
  10
27.118835
  20
310.15613
  0
VERTEX
  5
632
  8
Layer_0
  10
26.91626
  20
310.15613
  0
VERTEX
  5
633
  8
Layer_0
  10
26.713745
  20
310.15613
  0
VERTEX
  5
634
  8
Layer_0
  10
26.511169
  20
310.15613
  0
VERTEX
  5
635
  8
Layer_0
  10
26.308655
  20
310.15613
  0
VERTEX
  5
636
  8
Layer_0
  10
26.106079
  20
310.15613
  0
VERTEX
  5
637
  8
Layer_0
  10
25.903503
  20
310.15613
  0
VERTEX
  5
638
  8
Layer_0
  10
25.700989
  20
310.15613
  0
VERTEX
  5
639
  8
Layer_0
  10
25.498413
  20
310.15613
  0
VERTEX
  5
63a
  8
Layer_0
  10
25.295898
  20
310.15613
  0
VERTEX
  5
63b
  8
Layer_0
  10
25.093323
  20
310.15613
  0
VERTEX
  5
63c
  8
Layer_0
  10
24.890747
  20
310.15613
  0
VERTEX
  5
63d
  8
Layer_0
  10
24.688232
  20
310.15613
  0
VERTEX
  5
63e
  8
Layer_0
  10
24.485657
  20
310.15613
  0
VERTEX
  5
63f
  8
Layer_0
  10
24.283142
  20
310.15613
  0
VERTEX
  5
640
  8
Layer_0
  10
24.080566
  20
310.15613
  0
VERTEX
  5
641
  8
Layer_0
  10
23.878052
  20
310.15613
  0
VERTEX
  5
642
  8
Layer_0
  10
23.675476
  20
310.15613
  0
VERTEX
  5
643
  8
Layer_0
  10
23.4729
  20
310.15613
  0
VERTEX
  5
644
  8
Layer_0
  10
23.270386
  20
310.15613
  0
VERTEX
  5
645
  8
Layer_0
  10
23.06781
  20
310.15613
  0
VERTEX
  5
646
  8
Layer_0
  10
22.865295
  20
310.15613
  0
VERTEX
  5
647
  8
Layer_0
  10
22.66272
  20
310.15613
  0
VERTEX
  5
648
  8
Layer_0
  10
22.460144
  20
310.15613
  0
VERTEX
  5
649
  8
Layer_0
  10
22.257629
  20
310.15613
  0
VERTEX
  5
64a
  8
Layer_0
  10
22.055054
  20
310.15613
  0
VERTEX
  5
64b
  8
Layer_0
  10
21.852539
  20
310.15613
  0
VERTEX
  5
64c
  8
Layer_0
  10
21.649963
  20
310.15613
  0
VERTEX
  5
64d
  8
Layer_0
  10
21.447388
  20
310.15613
  0
VERTEX
  5
64e
  8
Layer_0
  10
21.244873
  20
310.15613
  0
VERTEX
  5
64f
  8
Layer_0
  10
21.042297
  20
310.15613
  0
VERTEX
  5
650
  8
Layer_0
  10
20.839783
  20
310.15613
  0
VERTEX
  5
651
  8
Layer_0
  10
20.637207
  20
310.15613
  0
VERTEX
  5
652
  8
Layer_0
  10
20.434631
  20
310.15613
  0
VERTEX
  5
653
  8
Layer_0
  10
20.232117
  20
310.15613
  0
VERTEX
  5
654
  8
Layer_0
  10
20.029541
  20
310.15613
  0
VERTEX
  5
655
  8
Layer_0
  10
19.827026
  20
310.15613
  0
VERTEX
  5
656
  8
Layer_0
  10
19.624451
  20
310.15613
  0
VERTEX
  5
657
  8
Layer_0
  10
19.421875
  20
310.15613
  0
VERTEX
  5
658
  8
Layer_0
  10
19.21936
  20
310.15613
  0
VERTEX
  5
659
  8
Layer_0
  10
19.016785
  20
310.15613
  0
VERTEX
  5
65a
  8
Layer_0
  10
18.81427
  20
310.15613
  0
VERTEX
  5
65b
  8
Layer_0
  10
18.611694
  20
310.15613
  0
VERTEX
  5
65c
  8
Layer_0
  10
18.409119
  20
310.15613
  0
VERTEX
  5
65d
  8
Layer_0
  10
18.206604
  20
310.15613
  0
VERTEX
  5
65e
  8
Layer_0
  10
18.004028
  20
310.15613
  0
VERTEX
  5
65f
  8
Layer_0
  10
17.801514
  20
310.15613
  0
VERTEX
  5
660
  8
Layer_0
  10
17.598938
  20
310.15613
  0
VERTEX
  5
661
  8
Layer_0
  10
17.396362
  20
310.15613
  0
VERTEX
  5
662
  8
Layer_0
  10
17.193848
  20
310.15613
  0
VERTEX
  5
663
  8
Layer_0
  10
16.991272
  20
310.15613
  0
VERTEX
  5
664
  8
Layer_0
  10
16.788757
  20
310.15613
  0
VERTEX
  5
665
  8
Layer_0
  10
16.586182
  20
310.15613
  0
VERTEX
  5
666
  8
Layer_0
  10
16.383606
  20
310.15613
  0
VERTEX
  5
667
  8
Layer_0
  10
16.181091
  20
310.15613
  0
VERTEX
  5
668
  8
Layer_0
  10
15.978516
  20
310.15613
  0
VERTEX
  5
669
  8
Layer_0
  10
15.776001
  20
310.15613
  0
VERTEX
  5
66a
  8
Layer_0
  10
15.573425
  20
310.15613
  0
VERTEX
  5
66b
  8
Layer_0
  10
15.37085
  20
310.15613
  0
VERTEX
  5
66c
  8
Layer_0
  10
15.168335
  20
310.15613
  0
VERTEX
  5
66d
  8
Layer_0
  10
14.965759
  20
310.15613
  0
VERTEX
  5
66e
  8
Layer_0
  10
14.763245
  20
310.15613
  0
VERTEX
  5
66f
  8
Layer_0
  10
14.560669
  20
310.15613
  0
VERTEX
  5
670
  8
Layer_0
  10
14.358154
  20
310.15613
  0
VERTEX
  5
671
  8
Layer_0
  10
14.155579
  20
310.15613
  0
VERTEX
  5
672
  8
Layer_0
  10
13.953003
  20
310.15613
  0
VERTEX
  5
673
  8
Layer_0
  10
13.750488
  20
310.15613
  0
VERTEX
  5
674
  8
Layer_0
  10
13.547913
  20
310.15613
  0
VERTEX
  5
675
  8
Layer_0
  10
13.345398
  20
310.15613
  0
VERTEX
  5
676
  8
Layer_0
  10
13.142822
  20
310.15613
  0
VERTEX
  5
677
  8
Layer_0
  10
12.940247
  20
310.15613
  0
VERTEX
  5
678
  8
Layer_0
  10
12.737732
  20
310.15613
  0
VERTEX
  5
679
  8
Layer_0
  10
12.535156
  20
310.15613
  0
VERTEX
  5
67a
  8
Layer_0
  10
12.332642
  20
310.15613
  0
VERTEX
  5
67b
  8
Layer_0
  10
12.332642
  20
309.94183
  0
VERTEX
  5
67c
  8
Layer_0
  10
12.332642
  20
309.72754
  0
VERTEX
  5
67d
  8
Layer_0
  10
12.332642
  20
309.51331
  0
VERTEX
  5
67e
  8
Layer_0
  10
12.332642
  20
309.29901
  0
VERTEX
  5
67f
  8
Layer_0
  10
12.332642
  20
309.08472
  0
VERTEX
  5
680
  8
Layer_0
  10
12.332642
  20
308.87042
  0
VERTEX
  5
681
  8
Layer_0
  10
12.332642
  20
308.65613
  0
VERTEX
  5
682
  8
Layer_0
  10
12.332642
  20
308.44183
  0
VERTEX
  5
683
  8
Layer_0
  10
12.332642
  20
308.22754
  0
VERTEX
  5
684
  8
Layer_0
  10
12.332642
  20
308.01331
  0
VERTEX
  5
685
  8
Layer_0
  10
12.332642
  20
307.79901
  0
VERTEX
  5
686
  8
Layer_0
  10
12.332642
  20
307.58472
  0
VERTEX
  5
687
  8
Layer_0
  10
12.332642
  20
307.37042
  0
VERTEX
  5
688
  8
Layer_0
  10
12.332642
  20
307.15613
  0
VERTEX
  5
689
  8
Layer_0
  10
-6.3859863
  20
307.15613
  0
VERTEX
  5
68a
  8
Layer_0
  10
-6.3859863
  20
307.37042
  0
VERTEX
  5
68b
  8
Layer_0
  10
-6.3859863
  20
307.58472
  0
VERTEX
  5
68c
  8
Layer_0
  10
-6.3859863
  20
307.79901
  0
VERTEX
  5
68d
  8
Layer_0
  10
-6.3859863
  20
308.01331
  0
VERTEX
  5
68e
  8
Layer_0
  10
-6.3859863
  20
308.22754
  0
VERTEX
  5
68f
  8
Layer_0
  10
-6.3859863
  20
308.44183
  0
VERTEX
  5
690
  8
Layer_0
  10
-6.3859863
  20
308.65613
  0
VERTEX
  5
691
  8
Layer_0
  10
-6.3859863
  20
308.87042
  0
VERTEX
  5
692
  8
Layer_0
  10
-6.3859863
  20
309.08472
  0
VERTEX
  5
693
  8
Layer_0
  10
-6.3859863
  20
309.29901
  0
VERTEX
  5
694
  8
Layer_0
  10
-6.3859863
  20
309.51331
  0
VERTEX
  5
695
  8
Layer_0
  10
-6.3859863
  20
309.72754
  0
VERTEX
  5
696
  8
Layer_0
  10
-6.3859863
  20
309.94183
  0
VERTEX
  5
697
  8
Layer_0
  10
-6.3859863
  20
310.15613
  0
VERTEX
  5
698
  8
Layer_0
  10
-6.588562
  20
310.15613
  0
VERTEX
  5
699
  8
Layer_0
  10
-6.7910767
  20
310.15613
  0
VERTEX
  5
69a
  8
Layer_0
  10
-6.9936523
  20
310.15613
  0
VERTEX
  5
69b
  8
Layer_0
  10
-7.196167
  20
310.15613
  0
VERTEX
  5
69c
  8
Layer_0
  10
-7.3987427
  20
310.15613
  0
VERTEX
  5
69d
  8
Layer_0
  10
-7.6013184
  20
310.15613
  0
VERTEX
  5
69e
  8
Layer_0
  10
-7.803833
  20
310.15613
  0
VERTEX
  5
69f
  8
Layer_0
  10
-8.0064087
  20
310.15613
  0
VERTEX
  5
6a0
  8
Layer_0
  10
-8.2089233
  20
310.15613
  0
VERTEX
  5
6a1
  8
Layer_0
  10
-8.411499
  20
310.15613
  0
VERTEX
  5
6a2
  8
Layer_0
  10
-8.6140747
  20
310.15613
  0
VERTEX
  5
6a3
  8
Layer_0
  10
-8.8165894
  20
310.15613
  0
VERTEX
  5
6a4
  8
Layer_0
  10
-9.019165
  20
310.15613
  0
VERTEX
  5
6a5
  8
Layer_0
  10
-9.2216797
  20
310.15613
  0
VERTEX
  5
6a6
  8
Layer_0
  10
-9.4242554
  20
310.15613
  0
VERTEX
  5
6a7
  8
Layer_0
  10
-9.6268311
  20
310.15613
  0
VERTEX
  5
6a8
  8
Layer_0
  10
-9.8293457
  20
310.15613
  0
VERTEX
  5
6a9
  8
Layer_0
  10
-10.031921
  20
310.15613
  0
VERTEX
  5
6aa
  8
Layer_0
  10
-10.234436
  20
310.15613
  0
VERTEX
  5
6ab
  8
Layer_0
  10
-10.437012
  20
310.15613
  0
VERTEX
  5
6ac
  8
Layer_0
  10
-10.639587
  20
310.15613
  0
VERTEX
  5
6ad
  8
Layer_0
  10
-10.842102
  20
310.15613
  0
VERTEX
  5
6ae
  8
Layer_0
  10
-11.044678
  20
310.15613
  0
VERTEX
  5
6af
  8
Layer_0
  10
-11.247192
  20
310.15613
  0
VERTEX
  5
6b0
  8
Layer_0
  10
-11.449768
  20
310.15613
  0
VERTEX
  5
6b1
  8
Layer_0
  10
-11.652344
  20
310.15613
  0
VERTEX
  5
6b2
  8
Layer_0
  10
-11.854858
  20
310.15613
  0
VERTEX
  5
6b3
  8
Layer_0
  10
-12.057434
  20
310.15613
  0
VERTEX
  5
6b4
  8
Layer_0
  10
-12.259949
  20
310.15613
  0
VERTEX
  5
6b5
  8
Layer_0
  10
-12.462524
  20
310.15613
  0
VERTEX
  5
6b6
  8
Layer_0
  10
-12.6651
  20
310.15613
  0
VERTEX
  5
6b7
  8
Layer_0
  10
-12.867615
  20
310.15613
  0
VERTEX
  5
6b8
  8
Layer_0
  10
-13.07019
  20
310.15613
  0
VERTEX
  5
6b9
  8
Layer_0
  10
-13.272705
  20
310.15613
  0
VERTEX
  5
6ba
  8
Layer_0
  10
-13.475281
  20
310.15613
  0
VERTEX
  5
6bb
  8
Layer_0
  10
-13.677856
  20
310.15613
  0
VERTEX
  5
6bc
  8
Layer_0
  10
-13.880371
  20
310.15613
  0
VERTEX
  5
6bd
  8
Layer_0
  10
-14.082947
  20
310.15613
  0
VERTEX
  5
6be
  8
Layer_0
  10
-14.285461
  20
310.15613
  0
VERTEX
  5
6bf
  8
Layer_0
  10
-14.488037
  20
310.15613
  0
VERTEX
  5
6c0
  8
Layer_0
  10
-14.690552
  20
310.15613
  0
VERTEX
  5
6c1
  8
Layer_0
  10
-14.893127
  20
310.15613
  0
VERTEX
  5
6c2
  8
Layer_0
  10
-15.095703
  20
310.15613
  0
VERTEX
  5
6c3
  8
Layer_0
  10
-15.298218
  20
310.15613
  0
VERTEX
  5
6c4
  8
Layer_0
  10
-15.500793
  20
310.15613
  0
VERTEX
  5
6c5
  8
Layer_0
  10
-15.703308
  20
310.15613
  0
VERTEX
  5
6c6
  8
Layer_0
  10
-15.905884
  20
310.15613
  0
VERTEX
  5
6c7
  8
Layer_0
  10
-16.108459
  20
310.15613
  0
VERTEX
  5
6c8
  8
Layer_0
  10
-16.310974
  20
310.15613
  0
VERTEX
  5
6c9
  8
Layer_0
  10
-16.51355
  20
310.15613
  0
VERTEX
  5
6ca
  8
Layer_0
  10
-16.716064
  20
310.15613
  0
VERTEX
  5
6cb
  8
Layer_0
  10
-16.91864
  20
310.15613
  0
VERTEX
  5
6cc
  8
Layer_0
  10
-17.121216
  20
310.15613
  0
VERTEX
  5
6cd
  8
Layer_0
  10
-17.32373
  20
310.15613
  0
VERTEX
  5
6ce
  8
Layer_0
  10
-17.526306
  20
310.15613
  0
VERTEX
  5
6cf
  8
Layer_0
  10
-17.728821
  20
310.15613
  0
VERTEX
  5
6d0
  8
Layer_0
  10
-17.931396
  20
310.15613
  0
VERTEX
  5
6d1
  8
Layer_0
  10
-18.133911
  20
310.15613
  0
VERTEX
  5
6d2
  8
Layer_0
  10
-18.336487
  20
310.15613
  0
VERTEX
  5
6d3
  8
Layer_0
  10
-18.539063
  20
310.15613
  0
VERTEX
  5
6d4
  8
Layer_0
  10
-18.741577
  20
310.15613
  0
VERTEX
  5
6d5
  8
Layer_0
  10
-18.944153
  20
310.15613
  0
VERTEX
  5
6d6
  8
Layer_0
  10
-19.146667
  20
310.15613
  0
VERTEX
  5
6d7
  8
Layer_0
  10
-19.349243
  20
310.15613
  0
VERTEX
  5
6d8
  8
Layer_0
  10
-19.551819
  20
310.15613
  0
VERTEX
  5
6d9
  8
Layer_0
  10
-19.754333
  20
310.15613
  0
VERTEX
  5
6da
  8
Layer_0
  10
-19.956909
  20
310.15613
  0
VERTEX
  5
6db
  8
Layer_0
  10
-20.159424
  20
310.15613
  0
VERTEX
  5
6dc
  8
Layer_0
  10
-20.362
  20
310.15613
  0
VERTEX
  5
6dd
  8
Layer_0
  10
-20.564575
  20
310.15613
  0
VERTEX
  5
6de
  8
Layer_0
  10
-20.76709
  20
310.15613
  0
VERTEX
  5
6df
  8
Layer_0
  10
-20.969666
  20
310.15613
  0
VERTEX
  5
6e0
  8
Layer_0
  10
-21.17218
  20
310.15613
  0
VERTEX
  5
6e1
  8
Layer_0
  10
-21.374756
  20
310.15613
  0
VERTEX
  5
6e2
  8
Layer_0
  10
-21.577271
  20
310.15613
  0
VERTEX
  5
6e3
  8
Layer_0
  10
-21.779846
  20
310.15613
  0
VERTEX
  5
6e4
  8
Layer_0
  10
-21.982422
  20
310.15613
  0
VERTEX
  5
6e5
  8
Layer_0
  10
-22.184937
  20
310.15613
  0
VERTEX
  5
6e6
  8
Layer_0
  10
-22.387512
  20
310.15613
  0
VERTEX
  5
6e7
  8
Layer_0
  10
-22.590027
  20
310.15613
  0
VERTEX
  5
6e8
  8
Layer_0
  10
-22.792603
  20
310.15613
  0
VERTEX
  5
6e9
  8
Layer_0
  10
-22.995178
  20
310.15613
  0
VERTEX
  5
6ea
  8
Layer_0
  10
-23.197693
  20
310.15613
  0
VERTEX
  5
6eb
  8
Layer_0
  10
-23.400269
  20
310.15613
  0
VERTEX
  5
6ec
  8
Layer_0
  10
-23.602783
  20
310.15613
  0
VERTEX
  5
6ed
  8
Layer_0
  10
-23.805359
  20
310.15613
  0
VERTEX
  5
6ee
  8
Layer_0
  10
-24.007935
  20
310.15613
  0
VERTEX
  5
6ef
  8
Layer_0
  10
-24.210449
  20
310.15613
  0
VERTEX
  5
6f0
  8
Layer_0
  10
-24.413025
  20
310.15613
  0
VERTEX
  5
6f1
  8
Layer_0
  10
-24.61554
  20
310.15613
  0
VERTEX
  5
6f2
  8
Layer_0
  10
-24.818115
  20
310.15613
  0
VERTEX
  5
6f3
  8
Layer_0
  10
-25.020691
  20
310.15613
  0
VERTEX
  5
6f4
  8
Layer_0
  10
-25.223206
  20
310.15613
  0
VERTEX
  5
6f5
  8
Layer_0
  10
-25.425781
  20
310.15613
  0
VERTEX
  5
6f6
  8
Layer_0
  10
-25.628296
  20
310.15613
  0
VERTEX
  5
6f7
  8
Layer_0
  10
-25.830872
  20
310.15613
  0
VERTEX
  5
6f8
  8
Layer_0
  10
-26.033447
  20
310.15613
  0
VERTEX
  5
6f9
  8
Layer_0
  10
-26.235962
  20
310.15613
  0
VERTEX
  5
6fa
  8
Layer_0
  10
-26.235962
  20
309.94183
  0
VERTEX
  5
6fb
  8
Layer_0
  10
-26.235962
  20
309.72754
  0
VERTEX
  5
6fc
  8
Layer_0
  10
-26.235962
  20
309.51331
  0
VERTEX
  5
6fd
  8
Layer_0
  10
-26.235962
  20
309.29901
  0
VERTEX
  5
6fe
  8
Layer_0
  10
-26.235962
  20
309.08472
  0
VERTEX
  5
6ff
  8
Layer_0
  10
-26.235962
  20
308.87042
  0
VERTEX
  5
700
  8
Layer_0
  10
-26.235962
  20
308.65613
  0
VERTEX
  5
701
  8
Layer_0
  10
-26.235962
  20
308.44183
  0
VERTEX
  5
702
  8
Layer_0
  10
-26.235962
  20
308.22754
  0
VERTEX
  5
703
  8
Layer_0
  10
-26.235962
  20
308.01331
  0
VERTEX
  5
704
  8
Layer_0
  10
-26.235962
  20
307.79901
  0
VERTEX
  5
705
  8
Layer_0
  10
-26.235962
  20
307.58472
  0
VERTEX
  5
706
  8
Layer_0
  10
-26.235962
  20
307.37042
  0
VERTEX
  5
707
  8
Layer_0
  10
-26.235962
  20
307.15613
  0
VERTEX
  5
708
  8
Layer_0
  10
-44.954651
  20
307.15613
  0
VERTEX
  5
709
  8
Layer_0
  10
-44.954651
  20
307.37042
  0
VERTEX
  5
70a
  8
Layer_0
  10
-44.954651
  20
307.58472
  0
VERTEX
  5
70b
  8
Layer_0
  10
-44.954651
  20
307.79901
  0
VERTEX
  5
70c
  8
Layer_0
  10
-44.954651
  20
308.01331
  0
VERTEX
  5
70d
  8
Layer_0
  10
-44.954651
  20
308.22754
  0
VERTEX
  5
70e
  8
Layer_0
  10
-44.954651
  20
308.44183
  0
VERTEX
  5
70f
  8
Layer_0
  10
-44.954651
  20
308.65613
  0
VERTEX
  5
710
  8
Layer_0
  10
-44.954651
  20
308.87042
  0
VERTEX
  5
711
  8
Layer_0
  10
-44.954651
  20
309.08472
  0
VERTEX
  5
712
  8
Layer_0
  10
-44.954651
  20
309.29901
  0
VERTEX
  5
713
  8
Layer_0
  10
-44.954651
  20
309.51331
  0
VERTEX
  5
714
  8
Layer_0
  10
-44.954651
  20
309.72754
  0
VERTEX
  5
715
  8
Layer_0
  10
-44.954651
  20
309.94183
  0
VERTEX
  5
716
  8
Layer_0
  10
-44.954651
  20
310.15613
  0
VERTEX
  5
717
  8
Layer_0
  10
-45.157166
  20
310.15613
  0
VERTEX
  5
718
  8
Layer_0
  10
-45.359741
  20
310.15613
  0
VERTEX
  5
719
  8
Layer_0
  10
-45.562317
  20
310.15613
  0
VERTEX
  5
71a
  8
Layer_0
  10
-45.764832
  20
310.15613
  0
VERTEX
  5
71b
  8
Layer_0
  10
-45.967407
  20
310.15613
  0
VERTEX
  5
71c
  8
Layer_0
  10
-46.169922
  20
310.15613
  0
VERTEX
  5
71d
  8
Layer_0
  10
-46.372498
  20
310.15613
  0
VERTEX
  5
71e
  8
Layer_0
  10
-46.575073
  20
310.15613
  0
VERTEX
  5
71f
  8
Layer_0
  10
-46.777588
  20
310.15613
  0
VERTEX
  5
720
  8
Layer_0
  10
-46.980164
  20
310.15613
  0
VERTEX
  5
721
  8
Layer_0
  10
-47.182678
  20
310.15613
  0
VERTEX
  5
722
  8
Layer_0
  10
-47.385254
  20
310.15613
  0
VERTEX
  5
723
  8
Layer_0
  10
-47.58783
  20
310.15613
  0
VERTEX
  5
724
  8
Layer_0
  10
-47.790344
  20
310.15613
  0
VERTEX
  5
725
  8
Layer_0
  10
-47.99292
  20
310.15613
  0
VERTEX
  5
726
  8
Layer_0
  10
-48.195435
  20
310.15613
  0
VERTEX
  5
727
  8
Layer_0
  10
-48.39801
  20
310.15613
  0
VERTEX
  5
728
  8
Layer_0
  10
-48.600586
  20
310.15613
  0
VERTEX
  5
729
  8
Layer_0
  10
-48.803101
  20
310.15613
  0
VERTEX
  5
72a
  8
Layer_0
  10
-49.005676
  20
310.15613
  0
VERTEX
  5
72b
  8
Layer_0
  10
-49.208191
  20
310.15613
  0
VERTEX
  5
72c
  8
Layer_0
  10
-49.410767
  20
310.15613
  0
VERTEX
  5
72d
  8
Layer_0
  10
-49.613342
  20
310.15613
  0
VERTEX
  5
72e
  8
Layer_0
  10
-49.815857
  20
310.15613
  0
VERTEX
  5
72f
  8
Layer_0
  10
-50.018433
  20
310.15613
  0
VERTEX
  5
730
  8
Layer_0
  10
-50.220947
  20
310.15613
  0
VERTEX
  5
731
  8
Layer_0
  10
-50.423523
  20
310.15613
  0
VERTEX
  5
732
  8
Layer_0
  10
-50.626038
  20
310.15613
  0
VERTEX
  5
733
  8
Layer_0
  10
-50.828613
  20
310.15613
  0
VERTEX
  5
734
  8
Layer_0
  10
-51.031189
  20
310.15613
  0
VERTEX
  5
735
  8
Layer_0
  10
-51.233704
  20
310.15613
  0
VERTEX
  5
736
  8
Layer_0
  10
-51.436279
  20
310.15613
  0
VERTEX
  5
737
  8
Layer_0
  10
-51.638794
  20
310.15613
  0
VERTEX
  5
738
  8
Layer_0
  10
-51.84137
  20
310.15613
  0
VERTEX
  5
739
  8
Layer_0
  10
-52.043945
  20
310.15613
  0
VERTEX
  5
73a
  8
Layer_0
  10
-52.24646
  20
310.15613
  0
VERTEX
  5
73b
  8
Layer_0
  10
-52.449036
  20
310.15613
  0
VERTEX
  5
73c
  8
Layer_0
  10
-52.65155
  20
310.15613
  0
VERTEX
  5
73d
  8
Layer_0
  10
-52.854126
  20
310.15613
  0
VERTEX
  5
73e
  8
Layer_0
  10
-53.056702
  20
310.15613
  0
VERTEX
  5
73f
  8
Layer_0
  10
-53.259216
  20
310.15613
  0
VERTEX
  5
740
  8
Layer_0
  10
-53.461792
  20
310.15613
  0
VERTEX
  5
741
  8
Layer_0
  10
-53.664307
  20
310.15613
  0
VERTEX
  5
742
  8
Layer_0
  10
-53.866882
  20
310.15613
  0
VERTEX
  5
743
  8
Layer_0
  10
-54.069458
  20
310.15613
  0
VERTEX
  5
744
  8
Layer_0
  10
-54.271973
  20
310.15613
  0
VERTEX
  5
745
  8
Layer_0
  10
-54.474548
  20
310.15613
  0
VERTEX
  5
746
  8
Layer_0
  10
-54.677063
  20
310.15613
  0
VERTEX
  5
747
  8
Layer_0
  10
-54.879639
  20
310.15613
  0
VERTEX
  5
748
  8
Layer_0
  10
-55.082214
  20
310.15613
  0
VERTEX
  5
749
  8
Layer_0
  10
-55.284729
  20
310.15613
  0
VERTEX
  5
74a
  8
Layer_0
  10
-55.487305
  20
310.15613
  0
VERTEX
  5
74b
  8
Layer_0
  10
-55.689819
  20
310.15613
  0
VERTEX
  5
74c
  8
Layer_0
  10
-55.892395
  20
310.15613
  0
VERTEX
  5
74d
  8
Layer_0
  10
-56.094971
  20
310.15613
  0
VERTEX
  5
74e
  8
Layer_0
  10
-56.297485
  20
310.15613
  0
VERTEX
  5
74f
  8
Layer_0
  10
-56.500061
  20
310.15613
  0
VERTEX
  5
750
  8
Layer_0
  10
-56.702576
  20
310.15613
  0
VERTEX
  5
751
  8
Layer_0
  10
-56.905151
  20
310.15613
  0
VERTEX
  5
752
  8
Layer_0
  10
-57.107727
  20
310.15613
  0
VERTEX
  5
753
  8
Layer_0
  10
-57.310242
  20
310.15613
  0
VERTEX
  5
754
  8
Layer_0
  10
-57.512817
  20
310.15613
  0
VERTEX
  5
755
  8
Layer_0
  10
-57.715332
  20
310.15613
  0
VERTEX
  5
756
  8
Layer_0
  10
-57.917908
  20
310.15613
  0
VERTEX
  5
757
  8
Layer_0
  10
-58.120483
  20
310.15613
  0
VERTEX
  5
758
  8
Layer_0
  10
-58.322998
  20
310.15613
  0
VERTEX
  5
759
  8
Layer_0
  10
-58.525574
  20
310.15613
  0
VERTEX
  5
75a
  8
Layer_0
  10
-58.728088
  20
310.15613
  0
VERTEX
  5
75b
  8
Layer_0
  10
-58.930664
  20
310.15613
  0
VERTEX
  5
75c
  8
Layer_0
  10
-59.13324
  20
310.15613
  0
VERTEX
  5
75d
  8
Layer_0
  10
-59.335754
  20
310.15613
  0
VERTEX
  5
75e
  8
Layer_0
  10
-59.53833
  20
310.15613
  0
VERTEX
  5
75f
  8
Layer_0
  10
-59.740845
  20
310.15613
  0
VERTEX
  5
760
  8
Layer_0
  10
-59.94342
  20
310.15613
  0
VERTEX
  5
761
  8
Layer_0
  10
-60.145935
  20
310.15613
  0
VERTEX
  5
762
  8
Layer_0
  10
-60.348511
  20
310.15613
  0
VERTEX
  5
763
  8
Layer_0
  10
-60.551086
  20
310.15613
  0
VERTEX
  5
764
  8
Layer_0
  10
-60.753601
  20
310.15613
  0
VERTEX
  5
765
  8
Layer_0
  10
-60.956177
  20
310.15613
  0
VERTEX
  5
766
  8
Layer_0
  10
-61.158691
  20
310.15613
  0
VERTEX
  5
767
  8
Layer_0
  10
-61.361267
  20
310.15613
  0
VERTEX
  5
768
  8
Layer_0
  10
-61.563843
  20
310.15613
  0
VERTEX
  5
769
  8
Layer_0
  10
-61.766357
  20
310.15613
  0
VERTEX
  5
76a
  8
Layer_0
  10
-61.968933
  20
310.15613
  0
VERTEX
  5
76b
  8
Layer_0
  10
-62.171448
  20
310.15613
  0
VERTEX
  5
76c
  8
Layer_0
  10
-62.374023
  20
310.15613
  0
VERTEX
  5
76d
  8
Layer_0
  10
-62.576599
  20
310.15613
  0
VERTEX
  5
76e
  8
Layer_0
  10
-62.779114
  20
310.15613
  0
VERTEX
  5
76f
  8
Layer_0
  10
-62.981689
  20
310.15613
  0
VERTEX
  5
770
  8
Layer_0
  10
-63.184204
  20
310.15613
  0
VERTEX
  5
771
  8
Layer_0
  10
-63.38678
  20
310.15613
  0
VERTEX
  5
772
  8
Layer_0
  10
-63.589355
  20
310.15613
  0
VERTEX
  5
773
  8
Layer_0
  10
-63.79187
  20
310.15613
  0
VERTEX
  5
774
  8
Layer_0
  10
-63.994446
  20
310.15613
  0
VERTEX
  5
775
  8
Layer_0
  10
-64.19696
  20
310.15613
  0
VERTEX
  5
776
  8
Layer_0
  10
-64.399536
  20
310.15613
  0
VERTEX
  5
777
  8
Layer_0
  10
-64.602112
  20
310.15613
  0
VERTEX
  5
778
  8
Layer_0
  10
-64.804626
  20
310.15613
  0
VERTEX
  5
779
  8
Layer_0
  10
-64.804626
  20
309.94183
  0
VERTEX
  5
77a
  8
Layer_0
  10
-64.804626
  20
309.72754
  0
VERTEX
  5
77b
  8
Layer_0
  10
-64.804626
  20
309.51331
  0
VERTEX
  5
77c
  8
Layer_0
  10
-64.804626
  20
309.29901
  0
VERTEX
  5
77d
  8
Layer_0
  10
-64.804626
  20
309.08472
  0
VERTEX
  5
77e
  8
Layer_0
  10
-64.804626
  20
308.87042
  0
VERTEX
  5
77f
  8
Layer_0
  10
-64.804626
  20
308.65613
  0
VERTEX
  5
780
  8
Layer_0
  10
-64.804626
  20
308.44183
  0
VERTEX
  5
781
  8
Layer_0
  10
-64.804626
  20
308.22754
  0
VERTEX
  5
782
  8
Layer_0
  10
-64.804626
  20
308.01331
  0
VERTEX
  5
783
  8
Layer_0
  10
-64.804626
  20
307.79901
  0
VERTEX
  5
784
  8
Layer_0
  10
-64.804626
  20
307.58472
  0
VERTEX
  5
785
  8
Layer_0
  10
-64.804626
  20
307.37042
  0
VERTEX
  5
786
  8
Layer_0
  10
-64.804626
  20
307.15613
  0
VERTEX
  5
787
  8
Layer_0
  10
-81.500427
  20
307.15613
  0
VERTEX
  5
788
  8
Layer_0
  10
-81.500427
  20
310.23114
  0
VERTEX
  5
789
  8
Layer_0
  10
-81.500427
  20
310.43494
  0
VERTEX
  5
78a
  8
Layer_0
  10
-81.500427
  20
310.63879
  0
VERTEX
  5
78b
  8
Layer_0
  10
-81.500427
  20
310.84265
  0
VERTEX
  5
78c
  8
Layer_0
  10
-81.500427
  20
311.04645
  0
VERTEX
  5
78d
  8
Layer_0
  10
-81.500427
  20
311.25031
  0
VERTEX
  5
78e
  8
Layer_0
  10
-81.500427
  20
311.4541
  0
VERTEX
  5
78f
  8
Layer_0
  10
-81.500427
  20
311.65796
  0
VERTEX
  5
790
  8
Layer_0
  10
-81.500427
  20
311.86176
  0
VERTEX
  5
791
  8
Layer_0
  10
-81.500427
  20
312.06561
  0
VERTEX
  5
792
  8
Layer_0
  10
-81.500427
  20
312.26941
  0
VERTEX
  5
793
  8
Layer_0
  10
-81.500427
  20
312.47327
  0
VERTEX
  5
794
  8
Layer_0
  10
-81.500427
  20
312.67706
  0
VERTEX
  5
795
  8
Layer_0
  10
-81.500427
  20
312.88092
  0
VERTEX
  5
796
  8
Layer_0
  10
-81.500427
  20
313.08478
  0
VERTEX
  5
797
  8
Layer_0
  10
-81.500427
  20
313.28857
  0
VERTEX
  5
798
  8
Layer_0
  10
-81.500427
  20
313.49243
  0
VERTEX
  5
799
  8
Layer_0
  10
-81.500427
  20
313.69623
  0
VERTEX
  5
79a
  8
Layer_0
  10
-81.500427
  20
313.90009
  0
VERTEX
  5
79b
  8
Layer_0
  10
-81.500427
  20
314.10388
  0
VERTEX
  5
79c
  8
Layer_0
  10
-81.500427
  20
314.30774
  0
VERTEX
  5
79d
  8
Layer_0
  10
-81.500427
  20
314.51154
  0
VERTEX
  5
79e
  8
Layer_0
  10
-81.500427
  20
314.71539
  0
VERTEX
  5
79f
  8
Layer_0
  10
-81.500427
  20
314.91919
  0
VERTEX
  5
7a0
  8
Layer_0
  10
-81.500427
  20
315.12305
  0
VERTEX
  5
7a1
  8
Layer_0
  10
-81.500427
  20
315.3269
  0
VERTEX
  5
7a2
  8
Layer_0
  10
-81.500427
  20
315.5307
  0
VERTEX
  5
7a3
  8
Layer_0
  10
-81.500427
  20
315.73456
  0
VERTEX
  5
7a4
  8
Layer_0
  10
-81.500427
  20
315.93835
  0
VERTEX
  5
7a5
  8
Layer_0
  10
-81.500427
  20
316.14221
  0
VERTEX
  5
7a6
  8
Layer_0
  10
-81.500427
  20
316.34601
  0
VERTEX
  5
7a7
  8
Layer_0
  10
-81.500427
  20
316.54987
  0
VERTEX
  5
7a8
  8
Layer_0
  10
-81.500427
  20
316.75366
  0
VERTEX
  5
7a9
  8
Layer_0
  10
-81.500427
  20
316.95752
  0
VERTEX
  5
7aa
  8
Layer_0
  10
-81.500427
  20
317.16138
  0
VERTEX
  5
7ab
  8
Layer_0
  10
-81.500427
  20
317.36517
  0
VERTEX
  5
7ac
  8
Layer_0
  10
-81.500427
  20
317.56903
  0
VERTEX
  5
7ad
  8
Layer_0
  10
-81.500427
  20
317.77283
  0
VERTEX
  5
7ae
  8
Layer_0
  10
-81.500427
  20
317.97668
  0
VERTEX
  5
7af
  8
Layer_0
  10
-81.500427
  20
318.18048
  0
VERTEX
  5
7b0
  8
Layer_0
  10
-81.500427
  20
318.38434
  0
VERTEX
  5
7b1
  8
Layer_0
  10
-81.500427
  20
318.58813
  0
VERTEX
  5
7b2
  8
Layer_0
  10
-81.500427
  20
318.79199
  0
VERTEX
  5
7b3
  8
Layer_0
  10
-81.500427
  20
318.99579
  0
VERTEX
  5
7b4
  8
Layer_0
  10
-81.500427
  20
319.19965
  0
VERTEX
  5
7b5
  8
Layer_0
  10
-81.500427
  20
319.4035
  0
VERTEX
  5
7b6
  8
Layer_0
  10
-81.500427
  20
319.6073
  0
VERTEX
  5
7b7
  8
Layer_0
  10
-81.500427
  20
319.81116
  0
VERTEX
  5
7b8
  8
Layer_0
  10
-81.500427
  20
320.01495
  0
VERTEX
  5
7b9
  8
Layer_0
  10
-81.500427
  20
320.21881
  0
VERTEX
  5
7ba
  8
Layer_0
  10
-81.500427
  20
320.42261
  0
VERTEX
  5
7bb
  8
Layer_0
  10
-81.500427
  20
320.62646
  0
VERTEX
  5
7bc
  8
Layer_0
  10
-81.500427
  20
320.83026
  0
VERTEX
  5
7bd
  8
Layer_0
  10
-81.500427
  20
321.03412
  0
VERTEX
  5
7be
  8
Layer_0
  10
-81.500427
  20
321.23792
  0
VERTEX
  5
7bf
  8
Layer_0
  10
-81.500427
  20
321.44177
  0
VERTEX
  5
7c0
  8
Layer_0
  10
-81.500427
  20
321.64557
  0
VERTEX
  5
7c1
  8
Layer_0
  10
-81.500427
  20
321.84943
  0
VERTEX
  5
7c2
  8
Layer_0
  10
-81.500427
  20
322.05328
  0
VERTEX
  5
7c3
  8
Layer_0
  10
-81.500427
  20
322.25708
  0
VERTEX
  5
7c4
  8
Layer_0
  10
-81.500427
  20
322.46094
  0
VERTEX
  5
7c5
  8
Layer_0
  10
-81.500427
  20
322.66473
  0
VERTEX
  5
7c6
  8
Layer_0
  10
-81.500427
  20
322.86859
  0
VERTEX
  5
7c7
  8
Layer_0
  10
-81.500427
  20
323.07239
  0
SEQEND
  0
POLYLINE
  5
7c9
  8
Layer_0
  62
7
  70
1
  66
1
  10
0
  20
0
  30
0
  0
VERTEX
  5
7c9
  8
Layer_0
  10
142.53363
  20
376.13873
  0
VERTEX
  5
7ca
  8
Layer_0
  10
142.53363
  20
361.67792
  0
VERTEX
  5
7cb
  8
Layer_0
  10
139.53876
  20
361.67664
  0
VERTEX
  5
7cc
  8
Layer_0
  10
139.55042
  20
341.45758
  0
VERTEX
  5
7cd
  8
Layer_0
  10
142.53363
  20
341.45886
  0
VERTEX
  5
7ce
  8
Layer_0
  10
142.53363
  20
326.18103
  0
VERTEX
  5
7cf
  8
Layer_0
  10
139.47845
  20
326.17969
  0
VERTEX
  5
7d0
  8
Layer_0
  10
125.0451
  20
327.40918
  0
VERTEX
  5
7d1
  8
Layer_0
  10
124.79047
  20
324.41998
  0
VERTEX
  5
7d2
  8
Layer_0
  10
110.29236
  20
325.65503
  0
VERTEX
  5
7d3
  8
Layer_0
  10
110.547
  20
328.64423
  0
VERTEX
  5
7d4
  8
Layer_0
  10
90.654968
  20
330.33868
  0
VERTEX
  5
7d5
  8
Layer_0
  10
90.40033
  20
327.34955
  0
VERTEX
  5
7d6
  8
Layer_0
  10
76.304626
  20
328.55029
  0
VERTEX
  5
7d7
  8
Layer_0
  10
76.559265
  20
331.53943
  0
VERTEX
  5
7d8
  8
Layer_0
  10
64.844421
  20
332.53741
  0
VERTEX
  5
7d9
  8
Layer_0
  10
64.844788
  20
348.44653
  0
VERTEX
  5
7da
  8
Layer_0
  10
67.845825
  20
348.44653
  0
VERTEX
  5
7db
  8
Layer_0
  10
67.845825
  20
348.64996
  0
VERTEX
  5
7dc
  8
Layer_0
  10
67.845825
  20
348.85339
  0
VERTEX
  5
7dd
  8
Layer_0
  10
67.845825
  20
349.05676
  0
VERTEX
  5
7de
  8
Layer_0
  10
67.845825
  20
349.26019
  0
VERTEX
  5
7df
  8
Layer_0
  10
67.845825
  20
349.46362
  0
VERTEX
  5
7e0
  8
Layer_0
  10
67.845825
  20
349.66705
  0
VERTEX
  5
7e1
  8
Layer_0
  10
67.845825
  20
349.87048
  0
VERTEX
  5
7e2
  8
Layer_0
  10
67.845825
  20
350.07391
  0
VERTEX
  5
7e3
  8
Layer_0
  10
67.845825
  20
350.27734
  0
VERTEX
  5
7e4
  8
Layer_0
  10
67.845825
  20
350.48077
  0
VERTEX
  5
7e5
  8
Layer_0
  10
67.845825
  20
350.6842
  0
VERTEX
  5
7e6
  8
Layer_0
  10
67.845825
  20
350.88763
  0
VERTEX
  5
7e7
  8
Layer_0
  10
67.845825
  20
351.09106
  0
VERTEX
  5
7e8
  8
Layer_0
  10
67.845825
  20
351.29443
  0
VERTEX
  5
7e9
  8
Layer_0
  10
67.845825
  20
351.49786
  0
VERTEX
  5
7ea
  8
Layer_0
  10
67.845825
  20
351.70129
  0
VERTEX
  5
7eb
  8
Layer_0
  10
67.845825
  20
351.90472
  0
VERTEX
  5
7ec
  8
Layer_0
  10
67.845825
  20
352.10815
  0
VERTEX
  5
7ed
  8
Layer_0
  10
67.845825
  20
352.31158
  0
VERTEX
  5
7ee
  8
Layer_0
  10
67.845825
  20
352.51501
  0
VERTEX
  5
7ef
  8
Layer_0
  10
67.845825
  20
352.71844
  0
VERTEX
  5
7f0
  8
Layer_0
  10
67.845825
  20
352.92188
  0
VERTEX
  5
7f1
  8
Layer_0
  10
67.845825
  20
353.12531
  0
VERTEX
  5
7f2
  8
Layer_0
  10
67.845825
  20
353.32874
  0
VERTEX
  5
7f3
  8
Layer_0
  10
67.845825
  20
353.5321
  0
VERTEX
  5
7f4
  8
Layer_0
  10
67.845825
  20
353.73553
  0
VERTEX
  5
7f5
  8
Layer_0
  10
67.845825
  20
353.93896
  0
VERTEX
  5
7f6
  8
Layer_0
  10
67.845825
  20
354.1424
  0
VERTEX
  5
7f7
  8
Layer_0
  10
67.845825
  20
354.34583
  0
VERTEX
  5
7f8
  8
Layer_0
  10
67.845825
  20
354.54926
  0
VERTEX
  5
7f9
  8
Layer_0
  10
67.845825
  20
354.75269
  0
VERTEX
  5
7fa
  8
Layer_0
  10
67.845825
  20
354.95612
  0
VERTEX
  5
7fb
  8
Layer_0
  10
67.845825
  20
355.15955
  0
VERTEX
  5
7fc
  8
Layer_0
  10
67.845825
  20
355.36298
  0
VERTEX
  5
7fd
  8
Layer_0
  10
67.845825
  20
355.56641
  0
VERTEX
  5
7fe
  8
Layer_0
  10
67.845825
  20
355.76978
  0
VERTEX
  5
7ff
  8
Layer_0
  10
67.845825
  20
355.97321
  0
VERTEX
  5
800
  8
Layer_0
  10
67.845825
  20
356.17664
  0
VERTEX
  5
801
  8
Layer_0
  10
67.845825
  20
356.38007
  0
VERTEX
  5
802
  8
Layer_0
  10
67.845825
  20
356.5835
  0
VERTEX
  5
803
  8
Layer_0
  10
67.845825
  20
356.78693
  0
VERTEX
  5
804
  8
Layer_0
  10
67.845825
  20
356.99036
  0
VERTEX
  5
805
  8
Layer_0
  10
67.845825
  20
357.19379
  0
VERTEX
  5
806
  8
Layer_0
  10
67.845825
  20
357.39722
  0
VERTEX
  5
807
  8
Layer_0
  10
67.845825
  20
357.60065
  0
VERTEX
  5
808
  8
Layer_0
  10
67.845825
  20
357.80408
  0
VERTEX
  5
809
  8
Layer_0
  10
67.845825
  20
358.00745
  0
VERTEX
  5
80a
  8
Layer_0
  10
67.845825
  20
358.21088
  0
VERTEX
  5
80b
  8
Layer_0
  10
67.845825
  20
358.41431
  0
VERTEX
  5
80c
  8
Layer_0
  10
67.845825
  20
358.61774
  0
VERTEX
  5
80d
  8
Layer_0
  10
67.845825
  20
358.82117
  0
VERTEX
  5
80e
  8
Layer_0
  10
67.845825
  20
359.0246
  0
VERTEX
  5
80f
  8
Layer_0
  10
67.845825
  20
359.22803
  0
VERTEX
  5
810
  8
Layer_0
  10
67.845825
  20
359.43146
  0
VERTEX
  5
811
  8
Layer_0
  10
67.845825
  20
359.63489
  0
VERTEX
  5
812
  8
Layer_0
  10
67.845825
  20
359.83832
  0
VERTEX
  5
813
  8
Layer_0
  10
67.845825
  20
360.04175
  0
VERTEX
  5
814
  8
Layer_0
  10
67.845825
  20
360.24512
  0
VERTEX
  5
815
  8
Layer_0
  10
67.845825
  20
360.44855
  0
VERTEX
  5
816
  8
Layer_0
  10
67.845825
  20
360.65198
  0
VERTEX
  5
817
  8
Layer_0
  10
67.845825
  20
360.85541
  0
VERTEX
  5
818
  8
Layer_0
  10
67.845825
  20
361.05884
  0
VERTEX
  5
819
  8
Layer_0
  10
67.845825
  20
361.26227
  0
VERTEX
  5
81a
  8
Layer_0
  10
67.845825
  20
361.4657
  0
VERTEX
  5
81b
  8
Layer_0
  10
67.845825
  20
361.66913
  0
VERTEX
  5
81c
  8
Layer_0
  10
67.845825
  20
361.87256
  0
VERTEX
  5
81d
  8
Layer_0
  10
67.845825
  20
362.07599
  0
VERTEX
  5
81e
  8
Layer_0
  10
67.845825
  20
362.27942
  0
VERTEX
  5
81f
  8
Layer_0
  10
67.845825
  20
362.48279
  0
VERTEX
  5
820
  8
Layer_0
  10
67.845825
  20
362.68622
  0
VERTEX
  5
821
  8
Layer_0
  10
67.845825
  20
362.88965
  0
VERTEX
  5
822
  8
Layer_0
  10
67.845825
  20
363.09308
  0
VERTEX
  5
823
  8
Layer_0
  10
67.845825
  20
363.29651
  0
VERTEX
  5
824
  8
Layer_0
  10
64.84552
  20
363.29651
  0
VERTEX
  5
825
  8
Layer_0
  10
64.845825
  20
379.21179
  0
VERTEX
  5
826
  8
Layer_0
  10
80.912109
  20
379.21179
  0
VERTEX
  5
827
  8
Layer_0
  10
80.912109
  20
378.98108
  0
VERTEX
  5
828
  8
Layer_0
  10
80.912109
  20
378.75031
  0
VERTEX
  5
829
  8
Layer_0
  10
80.912109
  20
378.51959
  0
VERTEX
  5
82a
  8
Layer_0
  10
80.912109
  20
378.28888
  0
VERTEX
  5
82b
  8
Layer_0
  10
80.912109
  20
378.05817
  0
VERTEX
  5
82c
  8
Layer_0
  10
80.912109
  20
377.82745
  0
VERTEX
  5
82d
  8
Layer_0
  10
80.912109
  20
377.59674
  0
VERTEX
  5
82e
  8
Layer_0
  10
80.912109
  20
377.36603
  0
VERTEX
  5
82f
  8
Layer_0
  10
80.912109
  20
377.13531
  0
VERTEX
  5
830
  8
Layer_0
  10
80.912109
  20
376.9046
  0
VERTEX
  5
831
  8
Layer_0
  10
80.912109
  20
376.67389
  0
VERTEX
  5
832
  8
Layer_0
  10
80.912109
  20
376.44318
  0
VERTEX
  5
833
  8
Layer_0
  10
80.912109
  20
376.2124
  0
VERTEX
  5
834
  8
Layer_0
  10
95.762085
  20
376.2124
  0
VERTEX
  5
835
  8
Layer_0
  10
95.762085
  20
376.44312
  0
VERTEX
  5
836
  8
Layer_0
  10
95.762085
  20
376.67383
  0
VERTEX
  5
837
  8
Layer_0
  10
95.762085
  20
376.9046
  0
VERTEX
  5
838
  8
Layer_0
  10
95.762085
  20
377.13531
  0
VERTEX
  5
839
  8
Layer_0
  10
95.762085
  20
377.36603
  0
VERTEX
  5
83a
  8
Layer_0
  10
95.762085
  20
377.59674
  0
VERTEX
  5
83b
  8
Layer_0
  10
95.762085
  20
377.82745
  0
VERTEX
  5
83c
  8
Layer_0
  10
95.762085
  20
378.05817
  0
VERTEX
  5
83d
  8
Layer_0
  10
95.762085
  20
378.28888
  0
VERTEX
  5
83e
  8
Layer_0
  10
95.762085
  20
378.51959
  0
VERTEX
  5
83f
  8
Layer_0
  10
95.762085
  20
378.75031
  0
VERTEX
  5
840
  8
Layer_0
  10
95.762085
  20
378.98102
  0
VERTEX
  5
841
  8
Layer_0
  10
95.762085
  20
379.21179
  0
VERTEX
  5
842
  8
Layer_0
  10
112.68964
  20
379.21179
  0
VERTEX
  5
843
  8
Layer_0
  10
112.68964
  20
378.98108
  0
VERTEX
  5
844
  8
Layer_0
  10
112.68964
  20
378.75031
  0
VERTEX
  5
845
  8
Layer_0
  10
112.68964
  20
378.51959
  0
VERTEX
  5
846
  8
Layer_0
  10
112.68964
  20
378.28888
  0
VERTEX
  5
847
  8
Layer_0
  10
112.68964
  20
378.05817
  0
VERTEX
  5
848
  8
Layer_0
  10
112.68964
  20
377.82745
  0
VERTEX
  5
849
  8
Layer_0
  10
112.68964
  20
377.59674
  0
VERTEX
  5
84a
  8
Layer_0
  10
112.68964
  20
377.36603
  0
VERTEX
  5
84b
  8
Layer_0
  10
112.68964
  20
377.13531
  0
VERTEX
  5
84c
  8
Layer_0
  10
112.68964
  20
376.9046
  0
VERTEX
  5
84d
  8
Layer_0
  10
112.68964
  20
376.67389
  0
VERTEX
  5
84e
  8
Layer_0
  10
112.68964
  20
376.44312
  0
VERTEX
  5
84f
  8
Layer_0
  10
112.68964
  20
376.2124
  0
VERTEX
  5
850
  8
Layer_0
  10
112.89301
  20
376.2124
  0
VERTEX
  5
851
  8
Layer_0
  10
113.09644
  20
376.2124
  0
VERTEX
  5
852
  8
Layer_0
  10
113.29987
  20
376.2124
  0
VERTEX
  5
853
  8
Layer_0
  10
113.5033
  20
376.2124
  0
VERTEX
  5
854
  8
Layer_0
  10
113.70673
  20
376.2124
  0
VERTEX
  5
855
  8
Layer_0
  10
113.91016
  20
376.2124
  0
VERTEX
  5
856
  8
Layer_0
  10
114.11359
  20
376.2124
  0
VERTEX
  5
857
  8
Layer_0
  10
114.31702
  20
376.2124
  0
VERTEX
  5
858
  8
Layer_0
  10
114.52045
  20
376.2124
  0
VERTEX
  5
859
  8
Layer_0
  10
114.72388
  20
376.2124
  0
VERTEX
  5
85a
  8
Layer_0
  10
114.92731
  20
376.2124
  0
VERTEX
  5
85b
  8
Layer_0
  10
115.13068
  20
376.2124
  0
VERTEX
  5
85c
  8
Layer_0
  10
115.33411
  20
376.2124
  0
VERTEX
  5
85d
  8
Layer_0
  10
115.53754
  20
376.2124
  0
VERTEX
  5
85e
  8
Layer_0
  10
115.74097
  20
376.2124
  0
VERTEX
  5
85f
  8
Layer_0
  10
115.9444
  20
376.2124
  0
VERTEX
  5
860
  8
Layer_0
  10
116.14783
  20
376.2124
  0
VERTEX
  5
861
  8
Layer_0
  10
116.35126
  20
376.2124
  0
VERTEX
  5
862
  8
Layer_0
  10
116.55469
  20
376.2124
  0
VERTEX
  5
863
  8
Layer_0
  10
116.75812
  20
376.2124
  0
VERTEX
  5
864
  8
Layer_0
  10
116.96155
  20
376.2124
  0
VERTEX
  5
865
  8
Layer_0
  10
117.16498
  20
376.2124
  0
VERTEX
  5
866
  8
Layer_0
  10
117.36835
  20
376.2124
  0
VERTEX
  5
867
  8
Layer_0
  10
117.57178
  20
376.2124
  0
VERTEX
  5
868
  8
Layer_0
  10
117.77521
  20
376.2124
  0
VERTEX
  5
869
  8
Layer_0
  10
117.97864
  20
376.2124
  0
VERTEX
  5
86a
  8
Layer_0
  10
118.18207
  20
376.2124
  0
VERTEX
  5
86b
  8
Layer_0
  10
118.3855
  20
376.2124
  0
VERTEX
  5
86c
  8
Layer_0
  10
118.58893
  20
376.2124
  0
VERTEX
  5
86d
  8
Layer_0
  10
118.79236
  20
376.2124
  0
VERTEX
  5
86e
  8
Layer_0
  10
118.99579
  20
376.2124
  0
VERTEX
  5
86f
  8
Layer_0
  10
119.19922
  20
376.2124
  0
VERTEX
  5
870
  8
Layer_0
  10
119.40265
  20
376.2124
  0
VERTEX
  5
871
  8
Layer_0
  10
119.60602
  20
376.2124
  0
VERTEX
  5
872
  8
Layer_0
  10
119.80945
  20
376.2124
  0
VERTEX
  5
873
  8
Layer_0
  10
120.01288
  20
376.2124
  0
VERTEX
  5
874
  8
Layer_0
  10
120.21631
  20
376.2124
  0
VERTEX
  5
875
  8
Layer_0
  10
120.41974
  20
376.2124
  0
VERTEX
  5
876
  8
Layer_0
  10
120.62317
  20
376.2124
  0
VERTEX
  5
877
  8
Layer_0
  10
120.8266
  20
376.2124
  0
VERTEX
  5
878
  8
Layer_0
  10
121.03003
  20
376.2124
  0
VERTEX
  5
879
  8
Layer_0
  10
121.23346
  20
376.2124
  0
VERTEX
  5
87a
  8
Layer_0
  10
121.43689
  20
376.2124
  0
VERTEX
  5
87b
  8
Layer_0
  10
121.64032
  20
376.2124
  0
VERTEX
  5
87c
  8
Layer_0
  10
121.84369
  20
376.2124
  0
VERTEX
  5
87d
  8
Layer_0
  10
122.04712
  20
376.2124
  0
VERTEX
  5
87e
  8
Layer_0
  10
122.25055
  20
376.2124
  0
VERTEX
  5
87f
  8
Layer_0
  10
122.45398
  20
376.2124
  0
VERTEX
  5
880
  8
Layer_0
  10
122.65741
  20
376.2124
  0
VERTEX
  5
881
  8
Layer_0
  10
122.86084
  20
376.2124
  0
VERTEX
  5
882
  8
Layer_0
  10
123.06427
  20
376.2124
  0
VERTEX
  5
883
  8
Layer_0
  10
123.2677
  20
376.2124
  0
VERTEX
  5
884
  8
Layer_0
  10
123.47113
  20
376.2124
  0
VERTEX
  5
885
  8
Layer_0
  10
123.67456
  20
376.2124
  0
VERTEX
  5
886
  8
Layer_0
  10
123.87799
  20
376.2124
  0
VERTEX
  5
887
  8
Layer_0
  10
124.08136
  20
376.2124
  0
VERTEX
  5
888
  8
Layer_0
  10
124.28479
  20
376.2124
  0
VERTEX
  5
889
  8
Layer_0
  10
124.48822
  20
376.2124
  0
VERTEX
  5
88a
  8
Layer_0
  10
124.69165
  20
376.2124
  0
VERTEX
  5
88b
  8
Layer_0
  10
124.89508
  20
376.2124
  0
VERTEX
  5
88c
  8
Layer_0
  10
125.09851
  20
376.2124
  0
VERTEX
  5
88d
  8
Layer_0
  10
125.30194
  20
376.2124
  0
VERTEX
  5
88e
  8
Layer_0
  10
125.50537
  20
376.2124
  0
VERTEX
  5
88f
  8
Layer_0
  10
125.7088
  20
376.2124
  0
VERTEX
  5
890
  8
Layer_0
  10
125.91223
  20
376.2124
  0
VERTEX
  5
891
  8
Layer_0
  10
126.11566
  20
376.2124
  0
VERTEX
  5
892
  8
Layer_0
  10
126.31903
  20
376.2124
  0
VERTEX
  5
893
  8
Layer_0
  10
126.52246
  20
376.2124
  0
VERTEX
  5
894
  8
Layer_0
  10
126.72589
  20
376.2124
  0
VERTEX
  5
895
  8
Layer_0
  10
126.92932
  20
376.2124
  0
VERTEX
  5
896
  8
Layer_0
  10
127.13275
  20
376.2124
  0
VERTEX
  5
897
  8
Layer_0
  10
127.33618
  20
376.2124
  0
VERTEX
  5
898
  8
Layer_0
  10
127.53961
  20
376.2124
  0
VERTEX
  5
899
  8
Layer_0
  10
127.53961
  20
376.44312
  0
VERTEX
  5
89a
  8
Layer_0
  10
127.53961
  20
376.67383
  0
VERTEX
  5
89b
  8
Layer_0
  10
127.53961
  20
376.9046
  0
VERTEX
  5
89c
  8
Layer_0
  10
127.53961
  20
377.13531
  0
VERTEX
  5
89d
  8
Layer_0
  10
127.53961
  20
377.36603
  0
VERTEX
  5
89e
  8
Layer_0
  10
127.53961
  20
377.59674
  0
VERTEX
  5
89f
  8
Layer_0
  10
127.53961
  20
377.82745
  0
VERTEX
  5
8a0
  8
Layer_0
  10
127.53961
  20
378.05817
  0
VERTEX
  5
8a1
  8
Layer_0
  10
127.53961
  20
378.28888
  0
VERTEX
  5
8a2
  8
Layer_0
  10
127.53961
  20
378.51959
  0
VERTEX
  5
8a3
  8
Layer_0
  10
127.53961
  20
378.75031
  0
VERTEX
  5
8a4
  8
Layer_0
  10
127.53961
  20
378.98102
  0
VERTEX
  5
8a5
  8
Layer_0
  10
127.53961
  20
379.21173
  0
VERTEX
  5
8a6
  8
Layer_0
  10
139.4585
  20
379.21179
  0
VERTEX
  5
8a7
  8
Layer_0
  10
142.53363
  20
379.21313
  0
SEQEND
  0
POLYLINE
  5
8a9
  8
Layer_0
  62
7
  70
1
  66
1
  10
0
  20
0
  30
0
  0
VERTEX
  5
8a9
  8
Layer_0
  10
164.84442
  20
376.13873
  0
VERTEX
  5
8aa
  8
Layer_0
  10
164.84442
  20
361.67792
  0
VERTEX
  5
8ab
  8
Layer_0
  10
167.83923
  20
361.67664
  0
VERTEX
  5
8ac
  8
Layer_0
  10
167.82758
  20
341.45758
  0
VERTEX
  5
8ad
  8
Layer_0
  10
164.84442
  20
341.45886
  0
VERTEX
  5
8ae
  8
Layer_0
  10
164.84442
  20
326.18103
  0
VERTEX
  5
8af
  8
Layer_0
  10
167.8996
  20
326.17969
  0
VERTEX
  5
8b0
  8
Layer_0
  10
182.33295
  20
327.40918
  0
VERTEX
  5
8b1
  8
Layer_0
  10
182.58759
  20
324.41998
  0
VERTEX
  5
8b2
  8
Layer_0
  10
197.08557
  20
325.65503
  0
VERTEX
  5
8b3
  8
Layer_0
  10
196.83093
  20
328.64423
  0
VERTEX
  5
8b4
  8
Layer_0
  10
216.72307
  20
330.33868
  0
VERTEX
  5
8b5
  8
Layer_0
  10
216.97768
  20
327.34955
  0
VERTEX
  5
8b6
  8
Layer_0
  10
231.07338
  20
328.55029
  0
VERTEX
  5
8b7
  8
Layer_0
  10
230.81877
  20
331.53943
  0
VERTEX
  5
8b8
  8
Layer_0
  10
242.5336
  20
332.53741
  0
VERTEX
  5
8b9
  8
Layer_0
  10
242.53323
  20
348.44653
  0
VERTEX
  5
8ba
  8
Layer_0
  10
239.5322
  20
348.44653
  0
VERTEX
  5
8bb
  8
Layer_0
  10
239.5322
  20
348.64996
  0
VERTEX
  5
8bc
  8
Layer_0
  10
239.5322
  20
348.85339
  0
VERTEX
  5
8bd
  8
Layer_0
  10
239.5322
  20
349.05676
  0
VERTEX
  5
8be
  8
Layer_0
  10
239.5322
  20
349.26019
  0
VERTEX
  5
8bf
  8
Layer_0
  10
239.5322
  20
349.46362
  0
VERTEX
  5
8c0
  8
Layer_0
  10
239.5322
  20
349.66705
  0
VERTEX
  5
8c1
  8
Layer_0
  10
239.5322
  20
349.87048
  0
VERTEX
  5
8c2
  8
Layer_0
  10
239.5322
  20
350.07391
  0
VERTEX
  5
8c3
  8
Layer_0
  10
239.5322
  20
350.27734
  0
VERTEX
  5
8c4
  8
Layer_0
  10
239.5322
  20
350.48077
  0
VERTEX
  5
8c5
  8
Layer_0
  10
239.5322
  20
350.6842
  0
VERTEX
  5
8c6
  8
Layer_0
  10
239.5322
  20
350.88763
  0
VERTEX
  5
8c7
  8
Layer_0
  10
239.5322
  20
351.09106
  0
VERTEX
  5
8c8
  8
Layer_0
  10
239.5322
  20
351.29443
  0
VERTEX
  5
8c9
  8
Layer_0
  10
239.5322
  20
351.49786
  0
VERTEX
  5
8ca
  8
Layer_0
  10
239.5322
  20
351.70129
  0
VERTEX
  5
8cb
  8
Layer_0
  10
239.5322
  20
351.90472
  0
VERTEX
  5
8cc
  8
Layer_0
  10
239.5322
  20
352.10815
  0
VERTEX
  5
8cd
  8
Layer_0
  10
239.5322
  20
352.31158
  0
VERTEX
  5
8ce
  8
Layer_0
  10
239.5322
  20
352.51501
  0
VERTEX
  5
8cf
  8
Layer_0
  10
239.5322
  20
352.71844
  0
VERTEX
  5
8d0
  8
Layer_0
  10
239.5322
  20
352.92188
  0
VERTEX
  5
8d1
  8
Layer_0
  10
239.5322
  20
353.12531
  0
VERTEX
  5
8d2
  8
Layer_0
  10
239.5322
  20
353.32874
  0
VERTEX
  5
8d3
  8
Layer_0
  10
239.5322
  20
353.5321
  0
VERTEX
  5
8d4
  8
Layer_0
  10
239.5322
  20
353.73553
  0
VERTEX
  5
8d5
  8
Layer_0
  10
239.5322
  20
353.93896
  0
VERTEX
  5
8d6
  8
Layer_0
  10
239.5322
  20
354.1424
  0
VERTEX
  5
8d7
  8
Layer_0
  10
239.5322
  20
354.34583
  0
VERTEX
  5
8d8
  8
Layer_0
  10
239.5322
  20
354.54926
  0
VERTEX
  5
8d9
  8
Layer_0
  10
239.5322
  20
354.75269
  0
VERTEX
  5
8da
  8
Layer_0
  10
239.5322
  20
354.95612
  0
VERTEX
  5
8db
  8
Layer_0
  10
239.5322
  20
355.15955
  0
VERTEX
  5
8dc
  8
Layer_0
  10
239.5322
  20
355.36298
  0
VERTEX
  5
8dd
  8
Layer_0
  10
239.5322
  20
355.56641
  0
VERTEX
  5
8de
  8
Layer_0
  10
239.5322
  20
355.76978
  0
VERTEX
  5
8df
  8
Layer_0
  10
239.5322
  20
355.97321
  0
VERTEX
  5
8e0
  8
Layer_0
  10
239.5322
  20
356.17664
  0
VERTEX
  5
8e1
  8
Layer_0
  10
239.5322
  20
356.38007
  0
VERTEX
  5
8e2
  8
Layer_0
  10
239.5322
  20
356.5835
  0
VERTEX
  5
8e3
  8
Layer_0
  10
239.5322
  20
356.78693
  0
VERTEX
  5
8e4
  8
Layer_0
  10
239.5322
  20
356.99036
  0
VERTEX
  5
8e5
  8
Layer_0
  10
239.5322
  20
357.19379
  0
VERTEX
  5
8e6
  8
Layer_0
  10
239.5322
  20
357.39722
  0
VERTEX
  5
8e7
  8
Layer_0
  10
239.5322
  20
357.60065
  0
VERTEX
  5
8e8
  8
Layer_0
  10
239.5322
  20
357.80408
  0
VERTEX
  5
8e9
  8
Layer_0
  10
239.5322
  20
358.00745
  0
VERTEX
  5
8ea
  8
Layer_0
  10
239.5322
  20
358.21088
  0
VERTEX
  5
8eb
  8
Layer_0
  10
239.5322
  20
358.41431
  0
VERTEX
  5
8ec
  8
Layer_0
  10
239.5322
  20
358.61774
  0
VERTEX
  5
8ed
  8
Layer_0
  10
239.5322
  20
358.82117
  0
VERTEX
  5
8ee
  8
Layer_0
  10
239.5322
  20
359.0246
  0
VERTEX
  5
8ef
  8
Layer_0
  10
239.5322
  20
359.22803
  0
VERTEX
  5
8f0
  8
Layer_0
  10
239.5322
  20
359.43146
  0
VERTEX
  5
8f1
  8
Layer_0
  10
239.5322
  20
359.63489
  0
VERTEX
  5
8f2
  8
Layer_0
  10
239.5322
  20
359.83832
  0
VERTEX
  5
8f3
  8
Layer_0
  10
239.5322
  20
360.04175
  0
VERTEX
  5
8f4
  8
Layer_0
  10
239.5322
  20
360.24512
  0
VERTEX
  5
8f5
  8
Layer_0
  10
239.5322
  20
360.44855
  0
VERTEX
  5
8f6
  8
Layer_0
  10
239.5322
  20
360.65198
  0
VERTEX
  5
8f7
  8
Layer_0
  10
239.5322
  20
360.85541
  0
VERTEX
  5
8f8
  8
Layer_0
  10
239.5322
  20
361.05884
  0
VERTEX
  5
8f9
  8
Layer_0
  10
239.5322
  20
361.26227
  0
VERTEX
  5
8fa
  8
Layer_0
  10
239.5322
  20
361.4657
  0
VERTEX
  5
8fb
  8
Layer_0
  10
239.5322
  20
361.66913
  0
VERTEX
  5
8fc
  8
Layer_0
  10
239.5322
  20
361.87256
  0
VERTEX
  5
8fd
  8
Layer_0
  10
239.5322
  20
362.07599
  0
VERTEX
  5
8fe
  8
Layer_0
  10
239.5322
  20
362.27942
  0
VERTEX
  5
8ff
  8
Layer_0
  10
239.5322
  20
362.48279
  0
VERTEX
  5
900
  8
Layer_0
  10
239.5322
  20
362.68622
  0
VERTEX
  5
901
  8
Layer_0
  10
239.5322
  20
362.88965
  0
VERTEX
  5
902
  8
Layer_0
  10
239.5322
  20
363.09308
  0
VERTEX
  5
903
  8
Layer_0
  10
239.5322
  20
363.29651
  0
VERTEX
  5
904
  8
Layer_0
  10
242.53253
  20
363.29651
  0
VERTEX
  5
905
  8
Layer_0
  10
242.53223
  20
379.21179
  0
VERTEX
  5
906
  8
Layer_0
  10
226.46593
  20
379.21179
  0
VERTEX
  5
907
  8
Layer_0
  10
226.46593
  20
378.98108
  0
VERTEX
  5
908
  8
Layer_0
  10
226.46593
  20
378.75031
  0
VERTEX
  5
909
  8
Layer_0
  10
226.46593
  20
378.51959
  0
VERTEX
  5
90a
  8
Layer_0
  10
226.46593
  20
378.28888
  0
VERTEX
  5
90b
  8
Layer_0
  10
226.46593
  20
378.05817
  0
VERTEX
  5
90c
  8
Layer_0
  10
226.46593
  20
377.82745
  0
VERTEX
  5
90d
  8
Layer_0
  10
226.46593
  20
377.59674
  0
VERTEX
  5
90e
  8
Layer_0
  10
226.46593
  20
377.36603
  0
VERTEX
  5
90f
  8
Layer_0
  10
226.46593
  20
377.13531
  0
VERTEX
  5
910
  8
Layer_0
  10
226.46593
  20
376.9046
  0
VERTEX
  5
911
  8
Layer_0
  10
226.46593
  20
376.67389
  0
VERTEX
  5
912
  8
Layer_0
  10
226.46593
  20
376.44318
  0
VERTEX
  5
913
  8
Layer_0
  10
226.46593
  20
376.2124
  0
VERTEX
  5
914
  8
Layer_0
  10
211.61595
  20
376.2124
  0
VERTEX
  5
915
  8
Layer_0
  10
211.61595
  20
376.44312
  0
VERTEX
  5
916
  8
Layer_0
  10
211.61595
  20
376.67383
  0
VERTEX
  5
917
  8
Layer_0
  10
211.61595
  20
376.9046
  0
VERTEX
  5
918
  8
Layer_0
  10
211.61595
  20
377.13531
  0
VERTEX
  5
919
  8
Layer_0
  10
211.61595
  20
377.36603
  0
VERTEX
  5
91a
  8
Layer_0
  10
211.61595
  20
377.59674
  0
VERTEX
  5
91b
  8
Layer_0
  10
211.61595
  20
377.82745
  0
VERTEX
  5
91c
  8
Layer_0
  10
211.61595
  20
378.05817
  0
VERTEX
  5
91d
  8
Layer_0
  10
211.61595
  20
378.28888
  0
VERTEX
  5
91e
  8
Layer_0
  10
211.61595
  20
378.51959
  0
VERTEX
  5
91f
  8
Layer_0
  10
211.61595
  20
378.75031
  0
VERTEX
  5
920
  8
Layer_0
  10
211.61595
  20
378.98102
  0
VERTEX
  5
921
  8
Layer_0
  10
211.61595
  20
379.21179
  0
VERTEX
  5
922
  8
Layer_0
  10
194.68842
  20
379.21179
  0
VERTEX
  5
923
  8
Layer_0
  10
194.68842
  20
378.98108
  0
VERTEX
  5
924
  8
Layer_0
  10
194.68842
  20
378.75031
  0
VERTEX
  5
925
  8
Layer_0
  10
194.68842
  20
378.51959
  0
VERTEX
  5
926
  8
Layer_0
  10
194.68842
  20
378.28888
  0
VERTEX
  5
927
  8
Layer_0
  10
194.68842
  20
378.05817
  0
VERTEX
  5
928
  8
Layer_0
  10
194.68842
  20
377.82745
  0
VERTEX
  5
929
  8
Layer_0
  10
194.68842
  20
377.59674
  0
VERTEX
  5
92a
  8
Layer_0
  10
194.68842
  20
377.36603
  0
VERTEX
  5
92b
  8
Layer_0
  10
194.68842
  20
377.13531
  0
VERTEX
  5
92c
  8
Layer_0
  10
194.68842
  20
376.9046
  0
VERTEX
  5
92d
  8
Layer_0
  10
194.68842
  20
376.67389
  0
VERTEX
  5
92e
  8
Layer_0
  10
194.68842
  20
376.44312
  0
VERTEX
  5
92f
  8
Layer_0
  10
194.68842
  20
376.2124
  0
VERTEX
  5
930
  8
Layer_0
  10
194.48499
  20
376.2124
  0
VERTEX
  5
931
  8
Layer_0
  10
194.28156
  20
376.2124
  0
VERTEX
  5
932
  8
Layer_0
  10
194.07813
  20
376.2124
  0
VERTEX
  5
933
  8
Layer_0
  10
193.87469
  20
376.2124
  0
VERTEX
  5
934
  8
Layer_0
  10
193.67126
  20
376.2124
  0
VERTEX
  5
935
  8
Layer_0
  10
193.4679
  20
376.2124
  0
VERTEX
  5
936
  8
Layer_0
  10
193.26447
  20
376.2124
  0
VERTEX
  5
937
  8
Layer_0
  10
193.06104
  20
376.2124
  0
VERTEX
  5
938
  8
Layer_0
  10
192.8576
  20
376.2124
  0
VERTEX
  5
939
  8
Layer_0
  10
192.65417
  20
376.2124
  0
VERTEX
  5
93a
  8
Layer_0
  10
192.45074
  20
376.2124
  0
VERTEX
  5
93b
  8
Layer_0
  10
192.24731
  20
376.2124
  0
VERTEX
  5
93c
  8
Layer_0
  10
192.04388
  20
376.2124
  0
VERTEX
  5
93d
  8
Layer_0
  10
191.84045
  20
376.2124
  0
VERTEX
  5
93e
  8
Layer_0
  10
191.63708
  20
376.2124
  0
VERTEX
  5
93f
  8
Layer_0
  10
191.43365
  20
376.2124
  0
VERTEX
  5
940
  8
Layer_0
  10
191.23022
  20
376.2124
  0
VERTEX
  5
941
  8
Layer_0
  10
191.02679
  20
376.2124
  0
VERTEX
  5
942
  8
Layer_0
  10
190.82336
  20
376.2124
  0
VERTEX
  5
943
  8
Layer_0
  10
190.61993
  20
376.2124
  0
VERTEX
  5
944
  8
Layer_0
  10
190.4165
  20
376.2124
  0
VERTEX
  5
945
  8
Layer_0
  10
190.21307
  20
376.2124
  0
VERTEX
  5
946
  8
Layer_0
  10
190.00964
  20
376.2124
  0
VERTEX
  5
947
  8
Layer_0
  10
189.80621
  20
376.2124
  0
VERTEX
  5
948
  8
Layer_0
  10
189.60284
  20
376.2124
  0
VERTEX
  5
949
  8
Layer_0
  10
189.39941
  20
376.2124
  0
VERTEX
  5
94a
  8
Layer_0
  10
189.19598
  20
376.2124
  0
VERTEX
  5
94b
  8
Layer_0
  10
188.99255
  20
376.2124
  0
VERTEX
  5
94c
  8
Layer_0
  10
188.78912
  20
376.2124
  0
VERTEX
  5
94d
  8
Layer_0
  10
188.58569
  20
376.2124
  0
VERTEX
  5
94e
  8
Layer_0
  10
188.38226
  20
376.2124
  0
VERTEX
  5
94f
  8
Layer_0
  10
188.17883
  20
376.2124
  0
VERTEX
  5
950
  8
Layer_0
  10
187.9754
  20
376.2124
  0
VERTEX
  5
951
  8
Layer_0
  10
187.77197
  20
376.2124
  0
VERTEX
  5
952
  8
Layer_0
  10
187.5686
  20
376.2124
  0
VERTEX
  5
953
  8
Layer_0
  10
187.36517
  20
376.2124
  0
VERTEX
  5
954
  8
Layer_0
  10
187.16174
  20
376.2124
  0
VERTEX
  5
955
  8
Layer_0
  10
186.95831
  20
376.2124
  0
VERTEX
  5
956
  8
Layer_0
  10
186.75488
  20
376.2124
  0
VERTEX
  5
957
  8
Layer_0
  10
186.55145
  20
376.2124
  0
VERTEX
  5
958
  8
Layer_0
  10
186.34802
  20
376.2124
  0
VERTEX
  5
959
  8
Layer_0
  10
186.14459
  20
376.2124
  0
VERTEX
  5
95a
  8
Layer_0
  10
185.94116
  20
376.2124
  0
VERTEX
  5
95b
  8
Layer_0
  10
185.73779
  20
376.2124
  0
VERTEX
  5
95c
  8
Layer_0
  10
185.53436
  20
376.2124
  0
VERTEX
  5
95d
  8
Layer_0
  10
185.33093
  20
376.2124
  0
VERTEX
  5
95e
  8
Layer_0
  10
185.1275
  20
376.2124
  0
VERTEX
  5
95f
  8
Layer_0
  10
184.92407
  20
376.2124
  0
VERTEX
  5
960
  8
Layer_0
  10
184.72064
  20
376.2124
  0
VERTEX
  5
961
  8
Layer_0
  10
184.51721
  20
376.2124
  0
VERTEX
  5
962
  8
Layer_0
  10
184.31378
  20
376.2124
  0
VERTEX
  5
963
  8
Layer_0
  10
184.11035
  20
376.2124
  0
VERTEX
  5
964
  8
Layer_0
  10
183.90692
  20
376.2124
  0
VERTEX
  5
965
  8
Layer_0
  10
183.70355
  20
376.2124
  0
VERTEX
  5
966
  8
Layer_0
  10
183.50012
  20
376.2124
  0
VERTEX
  5
967
  8
Layer_0
  10
183.29669
  20
376.2124
  0
VERTEX
  5
968
  8
Layer_0
  10
183.09326
  20
376.2124
  0
VERTEX
  5
969
  8
Layer_0
  10
182.88983
  20
376.2124
  0
VERTEX
  5
96a
  8
Layer_0
  10
182.6864
  20
376.2124
  0
VERTEX
  5
96b
  8
Layer_0
  10
182.48297
  20
376.2124
  0
VERTEX
  5
96c
  8
Layer_0
  10
182.27954
  20
376.2124
  0
VERTEX
  5
96d
  8
Layer_0
  10
182.07611
  20
376.2124
  0
VERTEX
  5
96e
  8
Layer_0
  10
181.87274
  20
376.2124
  0
VERTEX
  5
96f
  8
Layer_0
  10
181.66931
  20
376.2124
  0
VERTEX
  5
970
  8
Layer_0
  10
181.46588
  20
376.2124
  0
VERTEX
  5
971
  8
Layer_0
  10
181.26245
  20
376.2124
  0
VERTEX
  5
972
  8
Layer_0
  10
181.05902
  20
376.2124
  0
VERTEX
  5
973
  8
Layer_0
  10
180.85559
  20
376.2124
  0
VERTEX
  5
974
  8
Layer_0
  10
180.65216
  20
376.2124
  0
VERTEX
  5
975
  8
Layer_0
  10
180.44873
  20
376.2124
  0
VERTEX
  5
976
  8
Layer_0
  10
180.2453
  20
376.2124
  0
VERTEX
  5
977
  8
Layer_0
  10
180.04187
  20
376.2124
  0
VERTEX
  5
978
  8
Layer_0
  10
179.8385
  20
376.2124
  0
VERTEX
  5
979
  8
Layer_0
  10
179.8385
  20
376.44312
  0
VERTEX
  5
97a
  8
Layer_0
  10
179.8385
  20
376.67383
  0
VERTEX
  5
97b
  8
Layer_0
  10
179.8385
  20
376.9046
  0
VERTEX
  5
97c
  8
Layer_0
  10
179.8385
  20
377.13531
  0
VERTEX
  5
97d
  8
Layer_0
  10
179.8385
  20
377.36603
  0
VERTEX
  5
97e
  8
Layer_0
  10
179.8385
  20
377.59674
  0
VERTEX
  5
97f
  8
Layer_0
  10
179.8385
  20
377.82745
  0
VERTEX
  5
980
  8
Layer_0
  10
179.8385
  20
378.05817
  0
VERTEX
  5
981
  8
Layer_0
  10
179.8385
  20
378.28888
  0
VERTEX
  5
982
  8
Layer_0
  10
179.8385
  20
378.51959
  0
VERTEX
  5
983
  8
Layer_0
  10
179.8385
  20
378.75031
  0
VERTEX
  5
984
  8
Layer_0
  10
179.8385
  20
378.98102
  0
VERTEX
  5
985
  8
Layer_0
  10
179.8385
  20
379.21173
  0
VERTEX
  5
986
  8
Layer_0
  10
167.91943
  20
379.21179
  0
VERTEX
  5
987
  8
Layer_0
  10
164.84442
  20
379.21313
  0
SEQEND
  0
POLYLINE
  5
989
  8
Layer_0
  62
7
  70
1
  66
1
  10
0
  20
0
  30
0
  0
VERTEX
  5
989
  8
Layer_0
  10
400.03229
  20
341.30817
  0
VERTEX
  5
98a
  8
Layer_0
  10
399.80151
  20
341.30817
  0
VERTEX
  5
98b
  8
Layer_0
  10
399.57077
  20
341.30817
  0
VERTEX
  5
98c
  8
Layer_0
  10
399.34
  20
341.30817
  0
VERTEX
  5
98d
  8
Layer_0
  10
399.10922
  20
341.30817
  0
VERTEX
  5
98e
  8
Layer_0
  10
398.87845
  20
341.30817
  0
VERTEX
  5
98f
  8
Layer_0
  10
398.87845
  20
341.10376
  0
VERTEX
  5
990
  8
Layer_0
  10
398.87845
  20
340.89929
  0
VERTEX
  5
991
  8
Layer_0
  10
398.87845
  20
340.69489
  0
VERTEX
  5
992
  8
Layer_0
  10
398.87845
  20
340.49042
  0
VERTEX
  5
993
  8
Layer_0
  10
398.87845
  20
340.28595
  0
VERTEX
  5
994
  8
Layer_0
  10
398.87845
  20
340.08154
  0
VERTEX
  5
995
  8
Layer_0
  10
398.87845
  20
339.87708
  0
VERTEX
  5
996
  8
Layer_0
  10
398.87845
  20
339.67267
  0
VERTEX
  5
997
  8
Layer_0
  10
398.87845
  20
339.4682
  0
VERTEX
  5
998
  8
Layer_0
  10
398.87845
  20
339.26379
  0
VERTEX
  5
999
  8
Layer_0
  10
398.87845
  20
339.05933
  0
VERTEX
  5
99a
  8
Layer_0
  10
398.87845
  20
338.85492
  0
VERTEX
  5
99b
  8
Layer_0
  10
398.87845
  20
338.65045
  0
VERTEX
  5
99c
  8
Layer_0
  10
398.87845
  20
338.44604
  0
VERTEX
  5
99d
  8
Layer_0
  10
398.87845
  20
338.24158
  0
VERTEX
  5
99e
  8
Layer_0
  10
398.87845
  20
338.03717
  0
VERTEX
  5
99f
  8
Layer_0
  10
398.87845
  20
337.8327
  0
VERTEX
  5
9a0
  8
Layer_0
  10
398.87845
  20
337.6283
  0
VERTEX
  5
9a1
  8
Layer_0
  10
398.87845
  20
337.42383
  0
VERTEX
  5
9a2
  8
Layer_0
  10
398.87845
  20
337.21936
  0
VERTEX
  5
9a3
  8
Layer_0
  10
398.87845
  20
337.01495
  0
VERTEX
  5
9a4
  8
Layer_0
  10
398.87845
  20
336.81049
  0
VERTEX
  5
9a5
  8
Layer_0
  10
398.87845
  20
336.60608
  0
VERTEX
  5
9a6
  8
Layer_0
  10
398.87845
  20
336.40161
  0
VERTEX
  5
9a7
  8
Layer_0
  10
398.87845
  20
336.1972
  0
VERTEX
  5
9a8
  8
Layer_0
  10
398.87845
  20
335.99274
  0
VERTEX
  5
9a9
  8
Layer_0
  10
398.87845
  20
335.78833
  0
VERTEX
  5
9aa
  8
Layer_0
  10
398.87845
  20
335.58386
  0
VERTEX
  5
9ab
  8
Layer_0
  10
398.87845
  20
335.37946
  0
VERTEX
  5
9ac
  8
Layer_0
  10
398.87845
  20
335.17499
  0
VERTEX
  5
9ad
  8
Layer_0
  10
398.87845
  20
334.97058
  0
VERTEX
  5
9ae
  8
Layer_0
  10
398.87845
  20
334.76611
  0
VERTEX
  5
9af
  8
Layer_0
  10
398.87845
  20
334.56171
  0
VERTEX
  5
9b0
  8
Layer_0
  10
398.87845
  20
334.35724
  0
VERTEX
  5
9b1
  8
Layer_0
  10
398.87845
  20
334.15277
  0
VERTEX
  5
9b2
  8
Layer_0
  10
398.87845
  20
333.94836
  0
VERTEX
  5
9b3
  8
Layer_0
  10
398.87845
  20
333.7439
  0
VERTEX
  5
9b4
  8
Layer_0
  10
398.87845
  20
333.53949
  0
VERTEX
  5
9b5
  8
Layer_0
  10
398.87845
  20
333.33502
  0
VERTEX
  5
9b6
  8
Layer_0
  10
398.87845
  20
333.13062
  0
VERTEX
  5
9b7
  8
Layer_0
  10
398.87845
  20
332.92615
  0
VERTEX
  5
9b8
  8
Layer_0
  10
398.87845
  20
332.72174
  0
VERTEX
  5
9b9
  8
Layer_0
  10
398.87845
  20
332.51727
  0
VERTEX
  5
9ba
  8
Layer_0
  10
398.87845
  20
332.31287
  0
VERTEX
  5
9bb
  8
Layer_0
  10
398.87845
  20
332.1084
  0
VERTEX
  5
9bc
  8
Layer_0
  10
398.87845
  20
331.90399
  0
VERTEX
  5
9bd
  8
Layer_0
  10
398.87845
  20
331.69952
  0
VERTEX
  5
9be
  8
Layer_0
  10
398.87845
  20
331.49512
  0
VERTEX
  5
9bf
  8
Layer_0
  10
398.87845
  20
331.29065
  0
VERTEX
  5
9c0
  8
Layer_0
  10
398.87845
  20
331.08624
  0
VERTEX
  5
9c1
  8
Layer_0
  10
398.87845
  20
330.88177
  0
VERTEX
  5
9c2
  8
Layer_0
  10
398.87845
  20
330.67731
  0
VERTEX
  5
9c3
  8
Layer_0
  10
398.87845
  20
330.4729
  0
VERTEX
  5
9c4
  8
Layer_0
  10
398.87845
  20
330.26843
  0
VERTEX
  5
9c5
  8
Layer_0
  10
398.87845
  20
330.06403
  0
VERTEX
  5
9c6
  8
Layer_0
  10
398.87845
  20
329.85956
  0
VERTEX
  5
9c7
  8
Layer_0
  10
398.87845
  20
329.65515
  0
VERTEX
  5
9c8
  8
Layer_0
  10
398.87845
  20
329.45068
  0
VERTEX
  5
9c9
  8
Layer_0
  10
398.87845
  20
329.24628
  0
VERTEX
  5
9ca
  8
Layer_0
  10
398.87845
  20
329.04181
  0
VERTEX
  5
9cb
  8
Layer_0
  10
398.87845
  20
328.8374
  0
VERTEX
  5
9cc
  8
Layer_0
  10
398.87845
  20
328.63293
  0
VERTEX
  5
9cd
  8
Layer_0
  10
398.87845
  20
328.42853
  0
VERTEX
  5
9ce
  8
Layer_0
  10
398.87845
  20
328.22406
  0
VERTEX
  5
9cf
  8
Layer_0
  10
398.87845
  20
328.01965
  0
VERTEX
  5
9d0
  8
Layer_0
  10
398.87845
  20
327.81519
  0
VERTEX
  5
9d1
  8
Layer_0
  10
398.87845
  20
327.61072
  0
VERTEX
  5
9d2
  8
Layer_0
  10
398.87845
  20
327.40631
  0
VERTEX
  5
9d3
  8
Layer_0
  10
398.87845
  20
327.20184
  0
VERTEX
  5
9d4
  8
Layer_0
  10
398.87845
  20
326.99744
  0
VERTEX
  5
9d5
  8
Layer_0
  10
398.87845
  20
326.79297
  0
VERTEX
  5
9d6
  8
Layer_0
  10
398.87845
  20
326.58856
  0
VERTEX
  5
9d7
  8
Layer_0
  10
398.87845
  20
326.38409
  0
VERTEX
  5
9d8
  8
Layer_0
  10
398.87845
  20
326.17969
  0
VERTEX
  5
9d9
  8
Layer_0
  10
268.49957
  20
326.17969
  0
VERTEX
  5
9da
  8
Layer_0
  10
268.49957
  20
326.38409
  0
VERTEX
  5
9db
  8
Layer_0
  10
268.49957
  20
326.58856
  0
VERTEX
  5
9dc
  8
Layer_0
  10
268.49957
  20
326.79297
  0
VERTEX
  5
9dd
  8
Layer_0
  10
268.49957
  20
326.99744
  0
VERTEX
  5
9de
  8
Layer_0
  10
268.49957
  20
327.20184
  0
VERTEX
  5
9df
  8
Layer_0
  10
268.49957
  20
327.40631
  0
VERTEX
  5
9e0
  8
Layer_0
  10
268.49957
  20
327.61072
  0
VERTEX
  5
9e1
  8
Layer_0
  10
268.49957
  20
327.81519
  0
VERTEX
  5
9e2
  8
Layer_0
  10
268.49957
  20
328.01965
  0
VERTEX
  5
9e3
  8
Layer_0
  10
268.49957
  20
328.22406
  0
VERTEX
  5
9e4
  8
Layer_0
  10
268.49957
  20
328.42853
  0
VERTEX
  5
9e5
  8
Layer_0
  10
268.49957
  20
328.63293
  0
VERTEX
  5
9e6
  8
Layer_0
  10
268.49957
  20
328.8374
  0
VERTEX
  5
9e7
  8
Layer_0
  10
268.49957
  20
329.04181
  0
VERTEX
  5
9e8
  8
Layer_0
  10
268.49957
  20
329.24628
  0
VERTEX
  5
9e9
  8
Layer_0
  10
268.49957
  20
329.45068
  0
VERTEX
  5
9ea
  8
Layer_0
  10
268.49957
  20
329.65515
  0
VERTEX
  5
9eb
  8
Layer_0
  10
268.49957
  20
329.85956
  0
VERTEX
  5
9ec
  8
Layer_0
  10
268.49957
  20
330.06403
  0
VERTEX
  5
9ed
  8
Layer_0
  10
268.49957
  20
330.26843
  0
VERTEX
  5
9ee
  8
Layer_0
  10
268.49957
  20
330.4729
  0
VERTEX
  5
9ef
  8
Layer_0
  10
268.49957
  20
330.67731
  0
VERTEX
  5
9f0
  8
Layer_0
  10
268.49957
  20
330.88177
  0
VERTEX
  5
9f1
  8
Layer_0
  10
268.49957
  20
331.08624
  0
VERTEX
  5
9f2
  8
Layer_0
  10
268.49957
  20
331.29065
  0
VERTEX
  5
9f3
  8
Layer_0
  10
268.49957
  20
331.49512
  0
VERTEX
  5
9f4
  8
Layer_0
  10
268.49957
  20
331.69952
  0
VERTEX
  5
9f5
  8
Layer_0
  10
268.49957
  20
331.90399
  0
VERTEX
  5
9f6
  8
Layer_0
  10
268.49957
  20
332.1084
  0
VERTEX
  5
9f7
  8
Layer_0
  10
268.49957
  20
332.31287
  0
VERTEX
  5
9f8
  8
Layer_0
  10
268.49957
  20
332.51727
  0
VERTEX
  5
9f9
  8
Layer_0
  10
268.49957
  20
332.72174
  0
VERTEX
  5
9fa
  8
Layer_0
  10
268.49957
  20
332.92615
  0
VERTEX
  5
9fb
  8
Layer_0
  10
268.49957
  20
333.13062
  0
VERTEX
  5
9fc
  8
Layer_0
  10
268.49957
  20
333.33502
  0
VERTEX
  5
9fd
  8
Layer_0
  10
268.49957
  20
333.53949
  0
VERTEX
  5
9fe
  8
Layer_0
  10
268.49957
  20
333.7439
  0
VERTEX
  5
9ff
  8
Layer_0
  10
268.49957
  20
333.94836
  0
VERTEX
  5
a00
  8
Layer_0
  10
268.49957
  20
334.15277
  0
VERTEX
  5
a01
  8
Layer_0
  10
268.49957
  20
334.35724
  0
VERTEX
  5
a02
  8
Layer_0
  10
268.49957
  20
334.56171
  0
VERTEX
  5
a03
  8
Layer_0
  10
268.49957
  20
334.76611
  0
VERTEX
  5
a04
  8
Layer_0
  10
268.49957
  20
334.97058
  0
VERTEX
  5
a05
  8
Layer_0
  10
268.49957
  20
335.17499
  0
VERTEX
  5
a06
  8
Layer_0
  10
268.49957
  20
335.37946
  0
VERTEX
  5
a07
  8
Layer_0
  10
268.49957
  20
335.58386
  0
VERTEX
  5
a08
  8
Layer_0
  10
268.49957
  20
335.78833
  0
VERTEX
  5
a09
  8
Layer_0
  10
268.49957
  20
335.99274
  0
VERTEX
  5
a0a
  8
Layer_0
  10
268.49957
  20
336.1972
  0
VERTEX
  5
a0b
  8
Layer_0
  10
268.49957
  20
336.40161
  0
VERTEX
  5
a0c
  8
Layer_0
  10
268.49957
  20
336.60608
  0
VERTEX
  5
a0d
  8
Layer_0
  10
268.49957
  20
336.81049
  0
VERTEX
  5
a0e
  8
Layer_0
  10
268.49957
  20
337.01495
  0
VERTEX
  5
a0f
  8
Layer_0
  10
268.49957
  20
337.21936
  0
VERTEX
  5
a10
  8
Layer_0
  10
268.49957
  20
337.42383
  0
VERTEX
  5
a11
  8
Layer_0
  10
268.49957
  20
337.6283
  0
VERTEX
  5
a12
  8
Layer_0
  10
268.49957
  20
337.8327
  0
VERTEX
  5
a13
  8
Layer_0
  10
268.49957
  20
338.03717
  0
VERTEX
  5
a14
  8
Layer_0
  10
268.49957
  20
338.24158
  0
VERTEX
  5
a15
  8
Layer_0
  10
268.49957
  20
338.44604
  0
VERTEX
  5
a16
  8
Layer_0
  10
268.49957
  20
338.65045
  0
VERTEX
  5
a17
  8
Layer_0
  10
268.49957
  20
338.85492
  0
VERTEX
  5
a18
  8
Layer_0
  10
268.49957
  20
339.05933
  0
VERTEX
  5
a19
  8
Layer_0
  10
268.49957
  20
339.26379
  0
VERTEX
  5
a1a
  8
Layer_0
  10
268.49957
  20
339.4682
  0
VERTEX
  5
a1b
  8
Layer_0
  10
268.49957
  20
339.67267
  0
VERTEX
  5
a1c
  8
Layer_0
  10
268.49957
  20
339.87708
  0
VERTEX
  5
a1d
  8
Layer_0
  10
268.49957
  20
340.08154
  0
VERTEX
  5
a1e
  8
Layer_0
  10
268.49957
  20
340.28595
  0
VERTEX
  5
a1f
  8
Layer_0
  10
268.49957
  20
340.49042
  0
VERTEX
  5
a20
  8
Layer_0
  10
268.49957
  20
340.69489
  0
VERTEX
  5
a21
  8
Layer_0
  10
268.49957
  20
340.89929
  0
VERTEX
  5
a22
  8
Layer_0
  10
268.49957
  20
341.10376
  0
VERTEX
  5
a23
  8
Layer_0
  10
268.49957
  20
341.30817
  0
VERTEX
  5
a24
  8
Layer_0
  10
268.28528
  20
341.30817
  0
VERTEX
  5
a25
  8
Layer_0
  10
268.07098
  20
341.30817
  0
VERTEX
  5
a26
  8
Layer_0
  10
267.85672
  20
341.30817
  0
VERTEX
  5
a27
  8
Layer_0
  10
267.64243
  20
341.30817
  0
VERTEX
  5
a28
  8
Layer_0
  10
267.42816
  20
341.30817
  0
VERTEX
  5
a29
  8
Layer_0
  10
267.21387
  20
341.30817
  0
VERTEX
  5
a2a
  8
Layer_0
  10
266.99957
  20
341.30817
  0
VERTEX
  5
a2b
  8
Layer_0
  10
266.78528
  20
341.30817
  0
VERTEX
  5
a2c
  8
Layer_0
  10
266.57098
  20
341.30817
  0
VERTEX
  5
a2d
  8
Layer_0
  10
266.35672
  20
341.30817
  0
VERTEX
  5
a2e
  8
Layer_0
  10
266.14243
  20
341.30817
  0
VERTEX
  5
a2f
  8
Layer_0
  10
265.92816
  20
341.30817
  0
VERTEX
  5
a30
  8
Layer_0
  10
265.71387
  20
341.30817
  0
VERTEX
  5
a31
  8
Layer_0
  10
265.49957
  20
341.30817
  0
VERTEX
  5
a32
  8
Layer_0
  10
265.49957
  20
361.82727
  0
VERTEX
  5
a33
  8
Layer_0
  10
265.71387
  20
361.82727
  0
VERTEX
  5
a34
  8
Layer_0
  10
265.92816
  20
361.82727
  0
VERTEX
  5
a35
  8
Layer_0
  10
266.14243
  20
361.82727
  0
VERTEX
  5
a36
  8
Layer_0
  10
266.35672
  20
361.82727
  0
VERTEX
  5
a37
  8
Layer_0
  10
266.57098
  20
361.82727
  0
VERTEX
  5
a38
  8
Layer_0
  10
266.78528
  20
361.82727
  0
VERTEX
  5
a39
  8
Layer_0
  10
266.99957
  20
361.82727
  0
VERTEX
  5
a3a
  8
Layer_0
  10
267.21387
  20
361.82727
  0
VERTEX
  5
a3b
  8
Layer_0
  10
267.42816
  20
361.82727
  0
VERTEX
  5
a3c
  8
Layer_0
  10
267.64243
  20
361.82727
  0
VERTEX
  5
a3d
  8
Layer_0
  10
267.85672
  20
361.82727
  0
VERTEX
  5
a3e
  8
Layer_0
  10
268.07098
  20
361.82727
  0
VERTEX
  5
a3f
  8
Layer_0
  10
268.28528
  20
361.82727
  0
VERTEX
  5
a40
  8
Layer_0
  10
268.49957
  20
361.82727
  0
VERTEX
  5
a41
  8
Layer_0
  10
268.49957
  20
362.03278
  0
VERTEX
  5
a42
  8
Layer_0
  10
268.49957
  20
362.23828
  0
VERTEX
  5
a43
  8
Layer_0
  10
268.49957
  20
362.44385
  0
VERTEX
  5
a44
  8
Layer_0
  10
268.49957
  20
362.64935
  0
VERTEX
  5
a45
  8
Layer_0
  10
268.49957
  20
362.85486
  0
VERTEX
  5
a46
  8
Layer_0
  10
268.49957
  20
363.06036
  0
VERTEX
  5
a47
  8
Layer_0
  10
268.49957
  20
363.26593
  0
VERTEX
  5
a48
  8
Layer_0
  10
268.49957
  20
363.47144
  0
VERTEX
  5
a49
  8
Layer_0
  10
268.49957
  20
363.67694
  0
VERTEX
  5
a4a
  8
Layer_0
  10
268.49957
  20
363.88245
  0
VERTEX
  5
a4b
  8
Layer_0
  10
268.49957
  20
364.08801
  0
VERTEX
  5
a4c
  8
Layer_0
  10
268.49957
  20
364.29352
  0
VERTEX
  5
a4d
  8
Layer_0
  10
268.49957
  20
364.49902
  0
VERTEX
  5
a4e
  8
Layer_0
  10
268.49957
  20
364.70453
  0
VERTEX
  5
a4f
  8
Layer_0
  10
268.49957
  20
364.9101
  0
VERTEX
  5
a50
  8
Layer_0
  10
268.49957
  20
365.1156
  0
VERTEX
  5
a51
  8
Layer_0
  10
268.49957
  20
365.32111
  0
VERTEX
  5
a52
  8
Layer_0
  10
268.49957
  20
365.52661
  0
VERTEX
  5
a53
  8
Layer_0
  10
268.49957
  20
365.73218
  0
VERTEX
  5
a54
  8
Layer_0
  10
268.49957
  20
365.93768
  0
VERTEX
  5
a55
  8
Layer_0
  10
268.49957
  20
366.14319
  0
VERTEX
  5
a56
  8
Layer_0
  10
268.49957
  20
366.34869
  0
VERTEX
  5
a57
  8
Layer_0
  10
268.49957
  20
366.55426
  0
VERTEX
  5
a58
  8
Layer_0
  10
268.49957
  20
366.75977
  0
VERTEX
  5
a59
  8
Layer_0
  10
268.49957
  20
366.96527
  0
VERTEX
  5
a5a
  8
Layer_0
  10
268.49957
  20
367.17078
  0
VERTEX
  5
a5b
  8
Layer_0
  10
268.49957
  20
367.37634
  0
VERTEX
  5
a5c
  8
Layer_0
  10
268.49957
  20
367.58185
  0
VERTEX
  5
a5d
  8
Layer_0
  10
268.49957
  20
367.78735
  0
VERTEX
  5
a5e
  8
Layer_0
  10
268.49957
  20
367.99286
  0
VERTEX
  5
a5f
  8
Layer_0
  10
268.49957
  20
368.19843
  0
VERTEX
  5
a60
  8
Layer_0
  10
268.49957
  20
368.40393
  0
VERTEX
  5
a61
  8
Layer_0
  10
268.49957
  20
368.60944
  0
VERTEX
  5
a62
  8
Layer_0
  10
268.49957
  20
368.81494
  0
VERTEX
  5
a63
  8
Layer_0
  10
268.49957
  20
369.02051
  0
VERTEX
  5
a64
  8
Layer_0
  10
268.49957
  20
369.22601
  0
VERTEX
  5
a65
  8
Layer_0
  10
268.49957
  20
369.43152
  0
VERTEX
  5
a66
  8
Layer_0
  10
268.49957
  20
369.63702
  0
VERTEX
  5
a67
  8
Layer_0
  10
268.49957
  20
369.84259
  0
VERTEX
  5
a68
  8
Layer_0
  10
268.49957
  20
370.0481
  0
VERTEX
  5
a69
  8
Layer_0
  10
268.49957
  20
370.2536
  0
VERTEX
  5
a6a
  8
Layer_0
  10
268.49957
  20
370.45911
  0
VERTEX
  5
a6b
  8
Layer_0
  10
268.49957
  20
370.66467
  0
VERTEX
  5
a6c
  8
Layer_0
  10
268.49957
  20
370.87018
  0
VERTEX
  5
a6d
  8
Layer_0
  10
268.49957
  20
371.07568
  0
VERTEX
  5
a6e
  8
Layer_0
  10
268.49957
  20
371.28125
  0
VERTEX
  5
a6f
  8
Layer_0
  10
268.49957
  20
371.48676
  0
VERTEX
  5
a70
  8
Layer_0
  10
268.49957
  20
371.69226
  0
VERTEX
  5
a71
  8
Layer_0
  10
268.49957
  20
371.89777
  0
VERTEX
  5
a72
  8
Layer_0
  10
268.49957
  20
372.10333
  0
VERTEX
  5
a73
  8
Layer_0
  10
268.49957
  20
372.30884
  0
VERTEX
  5
a74
  8
Layer_0
  10
268.49957
  20
372.51434
  0
VERTEX
  5
a75
  8
Layer_0
  10
268.49957
  20
372.71985
  0
VERTEX
  5
a76
  8
Layer_0
  10
268.49957
  20
372.92542
  0
VERTEX
  5
a77
  8
Layer_0
  10
268.49957
  20
373.13092
  0
VERTEX
  5
a78
  8
Layer_0
  10
268.49957
  20
373.33643
  0
VERTEX
  5
a79
  8
Layer_0
  10
268.49957
  20
373.54193
  0
VERTEX
  5
a7a
  8
Layer_0
  10
268.49957
  20
373.7475
  0
VERTEX
  5
a7b
  8
Layer_0
  10
268.49957
  20
373.953
  0
VERTEX
  5
a7c
  8
Layer_0
  10
268.49957
  20
374.15851
  0
VERTEX
  5
a7d
  8
Layer_0
  10
268.49957
  20
374.36401
  0
VERTEX
  5
a7e
  8
Layer_0
  10
268.49957
  20
374.56958
  0
VERTEX
  5
a7f
  8
Layer_0
  10
268.49957
  20
374.77509
  0
VERTEX
  5
a80
  8
Layer_0
  10
268.49957
  20
374.98059
  0
VERTEX
  5
a81
  8
Layer_0
  10
268.49957
  20
375.1861
  0
VERTEX
  5
a82
  8
Layer_0
  10
268.49957
  20
375.39166
  0
VERTEX
  5
a83
  8
Layer_0
  10
268.49957
  20
375.59717
  0
VERTEX
  5
a84
  8
Layer_0
  10
268.49957
  20
375.80267
  0
VERTEX
  5
a85
  8
Layer_0
  10
268.49957
  20
376.00818
  0
VERTEX
  5
a86
  8
Layer_0
  10
268.49957
  20
376.21375
  0
VERTEX
  5
a87
  8
Layer_0
  10
268.70386
  20
376.21375
  0
VERTEX
  5
a88
  8
Layer_0
  10
268.90811
  20
376.21375
  0
VERTEX
  5
a89
  8
Layer_0
  10
269.11237
  20
376.21375
  0
VERTEX
  5
a8a
  8
Layer_0
  10
269.31665
  20
376.21375
  0
VERTEX
  5
a8b
  8
Layer_0
  10
269.52094
  20
376.21375
  0
VERTEX
  5
a8c
  8
Layer_0
  10
269.72519
  20
376.21375
  0
VERTEX
  5
a8d
  8
Layer_0
  10
269.92944
  20
376.21375
  0
VERTEX
  5
a8e
  8
Layer_0
  10
270.13373
  20
376.21375
  0
VERTEX
  5
a8f
  8
Layer_0
  10
270.33801
  20
376.21375
  0
VERTEX
  5
a90
  8
Layer_0
  10
270.54227
  20
376.21375
  0
VERTEX
  5
a91
  8
Layer_0
  10
270.74652
  20
376.21375
  0
VERTEX
  5
a92
  8
Layer_0
  10
270.95081
  20
376.21375
  0
VERTEX
  5
a93
  8
Layer_0
  10
271.15509
  20
376.21375
  0
VERTEX
  5
a94
  8
Layer_0
  10
271.35934
  20
376.21375
  0
VERTEX
  5
a95
  8
Layer_0
  10
271.5636
  20
376.21375
  0
VERTEX
  5
a96
  8
Layer_0
  10
271.76788
  20
376.21375
  0
VERTEX
  5
a97
  8
Layer_0
  10
271.97217
  20
376.21375
  0
VERTEX
  5
a98
  8
Layer_0
  10
272.17642
  20
376.21375
  0
VERTEX
  5
a99
  8
Layer_0
  10
272.38068
  20
376.21375
  0
VERTEX
  5
a9a
  8
Layer_0
  10
272.58496
  20
376.21375
  0
VERTEX
  5
a9b
  8
Layer_0
  10
272.78925
  20
376.21375
  0
VERTEX
  5
a9c
  8
Layer_0
  10
272.9935
  20
376.21375
  0
VERTEX
  5
a9d
  8
Layer_0
  10
273.19775
  20
376.21375
  0
VERTEX
  5
a9e
  8
Layer_0
  10
273.40204
  20
376.21375
  0
VERTEX
  5
a9f
  8
Layer_0
  10
273.60632
  20
376.21375
  0
VERTEX
  5
aa0
  8
Layer_0
  10
273.81055
  20
376.21375
  0
VERTEX
  5
aa1
  8
Layer_0
  10
274.01483
  20
376.21375
  0
VERTEX
  5
aa2
  8
Layer_0
  10
274.21912
  20
376.21375
  0
VERTEX
  5
aa3
  8
Layer_0
  10
274.42337
  20
376.21375
  0
VERTEX
  5
aa4
  8
Layer_0
  10
274.62762
  20
376.21375
  0
VERTEX
  5
aa5
  8
Layer_0
  10
274.83191
  20
376.21375
  0
VERTEX
  5
aa6
  8
Layer_0
  10
275.03619
  20
376.21375
  0
VERTEX
  5
aa7
  8
Layer_0
  10
275.24045
  20
376.21375
  0
VERTEX
  5
aa8
  8
Layer_0
  10
275.4447
  20
376.21375
  0
VERTEX
  5
aa9
  8
Layer_0
  10
275.64899
  20
376.21375
  0
VERTEX
  5
aaa
  8
Layer_0
  10
275.85327
  20
376.21375
  0
VERTEX
  5
aab
  8
Layer_0
  10
276.05753
  20
376.21375
  0
VERTEX
  5
aac
  8
Layer_0
  10
276.26178
  20
376.21375
  0
VERTEX
  5
aad
  8
Layer_0
  10
276.46606
  20
376.21375
  0
VERTEX
  5
aae
  8
Layer_0
  10
276.67035
  20
376.21375
  0
VERTEX
  5
aaf
  8
Layer_0
  10
276.8746
  20
376.21375
  0
VERTEX
  5
ab0
  8
Layer_0
  10
277.07886
  20
376.21375
  0
VERTEX
  5
ab1
  8
Layer_0
  10
277.28314
  20
376.21375
  0
VERTEX
  5
ab2
  8
Layer_0
  10
277.48743
  20
376.21375
  0
VERTEX
  5
ab3
  8
Layer_0
  10
277.69168
  20
376.21375
  0
VERTEX
  5
ab4
  8
Layer_0
  10
277.89594
  20
376.21375
  0
VERTEX
  5
ab5
  8
Layer_0
  10
278.10022
  20
376.21375
  0
VERTEX
  5
ab6
  8
Layer_0
  10
278.3045
  20
376.21375
  0
VERTEX
  5
ab7
  8
Layer_0
  10
278.50876
  20
376.21375
  0
VERTEX
  5
ab8
  8
Layer_0
  10
278.71301
  20
376.21375
  0
VERTEX
  5
ab9
  8
Layer_0
  10
278.9173
  20
376.21375
  0
VERTEX
  5
aba
  8
Layer_0
  10
279.12158
  20
376.21375
  0
VERTEX
  5
abb
  8
Layer_0
  10
279.32584
  20
376.21375
  0
VERTEX
  5
abc
  8
Layer_0
  10
279.53009
  20
376.21375
  0
VERTEX
  5
abd
  8
Layer_0
  10
279.73438
  20
376.21375
  0
VERTEX
  5
abe
  8
Layer_0
  10
279.93866
  20
376.21375
  0
VERTEX
  5
abf
  8
Layer_0
  10
280.14291
  20
376.21375
  0
VERTEX
  5
ac0
  8
Layer_0
  10
280.34717
  20
376.21375
  0
VERTEX
  5
ac1
  8
Layer_0
  10
280.55145
  20
376.21375
  0
VERTEX
  5
ac2
  8
Layer_0
  10
280.75574
  20
376.21375
  0
VERTEX
  5
ac3
  8
Layer_0
  10
280.95999
  20
376.21375
  0
VERTEX
  5
ac4
  8
Layer_0
  10
281.16425
  20
376.21375
  0
VERTEX
  5
ac5
  8
Layer_0
  10
281.36853
  20
376.21375
  0
VERTEX
  5
ac6
  8
Layer_0
  10
281.57281
  20
376.21375
  0
VERTEX
  5
ac7
  8
Layer_0
  10
281.77707
  20
376.21375
  0
VERTEX
  5
ac8
  8
Layer_0
  10
281.98132
  20
376.21375
  0
VERTEX
  5
ac9
  8
Layer_0
  10
282.18561
  20
376.21375
  0
VERTEX
  5
aca
  8
Layer_0
  10
282.38989
  20
376.21375
  0
VERTEX
  5
acb
  8
Layer_0
  10
282.59415
  20
376.21375
  0
VERTEX
  5
acc
  8
Layer_0
  10
282.7984
  20
376.21375
  0
VERTEX
  5
acd
  8
Layer_0
  10
283.00269
  20
376.21375
  0
VERTEX
  5
ace
  8
Layer_0
  10
283.20697
  20
376.21375
  0
VERTEX
  5
acf
  8
Layer_0
  10
283.41122
  20
376.21375
  0
VERTEX
  5
ad0
  8
Layer_0
  10
283.61548
  20
376.21375
  0
VERTEX
  5
ad1
  8
Layer_0
  10
283.81976
  20
376.21375
  0
VERTEX
  5
ad2
  8
Layer_0
  10
284.02405
  20
376.21375
  0
VERTEX
  5
ad3
  8
Layer_0
  10
284.2283
  20
376.21375
  0
VERTEX
  5
ad4
  8
Layer_0
  10
284.43256
  20
376.21375
  0
VERTEX
  5
ad5
  8
Layer_0
  10
284.63684
  20
376.21375
  0
VERTEX
  5
ad6
  8
Layer_0
  10
284.84113
  20
376.21375
  0
VERTEX
  5
ad7
  8
Layer_0
  10
285.04538
  20
376.21375
  0
VERTEX
  5
ad8
  8
Layer_0
  10
285.04538
  20
376.44434
  0
VERTEX
  5
ad9
  8
Layer_0
  10
285.04538
  20
376.67499
  0
VERTEX
  5
ada
  8
Layer_0
  10
285.04538
  20
376.90558
  0
VERTEX
  5
adb
  8
Layer_0
  10
285.04538
  20
377.13623
  0
VERTEX
  5
adc
  8
Layer_0
  10
285.04538
  20
377.36682
  0
VERTEX
  5
add
  8
Layer_0
  10
285.04538
  20
377.59741
  0
VERTEX
  5
ade
  8
Layer_0
  10
285.04538
  20
377.82806
  0
VERTEX
  5
adf
  8
Layer_0
  10
285.04538
  20
378.05865
  0
VERTEX
  5
ae0
  8
Layer_0
  10
285.04538
  20
378.28931
  0
VERTEX
  5
ae1
  8
Layer_0
  10
285.04538
  20
378.5199
  0
VERTEX
  5
ae2
  8
Layer_0
  10
285.04538
  20
378.75055
  0
VERTEX
  5
ae3
  8
Layer_0
  10
285.04538
  20
378.98114
  0
VERTEX
  5
ae4
  8
Layer_0
  10
285.04538
  20
379.21179
  0
VERTEX
  5
ae5
  8
Layer_0
  10
305.19537
  20
379.21179
  0
VERTEX
  5
ae6
  8
Layer_0
  10
305.19537
  20
378.98114
  0
VERTEX
  5
ae7
  8
Layer_0
  10
305.19537
  20
378.75055
  0
VERTEX
  5
ae8
  8
Layer_0
  10
305.19537
  20
378.5199
  0
VERTEX
  5
ae9
  8
Layer_0
  10
305.19537
  20
378.28931
  0
VERTEX
  5
aea
  8
Layer_0
  10
305.19537
  20
378.05865
  0
VERTEX
  5
aeb
  8
Layer_0
  10
305.19537
  20
377.82806
  0
VERTEX
  5
aec
  8
Layer_0
  10
305.19537
  20
377.59741
  0
VERTEX
  5
aed
  8
Layer_0
  10
305.19537
  20
377.36682
  0
VERTEX
  5
aee
  8
Layer_0
  10
305.19537
  20
377.13623
  0
VERTEX
  5
aef
  8
Layer_0
  10
305.19537
  20
376.90558
  0
VERTEX
  5
af0
  8
Layer_0
  10
305.19537
  20
376.67499
  0
VERTEX
  5
af1
  8
Layer_0
  10
305.19537
  20
376.44434
  0
VERTEX
  5
af2
  8
Layer_0
  10
305.19537
  20
376.21375
  0
VERTEX
  5
af3
  8
Layer_0
  10
305.39777
  20
376.21375
  0
VERTEX
  5
af4
  8
Layer_0
  10
305.60019
  20
376.21375
  0
VERTEX
  5
af5
  8
Layer_0
  10
305.80258
  20
376.21375
  0
VERTEX
  5
af6
  8
Layer_0
  10
306.005
  20
376.21375
  0
VERTEX
  5
af7
  8
Layer_0
  10
306.2074
  20
376.21375
  0
VERTEX
  5
af8
  8
Layer_0
  10
306.40979
  20
376.21375
  0
VERTEX
  5
af9
  8
Layer_0
  10
306.61218
  20
376.21375
  0
VERTEX
  5
afa
  8
Layer_0
  10
306.81458
  20
376.21375
  0
VERTEX
  5
afb
  8
Layer_0
  10
307.017
  20
376.21375
  0
VERTEX
  5
afc
  8
Layer_0
  10
307.21942
  20
376.21375
  0
VERTEX
  5
afd
  8
Layer_0
  10
307.42181
  20
376.21375
  0
VERTEX
  5
afe
  8
Layer_0
  10
307.62421
  20
376.21375
  0
VERTEX
  5
aff
  8
Layer_0
  10
307.8266
  20
376.21375
  0
VERTEX
  5
b00
  8
Layer_0
  10
308.02899
  20
376.21375
  0
VERTEX
  5
b01
  8
Layer_0
  10
308.23141
  20
376.21375
  0
VERTEX
  5
b02
  8
Layer_0
  10
308.43384
  20
376.21375
  0
VERTEX
  5
b03
  8
Layer_0
  10
308.63623
  20
376.21375
  0
VERTEX
  5
b04
  8
Layer_0
  10
308.83862
  20
376.21375
  0
VERTEX
  5
b05
  8
Layer_0
  10
309.04102
  20
376.21375
  0
VERTEX
  5
b06
  8
Layer_0
  10
309.24341
  20
376.21375
  0
VERTEX
  5
b07
  8
Layer_0
  10
309.44583
  20
376.21375
  0
VERTEX
  5
b08
  8
Layer_0
  10
309.64825
  20
376.21375
  0
VERTEX
  5
b09
  8
Layer_0
  10
309.85065
  20
376.21375
  0
VERTEX
  5
b0a
  8
Layer_0
  10
310.05304
  20
376.21375
  0
VERTEX
  5
b0b
  8
Layer_0
  10
310.25543
  20
376.21375
  0
VERTEX
  5
b0c
  8
Layer_0
  10
310.45782
  20
376.21375
  0
VERTEX
  5
b0d
  8
Layer_0
  10
310.66025
  20
376.21375
  0
VERTEX
  5
b0e
  8
Layer_0
  10
310.86267
  20
376.21375
  0
VERTEX
  5
b0f
  8
Layer_0
  10
311.06506
  20
376.21375
  0
VERTEX
  5
b10
  8
Layer_0
  10
311.26746
  20
376.21375
  0
VERTEX
  5
b11
  8
Layer_0
  10
311.46985
  20
376.21375
  0
VERTEX
  5
b12
  8
Layer_0
  10
311.67224
  20
376.21375
  0
VERTEX
  5
b13
  8
Layer_0
  10
311.87466
  20
376.21375
  0
VERTEX
  5
b14
  8
Layer_0
  10
312.07706
  20
376.21375
  0
VERTEX
  5
b15
  8
Layer_0
  10
312.27948
  20
376.21375
  0
VERTEX
  5
b16
  8
Layer_0
  10
312.48187
  20
376.21375
  0
VERTEX
  5
b17
  8
Layer_0
  10
312.68427
  20
376.21375
  0
VERTEX
  5
b18
  8
Layer_0
  10
312.88666
  20
376.21375
  0
VERTEX
  5
b19
  8
Layer_0
  10
313.08908
  20
376.21375
  0
VERTEX
  5
b1a
  8
Layer_0
  10
313.29147
  20
376.21375
  0
VERTEX
  5
b1b
  8
Layer_0
  10
313.4939
  20
376.21375
  0
VERTEX
  5
b1c
  8
Layer_0
  10
313.69629
  20
376.21375
  0
VERTEX
  5
b1d
  8
Layer_0
  10
313.89868
  20
376.21375
  0
VERTEX
  5
b1e
  8
Layer_0
  10
314.10107
  20
376.21375
  0
VERTEX
  5
b1f
  8
Layer_0
  10
314.3035
  20
376.21375
  0
VERTEX
  5
b20
  8
Layer_0
  10
314.50589
  20
376.21375
  0
VERTEX
  5
b21
  8
Layer_0
  10
314.70831
  20
376.21375
  0
VERTEX
  5
b22
  8
Layer_0
  10
314.91071
  20
376.21375
  0
VERTEX
  5
b23
  8
Layer_0
  10
315.1131
  20
376.21375
  0
VERTEX
  5
b24
  8
Layer_0
  10
315.31549
  20
376.21375
  0
VERTEX
  5
b25
  8
Layer_0
  10
315.51791
  20
376.21375
  0
VERTEX
  5
b26
  8
Layer_0
  10
315.72031
  20
376.21375
  0
VERTEX
  5
b27
  8
Layer_0
  10
315.92273
  20
376.21375
  0
VERTEX
  5
b28
  8
Layer_0
  10
316.12512
  20
376.21375
  0
VERTEX
  5
b29
  8
Layer_0
  10
316.32751
  20
376.21375
  0
VERTEX
  5
b2a
  8
Layer_0
  10
316.52991
  20
376.21375
  0
VERTEX
  5
b2b
  8
Layer_0
  10
316.73233
  20
376.21375
  0
VERTEX
  5
b2c
  8
Layer_0
  10
316.93472
  20
376.21375
  0
VERTEX
  5
b2d
  8
Layer_0
  10
317.13715
  20
376.21375
  0
VERTEX
  5
b2e
  8
Layer_0
  10
317.33954
  20
376.21375
  0
VERTEX
  5
b2f
  8
Layer_0
  10
317.54193
  20
376.21375
  0
VERTEX
  5
b30
  8
Layer_0
  10
317.74432
  20
376.21375
  0
VERTEX
  5
b31
  8
Layer_0
  10
317.94672
  20
376.21375
  0
VERTEX
  5
b32
  8
Layer_0
  10
318.14914
  20
376.21375
  0
VERTEX
  5
b33
  8
Layer_0
  10
318.35156
  20
376.21375
  0
VERTEX
  5
b34
  8
Layer_0
  10
318.55396
  20
376.21375
  0
VERTEX
  5
b35
  8
Layer_0
  10
318.75635
  20
376.21375
  0
VERTEX
  5
b36
  8
Layer_0
  10
318.95874
  20
376.21375
  0
VERTEX
  5
b37
  8
Layer_0
  10
319.16113
  20
376.21375
  0
VERTEX
  5
b38
  8
Layer_0
  10
319.36356
  20
376.21375
  0
VERTEX
  5
b39
  8
Layer_0
  10
319.56598
  20
376.21375
  0
VERTEX
  5
b3a
  8
Layer_0
  10
319.76837
  20
376.21375
  0
VERTEX
  5
b3b
  8
Layer_0
  10
319.97076
  20
376.21375
  0
VERTEX
  5
b3c
  8
Layer_0
  10
320.17316
  20
376.21375
  0
VERTEX
  5
b3d
  8
Layer_0
  10
320.37555
  20
376.21375
  0
VERTEX
  5
b3e
  8
Layer_0
  10
320.57797
  20
376.21375
  0
VERTEX
  5
b3f
  8
Layer_0
  10
320.7804
  20
376.21375
  0
VERTEX
  5
b40
  8
Layer_0
  10
320.98279
  20
376.21375
  0
VERTEX
  5
b41
  8
Layer_0
  10
321.18518
  20
376.21375
  0
VERTEX
  5
b42
  8
Layer_0
  10
321.38757
  20
376.21375
  0
VERTEX
  5
b43
  8
Layer_0
  10
321.58997
  20
376.21375
  0
VERTEX
  5
b44
  8
Layer_0
  10
321.79239
  20
376.21375
  0
VERTEX
  5
b45
  8
Layer_0
  10
321.99481
  20
376.21375
  0
VERTEX
  5
b46
  8
Layer_0
  10
322.1972
  20
376.21375
  0
VERTEX
  5
b47
  8
Layer_0
  10
322.3996
  20
376.21375
  0
VERTEX
  5
b48
  8
Layer_0
  10
322.60199
  20
376.21375
  0
VERTEX
  5
b49
  8
Layer_0
  10
322.80438
  20
376.21375
  0
VERTEX
  5
b4a
  8
Layer_0
  10
323.00681
  20
376.21375
  0
VERTEX
  5
b4b
  8
Layer_0
  10
323.2092
  20
376.21375
  0
VERTEX
  5
b4c
  8
Layer_0
  10
323.41162
  20
376.21375
  0
VERTEX
  5
b4d
  8
Layer_0
  10
323.61401
  20
376.21375
  0
VERTEX
  5
b4e
  8
Layer_0
  10
323.61401
  20
376.44434
  0
VERTEX
  5
b4f
  8
Layer_0
  10
323.61401
  20
376.67499
  0
VERTEX
  5
b50
  8
Layer_0
  10
323.61401
  20
376.90558
  0
VERTEX
  5
b51
  8
Layer_0
  10
323.61401
  20
377.13623
  0
VERTEX
  5
b52
  8
Layer_0
  10
323.61401
  20
377.36682
  0
VERTEX
  5
b53
  8
Layer_0
  10
323.61401
  20
377.59741
  0
VERTEX
  5
b54
  8
Layer_0
  10
323.61401
  20
377.82806
  0
VERTEX
  5
b55
  8
Layer_0
  10
323.61401
  20
378.05865
  0
VERTEX
  5
b56
  8
Layer_0
  10
323.61401
  20
378.28931
  0
VERTEX
  5
b57
  8
Layer_0
  10
323.61401
  20
378.5199
  0
VERTEX
  5
b58
  8
Layer_0
  10
323.61401
  20
378.75055
  0
VERTEX
  5
b59
  8
Layer_0
  10
323.61401
  20
378.98114
  0
VERTEX
  5
b5a
  8
Layer_0
  10
323.61401
  20
379.21179
  0
VERTEX
  5
b5b
  8
Layer_0
  10
343.76401
  20
379.21179
  0
VERTEX
  5
b5c
  8
Layer_0
  10
343.76401
  20
378.98114
  0
VERTEX
  5
b5d
  8
Layer_0
  10
343.76401
  20
378.75055
  0
VERTEX
  5
b5e
  8
Layer_0
  10
343.76401
  20
378.5199
  0
VERTEX
  5
b5f
  8
Layer_0
  10
343.76401
  20
378.28931
  0
VERTEX
  5
b60
  8
Layer_0
  10
343.76401
  20
378.05865
  0
VERTEX
  5
b61
  8
Layer_0
  10
343.76401
  20
377.82806
  0
VERTEX
  5
b62
  8
Layer_0
  10
343.76401
  20
377.59741
  0
VERTEX
  5
b63
  8
Layer_0
  10
343.76401
  20
377.36682
  0
VERTEX
  5
b64
  8
Layer_0
  10
343.76401
  20
377.13623
  0
VERTEX
  5
b65
  8
Layer_0
  10
343.76401
  20
376.90558
  0
VERTEX
  5
b66
  8
Layer_0
  10
343.76401
  20
376.67499
  0
VERTEX
  5
b67
  8
Layer_0
  10
343.76401
  20
376.44434
  0
VERTEX
  5
b68
  8
Layer_0
  10
343.76401
  20
376.21375
  0
VERTEX
  5
b69
  8
Layer_0
  10
343.9664
  20
376.21375
  0
VERTEX
  5
b6a
  8
Layer_0
  10
344.16882
  20
376.21375
  0
VERTEX
  5
b6b
  8
Layer_0
  10
344.37122
  20
376.21375
  0
VERTEX
  5
b6c
  8
Layer_0
  10
344.57361
  20
376.21375
  0
VERTEX
  5
b6d
  8
Layer_0
  10
344.77603
  20
376.21375
  0
VERTEX
  5
b6e
  8
Layer_0
  10
344.97842
  20
376.21375
  0
VERTEX
  5
b6f
  8
Layer_0
  10
345.18085
  20
376.21375
  0
VERTEX
  5
b70
  8
Layer_0
  10
345.38324
  20
376.21375
  0
VERTEX
  5
b71
  8
Layer_0
  10
345.58563
  20
376.21375
  0
VERTEX
  5
b72
  8
Layer_0
  10
345.78802
  20
376.21375
  0
VERTEX
  5
b73
  8
Layer_0
  10
345.99042
  20
376.21375
  0
VERTEX
  5
b74
  8
Layer_0
  10
346.19284
  20
376.21375
  0
VERTEX
  5
b75
  8
Layer_0
  10
346.39526
  20
376.21375
  0
VERTEX
  5
b76
  8
Layer_0
  10
346.59766
  20
376.21375
  0
VERTEX
  5
b77
  8
Layer_0
  10
346.80005
  20
376.21375
  0
VERTEX
  5
b78
  8
Layer_0
  10
347.00247
  20
376.21375
  0
VERTEX
  5
b79
  8
Layer_0
  10
347.20483
  20
376.21375
  0
VERTEX
  5
b7a
  8
Layer_0
  10
347.40726
  20
376.21375
  0
VERTEX
  5
b7b
  8
Layer_0
  10
347.60965
  20
376.21375
  0
VERTEX
  5
b7c
  8
Layer_0
  10
347.81207
  20
376.21375
  0
VERTEX
  5
b7d
  8
Layer_0
  10
348.01447
  20
376.21375
  0
VERTEX
  5
b7e
  8
Layer_0
  10
348.21686
  20
376.21375
  0
VERTEX
  5
b7f
  8
Layer_0
  10
348.41925
  20
376.21375
  0
VERTEX
  5
b80
  8
Layer_0
  10
348.62167
  20
376.21375
  0
VERTEX
  5
b81
  8
Layer_0
  10
348.8241
  20
376.21375
  0
VERTEX
  5
b82
  8
Layer_0
  10
349.02649
  20
376.21375
  0
VERTEX
  5
b83
  8
Layer_0
  10
349.22888
  20
376.21375
  0
VERTEX
  5
b84
  8
Layer_0
  10
349.43127
  20
376.21375
  0
VERTEX
  5
b85
  8
Layer_0
  10
349.63367
  20
376.21375
  0
VERTEX
  5
b86
  8
Layer_0
  10
349.83609
  20
376.21375
  0
VERTEX
  5
b87
  8
Layer_0
  10
350.03851
  20
376.21375
  0
VERTEX
  5
b88
  8
Layer_0
  10
350.24091
  20
376.21375
  0
VERTEX
  5
b89
  8
Layer_0
  10
350.4433
  20
376.21375
  0
VERTEX
  5
b8a
  8
Layer_0
  10
350.64569
  20
376.21375
  0
VERTEX
  5
b8b
  8
Layer_0
  10
350.84808
  20
376.21375
  0
VERTEX
  5
b8c
  8
Layer_0
  10
351.05051
  20
376.21375
  0
VERTEX
  5
b8d
  8
Layer_0
  10
351.2529
  20
376.21375
  0
VERTEX
  5
b8e
  8
Layer_0
  10
351.45532
  20
376.21375
  0
VERTEX
  5
b8f
  8
Layer_0
  10
351.65771
  20
376.21375
  0
VERTEX
  5
b90
  8
Layer_0
  10
351.86011
  20
376.21375
  0
VERTEX
  5
b91
  8
Layer_0
  10
352.0625
  20
376.21375
  0
VERTEX
  5
b92
  8
Layer_0
  10
352.26492
  20
376.21375
  0
VERTEX
  5
b93
  8
Layer_0
  10
352.46732
  20
376.21375
  0
VERTEX
  5
b94
  8
Layer_0
  10
352.66974
  20
376.21375
  0
VERTEX
  5
b95
  8
Layer_0
  10
352.87213
  20
376.21375
  0
VERTEX
  5
b96
  8
Layer_0
  10
353.07452
  20
376.21375
  0
VERTEX
  5
b97
  8
Layer_0
  10
353.27692
  20
376.21375
  0
VERTEX
  5
b98
  8
Layer_0
  10
353.47934
  20
376.21375
  0
VERTEX
  5
b99
  8
Layer_0
  10
353.68173
  20
376.21375
  0
VERTEX
  5
b9a
  8
Layer_0
  10
353.88416
  20
376.21375
  0
VERTEX
  5
b9b
  8
Layer_0
  10
354.08655
  20
376.21375
  0
VERTEX
  5
b9c
  8
Layer_0
  10
354.28894
  20
376.21375
  0
VERTEX
  5
b9d
  8
Layer_0
  10
354.49133
  20
376.21375
  0
VERTEX
  5
b9e
  8
Layer_0
  10
354.69376
  20
376.21375
  0
VERTEX
  5
b9f
  8
Layer_0
  10
354.89615
  20
376.21375
  0
VERTEX
  5
ba0
  8
Layer_0
  10
355.09857
  20
376.21375
  0
VERTEX
  5
ba1
  8
Layer_0
  10
355.30096
  20
376.21375
  0
VERTEX
  5
ba2
  8
Layer_0
  10
355.50336
  20
376.21375
  0
VERTEX
  5
ba3
  8
Layer_0
  10
355.70575
  20
376.21375
  0
VERTEX
  5
ba4
  8
Layer_0
  10
355.90814
  20
376.21375
  0
VERTEX
  5
ba5
  8
Layer_0
  10
356.11057
  20
376.21375
  0
VERTEX
  5
ba6
  8
Layer_0
  10
356.31299
  20
376.21375
  0
VERTEX
  5
ba7
  8
Layer_0
  10
356.51538
  20
376.21375
  0
VERTEX
  5
ba8
  8
Layer_0
  10
356.71777
  20
376.21375
  0
VERTEX
  5
ba9
  8
Layer_0
  10
356.92017
  20
376.21375
  0
VERTEX
  5
baa
  8
Layer_0
  10
357.12256
  20
376.21375
  0
VERTEX
  5
bab
  8
Layer_0
  10
357.32498
  20
376.21375
  0
VERTEX
  5
bac
  8
Layer_0
  10
357.5274
  20
376.21375
  0
VERTEX
  5
bad
  8
Layer_0
  10
357.7298
  20
376.21375
  0
VERTEX
  5
bae
  8
Layer_0
  10
357.93219
  20
376.21375
  0
VERTEX
  5
baf
  8
Layer_0
  10
358.13458
  20
376.21375
  0
VERTEX
  5
bb0
  8
Layer_0
  10
358.33698
  20
376.21375
  0
VERTEX
  5
bb1
  8
Layer_0
  10
358.5394
  20
376.21375
  0
VERTEX
  5
bb2
  8
Layer_0
  10
358.74182
  20
376.21375
  0
VERTEX
  5
bb3
  8
Layer_0
  10
358.94421
  20
376.21375
  0
VERTEX
  5
bb4
  8
Layer_0
  10
359.14661
  20
376.21375
  0
VERTEX
  5
bb5
  8
Layer_0
  10
359.349
  20
376.21375
  0
VERTEX
  5
bb6
  8
Layer_0
  10
359.55139
  20
376.21375
  0
VERTEX
  5
bb7
  8
Layer_0
  10
359.75381
  20
376.21375
  0
VERTEX
  5
bb8
  8
Layer_0
  10
359.95624
  20
376.21375
  0
VERTEX
  5
bb9
  8
Layer_0
  10
360.15863
  20
376.21375
  0
VERTEX
  5
bba
  8
Layer_0
  10
360.36102
  20
376.21375
  0
VERTEX
  5
bbb
  8
Layer_0
  10
360.56342
  20
376.21375
  0
VERTEX
  5
bbc
  8
Layer_0
  10
360.76581
  20
376.21375
  0
VERTEX
  5
bbd
  8
Layer_0
  10
360.96823
  20
376.21375
  0
VERTEX
  5
bbe
  8
Layer_0
  10
361.17065
  20
376.21375
  0
VERTEX
  5
bbf
  8
Layer_0
  10
361.37305
  20
376.21375
  0
VERTEX
  5
bc0
  8
Layer_0
  10
361.57544
  20
376.21375
  0
VERTEX
  5
bc1
  8
Layer_0
  10
361.77783
  20
376.21375
  0
VERTEX
  5
bc2
  8
Layer_0
  10
361.98022
  20
376.21375
  0
VERTEX
  5
bc3
  8
Layer_0
  10
362.18265
  20
376.21375
  0
VERTEX
  5
bc4
  8
Layer_0
  10
362.18265
  20
376.44434
  0
VERTEX
  5
bc5
  8
Layer_0
  10
362.18265
  20
376.67499
  0
VERTEX
  5
bc6
  8
Layer_0
  10
362.18265
  20
376.90558
  0
VERTEX
  5
bc7
  8
Layer_0
  10
362.18265
  20
377.13623
  0
VERTEX
  5
bc8
  8
Layer_0
  10
362.18265
  20
377.36682
  0
VERTEX
  5
bc9
  8
Layer_0
  10
362.18265
  20
377.59741
  0
VERTEX
  5
bca
  8
Layer_0
  10
362.18265
  20
377.82806
  0
VERTEX
  5
bcb
  8
Layer_0
  10
362.18265
  20
378.05865
  0
VERTEX
  5
bcc
  8
Layer_0
  10
362.18265
  20
378.28931
  0
VERTEX
  5
bcd
  8
Layer_0
  10
362.18265
  20
378.5199
  0
VERTEX
  5
bce
  8
Layer_0
  10
362.18265
  20
378.75055
  0
VERTEX
  5
bcf
  8
Layer_0
  10
362.18265
  20
378.98114
  0
VERTEX
  5
bd0
  8
Layer_0
  10
362.18265
  20
379.21179
  0
VERTEX
  5
bd1
  8
Layer_0
  10
382.33264
  20
379.21179
  0
VERTEX
  5
bd2
  8
Layer_0
  10
382.33264
  20
378.98114
  0
VERTEX
  5
bd3
  8
Layer_0
  10
382.33264
  20
378.75055
  0
VERTEX
  5
bd4
  8
Layer_0
  10
382.33264
  20
378.5199
  0
VERTEX
  5
bd5
  8
Layer_0
  10
382.33264
  20
378.28931
  0
VERTEX
  5
bd6
  8
Layer_0
  10
382.33264
  20
378.05865
  0
VERTEX
  5
bd7
  8
Layer_0
  10
382.33264
  20
377.82806
  0
VERTEX
  5
bd8
  8
Layer_0
  10
382.33264
  20
377.59741
  0
VERTEX
  5
bd9
  8
Layer_0
  10
382.33264
  20
377.36682
  0
VERTEX
  5
bda
  8
Layer_0
  10
382.33264
  20
377.13623
  0
VERTEX
  5
bdb
  8
Layer_0
  10
382.33264
  20
376.90558
  0
VERTEX
  5
bdc
  8
Layer_0
  10
382.33264
  20
376.67499
  0
VERTEX
  5
bdd
  8
Layer_0
  10
382.33264
  20
376.44434
  0
VERTEX
  5
bde
  8
Layer_0
  10
382.33264
  20
376.21375
  0
VERTEX
  5
bdf
  8
Layer_0
  10
382.53693
  20
376.21375
  0
VERTEX
  5
be0
  8
Layer_0
  10
382.74118
  20
376.21375
  0
VERTEX
  5
be1
  8
Layer_0
  10
382.94543
  20
376.21375
  0
VERTEX
  5
be2
  8
Layer_0
  10
383.14972
  20
376.21375
  0
VERTEX
  5
be3
  8
Layer_0
  10
383.354
  20
376.21375
  0
VERTEX
  5
be4
  8
Layer_0
  10
383.55826
  20
376.21375
  0
VERTEX
  5
be5
  8
Layer_0
  10
383.76251
  20
376.21375
  0
VERTEX
  5
be6
  8
Layer_0
  10
383.9668
  20
376.21375
  0
VERTEX
  5
be7
  8
Layer_0
  10
384.17108
  20
376.21375
  0
VERTEX
  5
be8
  8
Layer_0
  10
384.37534
  20
376.21375
  0
VERTEX
  5
be9
  8
Layer_0
  10
384.57959
  20
376.21375
  0
VERTEX
  5
bea
  8
Layer_0
  10
384.78387
  20
376.21375
  0
VERTEX
  5
beb
  8
Layer_0
  10
384.98816
  20
376.21375
  0
VERTEX
  5
bec
  8
Layer_0
  10
385.19241
  20
376.21375
  0
VERTEX
  5
bed
  8
Layer_0
  10
385.39667
  20
376.21375
  0
VERTEX
  5
bee
  8
Layer_0
  10
385.60095
  20
376.21375
  0
VERTEX
  5
bef
  8
Layer_0
  10
385.80524
  20
376.21375
  0
VERTEX
  5
bf0
  8
Layer_0
  10
386.00949
  20
376.21375
  0
VERTEX
  5
bf1
  8
Layer_0
  10
386.21375
  20
376.21375
  0
VERTEX
  5
bf2
  8
Layer_0
  10
386.41803
  20
376.21375
  0
VERTEX
  5
bf3
  8
Layer_0
  10
386.62231
  20
376.21375
  0
VERTEX
  5
bf4
  8
Layer_0
  10
386.82657
  20
376.21375
  0
VERTEX
  5
bf5
  8
Layer_0
  10
387.03082
  20
376.21375
  0
VERTEX
  5
bf6
  8
Layer_0
  10
387.23511
  20
376.21375
  0
VERTEX
  5
bf7
  8
Layer_0
  10
387.43939
  20
376.21375
  0
VERTEX
  5
bf8
  8
Layer_0
  10
387.64365
  20
376.21375
  0
VERTEX
  5
bf9
  8
Layer_0
  10
387.8479
  20
376.21375
  0
VERTEX
  5
bfa
  8
Layer_0
  10
388.05219
  20
376.21375
  0
VERTEX
  5
bfb
  8
Layer_0
  10
388.25647
  20
376.21375
  0
VERTEX
  5
bfc
  8
Layer_0
  10
388.46072
  20
376.21375
  0
VERTEX
  5
bfd
  8
Layer_0
  10
388.66498
  20
376.21375
  0
VERTEX
  5
bfe
  8
Layer_0
  10
388.86926
  20
376.21375
  0
VERTEX
  5
bff
  8
Layer_0
  10
389.07355
  20
376.21375
  0
VERTEX
  5
c00
  8
Layer_0
  10
389.2778
  20
376.21375
  0
VERTEX
  5
c01
  8
Layer_0
  10
389.48206
  20
376.21375
  0
VERTEX
  5
c02
  8
Layer_0
  10
389.68634
  20
376.21375
  0
VERTEX
  5
c03
  8
Layer_0
  10
389.89059
  20
376.21375
  0
VERTEX
  5
c04
  8
Layer_0
  10
390.09488
  20
376.21375
  0
VERTEX
  5
c05
  8
Layer_0
  10
390.29913
  20
376.21375
  0
VERTEX
  5
c06
  8
Layer_0
  10
390.50342
  20
376.21375
  0
VERTEX
  5
c07
  8
Layer_0
  10
390.70767
  20
376.21375
  0
VERTEX
  5
c08
  8
Layer_0
  10
390.91196
  20
376.21375
  0
VERTEX
  5
c09
  8
Layer_0
  10
391.11621
  20
376.21375
  0
VERTEX
  5
c0a
  8
Layer_0
  10
391.3205
  20
376.21375
  0
VERTEX
  5
c0b
  8
Layer_0
  10
391.52475
  20
376.21375
  0
VERTEX
  5
c0c
  8
Layer_0
  10
391.72903
  20
376.21375
  0
VERTEX
  5
c0d
  8
Layer_0
  10
391.93329
  20
376.21375
  0
VERTEX
  5
c0e
  8
Layer_0
  10
392.13757
  20
376.21375
  0
VERTEX
  5
c0f
  8
Layer_0
  10
392.34183
  20
376.21375
  0
VERTEX
  5
c10
  8
Layer_0
  10
392.54611
  20
376.21375
  0
VERTEX
  5
c11
  8
Layer_0
  10
392.75037
  20
376.21375
  0
VERTEX
  5
c12
  8
Layer_0
  10
392.95465
  20
376.21375
  0
VERTEX
  5
c13
  8
Layer_0
  10
393.15891
  20
376.21375
  0
VERTEX
  5
c14
  8
Layer_0
  10
393.36319
  20
376.21375
  0
VERTEX
  5
c15
  8
Layer_0
  10
393.56744
  20
376.21375
  0
VERTEX
  5
c16
  8
Layer_0
  10
393.77173
  20
376.21375
  0
VERTEX
  5
c17
  8
Layer_0
  10
393.97598
  20
376.21375
  0
VERTEX
  5
c18
  8
Layer_0
  10
394.18027
  20
376.21375
  0
VERTEX
  5
c19
  8
Layer_0
  10
394.38452
  20
376.21375
  0
VERTEX
  5
c1a
  8
Layer_0
  10
394.58881
  20
376.21375
  0
VERTEX
  5
c1b
  8
Layer_0
  10
394.79306
  20
376.21375
  0
VERTEX
  5
c1c
  8
Layer_0
  10
394.99734
  20
376.21375
  0
VERTEX
  5
c1d
  8
Layer_0
  10
395.2016
  20
376.21375
  0
VERTEX
  5
c1e
  8
Layer_0
  10
395.40588
  20
376.21375
  0
VERTEX
  5
c1f
  8
Layer_0
  10
395.61014
  20
376.21375
  0
VERTEX
  5
c20
  8
Layer_0
  10
395.81442
  20
376.21375
  0
VERTEX
  5
c21
  8
Layer_0
  10
396.01868
  20
376.21375
  0
VERTEX
  5
c22
  8
Layer_0
  10
396.22296
  20
376.21375
  0
VERTEX
  5
c23
  8
Layer_0
  10
396.42722
  20
376.21375
  0
VERTEX
  5
c24
  8
Layer_0
  10
396.6315
  20
376.21375
  0
VERTEX
  5
c25
  8
Layer_0
  10
396.83575
  20
376.21375
  0
VERTEX
  5
c26
  8
Layer_0
  10
397.04004
  20
376.21375
  0
VERTEX
  5
c27
  8
Layer_0
  10
397.24429
  20
376.21375
  0
VERTEX
  5
c28
  8
Layer_0
  10
397.44858
  20
376.21375
  0
VERTEX
  5
c29
  8
Layer_0
  10
397.65283
  20
376.21375
  0
VERTEX
  5
c2a
  8
Layer_0
  10
397.85712
  20
376.21375
  0
VERTEX
  5
c2b
  8
Layer_0
  10
398.06137
  20
376.21375
  0
VERTEX
  5
c2c
  8
Layer_0
  10
398.26563
  20
376.21375
  0
VERTEX
  5
c2d
  8
Layer_0
  10
398.46991
  20
376.21375
  0
VERTEX
  5
c2e
  8
Layer_0
  10
398.67419
  20
376.21375
  0
VERTEX
  5
c2f
  8
Layer_0
  10
398.87845
  20
376.21375
  0
VERTEX
  5
c30
  8
Layer_0
  10
398.87845
  20
376.00818
  0
VERTEX
  5
c31
  8
Layer_0
  10
398.87845
  20
375.80267
  0
VERTEX
  5
c32
  8
Layer_0
  10
398.87845
  20
375.59717
  0
VERTEX
  5
c33
  8
Layer_0
  10
398.87845
  20
375.39166
  0
VERTEX
  5
c34
  8
Layer_0
  10
398.87845
  20
375.1861
  0
VERTEX
  5
c35
  8
Layer_0
  10
398.87845
  20
374.98059
  0
VERTEX
  5
c36
  8
Layer_0
  10
398.87845
  20
374.77509
  0
VERTEX
  5
c37
  8
Layer_0
  10
398.87845
  20
374.56958
  0
VERTEX
  5
c38
  8
Layer_0
  10
398.87845
  20
374.36401
  0
VERTEX
  5
c39
  8
Layer_0
  10
398.87845
  20
374.15851
  0
VERTEX
  5
c3a
  8
Layer_0
  10
398.87845
  20
373.953
  0
VERTEX
  5
c3b
  8
Layer_0
  10
398.87845
  20
373.7475
  0
VERTEX
  5
c3c
  8
Layer_0
  10
398.87845
  20
373.54193
  0
VERTEX
  5
c3d
  8
Layer_0
  10
398.87845
  20
373.33643
  0
VERTEX
  5
c3e
  8
Layer_0
  10
398.87845
  20
373.13092
  0
VERTEX
  5
c3f
  8
Layer_0
  10
398.87845
  20
372.92542
  0
VERTEX
  5
c40
  8
Layer_0
  10
398.87845
  20
372.71985
  0
VERTEX
  5
c41
  8
Layer_0
  10
398.87845
  20
372.51434
  0
VERTEX
  5
c42
  8
Layer_0
  10
398.87845
  20
372.30884
  0
VERTEX
  5
c43
  8
Layer_0
  10
398.87845
  20
372.10333
  0
VERTEX
  5
c44
  8
Layer_0
  10
398.87845
  20
371.89777
  0
VERTEX
  5
c45
  8
Layer_0
  10
398.87845
  20
371.69226
  0
VERTEX
  5
c46
  8
Layer_0
  10
398.87845
  20
371.48676
  0
VERTEX
  5
c47
  8
Layer_0
  10
398.87845
  20
371.28125
  0
VERTEX
  5
c48
  8
Layer_0
  10
398.87845
  20
371.07568
  0
VERTEX
  5
c49
  8
Layer_0
  10
398.87845
  20
370.87018
  0
VERTEX
  5
c4a
  8
Layer_0
  10
398.87845
  20
370.66467
  0
VERTEX
  5
c4b
  8
Layer_0
  10
398.87845
  20
370.45911
  0
VERTEX
  5
c4c
  8
Layer_0
  10
398.87845
  20
370.2536
  0
VERTEX
  5
c4d
  8
Layer_0
  10
398.87845
  20
370.0481
  0
VERTEX
  5
c4e
  8
Layer_0
  10
398.87845
  20
369.84259
  0
VERTEX
  5
c4f
  8
Layer_0
  10
398.87845
  20
369.63702
  0
VERTEX
  5
c50
  8
Layer_0
  10
398.87845
  20
369.43152
  0
VERTEX
  5
c51
  8
Layer_0
  10
398.87845
  20
369.22601
  0
VERTEX
  5
c52
  8
Layer_0
  10
398.87845
  20
369.02051
  0
VERTEX
  5
c53
  8
Layer_0
  10
398.87845
  20
368.81494
  0
VERTEX
  5
c54
  8
Layer_0
  10
398.87845
  20
368.60944
  0
VERTEX
  5
c55
  8
Layer_0
  10
398.87845
  20
368.40393
  0
VERTEX
  5
c56
  8
Layer_0
  10
398.87845
  20
368.19843
  0
VERTEX
  5
c57
  8
Layer_0
  10
398.87845
  20
367.99286
  0
VERTEX
  5
c58
  8
Layer_0
  10
398.87845
  20
367.78735
  0
VERTEX
  5
c59
  8
Layer_0
  10
398.87845
  20
367.58185
  0
VERTEX
  5
c5a
  8
Layer_0
  10
398.87845
  20
367.37634
  0
VERTEX
  5
c5b
  8
Layer_0
  10
398.87845
  20
367.17078
  0
VERTEX
  5
c5c
  8
Layer_0
  10
398.87845
  20
366.96527
  0
VERTEX
  5
c5d
  8
Layer_0
  10
398.87845
  20
366.75977
  0
VERTEX
  5
c5e
  8
Layer_0
  10
398.87845
  20
366.55426
  0
VERTEX
  5
c5f
  8
Layer_0
  10
398.87845
  20
366.34869
  0
VERTEX
  5
c60
  8
Layer_0
  10
398.87845
  20
366.14319
  0
VERTEX
  5
c61
  8
Layer_0
  10
398.87845
  20
365.93768
  0
VERTEX
  5
c62
  8
Layer_0
  10
398.87845
  20
365.73218
  0
VERTEX
  5
c63
  8
Layer_0
  10
398.87845
  20
365.52661
  0
VERTEX
  5
c64
  8
Layer_0
  10
398.87845
  20
365.32111
  0
VERTEX
  5
c65
  8
Layer_0
  10
398.87845
  20
365.1156
  0
VERTEX
  5
c66
  8
Layer_0
  10
398.87845
  20
364.9101
  0
VERTEX
  5
c67
  8
Layer_0
  10
398.87845
  20
364.70453
  0
VERTEX
  5
c68
  8
Layer_0
  10
398.87845
  20
364.49902
  0
VERTEX
  5
c69
  8
Layer_0
  10
398.87845
  20
364.29352
  0
VERTEX
  5
c6a
  8
Layer_0
  10
398.87845
  20
364.08801
  0
VERTEX
  5
c6b
  8
Layer_0
  10
398.87845
  20
363.88245
  0
VERTEX
  5
c6c
  8
Layer_0
  10
398.87845
  20
363.67694
  0
VERTEX
  5
c6d
  8
Layer_0
  10
398.87845
  20
363.47144
  0
VERTEX
  5
c6e
  8
Layer_0
  10
398.87845
  20
363.26593
  0
VERTEX
  5
c6f
  8
Layer_0
  10
398.87845
  20
363.06036
  0
VERTEX
  5
c70
  8
Layer_0
  10
398.87845
  20
362.85486
  0
VERTEX
  5
c71
  8
Layer_0
  10
398.87845
  20
362.64935
  0
VERTEX
  5
c72
  8
Layer_0
  10
398.87845
  20
362.44385
  0
VERTEX
  5
c73
  8
Layer_0
  10
398.87845
  20
362.23828
  0
VERTEX
  5
c74
  8
Layer_0
  10
398.87845
  20
362.03278
  0
VERTEX
  5
c75
  8
Layer_0
  10
398.87845
  20
361.82727
  0
VERTEX
  5
c76
  8
Layer_0
  10
399.09274
  20
361.82727
  0
VERTEX
  5
c77
  8
Layer_0
  10
399.30701
  20
361.82727
  0
VERTEX
  5
c78
  8
Layer_0
  10
399.5213
  20
361.82727
  0
VERTEX
  5
c79
  8
Layer_0
  10
399.7356
  20
361.82727
  0
VERTEX
  5
c7a
  8
Layer_0
  10
399.94989
  20
361.82727
  0
VERTEX
  5
c7b
  8
Layer_0
  10
400.16418
  20
361.82727
  0
VERTEX
  5
c7c
  8
Layer_0
  10
400.37845
  20
361.82727
  0
VERTEX
  5
c7d
  8
Layer_0
  10
400.59274
  20
361.82727
  0
VERTEX
  5
c7e
  8
Layer_0
  10
400.80701
  20
361.82727
  0
VERTEX
  5
c7f
  8
Layer_0
  10
401.0213
  20
361.82727
  0
VERTEX
  5
c80
  8
Layer_0
  10
401.2356
  20
361.82727
  0
VERTEX
  5
c81
  8
Layer_0
  10
401.44989
  20
361.82727
  0
VERTEX
  5
c82
  8
Layer_0
  10
401.66418
  20
361.82727
  0
VERTEX
  5
c83
  8
Layer_0
  10
401.87845
  20
361.82727
  0
VERTEX
  5
c84
  8
Layer_0
  10
401.87845
  20
341.30817
  0
VERTEX
  5
c85
  8
Layer_0
  10
401.64767
  20
341.30817
  0
VERTEX
  5
c86
  8
Layer_0
  10
401.41693
  20
341.30817
  0
VERTEX
  5
c87
  8
Layer_0
  10
401.18616
  20
341.30817
  0
VERTEX
  5
c88
  8
Layer_0
  10
400.95538
  20
341.30817
  0
VERTEX
  5
c89
  8
Layer_0
  10
400.72461
  20
341.30817
  0
VERTEX
  5
c8a
  8
Layer_0
  10
400.49384
  20
341.30817
  0
VERTEX
  5
c8b
  8
Layer_0
  10
400.26306
  20
341.30817
  0
SEQEND
  0
POLYLINE
  5
c8d
  8
Layer_0
  62
7
  70
1
  66
1
  10
0
  20
0
  30
0
  0
VERTEX
  5
c8d
  8
Layer_0
  10
409.12146
  20
348.29651
  0
VERTEX
  5
c8e
  8
Layer_0
  10
408.90717
  20
348.29651
  0
VERTEX
  5
c8f
  8
Layer_0
  10
408.69287
  20
348.29651
  0
VERTEX
  5
c90
  8
Layer_0
  10
408.47861
  20
348.29651
  0
VERTEX
  5
c91
  8
Layer_0
  10
408.26431
  20
348.29651
  0
VERTEX
  5
c92
  8
Layer_0
  10
408.05002
  20
348.29651
  0
VERTEX
  5
c93
  8
Layer_0
  10
407.83575
  20
348.29651
  0
VERTEX
  5
c94
  8
Layer_0
  10
407.62146
  20
348.29651
  0
VERTEX
  5
c95
  8
Layer_0
  10
407.40717
  20
348.29651
  0
VERTEX
  5
c96
  8
Layer_0
  10
407.19287
  20
348.29651
  0
VERTEX
  5
c97
  8
Layer_0
  10
406.97861
  20
348.29651
  0
VERTEX
  5
c98
  8
Layer_0
  10
406.76431
  20
348.29651
  0
VERTEX
  5
c99
  8
Layer_0
  10
406.55002
  20
348.29651
  0
VERTEX
  5
c9a
  8
Layer_0
  10
406.33575
  20
348.29651
  0
VERTEX
  5
c9b
  8
Layer_0
  10
406.12146
  20
348.29651
  0
VERTEX
  5
c9c
  8
Layer_0
  10
406.12146
  20
363.44653
  0
VERTEX
  5
c9d
  8
Layer_0
  10
406.33575
  20
363.44653
  0
VERTEX
  5
c9e
  8
Layer_0
  10
406.55002
  20
363.44653
  0
VERTEX
  5
c9f
  8
Layer_0
  10
406.76431
  20
363.44653
  0
VERTEX
  5
ca0
  8
Layer_0
  10
406.97861
  20
363.44653
  0
VERTEX
  5
ca1
  8
Layer_0
  10
407.19287
  20
363.44653
  0
VERTEX
  5
ca2
  8
Layer_0
  10
407.40717
  20
363.44653
  0
VERTEX
  5
ca3
  8
Layer_0
  10
407.62146
  20
363.44653
  0
VERTEX
  5
ca4
  8
Layer_0
  10
407.83575
  20
363.44653
  0
VERTEX
  5
ca5
  8
Layer_0
  10
408.05002
  20
363.44653
  0
VERTEX
  5
ca6
  8
Layer_0
  10
408.26431
  20
363.44653
  0
VERTEX
  5
ca7
  8
Layer_0
  10
408.47861
  20
363.44653
  0
VERTEX
  5
ca8
  8
Layer_0
  10
408.69287
  20
363.44653
  0
VERTEX
  5
ca9
  8
Layer_0
  10
408.90717
  20
363.44653
  0
VERTEX
  5
caa
  8
Layer_0
  10
409.12146
  20
363.44653
  0
VERTEX
  5
cab
  8
Layer_0
  10
409.12146
  20
363.6524
  0
VERTEX
  5
cac
  8
Layer_0
  10
409.12146
  20
363.85828
  0
VERTEX
  5
cad
  8
Layer_0
  10
409.12146
  20
364.06421
  0
VERTEX
  5
cae
  8
Layer_0
  10
409.12146
  20
364.27008
  0
VERTEX
  5
caf
  8
Layer_0
  10
409.12146
  20
364.47595
  0
VERTEX
  5
cb0
  8
Layer_0
  10
409.12146
  20
364.68188
  0
VERTEX
  5
cb1
  8
Layer_0
  10
409.12146
  20
364.88776
  0
VERTEX
  5
cb2
  8
Layer_0
  10
409.12146
  20
365.09363
  0
VERTEX
  5
cb3
  8
Layer_0
  10
409.12146
  20
365.29956
  0
VERTEX
  5
cb4
  8
Layer_0
  10
409.12146
  20
365.50543
  0
VERTEX
  5
cb5
  8
Layer_0
  10
409.12146
  20
365.7113
  0
VERTEX
  5
cb6
  8
Layer_0
  10
409.12146
  20
365.91724
  0
VERTEX
  5
cb7
  8
Layer_0
  10
409.12146
  20
366.12311
  0
VERTEX
  5
cb8
  8
Layer_0
  10
409.12146
  20
366.32898
  0
VERTEX
  5
cb9
  8
Layer_0
  10
409.12146
  20
366.53491
  0
VERTEX
  5
cba
  8
Layer_0
  10
409.12146
  20
366.74078
  0
VERTEX
  5
cbb
  8
Layer_0
  10
409.12146
  20
366.94666
  0
VERTEX
  5
cbc
  8
Layer_0
  10
409.12146
  20
367.15259
  0
VERTEX
  5
cbd
  8
Layer_0
  10
409.12146
  20
367.35846
  0
VERTEX
  5
cbe
  8
Layer_0
  10
409.12146
  20
367.56433
  0
VERTEX
  5
cbf
  8
Layer_0
  10
409.12146
  20
367.77026
  0
VERTEX
  5
cc0
  8
Layer_0
  10
409.12146
  20
367.97614
  0
VERTEX
  5
cc1
  8
Layer_0
  10
409.12146
  20
368.18201
  0
VERTEX
  5
cc2
  8
Layer_0
  10
409.12146
  20
368.38788
  0
VERTEX
  5
cc3
  8
Layer_0
  10
409.12146
  20
368.59381
  0
VERTEX
  5
cc4
  8
Layer_0
  10
409.12146
  20
368.79968
  0
VERTEX
  5
cc5
  8
Layer_0
  10
409.12146
  20
369.00555
  0
VERTEX
  5
cc6
  8
Layer_0
  10
409.12146
  20
369.21149
  0
VERTEX
  5
cc7
  8
Layer_0
  10
409.12146
  20
369.41736
  0
VERTEX
  5
cc8
  8
Layer_0
  10
409.12146
  20
369.62323
  0
VERTEX
  5
cc9
  8
Layer_0
  10
409.12146
  20
369.82916
  0
VERTEX
  5
cca
  8
Layer_0
  10
409.12146
  20
370.03503
  0
VERTEX
  5
ccb
  8
Layer_0
  10
409.12146
  20
370.24091
  0
VERTEX
  5
ccc
  8
Layer_0
  10
409.12146
  20
370.44684
  0
VERTEX
  5
ccd
  8
Layer_0
  10
409.12146
  20
370.65271
  0
VERTEX
  5
cce
  8
Layer_0
  10
409.12146
  20
370.85858
  0
VERTEX
  5
ccf
  8
Layer_0
  10
409.12146
  20
371.06451
  0
VERTEX
  5
cd0
  8
Layer_0
  10
409.12146
  20
371.27039
  0
VERTEX
  5
cd1
  8
Layer_0
  10
409.12146
  20
371.47626
  0
VERTEX
  5
cd2
  8
Layer_0
  10
409.12146
  20
371.68219
  0
VERTEX
  5
cd3
  8
Layer_0
  10
409.12146
  20
371.88806
  0
VERTEX
  5
cd4
  8
Layer_0
  10
409.12146
  20
372.09393
  0
VERTEX
  5
cd5
  8
Layer_0
  10
409.12146
  20
372.29987
  0
VERTEX
  5
cd6
  8
Layer_0
  10
409.12146
  20
372.50574
  0
VERTEX
  5
cd7
  8
Layer_0
  10
409.12146
  20
372.71161
  0
VERTEX
  5
cd8
  8
Layer_0
  10
409.12146
  20
372.91748
  0
VERTEX
  5
cd9
  8
Layer_0
  10
409.12146
  20
373.12341
  0
VERTEX
  5
cda
  8
Layer_0
  10
409.12146
  20
373.32928
  0
VERTEX
  5
cdb
  8
Layer_0
  10
409.12146
  20
373.53516
  0
VERTEX
  5
cdc
  8
Layer_0
  10
409.12146
  20
373.74109
  0
VERTEX
  5
cdd
  8
Layer_0
  10
409.12146
  20
373.94696
  0
VERTEX
  5
cde
  8
Layer_0
  10
409.12146
  20
374.15283
  0
VERTEX
  5
cdf
  8
Layer_0
  10
409.12146
  20
374.35876
  0
VERTEX
  5
ce0
  8
Layer_0
  10
409.12146
  20
374.56464
  0
VERTEX
  5
ce1
  8
Layer_0
  10
409.12146
  20
374.77051
  0
VERTEX
  5
ce2
  8
Layer_0
  10
409.12146
  20
374.97644
  0
VERTEX
  5
ce3
  8
Layer_0
  10
409.12146
  20
375.18231
  0
VERTEX
  5
ce4
  8
Layer_0
  10
409.12146
  20
375.38818
  0
VERTEX
  5
ce5
  8
Layer_0
  10
409.12146
  20
375.59412
  0
VERTEX
  5
ce6
  8
Layer_0
  10
409.12146
  20
375.79999
  0
VERTEX
  5
ce7
  8
Layer_0
  10
409.12146
  20
376.00586
  0
VERTEX
  5
ce8
  8
Layer_0
  10
409.12146
  20
376.21179
  0
VERTEX
  5
ce9
  8
Layer_0
  10
409.32574
  20
376.21179
  0
VERTEX
  5
cea
  8
Layer_0
  10
409.53
  20
376.21179
  0
VERTEX
  5
ceb
  8
Layer_0
  10
409.73425
  20
376.21179
  0
VERTEX
  5
cec
  8
Layer_0
  10
409.93854
  20
376.21179
  0
VERTEX
  5
ced
  8
Layer_0
  10
410.14282
  20
376.21179
  0
VERTEX
  5
cee
  8
Layer_0
  10
410.34708
  20
376.21179
  0
VERTEX
  5
cef
  8
Layer_0
  10
410.55133
  20
376.21179
  0
VERTEX
  5
cf0
  8
Layer_0
  10
410.75562
  20
376.21179
  0
VERTEX
  5
cf1
  8
Layer_0
  10
410.9599
  20
376.21179
  0
VERTEX
  5
cf2
  8
Layer_0
  10
411.16415
  20
376.21179
  0
VERTEX
  5
cf3
  8
Layer_0
  10
411.36841
  20
376.21179
  0
VERTEX
  5
cf4
  8
Layer_0
  10
411.57269
  20
376.21179
  0
VERTEX
  5
cf5
  8
Layer_0
  10
411.77698
  20
376.21179
  0
VERTEX
  5
cf6
  8
Layer_0
  10
411.98123
  20
376.21179
  0
VERTEX
  5
cf7
  8
Layer_0
  10
412.18549
  20
376.21179
  0
VERTEX
  5
cf8
  8
Layer_0
  10
412.38977
  20
376.21179
  0
VERTEX
  5
cf9
  8
Layer_0
  10
412.59406
  20
376.21179
  0
VERTEX
  5
cfa
  8
Layer_0
  10
412.79831
  20
376.21179
  0
VERTEX
  5
cfb
  8
Layer_0
  10
413.00256
  20
376.21179
  0
VERTEX
  5
cfc
  8
Layer_0
  10
413.20685
  20
376.21179
  0
VERTEX
  5
cfd
  8
Layer_0
  10
413.41113
  20
376.21179
  0
VERTEX
  5
cfe
  8
Layer_0
  10
413.61539
  20
376.21179
  0
VERTEX
  5
cff
  8
Layer_0
  10
413.81964
  20
376.21179
  0
VERTEX
  5
d00
  8
Layer_0
  10
414.02393
  20
376.21179
  0
VERTEX
  5
d01
  8
Layer_0
  10
414.22821
  20
376.21179
  0
VERTEX
  5
d02
  8
Layer_0
  10
414.43246
  20
376.21179
  0
VERTEX
  5
d03
  8
Layer_0
  10
414.63672
  20
376.21179
  0
VERTEX
  5
d04
  8
Layer_0
  10
414.841
  20
376.21179
  0
VERTEX
  5
d05
  8
Layer_0
  10
415.04529
  20
376.21179
  0
VERTEX
  5
d06
  8
Layer_0
  10
415.24954
  20
376.21179
  0
VERTEX
  5
d07
  8
Layer_0
  10
415.4538
  20
376.21179
  0
VERTEX
  5
d08
  8
Layer_0
  10
415.65808
  20
376.21179
  0
VERTEX
  5
d09
  8
Layer_0
  10
415.86237
  20
376.21179
  0
VERTEX
  5
d0a
  8
Layer_0
  10
416.06662
  20
376.21179
  0
VERTEX
  5
d0b
  8
Layer_0
  10
416.27087
  20
376.21179
  0
VERTEX
  5
d0c
  8
Layer_0
  10
416.47516
  20
376.21179
  0
VERTEX
  5
d0d
  8
Layer_0
  10
416.67944
  20
376.21179
  0
VERTEX
  5
d0e
  8
Layer_0
  10
416.8837
  20
376.21179
  0
VERTEX
  5
d0f
  8
Layer_0
  10
417.08798
  20
376.21179
  0
VERTEX
  5
d10
  8
Layer_0
  10
417.29224
  20
376.21179
  0
VERTEX
  5
d11
  8
Layer_0
  10
417.49652
  20
376.21179
  0
VERTEX
  5
d12
  8
Layer_0
  10
417.70078
  20
376.21179
  0
VERTEX
  5
d13
  8
Layer_0
  10
417.90506
  20
376.21179
  0
VERTEX
  5
d14
  8
Layer_0
  10
418.10931
  20
376.21179
  0
VERTEX
  5
d15
  8
Layer_0
  10
418.3136
  20
376.21179
  0
VERTEX
  5
d16
  8
Layer_0
  10
418.51785
  20
376.21179
  0
VERTEX
  5
d17
  8
Layer_0
  10
418.72214
  20
376.21179
  0
VERTEX
  5
d18
  8
Layer_0
  10
418.92639
  20
376.21179
  0
VERTEX
  5
d19
  8
Layer_0
  10
419.13068
  20
376.21179
  0
VERTEX
  5
d1a
  8
Layer_0
  10
419.33493
  20
376.21179
  0
VERTEX
  5
d1b
  8
Layer_0
  10
419.53922
  20
376.21179
  0
VERTEX
  5
d1c
  8
Layer_0
  10
419.74347
  20
376.21179
  0
VERTEX
  5
d1d
  8
Layer_0
  10
419.94775
  20
376.21179
  0
VERTEX
  5
d1e
  8
Layer_0
  10
420.15201
  20
376.21179
  0
VERTEX
  5
d1f
  8
Layer_0
  10
420.35629
  20
376.21179
  0
VERTEX
  5
d20
  8
Layer_0
  10
420.56055
  20
376.21179
  0
VERTEX
  5
d21
  8
Layer_0
  10
420.76483
  20
376.21179
  0
VERTEX
  5
d22
  8
Layer_0
  10
420.96909
  20
376.21179
  0
VERTEX
  5
d23
  8
Layer_0
  10
421.17337
  20
376.21179
  0
VERTEX
  5
d24
  8
Layer_0
  10
421.37762
  20
376.21179
  0
VERTEX
  5
d25
  8
Layer_0
  10
421.58191
  20
376.21179
  0
VERTEX
  5
d26
  8
Layer_0
  10
421.78616
  20
376.21179
  0
VERTEX
  5
d27
  8
Layer_0
  10
421.99045
  20
376.21179
  0
VERTEX
  5
d28
  8
Layer_0
  10
422.1947
  20
376.21179
  0
VERTEX
  5
d29
  8
Layer_0
  10
422.39899
  20
376.21179
  0
VERTEX
  5
d2a
  8
Layer_0
  10
422.60324
  20
376.21179
  0
VERTEX
  5
d2b
  8
Layer_0
  10
422.80753
  20
376.21179
  0
VERTEX
  5
d2c
  8
Layer_0
  10
423.01178
  20
376.21179
  0
VERTEX
  5
d2d
  8
Layer_0
  10
423.21606
  20
376.21179
  0
VERTEX
  5
d2e
  8
Layer_0
  10
423.42032
  20
376.21179
  0
VERTEX
  5
d2f
  8
Layer_0
  10
423.6246
  20
376.21179
  0
VERTEX
  5
d30
  8
Layer_0
  10
423.82886
  20
376.21179
  0
VERTEX
  5
d31
  8
Layer_0
  10
424.03314
  20
376.21179
  0
VERTEX
  5
d32
  8
Layer_0
  10
424.2374
  20
376.21179
  0
VERTEX
  5
d33
  8
Layer_0
  10
424.44168
  20
376.21179
  0
VERTEX
  5
d34
  8
Layer_0
  10
424.64594
  20
376.21179
  0
VERTEX
  5
d35
  8
Layer_0
  10
424.85022
  20
376.21179
  0
VERTEX
  5
d36
  8
Layer_0
  10
425.0545
  20
376.21179
  0
VERTEX
  5
d37
  8
Layer_0
  10
425.25876
  20
376.21179
  0
VERTEX
  5
d38
  8
Layer_0
  10
425.46301
  20
376.21179
  0
VERTEX
  5
d39
  8
Layer_0
  10
425.6673
  20
376.21179
  0
VERTEX
  5
d3a
  8
Layer_0
  10
425.6673
  20
376.42603
  0
VERTEX
  5
d3b
  8
Layer_0
  10
425.6673
  20
376.64032
  0
VERTEX
  5
d3c
  8
Layer_0
  10
425.6673
  20
376.85461
  0
VERTEX
  5
d3d
  8
Layer_0
  10
425.6673
  20
377.06891
  0
VERTEX
  5
d3e
  8
Layer_0
  10
425.6673
  20
377.2832
  0
VERTEX
  5
d3f
  8
Layer_0
  10
425.6673
  20
377.4975
  0
VERTEX
  5
d40
  8
Layer_0
  10
425.6673
  20
377.71179
  0
VERTEX
  5
d41
  8
Layer_0
  10
425.6673
  20
377.92609
  0
VERTEX
  5
d42
  8
Layer_0
  10
425.6673
  20
378.14032
  0
VERTEX
  5
d43
  8
Layer_0
  10
425.6673
  20
378.35461
  0
VERTEX
  5
d44
  8
Layer_0
  10
425.6673
  20
378.56891
  0
VERTEX
  5
d45
  8
Layer_0
  10
425.6673
  20
378.7832
  0
VERTEX
  5
d46
  8
Layer_0
  10
425.6673
  20
378.9975
  0
VERTEX
  5
d47
  8
Layer_0
  10
425.6673
  20
379.21179
  0
VERTEX
  5
d48
  8
Layer_0
  10
445.81729
  20
379.21179
  0
VERTEX
  5
d49
  8
Layer_0
  10
445.81729
  20
378.9975
  0
VERTEX
  5
d4a
  8
Layer_0
  10
445.81729
  20
378.7832
  0
VERTEX
  5
d4b
  8
Layer_0
  10
445.81729
  20
378.56891
  0
VERTEX
  5
d4c
  8
Layer_0
  10
445.81729
  20
378.35461
  0
VERTEX
  5
d4d
  8
Layer_0
  10
445.81729
  20
378.14032
  0
VERTEX
  5
d4e
  8
Layer_0
  10
445.81729
  20
377.92609
  0
VERTEX
  5
d4f
  8
Layer_0
  10
445.81729
  20
377.71179
  0
VERTEX
  5
d50
  8
Layer_0
  10
445.81729
  20
377.4975
  0
VERTEX
  5
d51
  8
Layer_0
  10
445.81729
  20
377.2832
  0
VERTEX
  5
d52
  8
Layer_0
  10
445.81729
  20
377.06891
  0
VERTEX
  5
d53
  8
Layer_0
  10
445.81729
  20
376.85461
  0
VERTEX
  5
d54
  8
Layer_0
  10
445.81729
  20
376.64032
  0
VERTEX
  5
d55
  8
Layer_0
  10
445.81729
  20
376.42603
  0
VERTEX
  5
d56
  8
Layer_0
  10
445.81729
  20
376.21179
  0
VERTEX
  5
d57
  8
Layer_0
  10
446.01968
  20
376.21179
  0
VERTEX
  5
d58
  8
Layer_0
  10
446.22211
  20
376.21179
  0
VERTEX
  5
d59
  8
Layer_0
  10
446.4245
  20
376.21179
  0
VERTEX
  5
d5a
  8
Layer_0
  10
446.62689
  20
376.21179
  0
VERTEX
  5
d5b
  8
Layer_0
  10
446.82932
  20
376.21179
  0
VERTEX
  5
d5c
  8
Layer_0
  10
447.03171
  20
376.21179
  0
VERTEX
  5
d5d
  8
Layer_0
  10
447.2341
  20
376.21179
  0
VERTEX
  5
d5e
  8
Layer_0
  10
447.43652
  20
376.21179
  0
VERTEX
  5
d5f
  8
Layer_0
  10
447.63892
  20
376.21179
  0
VERTEX
  5
d60
  8
Layer_0
  10
447.84131
  20
376.21179
  0
VERTEX
  5
d61
  8
Layer_0
  10
448.04373
  20
376.21179
  0
VERTEX
  5
d62
  8
Layer_0
  10
448.24612
  20
376.21179
  0
VERTEX
  5
d63
  8
Layer_0
  10
448.44852
  20
376.21179
  0
VERTEX
  5
d64
  8
Layer_0
  10
448.65094
  20
376.21179
  0
VERTEX
  5
d65
  8
Layer_0
  10
448.85333
  20
376.21179
  0
VERTEX
  5
d66
  8
Layer_0
  10
449.05573
  20
376.21179
  0
VERTEX
  5
d67
  8
Layer_0
  10
449.25815
  20
376.21179
  0
VERTEX
  5
d68
  8
Layer_0
  10
449.46054
  20
376.21179
  0
VERTEX
  5
d69
  8
Layer_0
  10
449.66293
  20
376.21179
  0
VERTEX
  5
d6a
  8
Layer_0
  10
449.86536
  20
376.21179
  0
VERTEX
  5
d6b
  8
Layer_0
  10
450.06775
  20
376.21179
  0
VERTEX
  5
d6c
  8
Layer_0
  10
450.27014
  20
376.21179
  0
VERTEX
  5
d6d
  8
Layer_0
  10
450.47253
  20
376.21179
  0
VERTEX
  5
d6e
  8
Layer_0
  10
450.67496
  20
376.21179
  0
VERTEX
  5
d6f
  8
Layer_0
  10
450.87735
  20
376.21179
  0
VERTEX
  5
d70
  8
Layer_0
  10
451.07977
  20
376.21179
  0
VERTEX
  5
d71
  8
Layer_0
  10
451.28217
  20
376.21179
  0
VERTEX
  5
d72
  8
Layer_0
  10
451.48456
  20
376.21179
  0
VERTEX
  5
d73
  8
Layer_0
  10
451.68695
  20
376.21179
  0
VERTEX
  5
d74
  8
Layer_0
  10
451.88937
  20
376.21179
  0
VERTEX
  5
d75
  8
Layer_0
  10
452.09177
  20
376.21179
  0
VERTEX
  5
d76
  8
Layer_0
  10
452.29416
  20
376.21179
  0
VERTEX
  5
d77
  8
Layer_0
  10
452.49658
  20
376.21179
  0
VERTEX
  5
d78
  8
Layer_0
  10
452.69897
  20
376.21179
  0
VERTEX
  5
d79
  8
Layer_0
  10
452.90137
  20
376.21179
  0
VERTEX
  5
d7a
  8
Layer_0
  10
453.10379
  20
376.21179
  0
VERTEX
  5
d7b
  8
Layer_0
  10
453.30618
  20
376.21179
  0
VERTEX
  5
d7c
  8
Layer_0
  10
453.50858
  20
376.21179
  0
VERTEX
  5
d7d
  8
Layer_0
  10
453.711
  20
376.21179
  0
VERTEX
  5
d7e
  8
Layer_0
  10
453.91339
  20
376.21179
  0
VERTEX
  5
d7f
  8
Layer_0
  10
454.11578
  20
376.21179
  0
VERTEX
  5
d80
  8
Layer_0
  10
454.31821
  20
376.21179
  0
VERTEX
  5
d81
  8
Layer_0
  10
454.5206
  20
376.21179
  0
VERTEX
  5
d82
  8
Layer_0
  10
454.72299
  20
376.21179
  0
VERTEX
  5
d83
  8
Layer_0
  10
454.92542
  20
376.21179
  0
VERTEX
  5
d84
  8
Layer_0
  10
455.12781
  20
376.21179
  0
VERTEX
  5
d85
  8
Layer_0
  10
455.3302
  20
376.21179
  0
VERTEX
  5
d86
  8
Layer_0
  10
455.53259
  20
376.21179
  0
VERTEX
  5
d87
  8
Layer_0
  10
455.73502
  20
376.21179
  0
VERTEX
  5
d88
  8
Layer_0
  10
455.93741
  20
376.21179
  0
VERTEX
  5
d89
  8
Layer_0
  10
456.13983
  20
376.21179
  0
VERTEX
  5
d8a
  8
Layer_0
  10
456.34222
  20
376.21179
  0
VERTEX
  5
d8b
  8
Layer_0
  10
456.54462
  20
376.21179
  0
VERTEX
  5
d8c
  8
Layer_0
  10
456.74701
  20
376.21179
  0
VERTEX
  5
d8d
  8
Layer_0
  10
456.94943
  20
376.21179
  0
VERTEX
  5
d8e
  8
Layer_0
  10
457.15182
  20
376.21179
  0
VERTEX
  5
d8f
  8
Layer_0
  10
457.35425
  20
376.21179
  0
VERTEX
  5
d90
  8
Layer_0
  10
457.55664
  20
376.21179
  0
VERTEX
  5
d91
  8
Layer_0
  10
457.75903
  20
376.21179
  0
VERTEX
  5
d92
  8
Layer_0
  10
457.96143
  20
376.21179
  0
VERTEX
  5
d93
  8
Layer_0
  10
458.16385
  20
376.21179
  0
VERTEX
  5
d94
  8
Layer_0
  10
458.36624
  20
376.21179
  0
VERTEX
  5
d95
  8
Layer_0
  10
458.56863
  20
376.21179
  0
VERTEX
  5
d96
  8
Layer_0
  10
458.77106
  20
376.21179
  0
VERTEX
  5
d97
  8
Layer_0
  10
458.97345
  20
376.21179
  0
VERTEX
  5
d98
  8
Layer_0
  10
459.17584
  20
376.21179
  0
VERTEX
  5
d99
  8
Layer_0
  10
459.37827
  20
376.21179
  0
VERTEX
  5
d9a
  8
Layer_0
  10
459.58066
  20
376.21179
  0
VERTEX
  5
d9b
  8
Layer_0
  10
459.78305
  20
376.21179
  0
VERTEX
  5
d9c
  8
Layer_0
  10
459.98547
  20
376.21179
  0
VERTEX
  5
d9d
  8
Layer_0
  10
460.18787
  20
376.21179
  0
VERTEX
  5
d9e
  8
Layer_0
  10
460.39026
  20
376.21179
  0
VERTEX
  5
d9f
  8
Layer_0
  10
460.59268
  20
376.21179
  0
VERTEX
  5
da0
  8
Layer_0
  10
460.79507
  20
376.21179
  0
VERTEX
  5
da1
  8
Layer_0
  10
460.99747
  20
376.21179
  0
VERTEX
  5
da2
  8
Layer_0
  10
461.19989
  20
376.21179
  0
VERTEX
  5
da3
  8
Layer_0
  10
461.40228
  20
376.21179
  0
VERTEX
  5
da4
  8
Layer_0
  10
461.60468
  20
376.21179
  0
VERTEX
  5
da5
  8
Layer_0
  10
461.80707
  20
376.21179
  0
VERTEX
  5
da6
  8
Layer_0
  10
462.00949
  20
376.21179
  0
VERTEX
  5
da7
  8
Layer_0
  10
462.21188
  20
376.21179
  0
VERTEX
  5
da8
  8
Layer_0
  10
462.41431
  20
376.21179
  0
VERTEX
  5
da9
  8
Layer_0
  10
462.6167
  20
376.21179
  0
VERTEX
  5
daa
  8
Layer_0
  10
462.81909
  20
376.21179
  0
VERTEX
  5
dab
  8
Layer_0
  10
463.02148
  20
376.21179
  0
VERTEX
  5
dac
  8
Layer_0
  10
463.22391
  20
376.21179
  0
VERTEX
  5
dad
  8
Layer_0
  10
463.4263
  20
376.21179
  0
VERTEX
  5
dae
  8
Layer_0
  10
463.62869
  20
376.21179
  0
VERTEX
  5
daf
  8
Layer_0
  10
463.83112
  20
376.21179
  0
VERTEX
  5
db0
  8
Layer_0
  10
464.03351
  20
376.21179
  0
VERTEX
  5
db1
  8
Layer_0
  10
464.2359
  20
376.21179
  0
VERTEX
  5
db2
  8
Layer_0
  10
464.2359
  20
376.42603
  0
VERTEX
  5
db3
  8
Layer_0
  10
464.2359
  20
376.64032
  0
VERTEX
  5
db4
  8
Layer_0
  10
464.2359
  20
376.85461
  0
VERTEX
  5
db5
  8
Layer_0
  10
464.2359
  20
377.06891
  0
VERTEX
  5
db6
  8
Layer_0
  10
464.2359
  20
377.2832
  0
VERTEX
  5
db7
  8
Layer_0
  10
464.2359
  20
377.4975
  0
VERTEX
  5
db8
  8
Layer_0
  10
464.2359
  20
377.71179
  0
VERTEX
  5
db9
  8
Layer_0
  10
464.2359
  20
377.92609
  0
VERTEX
  5
dba
  8
Layer_0
  10
464.2359
  20
378.14032
  0
VERTEX
  5
dbb
  8
Layer_0
  10
464.2359
  20
378.35461
  0
VERTEX
  5
dbc
  8
Layer_0
  10
464.2359
  20
378.56891
  0
VERTEX
  5
dbd
  8
Layer_0
  10
464.2359
  20
378.7832
  0
VERTEX
  5
dbe
  8
Layer_0
  10
464.2359
  20
378.9975
  0
VERTEX
  5
dbf
  8
Layer_0
  10
464.2359
  20
379.21179
  0
VERTEX
  5
dc0
  8
Layer_0
  10
484.38593
  20
379.21179
  0
VERTEX
  5
dc1
  8
Layer_0
  10
484.38593
  20
378.9975
  0
VERTEX
  5
dc2
  8
Layer_0
  10
484.38593
  20
378.7832
  0
VERTEX
  5
dc3
  8
Layer_0
  10
484.38593
  20
378.56891
  0
VERTEX
  5
dc4
  8
Layer_0
  10
484.38593
  20
378.35461
  0
VERTEX
  5
dc5
  8
Layer_0
  10
484.38593
  20
378.14032
  0
VERTEX
  5
dc6
  8
Layer_0
  10
484.38593
  20
377.92609
  0
VERTEX
  5
dc7
  8
Layer_0
  10
484.38593
  20
377.71179
  0
VERTEX
  5
dc8
  8
Layer_0
  10
484.38593
  20
377.4975
  0
VERTEX
  5
dc9
  8
Layer_0
  10
484.38593
  20
377.2832
  0
VERTEX
  5
dca
  8
Layer_0
  10
484.38593
  20
377.06891
  0
VERTEX
  5
dcb
  8
Layer_0
  10
484.38593
  20
376.85461
  0
VERTEX
  5
dcc
  8
Layer_0
  10
484.38593
  20
376.64032
  0
VERTEX
  5
dcd
  8
Layer_0
  10
484.38593
  20
376.42603
  0
VERTEX
  5
dce
  8
Layer_0
  10
484.38593
  20
376.21179
  0
VERTEX
  5
dcf
  8
Layer_0
  10
484.58832
  20
376.21179
  0
VERTEX
  5
dd0
  8
Layer_0
  10
484.79071
  20
376.21179
  0
VERTEX
  5
dd1
  8
Layer_0
  10
484.99313
  20
376.21179
  0
VERTEX
  5
dd2
  8
Layer_0
  10
485.19553
  20
376.21179
  0
VERTEX
  5
dd3
  8
Layer_0
  10
485.39792
  20
376.21179
  0
VERTEX
  5
dd4
  8
Layer_0
  10
485.60034
  20
376.21179
  0
VERTEX
  5
dd5
  8
Layer_0
  10
485.80273
  20
376.21179
  0
VERTEX
  5
dd6
  8
Layer_0
  10
486.00513
  20
376.21179
  0
VERTEX
  5
dd7
  8
Layer_0
  10
486.20755
  20
376.21179
  0
VERTEX
  5
dd8
  8
Layer_0
  10
486.40994
  20
376.21179
  0
VERTEX
  5
dd9
  8
Layer_0
  10
486.61234
  20
376.21179
  0
VERTEX
  5
dda
  8
Layer_0
  10
486.81476
  20
376.21179
  0
VERTEX
  5
ddb
  8
Layer_0
  10
487.01715
  20
376.21179
  0
VERTEX
  5
ddc
  8
Layer_0
  10
487.21954
  20
376.21179
  0
VERTEX
  5
ddd
  8
Layer_0
  10
487.42197
  20
376.21179
  0
VERTEX
  5
dde
  8
Layer_0
  10
487.62436
  20
376.21179
  0
VERTEX
  5
ddf
  8
Layer_0
  10
487.82675
  20
376.21179
  0
VERTEX
  5
de0
  8
Layer_0
  10
488.02917
  20
376.21179
  0
VERTEX
  5
de1
  8
Layer_0
  10
488.23157
  20
376.21179
  0
VERTEX
  5
de2
  8
Layer_0
  10
488.43396
  20
376.21179
  0
VERTEX
  5
de3
  8
Layer_0
  10
488.63638
  20
376.21179
  0
VERTEX
  5
de4
  8
Layer_0
  10
488.83878
  20
376.21179
  0
VERTEX
  5
de5
  8
Layer_0
  10
489.04117
  20
376.21179
  0
VERTEX
  5
de6
  8
Layer_0
  10
489.24359
  20
376.21179
  0
VERTEX
  5
de7
  8
Layer_0
  10
489.44598
  20
376.21179
  0
VERTEX
  5
de8
  8
Layer_0
  10
489.64838
  20
376.21179
  0
VERTEX
  5
de9
  8
Layer_0
  10
489.8508
  20
376.21179
  0
VERTEX
  5
dea
  8
Layer_0
  10
490.05319
  20
376.21179
  0
VERTEX
  5
deb
  8
Layer_0
  10
490.25558
  20
376.21179
  0
VERTEX
  5
dec
  8
Layer_0
  10
490.45801
  20
376.21179
  0
VERTEX
  5
ded
  8
Layer_0
  10
490.6604
  20
376.21179
  0
VERTEX
  5
dee
  8
Layer_0
  10
490.86279
  20
376.21179
  0
VERTEX
  5
def
  8
Layer_0
  10
491.06522
  20
376.21179
  0
VERTEX
  5
df0
  8
Layer_0
  10
491.26761
  20
376.21179
  0
VERTEX
  5
df1
  8
Layer_0
  10
491.47003
  20
376.21179
  0
VERTEX
  5
df2
  8
Layer_0
  10
491.67242
  20
376.21179
  0
VERTEX
  5
df3
  8
Layer_0
  10
491.87482
  20
376.21179
  0
VERTEX
  5
df4
  8
Layer_0
  10
492.07721
  20
376.21179
  0
VERTEX
  5
df5
  8
Layer_0
  10
492.27963
  20
376.21179
  0
VERTEX
  5
df6
  8
Layer_0
  10
492.48203
  20
376.21179
  0
VERTEX
  5
df7
  8
Layer_0
  10
492.68445
  20
376.21179
  0
VERTEX
  5
df8
  8
Layer_0
  10
492.88684
  20
376.21179
  0
VERTEX
  5
df9
  8
Layer_0
  10
493.08923
  20
376.21179
  0
VERTEX
  5
dfa
  8
Layer_0
  10
493.29163
  20
376.21179
  0
VERTEX
  5
dfb
  8
Layer_0
  10
493.49405
  20
376.21179
  0
VERTEX
  5
dfc
  8
Layer_0
  10
493.69644
  20
376.21179
  0
VERTEX
  5
dfd
  8
Layer_0
  10
493.89886
  20
376.21179
  0
VERTEX
  5
dfe
  8
Layer_0
  10
494.10126
  20
376.21179
  0
VERTEX
  5
dff
  8
Layer_0
  10
494.30365
  20
376.21179
  0
VERTEX
  5
e00
  8
Layer_0
  10
494.50604
  20
376.21179
  0
VERTEX
  5
e01
  8
Layer_0
  10
494.70847
  20
376.21179
  0
VERTEX
  5
e02
  8
Layer_0
  10
494.91086
  20
376.21179
  0
VERTEX
  5
e03
  8
Layer_0
  10
495.11328
  20
376.21179
  0
VERTEX
  5
e04
  8
Layer_0
  10
495.31567
  20
376.21179
  0
VERTEX
  5
e05
  8
Layer_0
  10
495.51807
  20
376.21179
  0
VERTEX
  5
e06
  8
Layer_0
  10
495.72046
  20
376.21179
  0
VERTEX
  5
e07
  8
Layer_0
  10
495.92288
  20
376.21179
  0
VERTEX
  5
e08
  8
Layer_0
  10
496.12527
  20
376.21179
  0
VERTEX
  5
e09
  8
Layer_0
  10
496.3277
  20
376.21179
  0
VERTEX
  5
e0a
  8
Layer_0
  10
496.53009
  20
376.21179
  0
VERTEX
  5
e0b
  8
Layer_0
  10
496.73248
  20
376.21179
  0
VERTEX
  5
e0c
  8
Layer_0
  10
496.93491
  20
376.21179
  0
VERTEX
  5
e0d
  8
Layer_0
  10
497.1373
  20
376.21179
  0
VERTEX
  5
e0e
  8
Layer_0
  10
497.33969
  20
376.21179
  0
VERTEX
  5
e0f
  8
Layer_0
  10
497.54211
  20
376.21179
  0
VERTEX
  5
e10
  8
Layer_0
  10
497.74451
  20
376.21179
  0
VERTEX
  5
e11
  8
Layer_0
  10
497.9469
  20
376.21179
  0
VERTEX
  5
e12
  8
Layer_0
  10
498.14932
  20
376.21179
  0
VERTEX
  5
e13
  8
Layer_0
  10
498.35172
  20
376.21179
  0
VERTEX
  5
e14
  8
Layer_0
  10
498.55411
  20
376.21179
  0
VERTEX
  5
e15
  8
Layer_0
  10
498.75653
  20
376.21179
  0
VERTEX
  5
e16
  8
Layer_0
  10
498.95892
  20
376.21179
  0
VERTEX
  5
e17
  8
Layer_0
  10
499.16132
  20
376.21179
  0
VERTEX
  5
e18
  8
Layer_0
  10
499.36374
  20
376.21179
  0
VERTEX
  5
e19
  8
Layer_0
  10
499.56613
  20
376.21179
  0
VERTEX
  5
e1a
  8
Layer_0
  10
499.76852
  20
376.21179
  0
VERTEX
  5
e1b
  8
Layer_0
  10
499.97095
  20
376.21179
  0
VERTEX
  5
e1c
  8
Layer_0
  10
500.17334
  20
376.21179
  0
VERTEX
  5
e1d
  8
Layer_0
  10
500.37573
  20
376.21179
  0
VERTEX
  5
e1e
  8
Layer_0
  10
500.57816
  20
376.21179
  0
VERTEX
  5
e1f
  8
Layer_0
  10
500.78055
  20
376.21179
  0
VERTEX
  5
e20
  8
Layer_0
  10
500.98294
  20
376.21179
  0
VERTEX
  5
e21
  8
Layer_0
  10
501.18536
  20
376.21179
  0
VERTEX
  5
e22
  8
Layer_0
  10
501.38776
  20
376.21179
  0
VERTEX
  5
e23
  8
Layer_0
  10
501.59015
  20
376.21179
  0
VERTEX
  5
e24
  8
Layer_0
  10
501.79257
  20
376.21179
  0
VERTEX
  5
e25
  8
Layer_0
  10
501.99496
  20
376.21179
  0
VERTEX
  5
e26
  8
Layer_0
  10
502.19736
  20
376.21179
  0
VERTEX
  5
e27
  8
Layer_0
  10
502.39978
  20
376.21179
  0
VERTEX
  5
e28
  8
Layer_0
  10
502.60217
  20
376.21179
  0
VERTEX
  5
e29
  8
Layer_0
  10
502.80457
  20
376.21179
  0
VERTEX
  5
e2a
  8
Layer_0
  10
502.80457
  20
376.42603
  0
VERTEX
  5
e2b
  8
Layer_0
  10
502.80457
  20
376.64032
  0
VERTEX
  5
e2c
  8
Layer_0
  10
502.80457
  20
376.85461
  0
VERTEX
  5
e2d
  8
Layer_0
  10
502.80457
  20
377.06891
  0
VERTEX
  5
e2e
  8
Layer_0
  10
502.80457
  20
377.2832
  0
VERTEX
  5
e2f
  8
Layer_0
  10
502.80457
  20
377.4975
  0
VERTEX
  5
e30
  8
Layer_0
  10
502.80457
  20
377.71179
  0
VERTEX
  5
e31
  8
Layer_0
  10
502.80457
  20
377.92609
  0
VERTEX
  5
e32
  8
Layer_0
  10
502.80457
  20
378.14032
  0
VERTEX
  5
e33
  8
Layer_0
  10
502.80457
  20
378.35461
  0
VERTEX
  5
e34
  8
Layer_0
  10
502.80457
  20
378.56891
  0
VERTEX
  5
e35
  8
Layer_0
  10
502.80457
  20
378.7832
  0
VERTEX
  5
e36
  8
Layer_0
  10
502.80457
  20
378.9975
  0
VERTEX
  5
e37
  8
Layer_0
  10
502.80457
  20
379.21179
  0
VERTEX
  5
e38
  8
Layer_0
  10
522.95459
  20
379.21179
  0
VERTEX
  5
e39
  8
Layer_0
  10
522.95459
  20
378.9975
  0
VERTEX
  5
e3a
  8
Layer_0
  10
522.95459
  20
378.7832
  0
VERTEX
  5
e3b
  8
Layer_0
  10
522.95459
  20
378.56891
  0
VERTEX
  5
e3c
  8
Layer_0
  10
522.95459
  20
378.35461
  0
VERTEX
  5
e3d
  8
Layer_0
  10
522.95459
  20
378.14032
  0
VERTEX
  5
e3e
  8
Layer_0
  10
522.95459
  20
377.92609
  0
VERTEX
  5
e3f
  8
Layer_0
  10
522.95459
  20
377.71179
  0
VERTEX
  5
e40
  8
Layer_0
  10
522.95459
  20
377.4975
  0
VERTEX
  5
e41
  8
Layer_0
  10
522.95459
  20
377.2832
  0
VERTEX
  5
e42
  8
Layer_0
  10
522.95459
  20
377.06891
  0
VERTEX
  5
e43
  8
Layer_0
  10
522.95459
  20
376.85461
  0
VERTEX
  5
e44
  8
Layer_0
  10
522.95459
  20
376.64032
  0
VERTEX
  5
e45
  8
Layer_0
  10
522.95459
  20
376.42603
  0
VERTEX
  5
e46
  8
Layer_0
  10
522.95459
  20
376.21179
  0
VERTEX
  5
e47
  8
Layer_0
  10
523.15881
  20
376.21179
  0
VERTEX
  5
e48
  8
Layer_0
  10
523.3631
  20
376.21179
  0
VERTEX
  5
e49
  8
Layer_0
  10
523.56738
  20
376.21179
  0
VERTEX
  5
e4a
  8
Layer_0
  10
523.77167
  20
376.21179
  0
VERTEX
  5
e4b
  8
Layer_0
  10
523.97595
  20
376.21179
  0
VERTEX
  5
e4c
  8
Layer_0
  10
524.18018
  20
376.21179
  0
VERTEX
  5
e4d
  8
Layer_0
  10
524.38446
  20
376.21179
  0
VERTEX
  5
e4e
  8
Layer_0
  10
524.58875
  20
376.21179
  0
VERTEX
  5
e4f
  8
Layer_0
  10
524.79297
  20
376.21179
  0
VERTEX
  5
e50
  8
Layer_0
  10
524.99725
  20
376.21179
  0
VERTEX
  5
e51
  8
Layer_0
  10
525.20154
  20
376.21179
  0
VERTEX
  5
e52
  8
Layer_0
  10
525.40582
  20
376.21179
  0
VERTEX
  5
e53
  8
Layer_0
  10
525.61011
  20
376.21179
  0
VERTEX
  5
e54
  8
Layer_0
  10
525.81433
  20
376.21179
  0
VERTEX
  5
e55
  8
Layer_0
  10
526.01862
  20
376.21179
  0
VERTEX
  5
e56
  8
Layer_0
  10
526.2229
  20
376.21179
  0
VERTEX
  5
e57
  8
Layer_0
  10
526.42712
  20
376.21179
  0
VERTEX
  5
e58
  8
Layer_0
  10
526.63141
  20
376.21179
  0
VERTEX
  5
e59
  8
Layer_0
  10
526.83569
  20
376.21179
  0
VERTEX
  5
e5a
  8
Layer_0
  10
527.03998
  20
376.21179
  0
VERTEX
  5
e5b
  8
Layer_0
  10
527.24426
  20
376.21179
  0
VERTEX
  5
e5c
  8
Layer_0
  10
527.44849
  20
376.21179
  0
VERTEX
  5
e5d
  8
Layer_0
  10
527.65277
  20
376.21179
  0
VERTEX
  5
e5e
  8
Layer_0
  10
527.85706
  20
376.21179
  0
VERTEX
  5
e5f
  8
Layer_0
  10
528.06128
  20
376.21179
  0
VERTEX
  5
e60
  8
Layer_0
  10
528.26556
  20
376.21179
  0
VERTEX
  5
e61
  8
Layer_0
  10
528.46985
  20
376.21179
  0
VERTEX
  5
e62
  8
Layer_0
  10
528.67413
  20
376.21179
  0
VERTEX
  5
e63
  8
Layer_0
  10
528.87836
  20
376.21179
  0
VERTEX
  5
e64
  8
Layer_0
  10
529.08264
  20
376.21179
  0
VERTEX
  5
e65
  8
Layer_0
  10
529.28693
  20
376.21179
  0
VERTEX
  5
e66
  8
Layer_0
  10
529.49121
  20
376.21179
  0
VERTEX
  5
e67
  8
Layer_0
  10
529.69543
  20
376.21179
  0
VERTEX
  5
e68
  8
Layer_0
  10
529.89972
  20
376.21179
  0
VERTEX
  5
e69
  8
Layer_0
  10
530.104
  20
376.21179
  0
VERTEX
  5
e6a
  8
Layer_0
  10
530.30823
  20
376.21179
  0
VERTEX
  5
e6b
  8
Layer_0
  10
530.51251
  20
376.21179
  0
VERTEX
  5
e6c
  8
Layer_0
  10
530.7168
  20
376.21179
  0
VERTEX
  5
e6d
  8
Layer_0
  10
530.92108
  20
376.21179
  0
VERTEX
  5
e6e
  8
Layer_0
  10
531.12537
  20
376.21179
  0
VERTEX
  5
e6f
  8
Layer_0
  10
531.32959
  20
376.21179
  0
VERTEX
  5
e70
  8
Layer_0
  10
531.53387
  20
376.21179
  0
VERTEX
  5
e71
  8
Layer_0
  10
531.73816
  20
376.21179
  0
VERTEX
  5
e72
  8
Layer_0
  10
531.94238
  20
376.21179
  0
VERTEX
  5
e73
  8
Layer_0
  10
532.14667
  20
376.21179
  0
VERTEX
  5
e74
  8
Layer_0
  10
532.35095
  20
376.21179
  0
VERTEX
  5
e75
  8
Layer_0
  10
532.55524
  20
376.21179
  0
VERTEX
  5
e76
  8
Layer_0
  10
532.75952
  20
376.21179
  0
VERTEX
  5
e77
  8
Layer_0
  10
532.96375
  20
376.21179
  0
VERTEX
  5
e78
  8
Layer_0
  10
533.16803
  20
376.21179
  0
VERTEX
  5
e79
  8
Layer_0
  10
533.37231
  20
376.21179
  0
VERTEX
  5
e7a
  8
Layer_0
  10
533.57654
  20
376.21179
  0
VERTEX
  5
e7b
  8
Layer_0
  10
533.78082
  20
376.21179
  0
VERTEX
  5
e7c
  8
Layer_0
  10
533.98511
  20
376.21179
  0
VERTEX
  5
e7d
  8
Layer_0
  10
534.18939
  20
376.21179
  0
VERTEX
  5
e7e
  8
Layer_0
  10
534.39368
  20
376.21179
  0
VERTEX
  5
e7f
  8
Layer_0
  10
534.5979
  20
376.21179
  0
VERTEX
  5
e80
  8
Layer_0
  10
534.80219
  20
376.21179
  0
VERTEX
  5
e81
  8
Layer_0
  10
535.00647
  20
376.21179
  0
VERTEX
  5
e82
  8
Layer_0
  10
535.21069
  20
376.21179
  0
VERTEX
  5
e83
  8
Layer_0
  10
535.41498
  20
376.21179
  0
VERTEX
  5
e84
  8
Layer_0
  10
535.61926
  20
376.21179
  0
VERTEX
  5
e85
  8
Layer_0
  10
535.82355
  20
376.21179
  0
VERTEX
  5
e86
  8
Layer_0
  10
536.02777
  20
376.21179
  0
VERTEX
  5
e87
  8
Layer_0
  10
536.23206
  20
376.21179
  0
VERTEX
  5
e88
  8
Layer_0
  10
536.43634
  20
376.21179
  0
VERTEX
  5
e89
  8
Layer_0
  10
536.64063
  20
376.21179
  0
VERTEX
  5
e8a
  8
Layer_0
  10
536.84485
  20
376.21179
  0
VERTEX
  5
e8b
  8
Layer_0
  10
537.04913
  20
376.21179
  0
VERTEX
  5
e8c
  8
Layer_0
  10
537.25342
  20
376.21179
  0
VERTEX
  5
e8d
  8
Layer_0
  10
537.4577
  20
376.21179
  0
VERTEX
  5
e8e
  8
Layer_0
  10
537.66193
  20
376.21179
  0
VERTEX
  5
e8f
  8
Layer_0
  10
537.86621
  20
376.21179
  0
VERTEX
  5
e90
  8
Layer_0
  10
538.0705
  20
376.21179
  0
VERTEX
  5
e91
  8
Layer_0
  10
538.27478
  20
376.21179
  0
VERTEX
  5
e92
  8
Layer_0
  10
538.479
  20
376.21179
  0
VERTEX
  5
e93
  8
Layer_0
  10
538.68329
  20
376.21179
  0
VERTEX
  5
e94
  8
Layer_0
  10
538.88757
  20
376.21179
  0
VERTEX
  5
e95
  8
Layer_0
  10
539.0918
  20
376.21179
  0
VERTEX
  5
e96
  8
Layer_0
  10
539.29608
  20
376.21179
  0
VERTEX
  5
e97
  8
Layer_0
  10
539.50037
  20
376.21179
  0
VERTEX
  5
e98
  8
Layer_0
  10
539.50037
  20
376.00586
  0
VERTEX
  5
e99
  8
Layer_0
  10
539.50037
  20
375.79999
  0
VERTEX
  5
e9a
  8
Layer_0
  10
539.50037
  20
375.59412
  0
VERTEX
  5
e9b
  8
Layer_0
  10
539.50037
  20
375.38818
  0
VERTEX
  5
e9c
  8
Layer_0
  10
539.50037
  20
375.18231
  0
VERTEX
  5
e9d
  8
Layer_0
  10
539.50037
  20
374.97644
  0
VERTEX
  5
e9e
  8
Layer_0
  10
539.50037
  20
374.77051
  0
VERTEX
  5
e9f
  8
Layer_0
  10
539.50037
  20
374.56464
  0
VERTEX
  5
ea0
  8
Layer_0
  10
539.50037
  20
374.35876
  0
VERTEX
  5
ea1
  8
Layer_0
  10
539.50037
  20
374.15283
  0
VERTEX
  5
ea2
  8
Layer_0
  10
539.50037
  20
373.94696
  0
VERTEX
  5
ea3
  8
Layer_0
  10
539.50037
  20
373.74109
  0
VERTEX
  5
ea4
  8
Layer_0
  10
539.50037
  20
373.53516
  0
VERTEX
  5
ea5
  8
Layer_0
  10
539.50037
  20
373.32928
  0
VERTEX
  5
ea6
  8
Layer_0
  10
539.50037
  20
373.12341
  0
VERTEX
  5
ea7
  8
Layer_0
  10
539.50037
  20
372.91748
  0
VERTEX
  5
ea8
  8
Layer_0
  10
539.50037
  20
372.71161
  0
VERTEX
  5
ea9
  8
Layer_0
  10
539.50037
  20
372.50574
  0
VERTEX
  5
eaa
  8
Layer_0
  10
539.50037
  20
372.29987
  0
VERTEX
  5
eab
  8
Layer_0
  10
539.50037
  20
372.09393
  0
VERTEX
  5
eac
  8
Layer_0
  10
539.50037
  20
371.88806
  0
VERTEX
  5
ead
  8
Layer_0
  10
539.50037
  20
371.68219
  0
VERTEX
  5
eae
  8
Layer_0
  10
539.50037
  20
371.47626
  0
VERTEX
  5
eaf
  8
Layer_0
  10
539.50037
  20
371.27039
  0
VERTEX
  5
eb0
  8
Layer_0
  10
539.50037
  20
371.06451
  0
VERTEX
  5
eb1
  8
Layer_0
  10
539.50037
  20
370.85858
  0
VERTEX
  5
eb2
  8
Layer_0
  10
539.50037
  20
370.65271
  0
VERTEX
  5
eb3
  8
Layer_0
  10
539.50037
  20
370.44684
  0
VERTEX
  5
eb4
  8
Layer_0
  10
539.50037
  20
370.24091
  0
VERTEX
  5
eb5
  8
Layer_0
  10
539.50037
  20
370.03503
  0
VERTEX
  5
eb6
  8
Layer_0
  10
539.50037
  20
369.82916
  0
VERTEX
  5
eb7
  8
Layer_0
  10
539.50037
  20
369.62323
  0
VERTEX
  5
eb8
  8
Layer_0
  10
539.50037
  20
369.41736
  0
VERTEX
  5
eb9
  8
Layer_0
  10
539.50037
  20
369.21149
  0
VERTEX
  5
eba
  8
Layer_0
  10
539.50037
  20
369.00555
  0
VERTEX
  5
ebb
  8
Layer_0
  10
539.50037
  20
368.79968
  0
VERTEX
  5
ebc
  8
Layer_0
  10
539.50037
  20
368.59381
  0
VERTEX
  5
ebd
  8
Layer_0
  10
539.50037
  20
368.38788
  0
VERTEX
  5
ebe
  8
Layer_0
  10
539.50037
  20
368.18201
  0
VERTEX
  5
ebf
  8
Layer_0
  10
539.50037
  20
367.97614
  0
VERTEX
  5
ec0
  8
Layer_0
  10
539.50037
  20
367.77026
  0
VERTEX
  5
ec1
  8
Layer_0
  10
539.50037
  20
367.56433
  0
VERTEX
  5
ec2
  8
Layer_0
  10
539.50037
  20
367.35846
  0
VERTEX
  5
ec3
  8
Layer_0
  10
539.50037
  20
367.15259
  0
VERTEX
  5
ec4
  8
Layer_0
  10
539.50037
  20
366.94666
  0
VERTEX
  5
ec5
  8
Layer_0
  10
539.50037
  20
366.74078
  0
VERTEX
  5
ec6
  8
Layer_0
  10
539.50037
  20
366.53491
  0
VERTEX
  5
ec7
  8
Layer_0
  10
539.50037
  20
366.32898
  0
VERTEX
  5
ec8
  8
Layer_0
  10
539.50037
  20
366.12311
  0
VERTEX
  5
ec9
  8
Layer_0
  10
539.50037
  20
365.91724
  0
VERTEX
  5
eca
  8
Layer_0
  10
539.50037
  20
365.7113
  0
VERTEX
  5
ecb
  8
Layer_0
  10
539.50037
  20
365.50543
  0
VERTEX
  5
ecc
  8
Layer_0
  10
539.50037
  20
365.29956
  0
VERTEX
  5
ecd
  8
Layer_0
  10
539.50037
  20
365.09363
  0
VERTEX
  5
ece
  8
Layer_0
  10
539.50037
  20
364.88776
  0
VERTEX
  5
ecf
  8
Layer_0
  10
539.50037
  20
364.68188
  0
VERTEX
  5
ed0
  8
Layer_0
  10
539.50037
  20
364.47595
  0
VERTEX
  5
ed1
  8
Layer_0
  10
539.50037
  20
364.27008
  0
VERTEX
  5
ed2
  8
Layer_0
  10
539.50037
  20
364.06421
  0
VERTEX
  5
ed3
  8
Layer_0
  10
539.50037
  20
363.85828
  0
VERTEX
  5
ed4
  8
Layer_0
  10
539.50037
  20
363.6524
  0
VERTEX
  5
ed5
  8
Layer_0
  10
539.50037
  20
363.44653
  0
VERTEX
  5
ed6
  8
Layer_0
  10
539.71466
  20
363.44653
  0
VERTEX
  5
ed7
  8
Layer_0
  10
539.92896
  20
363.44653
  0
VERTEX
  5
ed8
  8
Layer_0
  10
540.14325
  20
363.44653
  0
VERTEX
  5
ed9
  8
Layer_0
  10
540.35754
  20
363.44653
  0
VERTEX
  5
eda
  8
Layer_0
  10
540.57178
  20
363.44653
  0
VERTEX
  5
edb
  8
Layer_0
  10
540.78607
  20
363.44653
  0
VERTEX
  5
edc
  8
Layer_0
  10
541.00037
  20
363.44653
  0
VERTEX
  5
edd
  8
Layer_0
  10
541.21466
  20
363.44653
  0
VERTEX
  5
ede
  8
Layer_0
  10
541.42896
  20
363.44653
  0
VERTEX
  5
edf
  8
Layer_0
  10
541.64325
  20
363.44653
  0
VERTEX
  5
ee0
  8
Layer_0
  10
541.85754
  20
363.44653
  0
VERTEX
  5
ee1
  8
Layer_0
  10
542.07178
  20
363.44653
  0
VERTEX
  5
ee2
  8
Layer_0
  10
542.28607
  20
363.44653
  0
VERTEX
  5
ee3
  8
Layer_0
  10
542.50037
  20
363.44653
  0
VERTEX
  5
ee4
  8
Layer_0
  10
542.50037
  20
348.29651
  0
VERTEX
  5
ee5
  8
Layer_0
  10
542.26959
  20
348.29651
  0
VERTEX
  5
ee6
  8
Layer_0
  10
542.03882
  20
348.29651
  0
VERTEX
  5
ee7
  8
Layer_0
  10
541.80804
  20
348.29651
  0
VERTEX
  5
ee8
  8
Layer_0
  10
541.57727
  20
348.29651
  0
VERTEX
  5
ee9
  8
Layer_0
  10
541.34656
  20
348.29651
  0
VERTEX
  5
eea
  8
Layer_0
  10
541.11572
  20
348.29651
  0
VERTEX
  5
eeb
  8
Layer_0
  10
540.88501
  20
348.29651
  0
VERTEX
  5
eec
  8
Layer_0
  10
540.65424
  20
348.29651
  0
VERTEX
  5
eed
  8
Layer_0
  10
540.42346
  20
348.29651
  0
VERTEX
  5
eee
  8
Layer_0
  10
540.19269
  20
348.29651
  0
VERTEX
  5
eef
  8
Layer_0
  10
539.96191
  20
348.29651
  0
VERTEX
  5
ef0
  8
Layer_0
  10
539.73114
  20
348.29651
  0
VERTEX
  5
ef1
  8
Layer_0
  10
539.50037
  20
348.29651
  0
VERTEX
  5
ef2
  8
Layer_0
  10
539.50037
  20
348.0918
  0
VERTEX
  5
ef3
  8
Layer_0
  10
539.50037
  20
347.88702
  0
VERTEX
  5
ef4
  8
Layer_0
  10
539.50037
  20
347.68231
  0
VERTEX
  5
ef5
  8
Layer_0
  10
539.50037
  20
347.47754
  0
VERTEX
  5
ef6
  8
Layer_0
  10
539.50037
  20
347.27283
  0
VERTEX
  5
ef7
  8
Layer_0
  10
539.50037
  20
347.06805
  0
VERTEX
  5
ef8
  8
Layer_0
  10
539.50037
  20
346.86334
  0
VERTEX
  5
ef9
  8
Layer_0
  10
539.50037
  20
346.65857
  0
VERTEX
  5
efa
  8
Layer_0
  10
539.50037
  20
346.45386
  0
VERTEX
  5
efb
  8
Layer_0
  10
539.50037
  20
346.24908
  0
VERTEX
  5
efc
  8
Layer_0
  10
539.50037
  20
346.04437
  0
VERTEX
  5
efd
  8
Layer_0
  10
539.50037
  20
345.8396
  0
VERTEX
  5
efe
  8
Layer_0
  10
539.50037
  20
345.63483
  0
VERTEX
  5
eff
  8
Layer_0
  10
539.50037
  20
345.43011
  0
VERTEX
  5
f00
  8
Layer_0
  10
539.50037
  20
345.22534
  0
VERTEX
  5
f01
  8
Layer_0
  10
539.50037
  20
345.02063
  0
VERTEX
  5
f02
  8
Layer_0
  10
539.50037
  20
344.81586
  0
VERTEX
  5
f03
  8
Layer_0
  10
539.50037
  20
344.61115
  0
VERTEX
  5
f04
  8
Layer_0
  10
539.50037
  20
344.40637
  0
VERTEX
  5
f05
  8
Layer_0
  10
539.50037
  20
344.20166
  0
VERTEX
  5
f06
  8
Layer_0
  10
539.50037
  20
343.99689
  0
VERTEX
  5
f07
  8
Layer_0
  10
539.50037
  20
343.79218
  0
VERTEX
  5
f08
  8
Layer_0
  10
539.50037
  20
343.5874
  0
VERTEX
  5
f09
  8
Layer_0
  10
539.50037
  20
343.38269
  0
VERTEX
  5
f0a
  8
Layer_0
  10
539.50037
  20
343.17792
  0
VERTEX
  5
f0b
  8
Layer_0
  10
539.50037
  20
342.97321
  0
VERTEX
  5
f0c
  8
Layer_0
  10
539.50037
  20
342.76843
  0
VERTEX
  5
f0d
  8
Layer_0
  10
539.50037
  20
342.56372
  0
VERTEX
  5
f0e
  8
Layer_0
  10
539.50037
  20
342.35895
  0
VERTEX
  5
f0f
  8
Layer_0
  10
539.50037
  20
342.15424
  0
VERTEX
  5
f10
  8
Layer_0
  10
539.50037
  20
341.94946
  0
VERTEX
  5
f11
  8
Layer_0
  10
539.50037
  20
341.74475
  0
VERTEX
  5
f12
  8
Layer_0
  10
539.50037
  20
341.53998
  0
VERTEX
  5
f13
  8
Layer_0
  10
539.50037
  20
341.33527
  0
VERTEX
  5
f14
  8
Layer_0
  10
539.50037
  20
341.13049
  0
VERTEX
  5
f15
  8
Layer_0
  10
539.50037
  20
340.92578
  0
VERTEX
  5
f16
  8
Layer_0
  10
539.50037
  20
340.72101
  0
VERTEX
  5
f17
  8
Layer_0
  10
539.50037
  20
340.5163
  0
VERTEX
  5
f18
  8
Layer_0
  10
539.50037
  20
340.31152
  0
VERTEX
  5
f19
  8
Layer_0
  10
539.50037
  20
340.10681
  0
VERTEX
  5
f1a
  8
Layer_0
  10
539.50037
  20
339.90204
  0
VERTEX
  5
f1b
  8
Layer_0
  10
539.50037
  20
339.69727
  0
VERTEX
  5
f1c
  8
Layer_0
  10
539.50037
  20
339.49255
  0
VERTEX
  5
f1d
  8
Layer_0
  10
539.50037
  20
339.28778
  0
VERTEX
  5
f1e
  8
Layer_0
  10
539.50037
  20
339.08307
  0
VERTEX
  5
f1f
  8
Layer_0
  10
539.50037
  20
338.8783
  0
VERTEX
  5
f20
  8
Layer_0
  10
539.50037
  20
338.67358
  0
VERTEX
  5
f21
  8
Layer_0
  10
539.50037
  20
338.46881
  0
VERTEX
  5
f22
  8
Layer_0
  10
539.50037
  20
338.2641
  0
VERTEX
  5
f23
  8
Layer_0
  10
539.50037
  20
338.05933
  0
VERTEX
  5
f24
  8
Layer_0
  10
539.50037
  20
337.85461
  0
VERTEX
  5
f25
  8
Layer_0
  10
539.50037
  20
337.64984
  0
VERTEX
  5
f26
  8
Layer_0
  10
539.50037
  20
337.44513
  0
VERTEX
  5
f27
  8
Layer_0
  10
539.50037
  20
337.24036
  0
VERTEX
  5
f28
  8
Layer_0
  10
539.50037
  20
337.03564
  0
VERTEX
  5
f29
  8
Layer_0
  10
539.50037
  20
336.83087
  0
VERTEX
  5
f2a
  8
Layer_0
  10
539.50037
  20
336.62616
  0
VERTEX
  5
f2b
  8
Layer_0
  10
539.50037
  20
336.42139
  0
VERTEX
  5
f2c
  8
Layer_0
  10
539.50037
  20
336.21667
  0
VERTEX
  5
f2d
  8
Layer_0
  10
539.50037
  20
336.0119
  0
VERTEX
  5
f2e
  8
Layer_0
  10
539.50037
  20
335.80719
  0
VERTEX
  5
f2f
  8
Layer_0
  10
539.50037
  20
335.60242
  0
VERTEX
  5
f30
  8
Layer_0
  10
539.50037
  20
335.39771
  0
VERTEX
  5
f31
  8
Layer_0
  10
539.50037
  20
335.19293
  0
VERTEX
  5
f32
  8
Layer_0
  10
539.50037
  20
334.98822
  0
VERTEX
  5
f33
  8
Layer_0
  10
539.50037
  20
334.78345
  0
VERTEX
  5
f34
  8
Layer_0
  10
539.50037
  20
334.57874
  0
VERTEX
  5
f35
  8
Layer_0
  10
539.50037
  20
334.37396
  0
VERTEX
  5
f36
  8
Layer_0
  10
539.50037
  20
334.16925
  0
VERTEX
  5
f37
  8
Layer_0
  10
539.50037
  20
333.96448
  0
VERTEX
  5
f38
  8
Layer_0
  10
539.50037
  20
333.7597
  0
VERTEX
  5
f39
  8
Layer_0
  10
539.50037
  20
333.55499
  0
VERTEX
  5
f3a
  8
Layer_0
  10
539.50037
  20
333.35022
  0
VERTEX
  5
f3b
  8
Layer_0
  10
539.50037
  20
333.14551
  0
VERTEX
  5
f3c
  8
Layer_0
  10
539.50037
  20
332.94073
  0
VERTEX
  5
f3d
  8
Layer_0
  10
539.50037
  20
332.73602
  0
VERTEX
  5
f3e
  8
Layer_0
  10
539.50037
  20
332.53125
  0
VERTEX
  5
f3f
  8
Layer_0
  10
409.12146
  20
332.53125
  0
VERTEX
  5
f40
  8
Layer_0
  10
409.12146
  20
332.73602
  0
VERTEX
  5
f41
  8
Layer_0
  10
409.12146
  20
332.94073
  0
VERTEX
  5
f42
  8
Layer_0
  10
409.12146
  20
333.14551
  0
VERTEX
  5
f43
  8
Layer_0
  10
409.12146
  20
333.35022
  0
VERTEX
  5
f44
  8
Layer_0
  10
409.12146
  20
333.55499
  0
VERTEX
  5
f45
  8
Layer_0
  10
409.12146
  20
333.7597
  0
VERTEX
  5
f46
  8
Layer_0
  10
409.12146
  20
333.96448
  0
VERTEX
  5
f47
  8
Layer_0
  10
409.12146
  20
334.16925
  0
VERTEX
  5
f48
  8
Layer_0
  10
409.12146
  20
334.37396
  0
VERTEX
  5
f49
  8
Layer_0
  10
409.12146
  20
334.57874
  0
VERTEX
  5
f4a
  8
Layer_0
  10
409.12146
  20
334.78345
  0
VERTEX
  5
f4b
  8
Layer_0
  10
409.12146
  20
334.98822
  0
VERTEX
  5
f4c
  8
Layer_0
  10
409.12146
  20
335.19293
  0
VERTEX
  5
f4d
  8
Layer_0
  10
409.12146
  20
335.39771
  0
VERTEX
  5
f4e
  8
Layer_0
  10
409.12146
  20
335.60242
  0
VERTEX
  5
f4f
  8
Layer_0
  10
409.12146
  20
335.80719
  0
VERTEX
  5
f50
  8
Layer_0
  10
409.12146
  20
336.0119
  0
VERTEX
  5
f51
  8
Layer_0
  10
409.12146
  20
336.21667
  0
VERTEX
  5
f52
  8
Layer_0
  10
409.12146
  20
336.42139
  0
VERTEX
  5
f53
  8
Layer_0
  10
409.12146
  20
336.62616
  0
VERTEX
  5
f54
  8
Layer_0
  10
409.12146
  20
336.83087
  0
VERTEX
  5
f55
  8
Layer_0
  10
409.12146
  20
337.03564
  0
VERTEX
  5
f56
  8
Layer_0
  10
409.12146
  20
337.24036
  0
VERTEX
  5
f57
  8
Layer_0
  10
409.12146
  20
337.44513
  0
VERTEX
  5
f58
  8
Layer_0
  10
409.12146
  20
337.64984
  0
VERTEX
  5
f59
  8
Layer_0
  10
409.12146
  20
337.85461
  0
VERTEX
  5
f5a
  8
Layer_0
  10
409.12146
  20
338.05933
  0
VERTEX
  5
f5b
  8
Layer_0
  10
409.12146
  20
338.2641
  0
VERTEX
  5
f5c
  8
Layer_0
  10
409.12146
  20
338.46881
  0
VERTEX
  5
f5d
  8
Layer_0
  10
409.12146
  20
338.67358
  0
VERTEX
  5
f5e
  8
Layer_0
  10
409.12146
  20
338.8783
  0
VERTEX
  5
f5f
  8
Layer_0
  10
409.12146
  20
339.08307
  0
VERTEX
  5
f60
  8
Layer_0
  10
409.12146
  20
339.28778
  0
VERTEX
  5
f61
  8
Layer_0
  10
409.12146
  20
339.49255
  0
VERTEX
  5
f62
  8
Layer_0
  10
409.12146
  20
339.69727
  0
VERTEX
  5
f63
  8
Layer_0
  10
409.12146
  20
339.90204
  0
VERTEX
  5
f64
  8
Layer_0
  10
409.12146
  20
340.10681
  0
VERTEX
  5
f65
  8
Layer_0
  10
409.12146
  20
340.31152
  0
VERTEX
  5
f66
  8
Layer_0
  10
409.12146
  20
340.5163
  0
VERTEX
  5
f67
  8
Layer_0
  10
409.12146
  20
340.72101
  0
VERTEX
  5
f68
  8
Layer_0
  10
409.12146
  20
340.92578
  0
VERTEX
  5
f69
  8
Layer_0
  10
409.12146
  20
341.13049
  0
VERTEX
  5
f6a
  8
Layer_0
  10
409.12146
  20
341.33527
  0
VERTEX
  5
f6b
  8
Layer_0
  10
409.12146
  20
341.53998
  0
VERTEX
  5
f6c
  8
Layer_0
  10
409.12146
  20
341.74475
  0
VERTEX
  5
f6d
  8
Layer_0
  10
409.12146
  20
341.94946
  0
VERTEX
  5
f6e
  8
Layer_0
  10
409.12146
  20
342.15424
  0
VERTEX
  5
f6f
  8
Layer_0
  10
409.12146
  20
342.35895
  0
VERTEX
  5
f70
  8
Layer_0
  10
409.12146
  20
342.56372
  0
VERTEX
  5
f71
  8
Layer_0
  10
409.12146
  20
342.76843
  0
VERTEX
  5
f72
  8
Layer_0
  10
409.12146
  20
342.97321
  0
VERTEX
  5
f73
  8
Layer_0
  10
409.12146
  20
343.17792
  0
VERTEX
  5
f74
  8
Layer_0
  10
409.12146
  20
343.38269
  0
VERTEX
  5
f75
  8
Layer_0
  10
409.12146
  20
343.5874
  0
VERTEX
  5
f76
  8
Layer_0
  10
409.12146
  20
343.79218
  0
VERTEX
  5
f77
  8
Layer_0
  10
409.12146
  20
343.99689
  0
VERTEX
  5
f78
  8
Layer_0
  10
409.12146
  20
344.20166
  0
VERTEX
  5
f79
  8
Layer_0
  10
409.12146
  20
344.40637
  0
VERTEX
  5
f7a
  8
Layer_0
  10
409.12146
  20
344.61115
  0
VERTEX
  5
f7b
  8
Layer_0
  10
409.12146
  20
344.81586
  0
VERTEX
  5
f7c
  8
Layer_0
  10
409.12146
  20
345.02063
  0
VERTEX
  5
f7d
  8
Layer_0
  10
409.12146
  20
345.22534
  0
VERTEX
  5
f7e
  8
Layer_0
  10
409.12146
  20
345.43011
  0
VERTEX
  5
f7f
  8
Layer_0
  10
409.12146
  20
345.63483
  0
VERTEX
  5
f80
  8
Layer_0
  10
409.12146
  20
345.8396
  0
VERTEX
  5
f81
  8
Layer_0
  10
409.12146
  20
346.04437
  0
VERTEX
  5
f82
  8
Layer_0
  10
409.12146
  20
346.24908
  0
VERTEX
  5
f83
  8
Layer_0
  10
409.12146
  20
346.45386
  0
VERTEX
  5
f84
  8
Layer_0
  10
409.12146
  20
346.65857
  0
VERTEX
  5
f85
  8
Layer_0
  10
409.12146
  20
346.86334
  0
VERTEX
  5
f86
  8
Layer_0
  10
409.12146
  20
347.06805
  0
VERTEX
  5
f87
  8
Layer_0
  10
409.12146
  20
347.27283
  0
VERTEX
  5
f88
  8
Layer_0
  10
409.12146
  20
347.47754
  0
VERTEX
  5
f89
  8
Layer_0
  10
409.12146
  20
347.68231
  0
VERTEX
  5
f8a
  8
Layer_0
  10
409.12146
  20
347.88702
  0
VERTEX
  5
f8b
  8
Layer_0
  10
409.12146
  20
348.0918
  0
SEQEND
  0
POLYLINE
  5
f8d
  8
Layer_0
  62
7
  70
1
  66
1
  10
0
  20
0
  30
0
  0
VERTEX
  5
f8d
  8
Layer_0
  10
-61.626511
  20
329.7865
  0
VERTEX
  5
f8e
  8
Layer_0
  10
-61.413498
  20
329.36835
  0
VERTEX
  5
f8f
  8
Layer_0
  10
-61.08165
  20
329.0365
  0
VERTEX
  5
f90
  8
Layer_0
  10
-60.663437
  20
328.82343
  0
VERTEX
  5
f91
  8
Layer_0
  10
-60.199936
  20
328.75006
  0
VERTEX
  5
f92
  8
Layer_0
  10
-59.736435
  20
328.82343
  0
VERTEX
  5
f93
  8
Layer_0
  10
-59.318344
  20
329.0365
  0
VERTEX
  5
f94
  8
Layer_0
  10
-58.986435
  20
329.36835
  0
VERTEX
  5
f95
  8
Layer_0
  10
-58.773361
  20
329.7865
  0
VERTEX
  5
f96
  8
Layer_0
  10
-58.699936
  20
330.25006
  0
VERTEX
  5
f97
  8
Layer_0
  10
-58.773361
  20
330.71356
  0
VERTEX
  5
f98
  8
Layer_0
  10
-58.986435
  20
331.13171
  0
VERTEX
  5
f99
  8
Layer_0
  10
-59.318344
  20
331.46356
  0
VERTEX
  5
f9a
  8
Layer_0
  10
-59.736435
  20
331.67664
  0
VERTEX
  5
f9b
  8
Layer_0
  10
-60.199936
  20
331.75006
  0
VERTEX
  5
f9c
  8
Layer_0
  10
-60.663437
  20
331.67664
  0
VERTEX
  5
f9d
  8
Layer_0
  10
-61.08165
  20
331.46356
  0
VERTEX
  5
f9e
  8
Layer_0
  10
-61.413498
  20
331.13171
  0
VERTEX
  5
f9f
  8
Layer_0
  10
-61.626511
  20
330.71356
  0
VERTEX
  5
fa0
  8
Layer_0
  10
-61.699997
  20
330.25006
  0
SEQEND
  0
POLYLINE
  5
fa2
  8
Layer_0
  62
7
  70
1
  66
1
  10
0
  20
0
  30
0
  0
VERTEX
  5
fa2
  8
Layer_0
  10
-61.626511
  20
361.2865
  0
VERTEX
  5
fa3
  8
Layer_0
  10
-61.413498
  20
360.86835
  0
VERTEX
  5
fa4
  8
Layer_0
  10
-61.08165
  20
360.5365
  0
VERTEX
  5
fa5
  8
Layer_0
  10
-60.663437
  20
360.32343
  0
VERTEX
  5
fa6
  8
Layer_0
  10
-60.199936
  20
360.25006
  0
VERTEX
  5
fa7
  8
Layer_0
  10
-59.736435
  20
360.32343
  0
VERTEX
  5
fa8
  8
Layer_0
  10
-59.318344
  20
360.5365
  0
VERTEX
  5
fa9
  8
Layer_0
  10
-58.986435
  20
360.86835
  0
VERTEX
  5
faa
  8
Layer_0
  10
-58.773361
  20
361.2865
  0
VERTEX
  5
fab
  8
Layer_0
  10
-58.699936
  20
361.75006
  0
VERTEX
  5
fac
  8
Layer_0
  10
-58.773361
  20
362.21356
  0
VERTEX
  5
fad
  8
Layer_0
  10
-58.986435
  20
362.63171
  0
VERTEX
  5
fae
  8
Layer_0
  10
-59.318344
  20
362.96356
  0
VERTEX
  5
faf
  8
Layer_0
  10
-59.736435
  20
363.17664
  0
VERTEX
  5
fb0
  8
Layer_0
  10
-60.199936
  20
363.25006
  0
VERTEX
  5
fb1
  8
Layer_0
  10
-60.663437
  20
363.17664
  0
VERTEX
  5
fb2
  8
Layer_0
  10
-61.08165
  20
362.96356
  0
VERTEX
  5
fb3
  8
Layer_0
  10
-61.413498
  20
362.63171
  0
VERTEX
  5
fb4
  8
Layer_0
  10
-61.626511
  20
362.21356
  0
VERTEX
  5
fb5
  8
Layer_0
  10
-61.699997
  20
361.75006
  0
SEQEND
  0
ENDSEC
  0
EOF
