0
SECTION
2
HEADER
9
$INSUNITS
70
4
9
$ACADVER
1
AC1014
9
$HANDSEED
5
FFFF
0
ENDSEC
0
SECTION
2
TABLES
0
TABLE
2
VPORT
5
8
100
AcDbSymbolTable
0
ENDTAB
0
TABLE
2
LTYPE
5
5
100
AcDbSymbolTable
0
LTYPE
5
14
100
AcDbSymbolTableRecord
100
AcDbLinetypeTableRecord
2
BYBLOCK
70
0
0
LTYPE
5
15
100
AcDbSymbolTableRecord
100
AcDbLinetypeTableRecord
2
BYLAYER
70
0
0
ENDTAB
0
TABLE
2
LAYER
5
2
100
AcDbSymbolTable
70
2
0
LAYER
5
50
100
AcDbSymbolTableRecord
100
AcDbLayerTableRecord
2
0
70
0
6
CONTINUOUS
0
ENDTAB
0
TABLE
2
STYLE
5
3
100
AcDbSymbolTable
70
1
0
STYLE
5
11
100
AcDbSymbolTableRecord
100
AcDbTextStyleTableRecord
2
STANDARD
70
0
0
ENDTAB
0
TABLE
2
VIEW
5
6
100
AcDbSymbolTable
70
0
0
ENDTAB
0
TABLE
2
UCS
5
7
100
AcDbSymbolTable
70
0
0
ENDTAB
0
TABLE
2
APPID
5
9
100
AcDbSymbolTable
70
2
0
APPID
5
12
100
AcDbSymbolTableRecord
100
AcDbRegAppTableRecord
2
ACAD
70
0
0
ENDTAB
0
TABLE
2
DIMSTYLE
5
A
100
AcDbSymbolTable
70
1
0
ENDTAB
0
TABLE
2
BLOCK_RECORD
5
1
100
AcDbSymbolTable
70
1
0
BLOCK_RECORD
5
1F
100
AcDbSymbolTableRecord
100
AcDbBlockTableRecord
2
*MODEL_SPACE
0
BLOCK_RECORD
5
1B
100
AcDbSymbolTableRecord
100
AcDbBlockTableRecord
2
*PAPER_SPACE
0
ENDTAB
0
ENDSEC
0
SECTION
2
BLOCKS
0
BLOCK
5
20
100
AcDbEntity
100
AcDbBlockBegin
2
*MODEL_SPACE
0
ENDBLK
5
21
100
AcDbEntity
100
AcDbBlockEnd
0
BLOCK
5
1C
100
AcDbEntity
100
AcDbBlockBegin
2
*PAPER_SPACE
0
ENDBLK
5
1D
100
AcDbEntity
100
AcDbBlockEnd
0
ENDSEC
0
SECTION
2
ENTITIES
0
LINE
5
100
100
AcDbEntity
8
0
100
AcDbLine
10
0
20
-320
30
0
11
100
21
-320
31
0
0
LINE
5
101
100
AcDbEntity
8
0
100
AcDbLine
10
100
20
-320
30
0
11
241
21
-130
31
0
0
LINE
5
102
100
AcDbEntity
8
0
100
AcDbLine
10
0
20
-320
30
0
11
0
21
-210
31
0
0
LINE
5
103
100
AcDbEntity
8
0
100
AcDbLine
10
0
20
-210
30
0
11
-9
21
-210
31
0
0
LINE
5
104
100
AcDbEntity
8
0
100
AcDbLine
10
-9
20
-210
30
0
11
-9
21
-110
31
0
0
LINE
5
105
100
AcDbEntity
8
0
100
AcDbLine
10
-9
20
-110
30
0
11
0
21
-110
31
0
0
LINE
5
106
100
AcDbEntity
8
0
100
AcDbLine
10
0
20
0
30
0
11
0
21
-110
31
0
0
LINE
5
107
100
AcDbEntity
8
0
100
AcDbLine
10
0
20
0
30
0
11
71
21
0
31
0
0
LINE
5
108
100
AcDbEntity
8
0
100
AcDbLine
10
71
20
0
30
0
11
71
21
9
31
0
0
LINE
5
109
100
AcDbEntity
8
0
100
AcDbLine
10
71
20
9
30
0
11
161
21
9
31
0
0
LINE
5
110
100
AcDbEntity
8
0
100
AcDbLine
10
161
20
9
30
0
11
161
21
-2.0665914735611559e-16
31
0
0
LINE
5
111
100
AcDbEntity
8
0
100
AcDbLine
10
161
20
-2.0665914735611559e-16
30
0
11
241
21
-2.0665914735611559e-16
31
0
0
LINE
5
112
100
AcDbEntity
8
0
100
AcDbLine
10
241
20
-2.0665914735611559e-16
30
0
11
241
21
-130
31
0
0
LINE
5
113
100
AcDbEntity
8
0
100
AcDbLine
10
0
20
0
30
0
11
0
21
-50
31
0
0
LWPOLYLINE
5
114
100
AcDbEntity
8
0
100
AcDbPolyline
90
3
70
1
43
0.0
10
20.00000000004945
20
-50.060194735879769
10
39.999909414688616
20
-50
10
20.060194735929219
20
-70.060104150518939
0
LWPOLYLINE
5
115
100
AcDbEntity
8
0
100
AcDbPolyline
90
4
70
1
43
0.0
10
65
20
-50.06019473587962
10
85
20
-50.06019473587962
10
20
20
-115.06019473587962
10
20
20
-95.06019473587962
0
LWPOLYLINE
5
116
100
AcDbEntity
8
0
100
AcDbPolyline
90
4
70
1
43
0.0
10
110
20
-50.06019473587962
10
130
20
-50.06019473587962
10
20
20
-160.06019473587963
10
20
20
-140.06019473587963
0
LWPOLYLINE
5
117
100
AcDbEntity
8
0
100
AcDbPolyline
90
4
70
1
43
0.0
10
155
20
-50.06019473587962
10
175
20
-50.06019473587962
10
20
20
-205.06019473587963
10
20
20
-185.06019473587963
0
LWPOLYLINE
5
118
100
AcDbEntity
8
0
100
AcDbPolyline
90
4
70
1
43
0.0
10
200
20
-50.06019473587962
10
220
20
-50.06019473587962
10
20
20
-250.06019473587963
10
20
20
-230.06019473587963
0
LWPOLYLINE
5
119
100
AcDbEntity
8
0
100
AcDbPolyline
90
4
70
1
43
0.0
10
220
20
-75.06019473587962
10
220
20
-95.06019473587962
10
20
20
-295.06019473587963
10
20
20
-275.06019473587963
0
ENDSEC
0
SECTION
2
OBJECTS
0
DICTIONARY
5
C
100
AcDbDictionary
3
ACAD_GROUP
350
D
3
ACAD_MLINESTYLE
350
17
0
DICTIONARY
5
D
100
AcDbDictionary
0
DICTIONARY
5
1A
330
C
100
AcDbDictionary
0
DICTIONARY
5
17
100
AcDbDictionary
0
ENDSEC
0
EOF
