0
SECTION
2
HEADER
9
$INSUNITS
70
4
9
$ACADVER
1
AC1014
9
$HANDSEED
5
FFFF
0
ENDSEC
0
SECTION
2
TABLES
0
TABLE
2
VPORT
5
8
100
AcDbSymbolTable
0
ENDTAB
0
TABLE
2
LTYPE
5
5
100
AcDbSymbolTable
0
LTYPE
5
14
100
AcDbSymbolTableRecord
100
AcDbLinetypeTableRecord
2
BYBLOCK
70
0
0
LTYPE
5
15
100
AcDbSymbolTableRecord
100
AcDbLinetypeTableRecord
2
BYLAYER
70
0
0
ENDTAB
0
TABLE
2
LAYER
5
2
100
AcDbSymbolTable
70
2
0
LAYER
5
50
100
AcDbSymbolTableRecord
100
AcDbLayerTableRecord
2
0
70
0
6
CONTINUOUS
0
ENDTAB
0
TABLE
2
STYLE
5
3
100
AcDbSymbolTable
70
1
0
STYLE
5
11
100
AcDbSymbolTableRecord
100
AcDbTextStyleTableRecord
2
STANDARD
70
0
0
ENDTAB
0
TABLE
2
VIEW
5
6
100
AcDbSymbolTable
70
0
0
ENDTAB
0
TABLE
2
UCS
5
7
100
AcDbSymbolTable
70
0
0
ENDTAB
0
TABLE
2
APPID
5
9
100
AcDbSymbolTable
70
2
0
APPID
5
12
100
AcDbSymbolTableRecord
100
AcDbRegAppTableRecord
2
ACAD
70
0
0
ENDTAB
0
TABLE
2
DIMSTYLE
5
A
100
AcDbSymbolTable
70
1
0
ENDTAB
0
TABLE
2
BLOCK_RECORD
5
1
100
AcDbSymbolTable
70
1
0
BLOCK_RECORD
5
1F
100
AcDbSymbolTableRecord
100
AcDbBlockTableRecord
2
*MODEL_SPACE
0
BLOCK_RECORD
5
1B
100
AcDbSymbolTableRecord
100
AcDbBlockTableRecord
2
*PAPER_SPACE
0
ENDTAB
0
ENDSEC
0
SECTION
2
BLOCKS
0
BLOCK
5
20
100
AcDbEntity
100
AcDbBlockBegin
2
*MODEL_SPACE
0
ENDBLK
5
21
100
AcDbEntity
100
AcDbBlockEnd
0
BLOCK
5
1C
100
AcDbEntity
100
AcDbBlockBegin
2
*PAPER_SPACE
0
ENDBLK
5
1D
100
AcDbEntity
100
AcDbBlockEnd
0
ENDSEC
0
SECTION
2
ENTITIES
0
LINE
5
100
100
AcDbEntity
8
0
100
AcDbLine
10
171.05361777967022
20
-205.33543490044568
30
0
11
193.45467594629912
21
-205.33543490044568
31
0
0
LINE
5
101
100
AcDbEntity
8
0
100
AcDbLine
10
193.45467594629912
20
-205.33543490044568
30
0
11
193.45467594629912
21
-69.381711740993268
31
0
0
LINE
5
102
100
AcDbEntity
8
0
100
AcDbLine
10
193.45467594629912
20
-69.381711740993268
30
0
11
171.05361777967022
21
-69.381711740993268
31
0
0
LINE
5
103
100
AcDbEntity
8
0
100
AcDbLine
10
171.05361777967022
20
-69.381711740993268
30
0
11
171.05361777967022
21
-205.33543490044568
31
0
0
LINE
5
104
100
AcDbEntity
8
0
100
AcDbLine
10
193.45467594629912
20
-205.33543490044568
30
0
11
234.67878222053358
21
-205.33543490044568
31
0
0
LINE
5
105
100
AcDbEntity
8
0
100
AcDbLine
10
234.67878222053358
20
-205.33543490044568
30
0
11
234.67878222053358
21
-191.85262632150352
31
0
0
LINE
5
106
100
AcDbEntity
8
0
100
AcDbLine
10
234.67878222053358
20
-191.85262632150352
30
0
11
193.45467594629912
21
-191.85262632150352
31
0
0
LINE
5
107
100
AcDbEntity
8
0
100
AcDbLine
10
193.45467594629912
20
-191.85262632150352
30
0
11
193.45467594629912
21
-205.33543490044568
31
0
0
LINE
5
108
100
AcDbEntity
8
0
100
AcDbLine
10
234.67878222053358
20
-205.33543490044568
30
0
11
256.79948255220347
21
-205.33543490044568
31
0
0
LINE
5
109
100
AcDbEntity
8
0
100
AcDbLine
10
256.79948255220347
20
-205.33543490044568
30
0
11
256.79948255220347
21
-150.854854810163
31
0
0
LINE
5
110
100
AcDbEntity
8
0
100
AcDbLine
10
256.79948255220347
20
-150.854854810163
30
0
11
234.67878222053358
21
-150.854854810163
31
0
0
LINE
5
111
100
AcDbEntity
8
0
100
AcDbLine
10
234.67878222053358
20
-150.854854810163
30
0
11
234.67878222053358
21
-205.33543490044568
31
0
0
LINE
5
112
100
AcDbEntity
8
0
100
AcDbLine
10
171.05361777967022
20
-69.381711740993268
30
0
11
193.45467594629912
21
-69.381711740993268
31
0
0
LINE
5
113
100
AcDbEntity
8
0
100
AcDbLine
10
193.45467594629912
20
-69.381711740993268
30
0
11
193.45467594629912
21
-60.850817665616233
31
0
0
LINE
5
114
100
AcDbEntity
8
0
100
AcDbLine
10
193.45467594629912
20
-60.850817665616233
30
0
11
171.05361777967022
21
-60.850817665616233
31
0
0
LINE
5
115
100
AcDbEntity
8
0
100
AcDbLine
10
171.05361777967022
20
-60.850817665616233
30
0
11
171.05361777967022
21
-69.381711740993268
31
0
0
LINE
5
116
100
AcDbEntity
8
0
100
AcDbLine
10
193.45467594629912
20
-60.850817665616233
30
0
11
256.79684885075511
21
-60.850817665616233
31
0
0
LINE
5
117
100
AcDbEntity
8
0
100
AcDbLine
10
256.79684885075511
20
-60.850817665616233
30
0
11
256.79684885075511
21
-69.381711740993268
31
0
0
LINE
5
118
100
AcDbEntity
8
0
100
AcDbLine
10
256.79684885075511
20
-69.381711740993268
30
0
11
193.45467594629912
21
-69.381711740993268
31
0
0
LINE
5
119
100
AcDbEntity
8
0
100
AcDbLine
10
193.45467594629912
20
-69.381711740993268
30
0
11
193.45467594629912
21
-60.850817665616233
31
0
0
LWPOLYLINE
5
120
100
AcDbEntity
8
0
100
AcDbPolyline
90
4
70
1
43
0.0
10
343.38297716167506
20
-69.381711740993268
10
257.64038463951118
20
-69.381711740993268
10
257.64038463951118
20
-60.850817665616233
10
343.38297716167506
20
-60.850817665616233
0
LWPOLYLINE
5
121
100
AcDbEntity
8
0
100
AcDbPolyline
90
4
70
1
43
0.0
10
430.03055571716664
20
-69.381711740993268
10
344.27832372245666
20
-69.381711740993268
10
344.27832372245666
20
-60.850817665616233
10
430.03055571716664
20
-60.850817665616233
0
LWPOLYLINE
5
122
100
AcDbEntity
8
0
100
AcDbPolyline
90
4
70
1
43
0.0
10
516.60378803295828
20
-69.381711740993268
10
430.83513358075953
20
-69.381711740993268
10
430.83513358075953
20
-60.850817665616233
10
516.60378803295828
20
-60.850817665616233
0
LINE
5
123
100
AcDbEntity
8
0
100
AcDbLine
10
517.95277782516757
20
-69.381711740993268
30
0
11
603.70742691548594
21
-69.381711740993268
31
0
0
LINE
5
124
100
AcDbEntity
8
0
100
AcDbLine
10
603.70742691548594
20
-69.381711740993268
30
0
11
603.70742691548594
21
-60.850817665616233
31
0
0
LINE
5
125
100
AcDbEntity
8
0
100
AcDbLine
10
603.70742691548594
20
-60.850817665616233
30
0
11
517.95277782516757
21
-60.850817665616233
31
0
0
LINE
5
126
100
AcDbEntity
8
0
100
AcDbLine
10
517.95277782516757
20
-60.850817665616233
30
0
11
517.95277782516757
21
-69.381711740993268
31
0
0
LINE
5
127
100
AcDbEntity
8
0
100
AcDbLine
10
603.70742691548594
20
-60.850817665616233
30
0
11
539.75221520557477
21
-60.850817665616233
31
0
0
LINE
5
128
100
AcDbEntity
8
0
100
AcDbLine
10
539.75221520557477
20
-60.850817665616233
30
0
11
539.75221520557477
21
-0.34871286419196762
31
0
0
LINE
5
129
100
AcDbEntity
8
0
100
AcDbLine
10
539.75221520557477
20
-0.34871286419196762
30
0
11
603.70742691548594
21
-0.34871286419196679
31
0
0
LINE
5
130
100
AcDbEntity
8
0
100
AcDbLine
10
603.70742691548594
20
-0.34871286419196679
30
0
11
603.70742691548594
21
-60.850817665616233
31
0
0
LINE
5
131
100
AcDbEntity
8
0
100
AcDbLine
10
539.75221520557477
20
-0.34871286419196762
30
0
11
517.95398681105371
21
-0.34871286419196762
31
0
0
LINE
5
132
100
AcDbEntity
8
0
100
AcDbLine
10
517.95398681105371
20
-0.34871286419196762
30
0
11
517.95398681105371
21
-20.355670327342807
31
0
0
LINE
5
133
100
AcDbEntity
8
0
100
AcDbLine
10
517.95398681105371
20
-20.355670327342807
30
0
11
539.75221520557477
21
-20.355670327342807
31
0
0
LINE
5
134
100
AcDbEntity
8
0
100
AcDbLine
10
539.75221520557477
20
-20.355670327342807
30
0
11
539.75221520557477
21
-0.34871286419196762
31
0
0
LWPOLYLINE
5
135
100
AcDbEntity
8
0
100
AcDbPolyline
90
4
70
1
43
0.0
10
430.84746214710447
20
-20.355670327342807
10
516.5749937293416
20
-20.355670327342807
10
516.5749937293416
20
-0.34871286419196679
10
430.84746214710447
20
-0.34871286419196679
0
LWPOLYLINE
5
136
100
AcDbEntity
8
0
100
AcDbPolyline
90
4
70
1
43
0.0
10
344.2773361783419
20
-20.355670327342807
10
430.00857478138693
20
-20.355670327342807
10
430.00857478138693
20
-0.34871286419196679
10
344.2773361783419
20
-0.34871286419196679
0
LWPOLYLINE
5
137
100
AcDbEntity
8
0
100
AcDbPolyline
90
4
70
1
43
0.0
10
257.63191225371321
20
-0.34871286419196762
10
343.36512083958092
20
-0.34871286419196679
10
343.36512083958092
20
-20.355670327342807
10
257.63191225371321
20
-20.355670327342807
0
LINE
5
138
100
AcDbEntity
8
0
100
AcDbLine
10
256.80046041387556
20
-0.34871286419196762
30
0
11
235.05137545495231
21
-0.34871286419196762
31
0
0
LINE
5
139
100
AcDbEntity
8
0
100
AcDbLine
10
235.05137545495231
20
-0.34871286419196762
30
0
11
235.05137545495231
21
-20.355670327342807
31
0
0
LINE
5
140
100
AcDbEntity
8
0
100
AcDbLine
10
235.05137545495231
20
-20.355670327342807
30
0
11
256.80046041387556
21
-20.355670327342807
31
0
0
LINE
5
141
100
AcDbEntity
8
0
100
AcDbLine
10
256.80046041387556
20
-20.355670327342807
30
0
11
256.80046041387556
21
-0.34871286419196762
31
0
0
LINE
5
142
100
AcDbEntity
8
0
100
AcDbLine
10
235.05137545495231
20
-0.34871286419196762
30
0
11
171.05361777967022
21
-0.34871286419196762
31
0
0
LINE
5
143
100
AcDbEntity
8
0
100
AcDbLine
10
171.05361777967022
20
-0.34871286419196762
30
0
11
171.05361777967022
21
-60.850817665616233
31
0
0
LINE
5
144
100
AcDbEntity
8
0
100
AcDbLine
10
171.05361777967022
20
-60.850817665616233
30
0
11
235.05137545495231
21
-60.850817665616233
31
0
0
LINE
5
145
100
AcDbEntity
8
0
100
AcDbLine
10
235.05137545495231
20
-60.850817665616233
30
0
11
235.05137545495231
21
-0.34871286419196762
31
0
0
LINE
5
146
100
AcDbEntity
8
0
100
AcDbLine
10
603.70742691548594
20
-69.381711740993268
30
0
11
581.28002760931849
21
-69.381711740993268
31
0
0
LINE
5
147
100
AcDbEntity
8
0
100
AcDbLine
10
581.28002760931849
20
-69.381711740993268
30
0
11
581.28002760931849
21
-205.35000975360163
31
0
0
LINE
5
148
100
AcDbEntity
8
0
100
AcDbLine
10
581.28002760931849
20
-205.35000975360163
30
0
11
603.70742691548594
21
-205.35000975360163
31
0
0
LINE
5
149
100
AcDbEntity
8
0
100
AcDbLine
10
603.70742691548594
20
-205.35000975360163
30
0
11
603.70742691548594
21
-69.381711740993268
31
0
0
LINE
5
150
100
AcDbEntity
8
0
100
AcDbLine
10
581.28002760931849
20
-205.35000975360163
30
0
11
517.96864919606901
21
-205.35000975360163
31
0
0
LINE
5
151
100
AcDbEntity
8
0
100
AcDbLine
10
517.96864919606901
20
-205.35000975360163
30
0
11
517.96864919606901
21
-191.84690140057282
31
0
0
LINE
5
152
100
AcDbEntity
8
0
100
AcDbLine
10
517.96864919606901
20
-191.84690140057282
30
0
11
581.28002760931849
21
-191.84690140057282
31
0
0
LINE
5
153
100
AcDbEntity
8
0
100
AcDbLine
10
581.28002760931849
20
-191.84690140057282
30
0
11
581.28002760931849
21
-205.35000975360163
31
0
0
LINE
5
154
100
AcDbEntity
8
0
100
AcDbLine
10
516.57714368640734
20
-191.84690140057282
30
0
11
452.97516478252703
21
-191.84690140057282
31
0
0
LINE
5
155
100
AcDbEntity
8
0
100
AcDbLine
10
452.97516478252703
20
-191.84690140057282
30
0
11
452.97516478252703
21
-205.35000975360163
31
0
0
LINE
5
156
100
AcDbEntity
8
0
100
AcDbLine
10
452.97516478252703
20
-205.35000975360163
30
0
11
516.57714368640734
21
-205.35000975360163
31
0
0
LINE
5
157
100
AcDbEntity
8
0
100
AcDbLine
10
516.57714368640734
20
-205.35000975360163
30
0
11
516.57714368640734
21
-191.84690140057282
31
0
0
LINE
5
158
100
AcDbEntity
8
0
100
AcDbLine
10
452.97516478252703
20
-205.35000975360163
30
0
11
430.83956434023406
21
-205.35000975360163
31
0
0
LINE
5
159
100
AcDbEntity
8
0
100
AcDbLine
10
430.83956434023406
20
-205.35000975360163
30
0
11
430.83956434023406
21
-150.86183038337001
31
0
0
LINE
5
160
100
AcDbEntity
8
0
100
AcDbLine
10
430.83956434023406
20
-150.86183038337001
30
0
11
452.97516478252703
21
-150.86183038337001
31
0
0
LINE
5
161
100
AcDbEntity
8
0
100
AcDbLine
10
452.97516478252703
20
-150.86183038337001
30
0
11
452.97516478252703
21
-205.35000975360163
31
0
0
LWPOLYLINE
5
162
100
AcDbEntity
8
0
100
AcDbPolyline
90
4
70
1
43
0.0
10
407.85145186230778
20
-150.86183038337001
10
430.00624076839051
20
-150.86183038337001
10
430.00624076839051
20
-205.35000975360163
10
407.85145186230778
20
-205.35000975360163
0
LWPOLYLINE
5
163
100
AcDbEntity
8
0
100
AcDbPolyline
90
4
70
1
43
0.0
10
343.36560742634038
20
-205.33543490044568
10
257.63934206171803
20
-205.33543490044568
10
257.63934206171803
20
-150.86183038337001
10
343.36560742634038
20
-150.86183038337001
0
LINE
5
164
100
AcDbEntity
8
0
100
AcDbLine
10
344.29531978103807
20
-205.33543490044568
30
0
11
366.38528009643267
21
-205.33543490044568
31
0
0
LINE
5
165
100
AcDbEntity
8
0
100
AcDbLine
10
366.38528009643267
20
-205.33543490044568
30
0
11
366.38528009643267
21
-150.86183038337001
31
0
0
LINE
5
166
100
AcDbEntity
8
0
100
AcDbLine
10
366.38528009643267
20
-150.86183038337001
30
0
11
344.29531978103807
21
-150.86183038337001
31
0
0
LINE
5
167
100
AcDbEntity
8
0
100
AcDbLine
10
344.29531978103807
20
-150.86183038337001
30
0
11
344.29531978103807
21
-205.33543490044568
31
0
0
LINE
5
168
100
AcDbEntity
8
0
100
AcDbLine
10
366.38528009643267
20
-150.86183038337001
30
0
11
407.85145186230778
21
-150.86183038337001
31
0
0
LINE
5
169
100
AcDbEntity
8
0
100
AcDbLine
10
407.85145186230778
20
-150.86183038337001
30
0
11
407.85145186230778
21
-171.79412319536678
31
0
0
LINE
5
170
100
AcDbEntity
8
0
100
AcDbLine
10
407.85145186230778
20
-171.79412319536678
30
0
11
366.38528009643267
21
-171.79412319536678
31
0
0
LINE
5
171
100
AcDbEntity
8
0
100
AcDbLine
10
366.38528009643267
20
-171.79412319536678
30
0
11
366.38528009643267
21
-150.86183038337001
31
0
0
LINE
5
172
100
AcDbEntity
8
0
100
AcDbLine
10
366.38528009643267
20
-205.33543490044568
30
0
11
407.85145186230778
21
-205.33543490044568
31
0
0
LINE
5
173
100
AcDbEntity
8
0
100
AcDbLine
10
407.85145186230778
20
-205.33543490044568
30
0
11
407.85145186230778
21
-191.80083213442401
31
0
0
LINE
5
174
100
AcDbEntity
8
0
100
AcDbLine
10
407.85145186230778
20
-191.80083213442401
30
0
11
366.38528009643267
21
-191.80083213442401
31
0
0
LINE
5
175
100
AcDbEntity
8
0
100
AcDbLine
10
366.38528009643267
20
-191.80083213442401
30
0
11
366.38528009643267
21
-205.33543490044568
31
0
0
LWPOLYLINE
5
176
100
AcDbEntity
8
0
100
AcDbPolyline
90
6
70
1
43
0.0
10
429.6853530727625
20
-206.85470910810469
10
343.95448088144713
20
-206.85470910810469
10
317.46827238342479
20
-288.3504337254505
10
386.81991697710481
20
-338.80200675924925
10
456.17449732689664
20
-288.39234323391327
10
456.16088217817185
20
-288.3504337254505
0
ENDSEC
0
SECTION
2
OBJECTS
0
DICTIONARY
5
C
100
AcDbDictionary
3
ACAD_GROUP
350
D
3
ACAD_MLINESTYLE
350
17
0
DICTIONARY
5
D
100
AcDbDictionary
0
DICTIONARY
5
1A
330
C
100
AcDbDictionary
0
DICTIONARY
5
17
100
AcDbDictionary
0
ENDSEC
0
EOF
