ISO-10303-21;
HEADER;
/* Generated by software containing ST-Developer
 * from STEP Tools, Inc. (www.steptools.com) 
 */

FILE_DESCRIPTION(
/* description */ (''),
/* implementation_level */ '2;1');

FILE_NAME(
/* name */ 'TUBE TURNING.step',
/* time_stamp */ '2024-06-30T17:51:10+02:00',
/* author */ (''),
/* organization */ (''),
/* preprocessor_version */ 'ST-DEVELOPER v20',
/* originating_system */ 'Autodesk Translation Framework v13.14.0.145',

/* authorisation */ '');

FILE_SCHEMA (('AUTOMOTIVE_DESIGN { 1 0 10303 214 3 1 1 }'));
ENDSEC;

DATA;
#10=MECHANICAL_DESIGN_GEOMETRIC_PRESENTATION_REPRESENTATION('',(#13),#125);
#11=SHAPE_REPRESENTATION_RELATIONSHIP('SRR','None',#132,#12);
#12=ADVANCED_BREP_SHAPE_REPRESENTATION('',(#14),#124);
#13=STYLED_ITEM('',(#141),#14);
#14=MANIFOLD_SOLID_BREP('tubo TORNIO',#65);
#15=FACE_BOUND('',#26,.T.);
#16=FACE_BOUND('',#28,.T.);
#17=PLANE('',#85);
#18=PLANE('',#86);
#19=FACE_OUTER_BOUND('',#23,.T.);
#20=FACE_OUTER_BOUND('',#24,.T.);
#21=FACE_OUTER_BOUND('',#25,.T.);
#22=FACE_OUTER_BOUND('',#27,.T.);
#23=EDGE_LOOP('',(#47,#48,#49,#50));
#24=EDGE_LOOP('',(#51,#52,#53,#54));
#25=EDGE_LOOP('',(#55));
#26=EDGE_LOOP('',(#56));
#27=EDGE_LOOP('',(#57));
#28=EDGE_LOOP('',(#58));
#29=LINE('',#112,#31);
#30=LINE('',#118,#32);
#31=VECTOR('',#93,42.5);
#32=VECTOR('',#100,45.);
#33=CIRCLE('',#80,42.5);
#34=CIRCLE('',#81,42.5);
#35=CIRCLE('',#83,45.);
#36=CIRCLE('',#84,45.);
#37=VERTEX_POINT('',#109);
#38=VERTEX_POINT('',#111);
#39=VERTEX_POINT('',#115);
#40=VERTEX_POINT('',#117);
#41=EDGE_CURVE('',#37,#37,#33,.T.);
#42=EDGE_CURVE('',#37,#38,#29,.T.);
#43=EDGE_CURVE('',#38,#38,#34,.T.);
#44=EDGE_CURVE('',#39,#39,#35,.T.);
#45=EDGE_CURVE('',#39,#40,#30,.T.);
#46=EDGE_CURVE('',#40,#40,#36,.T.);
#47=ORIENTED_EDGE('',*,*,#41,.F.);
#48=ORIENTED_EDGE('',*,*,#42,.T.);
#49=ORIENTED_EDGE('',*,*,#43,.T.);
#50=ORIENTED_EDGE('',*,*,#42,.F.);
#51=ORIENTED_EDGE('',*,*,#44,.F.);
#52=ORIENTED_EDGE('',*,*,#45,.T.);
#53=ORIENTED_EDGE('',*,*,#46,.T.);
#54=ORIENTED_EDGE('',*,*,#45,.F.);
#55=ORIENTED_EDGE('',*,*,#44,.T.);
#56=ORIENTED_EDGE('',*,*,#41,.T.);
#57=ORIENTED_EDGE('',*,*,#46,.F.);
#58=ORIENTED_EDGE('',*,*,#43,.F.);
#59=CYLINDRICAL_SURFACE('',#79,42.5);
#60=CYLINDRICAL_SURFACE('',#82,45.);
#61=ADVANCED_FACE('',(#19),#59,.F.);
#62=ADVANCED_FACE('',(#20),#60,.T.);
#63=ADVANCED_FACE('',(#21,#15),#17,.T.);
#64=ADVANCED_FACE('',(#22,#16),#18,.F.);
#65=CLOSED_SHELL('',(#61,#62,#63,#64));
#66=DERIVED_UNIT_ELEMENT(#68,1.);
#67=DERIVED_UNIT_ELEMENT(#127,-3.);
#68=(
MASS_UNIT()
NAMED_UNIT(*)
SI_UNIT(.KILO.,.GRAM.)
);
#69=DERIVED_UNIT((#66,#67));
#70=MEASURE_REPRESENTATION_ITEM('density measure',
POSITIVE_RATIO_MEASURE(7850.),#69);
#71=PROPERTY_DEFINITION_REPRESENTATION(#76,#73);
#72=PROPERTY_DEFINITION_REPRESENTATION(#77,#74);
#73=REPRESENTATION('material name',(#75),#124);
#74=REPRESENTATION('density',(#70),#124);
#75=DESCRIPTIVE_REPRESENTATION_ITEM('Acciaio','Acciaio');
#76=PROPERTY_DEFINITION('material property','material name',#134);
#77=PROPERTY_DEFINITION('material property','density of part',#134);
#78=AXIS2_PLACEMENT_3D('',#107,#87,#88);
#79=AXIS2_PLACEMENT_3D('',#108,#89,#90);
#80=AXIS2_PLACEMENT_3D('',#110,#91,#92);
#81=AXIS2_PLACEMENT_3D('',#113,#94,#95);
#82=AXIS2_PLACEMENT_3D('',#114,#96,#97);
#83=AXIS2_PLACEMENT_3D('',#116,#98,#99);
#84=AXIS2_PLACEMENT_3D('',#119,#101,#102);
#85=AXIS2_PLACEMENT_3D('',#120,#103,#104);
#86=AXIS2_PLACEMENT_3D('',#121,#105,#106);
#87=DIRECTION('axis',(0.,0.,1.));
#88=DIRECTION('refdir',(1.,0.,0.));
#89=DIRECTION('center_axis',(0.,0.,1.));
#90=DIRECTION('ref_axis',(1.,0.,0.));
#91=DIRECTION('center_axis',(0.,0.,-1.));
#92=DIRECTION('ref_axis',(1.,0.,0.));
#93=DIRECTION('',(0.,0.,-1.));
#94=DIRECTION('center_axis',(0.,0.,-1.));
#95=DIRECTION('ref_axis',(1.,0.,0.));
#96=DIRECTION('center_axis',(0.,0.,1.));
#97=DIRECTION('ref_axis',(1.,0.,0.));
#98=DIRECTION('center_axis',(0.,0.,1.));
#99=DIRECTION('ref_axis',(1.,0.,0.));
#100=DIRECTION('',(0.,0.,-1.));
#101=DIRECTION('center_axis',(0.,0.,1.));
#102=DIRECTION('ref_axis',(1.,0.,0.));
#103=DIRECTION('center_axis',(0.,0.,1.));
#104=DIRECTION('ref_axis',(1.,0.,0.));
#105=DIRECTION('center_axis',(0.,0.,1.));
#106=DIRECTION('ref_axis',(1.,0.,0.));
#107=CARTESIAN_POINT('',(0.,0.,0.));
#108=CARTESIAN_POINT('Origin',(0.,0.,3.));
#109=CARTESIAN_POINT('',(-42.5,-5.20474889637625E-15,53.));
#110=CARTESIAN_POINT('Origin',(0.,0.,53.));
#111=CARTESIAN_POINT('',(-42.5,-5.20474889637625E-15,3.));
#112=CARTESIAN_POINT('',(-42.5,-5.20474889637625E-15,3.));
#113=CARTESIAN_POINT('Origin',(0.,0.,3.));
#114=CARTESIAN_POINT('Origin',(0.,0.,3.));
#115=CARTESIAN_POINT('',(-45.,-5.51091059616309E-15,53.));
#116=CARTESIAN_POINT('Origin',(0.,0.,53.));
#117=CARTESIAN_POINT('',(-45.,-5.51091059616309E-15,3.));
#118=CARTESIAN_POINT('',(-45.,-5.51091059616309E-15,3.));
#119=CARTESIAN_POINT('Origin',(0.,0.,3.));
#120=CARTESIAN_POINT('Origin',(0.,0.,53.));
#121=CARTESIAN_POINT('Origin',(0.,0.,3.));
#122=UNCERTAINTY_MEASURE_WITH_UNIT(LENGTH_MEASURE(0.01),#126,
'DISTANCE_ACCURACY_VALUE',
'Maximum model space distance between geometric entities at asserted c
onnectivities');
#123=UNCERTAINTY_MEASURE_WITH_UNIT(LENGTH_MEASURE(0.01),#126,
'DISTANCE_ACCURACY_VALUE',
'Maximum model space distance between geometric entities at asserted c
onnectivities');
#124=(
GEOMETRIC_REPRESENTATION_CONTEXT(3)
GLOBAL_UNCERTAINTY_ASSIGNED_CONTEXT((#122))
GLOBAL_UNIT_ASSIGNED_CONTEXT((#126,#128,#129))
REPRESENTATION_CONTEXT('','3D')
);
#125=(
GEOMETRIC_REPRESENTATION_CONTEXT(3)
GLOBAL_UNCERTAINTY_ASSIGNED_CONTEXT((#123))
GLOBAL_UNIT_ASSIGNED_CONTEXT((#126,#128,#129))
REPRESENTATION_CONTEXT('','3D')
);
#126=(
LENGTH_UNIT()
NAMED_UNIT(*)
SI_UNIT(.MILLI.,.METRE.)
);
#127=(
LENGTH_UNIT()
NAMED_UNIT(*)
SI_UNIT($,.METRE.)
);
#128=(
NAMED_UNIT(*)
PLANE_ANGLE_UNIT()
SI_UNIT($,.RADIAN.)
);
#129=(
NAMED_UNIT(*)
SI_UNIT($,.STERADIAN.)
SOLID_ANGLE_UNIT()
);
#130=SHAPE_DEFINITION_REPRESENTATION(#131,#132);
#131=PRODUCT_DEFINITION_SHAPE('',$,#134);
#132=SHAPE_REPRESENTATION('',(#78),#124);
#133=PRODUCT_DEFINITION_CONTEXT('part definition',#138,'design');
#134=PRODUCT_DEFINITION('stampo DEF.  BASSI','stampo DEF.  BASSI v48',#135,
#133);
#135=PRODUCT_DEFINITION_FORMATION('',$,#140);
#136=PRODUCT_RELATED_PRODUCT_CATEGORY('stampo DEF.  BASSI v48',
'stampo DEF.  BASSI v48',(#140));
#137=APPLICATION_PROTOCOL_DEFINITION('international standard',
'automotive_design',2009,#138);
#138=APPLICATION_CONTEXT(
'Core Data for Automotive Mechanical Design Process');
#139=PRODUCT_CONTEXT('part definition',#138,'mechanical');
#140=PRODUCT('stampo DEF.  BASSI','stampo DEF.  BASSI v48',$,(#139));
#141=PRESENTATION_STYLE_ASSIGNMENT((#144));
#142=PRESENTATION_STYLE_ASSIGNMENT((#145));
#143=PRESENTATION_STYLE_ASSIGNMENT((#146));
#144=SURFACE_STYLE_USAGE(.BOTH.,#147);
#145=SURFACE_STYLE_USAGE(.BOTH.,#148);
#146=SURFACE_STYLE_USAGE(.BOTH.,#149);
#147=SURFACE_SIDE_STYLE('',(#150));
#148=SURFACE_SIDE_STYLE('',(#151));
#149=SURFACE_SIDE_STYLE('',(#152));
#150=SURFACE_STYLE_FILL_AREA(#153);
#151=SURFACE_STYLE_FILL_AREA(#154);
#152=SURFACE_STYLE_FILL_AREA(#155);
#153=FILL_AREA_STYLE('Acciaio - Satinato',(#156));
#154=FILL_AREA_STYLE('Superficie - Opaco',(#157));
#155=FILL_AREA_STYLE('Superficie - Opaco (1)',(#158));
#156=FILL_AREA_STYLE_COLOUR('Acciaio - Satinato',#159);
#157=FILL_AREA_STYLE_COLOUR('Superficie - Opaco',#160);
#158=FILL_AREA_STYLE_COLOUR('Superficie - Opaco (1)',#161);
#159=COLOUR_RGB('Acciaio - Satinato',0.627450980392157,0.627450980392157,
0.627450980392157);
#160=COLOUR_RGB('Superficie - Opaco',0.603921568627451,0.450980392156863,
0.32156862745098);
#161=COLOUR_RGB('Superficie - Opaco (1)',0.803921568627451,0.423529411764706,
0.113725490196078);
ENDSEC;
END-ISO-10303-21;
