  0
SECTION
  2
HEADER
  9
$ACADVER
  1
AC1015
  9
$ACADMAINTVER
 70
    13
  9
$DWGCODEPAGE
  3
ANSI_1252
  9
$INSBASE
 10
0.0
 20
0.0
 30
0.0
  9
$EXTMIN
 10
0.0
 20
0.0
 30
0.0
  9
$EXTMAX
 10
709.676
 20
548.3859999999999
 30
0.0
  9
$LIMMIN
 10
0.0
 20
0.0
  9
$LIMMAX
 10
18025.7704
 20
13929.00439999999
  9
$ORTHOMODE
 70
     0
  9
$REGENMODE
 70
     1
  9
$FILLMODE
 70
     1
  9
$QTEXTMODE
 70
     0
  9
$MIRRTEXT
 70
     1
  9
$LTSCALE
 40
0.4
  9
$ATTMODE
 70
     1
  9
$TEXTSIZE
 40
0.2
  9
$TRACEWID
 40
0.05
  9
$TEXTSTYLE
  7
Standard
  9
$CLAYER
  8
0
  9
$CELTYPE
  6
ByLayer
  9
$CECOLOR
 62
   256
  9
$CELTSCALE
 40
1.0
  9
$DISPSILH
 70
     0
  9
$DIMSCALE
 40
1.0
  9
$DIMASZ
 40
1.799999999999999
  9
$DIMEXO
 40
0.0625
  9
$DIMDLI
 40
0.38
  9
$DIMRND
 40
0.0
  9
$DIMDLE
 40
0.0
  9
$DIMEXE
 40
0.18
  9
$DIMTP
 40
0.0
  9
$DIMTM
 40
0.0
  9
$DIMTXT
 40
0.3499999940395355
  9
$DIMCEN
 40
0.09
  9
$DIMTSZ
 40
0.0
  9
$DIMTOL
 70
     0
  9
$DIMLIM
 70
     0
  9
$DIMTIH
 70
     1
  9
$DIMTOH
 70
     1
  9
$DIMSE1
 70
     0
  9
$DIMSE2
 70
     0
  9
$DIMTAD
 70
     0
  9
$DIMZIN
 70
     0
  9
$DIMBLK
  1

  9
$DIMASO
 70
     1
  9
$DIMSHO
 70
     1
  9
$DIMPOST
  1

  9
$DIMAPOST
  1

  9
$DIMALT
 70
     0
  9
$DIMALTD
 70
     2
  9
$DIMALTF
 40
25.4
  9
$DIMLFAC
 40
1.0
  9
$DIMTOFL
 70
     0
  9
$DIMTVP
 40
0.0
  9
$DIMTIX
 70
     0
  9
$DIMSOXD
 70
     0
  9
$DIMSAH
 70
     0
  9
$DIMBLK1
  1

  9
$DIMBLK2
  1

  9
$DIMSTYLE
  2
2dTranslatorDimStyle
  9
$DIMCLRD
 70
     0
  9
$DIMCLRE
 70
     0
  9
$DIMCLRT
 70
     0
  9
$DIMTFAC
 40
1.0
  9
$DIMGAP
 40
0.09
  9
$DIMJUST
 70
     0
  9
$DIMSD1
 70
     0
  9
$DIMSD2
 70
     0
  9
$DIMTOLJ
 70
     1
  9
$DIMTZIN
 70
     0
  9
$DIMALTZ
 70
     0
  9
$DIMALTTZ
 70
     0
  9
$DIMUPT
 70
     0
  9
$DIMDEC
 70
     4
  9
$DIMTDEC
 70
     4
  9
$DIMALTU
 70
     2
  9
$DIMALTTD
 70
     2
  9
$DIMTXSTY
  7
Standard
  9
$DIMAUNIT
 70
     0
  9
$DIMADEC
 70
     0
  9
$DIMALTRND
 40
0.0
  9
$DIMAZIN
 70
     0
  9
$DIMDSEP
 70
    46
  9
$DIMATFIT
 70
     3
  9
$DIMFRAC
 70
     0
  9
$DIMLDRBLK
  1

  9
$DIMLUNIT
 70
     2
  9
$DIMLWD
 70
    -2
  9
$DIMLWE
 70
    -2
  9
$DIMTMOVE
 70
     0
  9
$LUNITS
 70
     2
  9
$LUPREC
 70
     4
  9
$SKETCHINC
 40
0.1
  9
$FILLETRAD
 40
0.0
  9
$AUNITS
 70
     0
  9
$AUPREC
 70
     0
  9
$MENU
  1
.
  9
$ELEVATION
 40
0.0
  9
$PELEVATION
 40
0.0
  9
$THICKNESS
 40
0.0
  9
$LIMCHECK
 70
     0
  9
$CHAMFERA
 40
0.0
  9
$CHAMFERB
 40
0.0
  9
$CHAMFERC
 40
0.0
  9
$CHAMFERD
 40
0.0
  9
$SKPOLY
 70
     0
  9
$TDCREATE
 40
2454185.004578148
  9
$TDUCREATE
 40
2454185.212911481
  9
$TDUPDATE
 40
2454185.004578148
  9
$TDUUPDATE
 40
2454185.212911481
  9
$TDINDWG
 40
0.0000068403
  9
$TDUSRTIMER
 40
0.0000068403
  9
$USRTIMER
 70
     1
  9
$ANGBASE
 50
0.0
  9
$ANGDIR
 70
     0
  9
$PDMODE
 70
     0
  9
$PDSIZE
 40
0.0
  9
$PLINEWID
 40
0.0
  9
$SPLFRAME
 70
     0
  9
$SPLINETYPE
 70
     6
  9
$SPLINESEGS
 70
     8
  9
$HANDSEED
  5
FA
  9
$SURFTAB1
 70
     6
  9
$SURFTAB2
 70
     6
  9
$SURFTYPE
 70
     6
  9
$SURFU
 70
     6
  9
$SURFV
 70
     6
  9
$UCSBASE
  2

  9
$UCSNAME
  2

  9
$UCSORG
 10
0.0
 20
0.0
 30
0.0
  9
$UCSXDIR
 10
1.0
 20
0.0
 30
0.0
  9
$UCSYDIR
 10
0.0
 20
1.0
 30
0.0
  9
$UCSORTHOREF
  2

  9
$UCSORTHOVIEW
 70
     0
  9
$UCSORGTOP
 10
0.0
 20
0.0
 30
0.0
  9
$UCSORGBOTTOM
 10
0.0
 20
0.0
 30
0.0
  9
$UCSORGLEFT
 10
0.0
 20
0.0
 30
0.0
  9
$UCSORGRIGHT
 10
0.0
 20
0.0
 30
0.0
  9
$UCSORGFRONT
 10
0.0
 20
0.0
 30
0.0
  9
$UCSORGBACK
 10
0.0
 20
0.0
 30
0.0
  9
$PUCSBASE
  2

  9
$PUCSNAME
  2

  9
$PUCSORG
 10
0.0
 20
0.0
 30
0.0
  9
$PUCSXDIR
 10
1.0
 20
0.0
 30
0.0
  9
$PUCSYDIR
 10
0.0
 20
1.0
 30
0.0
  9
$PUCSORTHOREF
  2

  9
$PUCSORTHOVIEW
 70
     0
  9
$PUCSORGTOP
 10
0.0
 20
0.0
 30
0.0
  9
$PUCSORGBOTTOM
 10
0.0
 20
0.0
 30
0.0
  9
$PUCSORGLEFT
 10
0.0
 20
0.0
 30
0.0
  9
$PUCSORGRIGHT
 10
0.0
 20
0.0
 30
0.0
  9
$PUCSORGFRONT
 10
0.0
 20
0.0
 30
0.0
  9
$PUCSORGBACK
 10
0.0
 20
0.0
 30
0.0
  9
$USERI1
 70
     0
  9
$USERI2
 70
     0
  9
$USERI3
 70
     0
  9
$USERI4
 70
     0
  9
$USERI5
 70
     0
  9
$USERR1
 40
0.0
  9
$USERR2
 40
0.0
  9
$USERR3
 40
0.0
  9
$USERR4
 40
0.0
  9
$USERR5
 40
0.0
  9
$WORLDVIEW
 70
     1
  9
$SHADEDGE
 70
     3
  9
$SHADEDIF
 70
    70
  9
$TILEMODE
 70
     0
  9
$MAXACTVP
 70
    64
  9
$PINSBASE
 10
0.0
 20
0.0
 30
0.0
  9
$PLIMCHECK
 70
     0
  9
$PEXTMIN
 10
0.0
 20
0.0
 30
0.0
  9
$PEXTMAX
 10
709.676
 20
548.3859999999999
 30
0.0
  9
$PLIMMIN
 10
0.0
 20
0.0
  9
$PLIMMAX
 10
709.676
 20
548.3859999999999
  9
$UNITMODE
 70
     0
  9
$VISRETAIN
 70
     1
  9
$PLINEGEN
 70
     0
  9
$PSLTSCALE
 70
     1
  9
$TREEDEPTH
 70
  3020
  9
$CMLSTYLE
  2
Standard
  9
$CMLJUST
 70
     0
  9
$CMLSCALE
 40
1.0
  9
$PROXYGRAPHICS
 70
     1
  9
$MEASUREMENT
 70
     1
  9
$CELWEIGHT
370
    -1
  9
$ENDCAPS
280
     0
  9
$JOINSTYLE
280
     0
  9
$LWDISPLAY
290
     1
  9
$INSUNITS
 70
     0
  9
$HYPERLINKBASE
  1

  9
$STYLESHEET
  1

  9
$XEDIT
290
     1
  9
$CEPSNTYPE
380
     0
  9
$PSTYLEMODE
290
     1
  9
$FINGERPRINTGUID
  2
{9F7D6DE2-C671-458A-BED5-675B5F363FF8}
  9
$VERSIONGUID
  2
{66ADBF46-8369-4CD2-A6ED-F7F2EE2778CD}
  9
$EXTNAMES
290
     1
  9
$PSVPSCALE
 40
0.0
  9
$OLESTARTUP
290
     0
  0
ENDSEC
  0
SECTION
  2
CLASSES
  0
CLASS
  1
ACDBDICTIONARYWDFLT
  2
AcDbDictionaryWithDefault
  3
AutoCAD 2000
 90
        0
280
     0
281
     0
  0
CLASS
  1
ACDBPLACEHOLDER
  2
AcDbPlaceHolder
  3
AutoCAD 2000
 90
        0
280
     0
281
     0
  0
CLASS
  1
LAYOUT
  2
AcDbLayout
  3
AutoCAD 2000
 90
        0
280
     0
281
     0
  0
CLASS
  1
DICTIONARYVAR
  2
AcDbDictionaryVar
  3
AutoCAD 2000
 90
        0
280
     0
281
     0
  0
ENDSEC
  0
SECTION
  2
TABLES
  0
TABLE
  2
VPORT
  5
8
330
0
100
AcDbSymbolTable
 70
     1
  0
VPORT
  5
13
330
8
100
AcDbSymbolTableRecord
100
AcDbViewportTableRecord
  2
*Active
 70
     0
 10
0.0
 20
0.0
 11
1.0
 21
1.0
 12
500.0
 22
500.0
 13
0.0
 23
0.0
 14
1.0
 24
1.0
 15
0.0
 25
0.0
 16
0.0
 26
0.0
 36
1.0
 17
0.0
 27
0.0
 37
0.0
 40
12.0
 41
1.0
 42
50.0
 43
0.0
 44
0.0
 50
0.0
 51
0.0
 71
     0
 72
   100
 73
     1
 74
     1
 75
     0
 76
     0
 77
     0
 78
     0
281
     0
 65
     1
110
0.0
120
0.0
130
0.0
111
1.0
121
0.0
131
0.0
112
0.0
122
1.0
132
0.0
 79
     0
146
0.0
  0
ENDTAB
  0
TABLE
  2
LTYPE
  5
5
330
0
100
AcDbSymbolTable
 70
    46
  0
LTYPE
  5
14
330
5
100
AcDbSymbolTableRecord
100
AcDbLinetypeTableRecord
  2
ByBlock
 70
     0
  3

 72
    65
 73
     0
 40
0.0
  0
LTYPE
  5
15
330
5
100
AcDbSymbolTableRecord
100
AcDbLinetypeTableRecord
  2
ByLayer
 70
     0
  3

 72
    65
 73
     0
 40
0.0
  0
LTYPE
  5
16
330
5
100
AcDbSymbolTableRecord
100
AcDbLinetypeTableRecord
  2
Continuous
 70
     0
  3
Solid line
 72
    65
 73
     0
 40
0.0
  0
LTYPE
  5
28
330
5
100
AcDbSymbolTableRecord
100
AcDbLinetypeTableRecord
  2
BORDER
 70
     0
  3
Border __ __ . __ __ . __ __ . __ __ . __ __ .
 72
    65
 73
     6
 40
1.75
 49
0.5
 74
     0
 49
-0.25
 74
     0
 49
0.5
 74
     0
 49
-0.25
 74
     0
 49
0.0
 74
     0
 49
-0.25
 74
     0
  0
LTYPE
  5
29
330
5
100
AcDbSymbolTableRecord
100
AcDbLinetypeTableRecord
  2
BORDER2
 70
     0
  3
Border (.5x) __.__.__.__.__.__.__.__.__.__.__.
 72
    65
 73
     6
 40
0.875
 49
0.25
 74
     0
 49
-0.125
 74
     0
 49
0.25
 74
     0
 49
-0.125
 74
     0
 49
0.0
 74
     0
 49
-0.125
 74
     0
  0
LTYPE
  5
2A
330
5
100
AcDbSymbolTableRecord
100
AcDbLinetypeTableRecord
  2
BORDERX2
 70
     0
  3
Border (2x) ____  ____  .  ____  ____  .  ___
 72
    65
 73
     6
 40
3.5
 49
1.0
 74
     0
 49
-0.5
 74
     0
 49
1.0
 74
     0
 49
-0.5
 74
     0
 49
0.0
 74
     0
 49
-0.5
 74
     0
  0
LTYPE
  5
2B
330
5
100
AcDbSymbolTableRecord
100
AcDbLinetypeTableRecord
  2
CENTER
 70
     0
  3
Center ____ _ ____ _ ____ _ ____ _ ____ _ ____
 72
    65
 73
     4
 40
2.0
 49
1.25
 74
     0
 49
-0.25
 74
     0
 49
0.25
 74
     0
 49
-0.25
 74
     0
  0
LTYPE
  5
2C
330
5
100
AcDbSymbolTableRecord
100
AcDbLinetypeTableRecord
  2
CENTER2
 70
     0
  3
Center (.5x) ___ _ ___ _ ___ _ ___ _ ___ _ ___
 72
    65
 73
     4
 40
1.125
 49
0.75
 74
     0
 49
-0.125
 74
     0
 49
0.125
 74
     0
 49
-0.125
 74
     0
  0
LTYPE
  5
2D
330
5
100
AcDbSymbolTableRecord
100
AcDbLinetypeTableRecord
  2
CENTERX2
 70
     0
  3
Center (2x) ________  __  ________  __  _____
 72
    65
 73
     4
 40
4.0
 49
2.5
 74
     0
 49
-0.5
 74
     0
 49
0.5
 74
     0
 49
-0.5
 74
     0
  0
LTYPE
  5
2E
330
5
100
AcDbSymbolTableRecord
100
AcDbLinetypeTableRecord
  2
DASHDOT
 70
     0
  3
Dash dot __ . __ . __ . __ . __ . __ . __ . __
 72
    65
 73
     4
 40
1.0
 49
0.5
 74
     0
 49
-0.25
 74
     0
 49
0.0
 74
     0
 49
-0.25
 74
     0
  0
LTYPE
  5
2F
330
5
100
AcDbSymbolTableRecord
100
AcDbLinetypeTableRecord
  2
DASHDOT2
 70
     0
  3
Dash dot (.5x) _._._._._._._._._._._._._._._.
 72
    65
 73
     4
 40
0.5
 49
0.25
 74
     0
 49
-0.125
 74
     0
 49
0.0
 74
     0
 49
-0.125
 74
     0
  0
LTYPE
  5
30
330
5
100
AcDbSymbolTableRecord
100
AcDbLinetypeTableRecord
  2
DASHDOTX2
 70
     0
  3
Dash dot (2x) ____  .  ____  .  ____  .  ___
 72
    65
 73
     4
 40
2.0
 49
1.0
 74
     0
 49
-0.5
 74
     0
 49
0.0
 74
     0
 49
-0.5
 74
     0
  0
LTYPE
  5
31
330
5
100
AcDbSymbolTableRecord
100
AcDbLinetypeTableRecord
  2
DASHED
 70
     0
  3
Dashed __ __ __ __ __ __ __ __ __ __ __ __ __ _
 72
    65
 73
     2
 40
0.75
 49
0.5
 74
     0
 49
-0.25
 74
     0
  0
LTYPE
  5
32
330
5
100
AcDbSymbolTableRecord
100
AcDbLinetypeTableRecord
  2
DASHED2
 70
     0
  3
Dashed (.5x) _ _ _ _ _ _ _ _ _ _ _ _ _ _ _ _ _
 72
    65
 73
     2
 40
0.375
 49
0.25
 74
     0
 49
-0.125
 74
     0
  0
LTYPE
  5
33
330
5
100
AcDbSymbolTableRecord
100
AcDbLinetypeTableRecord
  2
DASHEDX2
 70
     0
  3
Dashed (2x) ____  ____  ____  ____  ____  ___
 72
    65
 73
     2
 40
1.5
 49
1.0
 74
     0
 49
-0.5
 74
     0
  0
LTYPE
  5
34
330
5
100
AcDbSymbolTableRecord
100
AcDbLinetypeTableRecord
  2
DIVIDE
 70
     0
  3
Divide ____ . . ____ . . ____ . . ____ . . ____
 72
    65
 73
     6
 40
1.25
 49
0.5
 74
     0
 49
-0.25
 74
     0
 49
0.0
 74
     0
 49
-0.25
 74
     0
 49
0.0
 74
     0
 49
-0.25
 74
     0
  0
LTYPE
  5
35
330
5
100
AcDbSymbolTableRecord
100
AcDbLinetypeTableRecord
  2
DIVIDE2
 70
     0
  3
Divide (.5x) __..__..__..__..__..__..__..__.._
 72
    65
 73
     6
 40
0.625
 49
0.25
 74
     0
 49
-0.125
 74
     0
 49
0.0
 74
     0
 49
-0.125
 74
     0
 49
0.0
 74
     0
 49
-0.125
 74
     0
  0
LTYPE
  5
36
330
5
100
AcDbSymbolTableRecord
100
AcDbLinetypeTableRecord
  2
DIVIDEX2
 70
     0
  3
Divide (2x) ________  .  .  ________  .  .  _
 72
    65
 73
     6
 40
2.5
 49
1.0
 74
     0
 49
-0.5
 74
     0
 49
0.0
 74
     0
 49
-0.5
 74
     0
 49
0.0
 74
     0
 49
-0.5
 74
     0
  0
LTYPE
  5
37
330
5
100
AcDbSymbolTableRecord
100
AcDbLinetypeTableRecord
  2
DOT
 70
     0
  3
Dot . . . . . . . . . . . . . . . . . . . . . .
 72
    65
 73
     2
 40
0.25
 49
0.0
 74
     0
 49
-0.25
 74
     0
  0
LTYPE
  5
38
330
5
100
AcDbSymbolTableRecord
100
AcDbLinetypeTableRecord
  2
DOT2
 70
     0
  3
Dot (.5x) .....................................
 72
    65
 73
     2
 40
0.125
 49
0.0
 74
     0
 49
-0.125
 74
     0
  0
LTYPE
  5
39
330
5
100
AcDbSymbolTableRecord
100
AcDbLinetypeTableRecord
  2
DOTX2
 70
     0
  3
Dot (2x) .  .  .  .  .  .  .  .  .  .  .  .  . 
 72
    65
 73
     2
 40
0.5
 49
0.0
 74
     0
 49
-0.5
 74
     0
  0
LTYPE
  5
3A
330
5
100
AcDbSymbolTableRecord
100
AcDbLinetypeTableRecord
  2
HIDDEN
 70
     0
  3
Hidden __ __ __ __ __ __ __ __ __ __ __ __ __ _
 72
    65
 73
     2
 40
0.375
 49
0.25
 74
     0
 49
-0.125
 74
     0
  0
LTYPE
  5
3B
330
5
100
AcDbSymbolTableRecord
100
AcDbLinetypeTableRecord
  2
HIDDEN2
 70
     0
  3
Hidden (.5x) _ _ _ _ _ _ _ _ _ _ _ _ _ _ _ _ _
 72
    65
 73
     2
 40
0.1875
 49
0.125
 74
     0
 49
-0.0625
 74
     0
  0
LTYPE
  5
3C
330
5
100
AcDbSymbolTableRecord
100
AcDbLinetypeTableRecord
  2
HIDDENX2
 70
     0
  3
Hidden (2x) ____ ____ ____ ____ ____ ____ ____
 72
    65
 73
     2
 40
0.75
 49
0.5
 74
     0
 49
-0.25
 74
     0
  0
LTYPE
  5
3D
330
5
100
AcDbSymbolTableRecord
100
AcDbLinetypeTableRecord
  2
PHANTOM
 70
     0
  3
Phantom ______  __  __  ______  __  __  ______
 72
    65
 73
     6
 40
2.5
 49
1.25
 74
     0
 49
-0.25
 74
     0
 49
0.25
 74
     0
 49
-0.25
 74
     0
 49
0.25
 74
     0
 49
-0.25
 74
     0
  0
LTYPE
  5
3E
330
5
100
AcDbSymbolTableRecord
100
AcDbLinetypeTableRecord
  2
PHANTOM2
 70
     0
  3
Phantom (.5x) ___ _ _ ___ _ _ ___ _ _ ___ _ _
 72
    65
 73
     6
 40
1.25
 49
0.625
 74
     0
 49
-0.125
 74
     0
 49
0.125
 74
     0
 49
-0.125
 74
     0
 49
0.125
 74
     0
 49
-0.125
 74
     0
  0
LTYPE
  5
3F
330
5
100
AcDbSymbolTableRecord
100
AcDbLinetypeTableRecord
  2
PHANTOMX2
 70
     0
  3
Phantom (2x) ____________    ____    ____   _
 72
    65
 73
     6
 40
5.0
 49
2.5
 74
     0
 49
-0.5
 74
     0
 49
0.5
 74
     0
 49
-0.5
 74
     0
 49
0.5
 74
     0
 49
-0.5
 74
     0
  0
LTYPE
  5
40
330
5
100
AcDbSymbolTableRecord
100
AcDbLinetypeTableRecord
  2
ACAD_ISO02W100
 70
     0
  3
ISO dash __ __ __ __ __ __ __ __ __ __ __ __ __
 72
    65
 73
     2
 40
15.0
 49
12.0
 74
     0
 49
-3.0
 74
     0
  0
LTYPE
  5
41
330
5
100
AcDbSymbolTableRecord
100
AcDbLinetypeTableRecord
  2
ACAD_ISO03W100
 70
     0
  3
ISO dash space __    __    __    __    __    __
 72
    65
 73
     2
 40
30.0
 49
12.0
 74
     0
 49
-18.0
 74
     0
  0
LTYPE
  5
42
330
5
100
AcDbSymbolTableRecord
100
AcDbLinetypeTableRecord
  2
ACAD_ISO04W100
 70
     0
  3
ISO long-dash dot ____ . ____ . ____ . ____ . _
 72
    65
 73
     4
 40
30.0
 49
24.0
 74
     0
 49
-3.0
 74
     0
 49
0.0
 74
     0
 49
-3.0
 74
     0
  0
LTYPE
  5
43
330
5
100
AcDbSymbolTableRecord
100
AcDbLinetypeTableRecord
  2
ACAD_ISO05W100
 70
     0
  3
ISO long-dash double-dot ____ .. ____ .. ____ .
 72
    65
 73
     6
 40
33.0
 49
24.0
 74
     0
 49
-3.0
 74
     0
 49
0.0
 74
     0
 49
-3.0
 74
     0
 49
0.0
 74
     0
 49
-3.0
 74
     0
  0
LTYPE
  5
44
330
5
100
AcDbSymbolTableRecord
100
AcDbLinetypeTableRecord
  2
ACAD_ISO06W100
 70
     0
  3
ISO long-dash triple-dot ____ ... ____ ... ____
 72
    65
 73
     8
 40
36.0
 49
24.0
 74
     0
 49
-3.0
 74
     0
 49
0.0
 74
     0
 49
-3.0
 74
     0
 49
0.0
 74
     0
 49
-3.0
 74
     0
 49
0.0
 74
     0
 49
-3.0
 74
     0
  0
LTYPE
  5
45
330
5
100
AcDbSymbolTableRecord
100
AcDbLinetypeTableRecord
  2
ACAD_ISO07W100
 70
     0
  3
ISO dot . . . . . . . . . . . . . . . . . . . .
 72
    65
 73
     2
 40
3.0
 49
0.0
 74
     0
 49
-3.0
 74
     0
  0
LTYPE
  5
46
330
5
100
AcDbSymbolTableRecord
100
AcDbLinetypeTableRecord
  2
ACAD_ISO08W100
 70
     0
  3
ISO long-dash short-dash ____ __ ____ __ ____ _
 72
    65
 73
     4
 40
36.0
 49
24.0
 74
     0
 49
-3.0
 74
     0
 49
6.0
 74
     0
 49
-3.0
 74
     0
  0
LTYPE
  5
47
330
5
100
AcDbSymbolTableRecord
100
AcDbLinetypeTableRecord
  2
ACAD_ISO09W100
 70
     0
  3
ISO long-dash double-short-dash ____ __ __ ____
 72
    65
 73
     6
 40
45.0
 49
24.0
 74
     0
 49
-3.0
 74
     0
 49
6.0
 74
     0
 49
-3.0
 74
     0
 49
6.0
 74
     0
 49
-3.0
 74
     0
  0
LTYPE
  5
48
330
5
100
AcDbSymbolTableRecord
100
AcDbLinetypeTableRecord
  2
ACAD_ISO10W100
 70
     0
  3
ISO dash dot __ . __ . __ . __ . __ . __ . __ .
 72
    65
 73
     4
 40
18.0
 49
12.0
 74
     0
 49
-3.0
 74
     0
 49
0.0
 74
     0
 49
-3.0
 74
     0
  0
LTYPE
  5
49
330
5
100
AcDbSymbolTableRecord
100
AcDbLinetypeTableRecord
  2
ACAD_ISO11W100
 70
     0
  3
ISO double-dash dot __ __ . __ __ . __ __ . __ 
 72
    65
 73
     6
 40
33.0
 49
12.0
 74
     0
 49
-3.0
 74
     0
 49
12.0
 74
     0
 49
-3.0
 74
     0
 49
0.0
 74
     0
 49
-3.0
 74
     0
  0
LTYPE
  5
4A
330
5
100
AcDbSymbolTableRecord
100
AcDbLinetypeTableRecord
  2
ACAD_ISO12W100
 70
     0
  3
ISO dash double-dot __ . . __ . . __ . . __ . .
 72
    65
 73
     6
 40
21.0
 49
12.0
 74
     0
 49
-3.0
 74
     0
 49
0.0
 74
     0
 49
-3.0
 74
     0
 49
0.0
 74
     0
 49
-3.0
 74
     0
  0
LTYPE
  5
4B
330
5
100
AcDbSymbolTableRecord
100
AcDbLinetypeTableRecord
  2
ACAD_ISO13W100
 70
     0
  3
ISO double-dash double-dot __ __ . . __ __ . . 
 72
    65
 73
     8
 40
36.0
 49
12.0
 74
     0
 49
-3.0
 74
     0
 49
12.0
 74
     0
 49
-3.0
 74
     0
 49
0.0
 74
     0
 49
-3.0
 74
     0
 49
0.0
 74
     0
 49
-3.0
 74
     0
  0
LTYPE
  5
4C
330
5
100
AcDbSymbolTableRecord
100
AcDbLinetypeTableRecord
  2
ACAD_ISO14W100
 70
     0
  3
ISO dash triple-dot __ . . . __ . . . __ . . . 
 72
    65
 73
     8
 40
24.0
 49
12.0
 74
     0
 49
-3.0
 74
     0
 49
0.0
 74
     0
 49
-3.0
 74
     0
 49
0.0
 74
     0
 49
-3.0
 74
     0
 49
0.0
 74
     0
 49
-3.0
 74
     0
  0
LTYPE
  5
4D
330
5
100
AcDbSymbolTableRecord
100
AcDbLinetypeTableRecord
  2
ACAD_ISO15W100
 70
     0
  3
ISO double-dash triple-dot __ __ . . . __ __ . 
 72
    65
 73
    10
 40
39.0
 49
12.0
 74
     0
 49
-3.0
 74
     0
 49
12.0
 74
     0
 49
-3.0
 74
     0
 49
0.0
 74
     0
 49
-3.0
 74
     0
 49
0.0
 74
     0
 49
-3.0
 74
     0
 49
0.0
 74
     0
 49
-3.0
 74
     0
  0
LTYPE
  5
50
330
5
100
AcDbSymbolTableRecord
100
AcDbLinetypeTableRecord
  2
FENCELINE1
 70
     0
  3
Fenceline circle ----0-----0----0-----0----0---
 72
    65
 73
     4
 40
1.45
 49
0.25
 74
     0
 49
-0.1
 74
     4
 75
   133
340
4F
 46
0.1
 50
0.0
 44
-0.1
 45
0.0
 49
-0.1
 74
     0
 49
1.0
 74
     0
  0
LTYPE
  5
51
330
5
100
AcDbSymbolTableRecord
100
AcDbLinetypeTableRecord
  2
FENCELINE2
 70
     0
  3
Fenceline square ----[]-----[]----[]-----[]----
 72
    65
 73
     4
 40
1.45
 49
0.25
 74
     0
 49
-0.1
 74
     4
 75
   132
340
4F
 46
0.1
 50
0.0
 44
-0.1
 45
0.0
 49
-0.1
 74
     0
 49
1.0
 74
     0
  0
LTYPE
  5
52
330
5
100
AcDbSymbolTableRecord
100
AcDbLinetypeTableRecord
  2
TRACKS
 70
     0
  3
Tracks -|-|-|-|-|-|-|-|-|-|-|-|-|-|-|-|-|-|-|-|
 72
    65
 73
     2
 40
0.3
 49
0.15
 74
     4
 75
   130
340
4F
 46
0.25
 50
0.0
 44
0.0
 45
0.0
 49
0.15
 74
     0
  0
LTYPE
  5
53
330
5
100
AcDbSymbolTableRecord
100
AcDbLinetypeTableRecord
  2
BATTING
 70
     0
  3
Batting SSSSSSSSSSSSSSSSSSSSSSSSSSSSSSSSSSSSSSS
 72
    65
 73
     4
 40
0.4001000000000001
 49
0.0001
 74
     0
 49
-0.1
 74
     4
 75
   134
340
4F
 46
0.1
 50
0.0
 44
-0.1
 45
0.0
 49
-0.2
 74
     4
 75
   134
340
4F
 46
0.1
 50
180.0
 44
0.1
 45
0.0
 49
-0.1
 74
     0
  0
LTYPE
  5
54
330
5
100
AcDbSymbolTableRecord
100
AcDbLinetypeTableRecord
  2
HOT_WATER_SUPPLY
 70
     0
  3
Hot water supply ---- HW ---- HW ---- HW ----
 72
    65
 73
     3
 40
0.9
 49
0.5
 74
     0
 49
-0.2
 74
     2
 75
     0
340
11
 46
0.1
 50
0.0
 44
-0.1
 45
-0.05
  9
HW
 49
-0.2
 74
     0
  0
LTYPE
  5
55
330
5
100
AcDbSymbolTableRecord
100
AcDbLinetypeTableRecord
  2
GAS_LINE
 70
     0
  3
Gas line ----GAS----GAS----GAS----GAS----GAS---
 72
    65
 73
     3
 40
0.95
 49
0.5
 74
     0
 49
-0.2
 74
     2
 75
     0
340
11
 46
0.1
 50
0.0
 44
-0.1
 45
-0.05
  9
GAS
 49
-0.25
 74
     0
  0
LTYPE
  5
56
330
5
100
AcDbSymbolTableRecord
100
AcDbLinetypeTableRecord
  2
ZIGZAG
 70
     0
  3
Zig zag /\/\/\/\/\/\/\/\/\/\/\/\/\/\/\/\/\/\/\/
 72
    65
 73
     4
 40
0.8001000000000001
 49
0.0001
 74
     0
 49
-0.2
 74
     4
 75
   131
340
4F
 46
0.2
 50
0.0
 44
-0.2
 45
0.0
 49
-0.4
 74
     4
 75
   131
340
4F
 46
0.2
 50
180.0
 44
0.2
 45
0.0
 49
-0.2
 74
     0
  0
ENDTAB
  0
TABLE
  2
LAYER
  5
2
330
0
100
AcDbSymbolTable
 70
    31
  0
LAYER
  5
10
330
2
100
AcDbSymbolTableRecord
100
AcDbLayerTableRecord
  2
0
 70
     0
 62
     7
  6
Continuous
370
    -3
390
F
  0
LAYER
  5
67
330
2
100
AcDbSymbolTableRecord
100
AcDbLayerTableRecord
  2
Visible Edges
 70
     0
 62
     7
  6
Continuous
370
    50
390
F
  0
LAYER
  5
68
330
2
100
AcDbSymbolTableRecord
100
AcDbLayerTableRecord
  2
Hidden Edges
 70
     0
 62
     7
  6
ACAD_ISO02W100
370
    35
390
F
  0
LAYER
  5
6A
330
2
100
AcDbSymbolTableRecord
100
AcDbLayerTableRecord
  2
Tangent Edges
 70
     0
 62
     7
  6
Continuous
370
    50
390
F
  0
LAYER
  5
6B
330
2
100
AcDbSymbolTableRecord
100
AcDbLayerTableRecord
  2
Section View Lines
 70
     0
 62
     7
  6
ACAD_ISO04W100
370
    70
390
F
  0
LAYER
  5
6D
330
2
100
AcDbSymbolTableRecord
100
AcDbLayerTableRecord
  2
Detail Circle Lines
 70
     0
 62
     7
  6
Continuous
370
    25
390
F
  0
LAYER
  5
6E
330
2
100
AcDbSymbolTableRecord
100
AcDbLayerTableRecord
  2
Dimensions
 70
     0
 62
     7
  6
Continuous
370
    25
390
F
  0
LAYER
  5
6F
330
2
100
AcDbSymbolTableRecord
100
AcDbLayerTableRecord
  2
Center Mark
 70
     0
 62
     7
  6
Continuous
370
    25
390
F
  0
LAYER
  5
70
330
2
100
AcDbSymbolTableRecord
100
AcDbLayerTableRecord
  2
Symbols
 70
     0
 62
     7
  6
Continuous
370
    25
390
F
  0
LAYER
  5
71
330
2
100
AcDbSymbolTableRecord
100
AcDbLayerTableRecord
  2
Leader Lines
 70
     0
 62
     7
  6
Continuous
370
    25
390
F
  0
LAYER
  5
72
330
2
100
AcDbSymbolTableRecord
100
AcDbLayerTableRecord
  2
Sketch Lines
 70
     0
 62
     7
  6
Continuous
370
    25
390
F
  0
LAYER
  5
73
330
2
100
AcDbSymbolTableRecord
100
AcDbLayerTableRecord
  2
Phantom Lines
 70
     0
 62
     7
  6
ACAD_ISO09W100
370
    70
390
F
  0
LAYER
  5
75
330
2
100
AcDbSymbolTableRecord
100
AcDbLayerTableRecord
  2
Symmetry Lines
 70
     0
 62
     7
  6
ACAD_ISO04W100
370
    25
390
F
  0
LAYER
  5
77
330
2
100
AcDbSymbolTableRecord
100
AcDbLayerTableRecord
  2
Break Lines
 70
     0
 62
     7
  6
Continuous
370
    50
390
F
  0
LAYER
  5
78
330
2
100
AcDbSymbolTableRecord
100
AcDbLayerTableRecord
  2
Stitch 1 Lines
 70
     0
 62
     7
  6
ACAD_ISO03W100
370
    25
390
F
  0
LAYER
  5
7A
330
2
100
AcDbSymbolTableRecord
100
AcDbLayerTableRecord
  2
Stitch 2 Lines
 70
     0
 62
     7
  6
ACAD_ISO07W100
370
    25
390
F
  0
LAYER
  5
7C
330
2
100
AcDbSymbolTableRecord
100
AcDbLayerTableRecord
  2
Center Line
 70
     0
 62
     7
  6
Continuous
370
    25
390
F
  0
LAYER
  5
7D
330
2
100
AcDbSymbolTableRecord
100
AcDbLayerTableRecord
  2
Sketch Only Lines
 70
     0
 62
     7
  6
Continuous
370
    50
390
F
  0
LAYER
  5
7E
330
2
100
AcDbSymbolTableRecord
100
AcDbLayerTableRecord
  2
05 Lines
 70
     0
 62
     7
  6
ACAD_ISO04W100
370
    25
390
F
  0
LAYER
  5
80
330
2
100
AcDbSymbolTableRecord
100
AcDbLayerTableRecord
  2
06 Lines
 70
     0
 62
     7
  6
ACAD_ISO05W100
370
    25
390
F
  0
LAYER
  5
82
330
2
100
AcDbSymbolTableRecord
100
AcDbLayerTableRecord
  2
07 Lines
 70
     0
 62
     7
  6
ACAD_ISO06W100
370
    25
390
F
  0
LAYER
  5
84
330
2
100
AcDbSymbolTableRecord
100
AcDbLayerTableRecord
  2
08 Lines
 70
     0
 62
     7
  6
ACAD_ISO08W100
370
    25
390
F
  0
LAYER
  5
86
330
2
100
AcDbSymbolTableRecord
100
AcDbLayerTableRecord
  2
09 Lines
 70
     0
 62
     7
  6
ACAD_ISO09W100
370
    25
390
F
  0
LAYER
  5
88
330
2
100
AcDbSymbolTableRecord
100
AcDbLayerTableRecord
  2
10 Lines
 70
     0
 62
     7
  6
ACAD_ISO10W100
370
    25
390
F
  0
LAYER
  5
8A
330
2
100
AcDbSymbolTableRecord
100
AcDbLayerTableRecord
  2
11 Lines
 70
     0
 62
     7
  6
ACAD_ISO11W100
370
    25
390
F
  0
LAYER
  5
8C
330
2
100
AcDbSymbolTableRecord
100
AcDbLayerTableRecord
  2
12 Lines
 70
     0
 62
     7
  6
ACAD_ISO12W100
370
    25
390
F
  0
LAYER
  5
8E
330
2
100
AcDbSymbolTableRecord
100
AcDbLayerTableRecord
  2
13 Lines
 70
     0
 62
     7
  6
ACAD_ISO13W100
370
    25
390
F
  0
LAYER
  5
90
330
2
100
AcDbSymbolTableRecord
100
AcDbLayerTableRecord
  2
14 Lines
 70
     0
 62
     7
  6
ACAD_ISO14W100
370
    25
390
F
  0
LAYER
  5
92
330
2
100
AcDbSymbolTableRecord
100
AcDbLayerTableRecord
  2
15 Lines
 70
     0
 62
     7
  6
ACAD_ISO15W100
370
    25
390
F
  0
LAYER
  5
94
330
2
100
AcDbSymbolTableRecord
100
AcDbLayerTableRecord
  2
Hatch
 70
     0
 62
     7
  6
Continuous
370
    25
390
F
  0
LAYER
  5
95
330
2
100
AcDbSymbolTableRecord
100
AcDbLayerTableRecord
  2
Text
 70
     0
 62
     7
  6
Continuous
370
    25
390
F
  0
ENDTAB
  0
TABLE
  2
STYLE
  5
3
330
0
100
AcDbSymbolTable
 70
    19
  0
STYLE
  5
11
330
3
100
AcDbSymbolTableRecord
100
AcDbTextStyleTableRecord
  2
Standard
 70
     0
 40
0.0
 41
1.0
 50
0.0
 71
     0
 42
0.2
  3
ARIAL.TTF
  4

1001
ACAD
1000
Arial
1071
      256
  0
STYLE
  5
4F
330
3
100
AcDbSymbolTableRecord
100
AcDbTextStyleTableRecord
  2

 70
     1
 40
0.0
 41
1.0
 50
0.0
 71
     0
 42
0.2
  3
ltypeshp.shx
  4

  0
STYLE
  5
58
330
3
100
AcDbSymbolTableRecord
100
AcDbTextStyleTableRecord
  2
TextStyle1
 70
     0
 40
0.0
 41
0.9399999976158142
 50
0.0
 71
     0
 42
0.2
  3
ARIAL.TTF
  4

1001
ACAD
1000
Arial
1071
      256
  0
STYLE
  5
59
330
3
100
AcDbSymbolTableRecord
100
AcDbTextStyleTableRecord
  2
TextStyle2
 70
     0
 40
0.0
 41
0.9399999976158142
 50
0.0
 71
     0
 42
0.2
  3
Aigdt___.ttf
  4

1001
ACAD
1000
AIGDT
1071
      514
  0
STYLE
  5
5A
330
3
100
AcDbSymbolTableRecord
100
AcDbTextStyleTableRecord
  2
TextStyle3
 70
     0
 40
0.0
 41
0.9399999976158142
 50
0.0
 71
     0
 42
0.2
  3
TIMES.TTF
  4

1001
ACAD
1000
Times New Roman
1071
      256
  0
STYLE
  5
5B
330
3
100
AcDbSymbolTableRecord
100
AcDbTextStyleTableRecord
  2
TextStyle4
 70
     0
 40
0.0
 41
0.9399999976158142
 50
0.0
 71
     0
 42
0.2
  3
TIMES.TTF
  4

1001
ACAD
1000
Times New Roman
1071
      256
  0
STYLE
  5
5C
330
3
100
AcDbSymbolTableRecord
100
AcDbTextStyleTableRecord
  2
TextStyle5
 70
     0
 40
0.0
 41
0.9399999976158142
 50
0.0
 71
     0
 42
0.2
  3
ARIAL.TTF
  4

1001
ACAD
1000
Arial
1071
      256
  0
STYLE
  5
5D
330
3
100
AcDbSymbolTableRecord
100
AcDbTextStyleTableRecord
  2
TextStyle6
 70
     0
 40
0.0
 41
0.9399999976158142
 50
0.0
 71
     0
 42
0.2
  3
ARIAL.TTF
  4

1001
ACAD
1000
Arial
1071
      256
  0
STYLE
  5
5E
330
3
100
AcDbSymbolTableRecord
100
AcDbTextStyleTableRecord
  2
TextStyle7
 70
     0
 40
0.0
 41
0.9399999976158142
 50
0.0
 71
     0
 42
0.2
  3
ARIAL.TTF
  4

1001
ACAD
1000
Arial
1071
      256
  0
STYLE
  5
5F
330
3
100
AcDbSymbolTableRecord
100
AcDbTextStyleTableRecord
  2
TextStyle8
 70
     0
 40
0.0
 41
0.9399999976158142
 50
0.0
 71
     0
 42
0.2
  3
ARIAL.TTF
  4

1001
ACAD
1000
Arial
1071
      256
  0
STYLE
  5
60
330
3
100
AcDbSymbolTableRecord
100
AcDbTextStyleTableRecord
  2
TextStyle9
 70
     0
 40
0.0
 41
0.9399999976158142
 50
0.0
 71
     0
 42
0.2
  3
ARIAL.TTF
  4

1001
ACAD
1000
Arial
1071
      256
  0
STYLE
  5
61
330
3
100
AcDbSymbolTableRecord
100
AcDbTextStyleTableRecord
  2
TextStyle10
 70
     0
 40
0.0
 41
0.9399999976158142
 50
0.0
 71
     0
 42
0.2
  3
ARIAL.TTF
  4

1001
ACAD
1000
Arial
1071
      256
  0
STYLE
  5
62
330
3
100
AcDbSymbolTableRecord
100
AcDbTextStyleTableRecord
  2
TextStyle11
 70
     0
 40
0.0
 41
0.9399999976158142
 50
0.0
 71
     0
 42
0.2
  3
Aigdt___.ttf
  4

1001
ACAD
1000
AIGDT
1071
      514
  0
STYLE
  5
63
330
3
100
AcDbSymbolTableRecord
100
AcDbTextStyleTableRecord
  2
TextStyle12
 70
     0
 40
0.0
 41
0.9399999976158142
 50
0.0
 71
     0
 42
0.2
  3
ARIAL.TTF
  4

1001
ACAD
1000
Arial
1071
      256
  0
STYLE
  5
64
330
3
100
AcDbSymbolTableRecord
100
AcDbTextStyleTableRecord
  2
TextStyle13
 70
     0
 40
0.0
 41
0.9399999976158142
 50
0.0
 71
     0
 42
0.2
  3
ARIAL.TTF
  4

1001
ACAD
1000
Arial
1071
      256
  0
STYLE
  5
65
330
3
100
AcDbSymbolTableRecord
100
AcDbTextStyleTableRecord
  2
TextStyle14
 70
     0
 40
0.0
 41
0.9399999976158142
 50
0.0
 71
     0
 42
0.2
  3
ARIAL.TTF
  4

1001
ACAD
1000
Arial
1071
      256
  0
STYLE
  5
66
330
3
100
AcDbSymbolTableRecord
100
AcDbTextStyleTableRecord
  2
TextStyle15
 70
     0
 40
0.0
 41
0.9399999976158142
 50
0.0
 71
     0
 42
0.2
  3
Aigdt___.ttf
  4

1001
ACAD
1000
AIGDT
1071
      514
  0
STYLE
  5
96
330
3
100
AcDbSymbolTableRecord
100
AcDbTextStyleTableRecord
  2
Current-ISO
 70
     0
 40
0.0
 41
0.9399999976158142
 50
0.0
 71
     0
 42
0.2
  3
ARIAL.TTF
  4

1001
ACAD
1000
Arial
1071
      256
  0
STYLE
  5
97
330
3
100
AcDbSymbolTableRecord
100
AcDbTextStyleTableRecord
  2
DEFAULT-ISO
 70
     0
 40
0.0
 41
0.9399999976158142
 50
0.0
 71
     0
 42
0.2
  3
ARIAL.TTF
  4

1001
ACAD
1000
Arial
1071
      256
  0
ENDTAB
  0
TABLE
  2
VIEW
  5
6
330
0
100
AcDbSymbolTable
 70
     0
  0
ENDTAB
  0
TABLE
  2
UCS
  5
7
330
0
100
AcDbSymbolTable
 70
     0
  0
ENDTAB
  0
TABLE
  2
APPID
  5
9
330
0
100
AcDbSymbolTable
 70
     1
  0
APPID
  5
12
330
9
100
AcDbSymbolTableRecord
100
AcDbRegAppTableRecord
  2
ACAD
 70
     0
  0
ENDTAB
  0
TABLE
  2
DIMSTYLE
  5
A
330
0
100
AcDbSymbolTable
 70
    13
100
AcDbDimStyleTable
 71
     1
340
57
  0
DIMSTYLE
105
27
330
A
100
AcDbSymbolTableRecord
100
AcDbDimStyleTableRecord
  2
Standard
 70
     0
340
11
  0
DIMSTYLE
105
57
330
A
100
AcDbSymbolTableRecord
100
AcDbDimStyleTableRecord
  2
2dTranslatorDimStyle
 70
     0
 41
1.799999999999999
140
1.799999999999999
340
11
  0
DIMSTYLE
105
98
330
A
100
AcDbSymbolTableRecord
100
AcDbDimStyleTableRecord
  2
DEFAULT-ISO
 70
     0
 41
2.5
 42
0.0
 43
4.799999999999999
 44
3.174999999999999
 45
0.00000001
 46
10.0
 73
     0
 74
     0
 77
     1
140
3.5
147
0.762
176
    47
177
    47
178
    47
179
     2
271
     2
272
     2
278
    44
340
60
344
99
371
    25
372
    25
  0
DIMSTYLE
105
A0
330
A
100
AcDbSymbolTableRecord
100
AcDbDimStyleTableRecord
  2
DEFAULT-ISO-Method 1b
 70
     0
 41
2.5
 42
0.0
 43
4.799999999999999
 44
3.174999999999999
 45
0.00000001
 46
10.0
 73
     0
 77
     1
140
3.5
147
0.762
176
    47
177
    47
178
    47
179
     2
271
     2
272
     2
278
    44
284
     8
340
60
344
99
371
    25
372
    25
  0
DIMSTYLE
105
A1
330
A
100
AcDbSymbolTableRecord
100
AcDbDimStyleTableRecord
  2
DEFAULT-ISO-Method 2a
 70
     0
 41
2.5
 42
0.0
 43
4.799999999999999
 44
3.174999999999999
 45
0.00000001
 46
10.0
140
3.5
147
0.762
176
    47
177
    47
178
    47
179
     2
271
     2
272
     2
278
    44
284
     8
340
60
344
99
371
    25
372
    25
  0
DIMSTYLE
105
A2
330
A
100
AcDbSymbolTableRecord
100
AcDbDimStyleTableRecord
  2
DEFAULT-ISO-Method 2b
 70
     0
 41
2.5
 42
0.0
 43
4.799999999999999
 44
3.174999999999999
 45
0.00000001
 46
10.0
140
3.5
147
0.762
176
    47
177
    47
178
    47
179
     2
271
     2
272
     2
278
    44
284
     8
340
60
344
99
371
    25
372
    25
  0
DIMSTYLE
105
A3
330
A
100
AcDbSymbolTableRecord
100
AcDbDimStyleTableRecord
  2
X.X big gap & text
 70
     0
 41
5.0
 42
2.0
 43
4.799999999999999
 44
3.174999999999999
 45
0.00000001
 46
10.0
 73
     0
 74
     0
 77
     1
 78
     4
 79
     1
140
5.0
146
0.7
147
0.762
176
   114
177
   114
178
    11
179
     1
271
     1
272
     1
278
    44
284
     8
340
65
344
99
371
    25
372
    25
  0
DIMSTYLE
105
A4
330
A
100
AcDbSymbolTableRecord
100
AcDbDimStyleTableRecord
  2
X.XXX
 70
     0
 41
2.5
 42
0.0
 43
4.799999999999999
 44
3.174999999999999
 45
0.00000001
 46
10.0
 73
     0
 74
     0
 77
     1
 78
     4
 79
     1
140
3.5
147
0.762
176
    47
177
    47
178
    47
179
     3
271
     3
272
     2
275
     1
278
    44
284
     8
340
60
344
99
371
    25
372
    25
  0
DIMSTYLE
105
A5
330
A
100
AcDbSymbolTableRecord
100
AcDbDimStyleTableRecord
  2
X.XXX + - tolerance
 70
     0
 41
2.5
 42
0.0
 43
4.799999999999999
 44
3.174999999999999
 45
0.00000001
 46
10.0
 71
     1
 73
     0
 74
     0
 77
     1
 78
     4
 79
     1
140
3.5
147
0.762
176
    47
177
    47
178
    47
179
     3
271
     3
272
     3
275
     1
278
    44
284
     8
340
60
344
99
371
    25
372
    25
  0
DIMSTYLE
105
A6
330
A
100
AcDbSymbolTableRecord
100
AcDbDimStyleTableRecord
  2
X.XXX +tolerance -tolerance
 70
     0
 41
2.5
 42
0.0
 43
4.799999999999999
 44
3.174999999999999
 45
0.00000001
 46
10.0
 48
0.000000001
 71
     1
 73
     0
 74
     0
 77
     1
 78
     4
 79
     1
140
3.5
147
0.762
176
    47
177
    47
178
    47
179
     3
271
     3
272
     3
275
     1
278
    44
284
     8
340
60
344
99
371
    25
372
    25
  0
DIMSTYLE
105
A7
330
A
100
AcDbSymbolTableRecord
100
AcDbDimStyleTableRecord
  2
X.XXX mm[inch]
 70
     0
 41
2.5
 42
0.0
 43
4.799999999999999
 44
3.174999999999999
 45
0.00000001
 46
10.0
 73
     0
 74
     0
 77
     1
 78
     4
 79
     1
140
3.5
147
0.762
176
    47
177
    47
178
    47
179
     3
271
     3
272
     2
275
     1
278
    44
284
     8
340
60
344
99
371
    25
372
    25
  0
DIMSTYLE
105
A8
330
A
100
AcDbSymbolTableRecord
100
AcDbDimStyleTableRecord
  2
X.XXX radial
 70
     0
 41
2.5
 42
0.0
 43
4.799999999999999
 44
3.174999999999999
 45
0.00000001
 46
10.0
 73
     0
 74
     0
 77
     1
 78
     4
 79
     1
140
3.5
147
0.762
176
    47
177
    47
178
    47
179
     3
271
     3
272
     2
275
     1
284
     8
340
60
344
99
371
    25
372
    25
  0
DIMSTYLE
105
A9
330
A
100
AcDbSymbolTableRecord
100
AcDbDimStyleTableRecord
  2
X.XXX small tolerance
 70
     0
 41
2.5
 42
0.0
 43
4.799999999999999
 44
3.174999999999999
 45
0.00000001
 46
10.0
 71
     1
 73
     0
 74
     0
 77
     1
 78
     4
 79
     1
140
3.5
146
0.7142857142857144
147
0.762
176
    47
177
    47
178
    47
179
     3
271
     3
272
     3
275
     1
278
    44
284
     8
340
60
344
99
371
    25
372
    25
  0
ENDTAB
  0
TABLE
  2
BLOCK_RECORD
  5
1
330
0
100
AcDbSymbolTable
 70
     3
  0
BLOCK_RECORD
  5
1F
330
1
100
AcDbSymbolTableRecord
100
AcDbBlockTableRecord
  2
*Model_Space
340
22
  0
BLOCK_RECORD
  5
1B
330
1
100
AcDbSymbolTableRecord
100
AcDbBlockTableRecord
  2
*Paper_Space
340
1E
  0
BLOCK_RECORD
  5
23
330
1
100
AcDbSymbolTableRecord
100
AcDbBlockTableRecord
  2
*Paper_Space0
340
26
  0
BLOCK_RECORD
  5
99
330
1
100
AcDbSymbolTableRecord
100
AcDbBlockTableRecord
  2
_Closed
340
0
  0
BLOCK_RECORD
  5
AA
330
1
100
AcDbSymbolTableRecord
100
AcDbBlockTableRecord
  2
2dTransTitleBlock1
340
0
102
{BLKREFS
331
CE
102
}
  0
ENDTAB
  0
ENDSEC
  0
SECTION
  2
BLOCKS
  0
BLOCK
  5
20
330
1F
100
AcDbEntity
  8
0
100
AcDbBlockBegin
  2
*Model_Space
 70
     0
 10
0.0
 20
0.0
 30
0.0
  3
*Model_Space
  1

  0
ENDBLK
  5
21
330
1F
100
AcDbEntity
  8
0
100
AcDbBlockEnd
  0
BLOCK
  5
1C
330
1B
100
AcDbEntity
 67
     1
  8
0
100
AcDbBlockBegin
  2
*Paper_Space
 70
     0
 10
0.0
 20
0.0
 30
0.0
  3
*Paper_Space
  1

  0
ENDBLK
  5
1D
330
1B
100
AcDbEntity
 67
     1
  8
0
100
AcDbBlockEnd
  0
BLOCK
  5
24
330
23
100
AcDbEntity
  8
0
100
AcDbBlockBegin
  2
*Paper_Space0
 70
     0
 10
0.0
 20
0.0
 30
0.0
  3
*Paper_Space0
  1

  0
ENDBLK
  5
25
330
23
100
AcDbEntity
  8
0
100
AcDbBlockEnd
  0
BLOCK
  5
9E
330
99
100
AcDbEntity
  8
0
100
AcDbBlockBegin
  2
_Closed
 70
     0
 10
0.0
 20
0.0
 30
0.0
  3
_Closed
  1

  0
LINE
  5
9A
330
99
100
AcDbEntity
  8
0
  6
ByBlock
 62
     0
370
    -2
100
AcDbLine
 10
-1.0
 20
0.1666666666666666
 30
0.0
 11
0.0
 21
0.0
 31
0.0
  0
LINE
  5
9B
330
99
100
AcDbEntity
  8
0
  6
ByBlock
 62
     0
370
    -2
100
AcDbLine
 10
0.0
 20
0.0
 30
0.0
 11
-1.0
 21
-0.1666666666666666
 31
0.0
  0
LINE
  5
9C
330
99
100
AcDbEntity
  8
0
  6
ByBlock
 62
     0
370
    -2
100
AcDbLine
 10
-1.0
 20
0.1666666666666666
 30
0.0
 11
-1.0
 21
-0.1666666666666666
 31
0.0
  0
LINE
  5
9D
330
99
100
AcDbEntity
  8
0
  6
ByBlock
 62
     0
370
    -2
100
AcDbLine
 10
0.0
 20
0.0
 30
0.0
 11
-1.0
 21
0.0
 31
0.0
  0
ENDBLK
  5
9F
330
99
100
AcDbEntity
  8
0
100
AcDbBlockEnd
  0
BLOCK
  5
AB
330
AA
100
AcDbEntity
  8
0
100
AcDbBlockBegin
  2
2dTransTitleBlock1
 70
     0
 10
0.0
 20
0.0
 30
0.0
  3
2dTransTitleBlock1
  1

  0
LINE
  5
AD
330
AA
100
AcDbEntity
  8
Sketch Lines
  6
Continuous
 62
     7
370
    50
100
AcDbLine
 10
361.7599999999999
 20
4.0
 30
0.0
 11
361.7599999999999
 21
4.872604584236999
 31
0.0
  0
LINE
  5
AE
330
AA
100
AcDbEntity
  8
Sketch Lines
  6
Continuous
 62
     7
370
    50
100
AcDbLine
 10
361.7599999999999
 20
2.0
 30
0.0
 11
361.7599999999999
 21
3.0
 31
0.0
  0
LINE
  5
AF
330
AA
100
AcDbEntity
  8
Sketch Lines
  6
Continuous
 62
     7
370
    50
100
AcDbLine
 10
360.2599999999999
 20
2.0
 30
0.0
 11
360.2599999999999
 21
3.0
 31
0.0
  0
LINE
  5
B0
330
AA
100
AcDbEntity
  8
Sketch Lines
  6
Continuous
 62
     7
370
    50
100
AcDbLine
 10
363.7599999999999
 20
3.0
 30
0.0
 11
354.26
 21
3.0
 31
0.0
  0
LINE
  5
B1
330
AA
100
AcDbEntity
  8
Sketch Lines
  6
Continuous
 62
     7
370
    50
100
AcDbLine
 10
358.76
 20
4.0
 30
0.0
 11
358.76
 21
4.872604584236999
 31
0.0
  0
LINE
  5
B2
330
AA
100
AcDbEntity
  8
Sketch Lines
  6
Continuous
 62
     7
370
    50
100
AcDbLine
 10
356.2599999999999
 20
4.0
 30
0.0
 11
356.2599999999999
 21
4.872604584236999
 31
0.0
  0
LINE
  5
B3
330
AA
100
AcDbEntity
  8
Sketch Lines
  6
Continuous
 62
     7
370
    50
100
AcDbLine
 10
354.26
 20
4.0
 30
0.0
 11
354.26
 21
2.0
 31
0.0
  0
LINE
  5
B4
330
AA
100
AcDbEntity
  8
Sketch Lines
  6
Continuous
 62
     7
370
    50
100
AcDbLine
 10
352.4599999999999
 20
4.0
 30
0.0
 11
352.4599999999999
 21
4.872604584236999
 31
0.0
  0
LINE
  5
B5
330
AA
100
AcDbEntity
  8
Sketch Lines
  6
Continuous
 62
     7
370
    50
100
AcDbLine
 10
349.96
 20
4.0
 30
0.0
 11
349.96
 21
4.872604584236999
 31
0.0
  0
LINE
  5
B6
330
AA
100
AcDbEntity
  8
Sketch Lines
  6
Continuous
 62
     7
370
    50
100
AcDbLine
 10
346.76
 20
4.0
 30
0.0
 11
363.7599999999999
 21
4.0
 31
0.0
  0
LINE
  5
B7
330
AA
100
AcDbEntity
  8
Sketch Lines
  6
Continuous
 62
     7
370
    50
100
AcDbLine
 10
346.76
 20
4.872604584236999
 30
0.0
 11
346.76
 21
2.0
 31
0.0
  0
LINE
  5
B8
330
AA
100
AcDbEntity
  8
Sketch Lines
  6
Continuous
 62
     7
370
    50
100
AcDbLine
 10
363.7599999999999
 20
4.872604584236999
 30
0.0
 11
346.76
 21
4.872604584236999
 31
0.0
  0
LINE
  5
B9
330
AA
100
AcDbEntity
  8
Sketch Lines
  6
Continuous
 62
     7
370
    50
100
AcDbLine
 10
363.7599999999999
 20
2.0
 30
0.0
 11
363.7599999999999
 21
4.872604584236999
 31
0.0
  0
LINE
  5
BA
330
AA
100
AcDbEntity
  8
Sketch Lines
  6
Continuous
 62
     7
370
    50
100
AcDbLine
 10
346.76
 20
2.0
 30
0.0
 11
363.7599999999999
 21
2.0
 31
0.0
  0
ENDBLK
  5
AC
330
AA
100
AcDbEntity
  8
0
100
AcDbBlockEnd
  0
ENDSEC
  0
SECTION
  2
ENTITIES
  0
LINE
  5
CF
330
1F
100
AcDbEntity
  8
Visible Edges
  6
Continuous
 62
     7
370
    50
100
AcDbLine
 10
3547.971423423383
 20
643.02032600059
 30
0.0
 11
3176.496423423383
 21
643.02032600059
 31
0.0
  0
LINE
  5
D1
330
1F
100
AcDbEntity
  8
Visible Edges
  6
Continuous
 62
     7
370
    50
100
AcDbLine
 10
3547.971423423383
 20
643.02032600059
 30
0.0
 11
3176.496423423383
 21
643.02032600059
 31
0.0
  0
LINE
  5
D3
330
1F
100
AcDbEntity
  8
Visible Edges
  6
Continuous
 62
     7
370
    50
100
AcDbLine
 10
3176.496423423383
 20
643.02032600059
 30
0.0
 11
3176.496423423383
 21
662.0703260005901
 31
0.0
  0
LINE
  5
D5
330
1F
100
AcDbEntity
  8
Visible Edges
  6
Continuous
 62
     7
370
    50
100
AcDbLine
 10
3176.496423423383
 20
662.0703260005901
 30
0.0
 11
3547.971423423383
 21
662.0703260005901
 31
0.0
  0
LINE
  5
D7
330
1F
100
AcDbEntity
  8
Visible Edges
  6
Continuous
 62
     7
370
    50
100
AcDbLine
 10
3547.971423423383
 20
681.1203260005901
 30
0.0
 11
3547.971423423383
 21
662.0703260005901
 31
0.0
  0
LINE
  5
D9
330
1F
100
AcDbEntity
  8
Visible Edges
  6
Continuous
 62
     7
370
    50
100
AcDbLine
 10
2805.021423423383
 20
681.1203260005901
 30
0.0
 11
3547.971423423383
 21
681.1203260005901
 31
0.0
  0
LINE
  5
DB
330
1F
100
AcDbEntity
  8
Visible Edges
  6
Continuous
 62
     7
370
    50
100
AcDbLine
 10
2805.021423423383
 20
623.97032600059
 30
0.0
 11
2805.021423423383
 21
681.1203260005901
 31
0.0
  0
LINE
  5
DD
330
1F
100
AcDbEntity
  8
Visible Edges
  6
Continuous
 62
     7
370
    50
100
AcDbLine
 10
2805.021423423383
 20
623.97032600059
 30
0.0
 11
2852.646423423383
 21
623.97032600059
 31
0.0
  0
LINE
  5
DF
330
1F
100
AcDbEntity
  8
Visible Edges
  6
Continuous
 62
     7
370
    50
100
AcDbLine
 10
2852.646423423383
 20
623.97032600059
 30
0.0
 11
2852.646423423383
 21
604.92032600059
 31
0.0
  0
LINE
  5
E1
330
1F
100
AcDbEntity
  8
Visible Edges
  6
Continuous
 62
     7
370
    50
100
AcDbLine
 10
2852.646423423383
 20
604.92032600059
 30
0.0
 11
2805.021423423383
 21
604.92032600059
 31
0.0
  0
LINE
  5
E3
330
1F
100
AcDbEntity
  8
Visible Edges
  6
Continuous
 62
     7
370
    50
100
AcDbLine
 10
2805.021423423383
 20
585.87032600059
 30
0.0
 11
2805.021423423383
 21
604.92032600059
 31
0.0
  0
LINE
  5
E5
330
1F
100
AcDbEntity
  8
Visible Edges
  6
Continuous
 62
     7
370
    50
100
AcDbLine
 10
3547.971423423383
 20
585.8703260005902
 30
0.0
 11
2805.021423423383
 21
585.87032600059
 31
0.0
  0
LINE
  5
E7
330
1F
100
AcDbEntity
  8
Visible Edges
  6
Continuous
 62
     7
370
    50
100
AcDbLine
 10
3547.971423423383
 20
604.92032600059
 30
0.0
 11
3547.971423423383
 21
585.8703260005902
 31
0.0
  0
LINE
  5
E9
330
1F
100
AcDbEntity
  8
Visible Edges
  6
Continuous
 62
     7
370
    50
100
AcDbLine
 10
3547.971423423383
 20
604.92032600059
 30
0.0
 11
3500.346423423383
 21
604.92032600059
 31
0.0
  0
LINE
  5
EB
330
1F
100
AcDbEntity
  8
Visible Edges
  6
Continuous
 62
     7
370
    50
100
AcDbLine
 10
3500.346423423383
 20
604.92032600059
 30
0.0
 11
3500.346423423383
 21
623.97032600059
 31
0.0
  0
LINE
  5
ED
330
1F
100
AcDbEntity
  8
Visible Edges
  6
Continuous
 62
     7
370
    50
100
AcDbLine
 10
3500.346423423383
 20
623.97032600059
 30
0.0
 11
3547.971423423383
 21
623.97032600059
 31
0.0
  0
LINE
  5
EF
330
1F
100
AcDbEntity
  8
Visible Edges
  6
Continuous
 62
     7
370
    50
100
AcDbLine
 10
3547.971423423383
 20
643.02032600059
 30
0.0
 11
3547.971423423383
 21
623.97032600059
 31
0.0
  0
MTEXT
  5
BB
330
1B
100
AcDbEntity
 67
     1
  8
Sketch Lines
  6
Continuous
 62
     7
370
    50
100
AcDbMText
 10
3468.099999999999
 20
46.32245921648056
 30
0.0
 40
2.006599903106689
 41
0.0
 71
     7
 72
     1
  1
Designed by
  7
TextStyle6
 73
     1
 44
1.0
  0
MTEXT
  5
BD
330
1B
100
AcDbEntity
 67
     1
  8
Sketch Lines
  6
Continuous
 62
     7
370
    50
100
AcDbMText
 10
3500.099999999999
 20
46.28728254045192
 30
0.0
 40
2.006599903106689
 41
0.0
 71
     7
 72
     1
  1
Checked by
  7
TextStyle6
 73
     1
 44
1.0
  0
MTEXT
  5
BE
330
1B
100
AcDbEntity
 67
     1
  8
Sketch Lines
  6
Continuous
 62
     7
370
    50
100
AcDbMText
 10
3525.1
 20
46.32245921648056
 30
0.0
 40
2.006599903106689
 41
0.0
 71
     7
 72
     1
  1
Approved by - date
  7
TextStyle6
 73
     1
 44
1.0
  0
MTEXT
  5
BF
330
1B
100
AcDbEntity
 67
     1
  8
Sketch Lines
  6
Continuous
 62
     7
370
    50
100
AcDbMText
 10
3588.1
 20
46.32245921648056
 30
0.0
 40
2.006599903106689
 41
0.0
 71
     7
 72
     1
  1
Date
  7
TextStyle6
 73
     1
 44
1.0
  0
MTEXT
  5
C0
330
1B
100
AcDbEntity
 67
     1
  8
Sketch Lines
  6
Continuous
 62
     7
370
    50
100
AcDbMText
 10
3605.692690985569
 20
27.49340004567056
 30
0.0
 40
2.006599903106689
 41
0.0
 71
     7
 72
     1
  1
Edition
  7
TextStyle6
 73
     1
 44
1.0
  0
MTEXT
  5
C1
330
1B
100
AcDbEntity
 67
     1
  8
Sketch Lines
  6
Continuous
 62
     7
370
    50
100
AcDbMText
 10
3623.937802112102
 20
27.45822336964192
 30
0.0
 40
2.006599903106689
 41
0.0
 71
     7
 72
     1
  1
Sheet
  7
TextStyle6
 73
     1
 44
1.0
  0
MTEXT
  5
C2
330
1B
100
AcDbEntity
 67
     1
  8
Sketch Lines
  6
Continuous
 62
     7
370
    50
100
AcDbMText
 10
3627.250249674887
 20
22.59870348774139
 30
0.0
 40
2.489199936389923
 41
0.0
 71
     7
 72
     1
  1
/
  7
TextStyle7
 73
     1
 44
1.0
  0
MTEXT
  5
C3
330
1B
100
AcDbEntity
 67
     1
  8
Sketch Lines
  6
Continuous
 62
     7
370
    50
100
AcDbMText
 10
3589.129369577765
 20
32.40503706205005
 30
0.0
 40
5.003799796104431
 41
0.0
 71
     7
 72
     1
  1
 
  7
TextStyle8
 73
     1
 44
1.0
  0
MTEXT
  5
C4
330
1B
100
AcDbEntity
 67
     1
  8
Sketch Lines
  6
Continuous
 62
     7
370
    50
100
AcDbMText
 10
3559.720998501777
 20
23.73551825701724
 30
0.0
 40
3.499999940395355
 41
0.0
 71
     7
 72
     1
  1
allparts
  7
TextStyle9
 73
     1
 44
1.0
  0
MTEXT
  5
C5
330
1B
100
AcDbEntity
 67
     1
  8
Sketch Lines
  6
Continuous
 62
     7
370
    50
100
AcDbMText
 10
3504.087861386721
 20
27.29131447524974
 30
0.0
 40
5.003799796104431
 41
0.0
 71
     7
 72
     1
  1
 
  7
TextStyle8
 73
     1
 44
1.0
  0
MTEXT
  5
C6
330
1B
100
AcDbEntity
 67
     1
  8
Sketch Lines
  6
Continuous
 62
     7
370
    50
100
AcDbMText
 10
3468.099999999999
 20
40.53984237613622
 30
0.0
 40
2.489199936389923
 41
0.0
 71
     7
 72
     1
  1
Administrator
  7
TextStyle7
 73
     1
 44
1.0
  0
MTEXT
  5
C7
330
1B
100
AcDbEntity
 67
     1
  8
Sketch Lines
  6
Continuous
 62
     7
370
    50
100
AcDbMText
 10
3499.92373013915
 20
40.14746027853248
 30
0.0
 40
2.489199936389923
 41
0.0
 71
     7
 72
     1
  1
 
  7
TextStyle7
 73
     1
 44
1.0
  0
MTEXT
  5
C8
330
1B
100
AcDbEntity
 67
     1
  8
Sketch Lines
  6
Continuous
 62
     7
370
    50
100
AcDbMText
 10
3525.1
 20
40.32373013926626
 30
0.0
 40
2.489199936389923
 41
0.0
 71
     7
 72
     1
  1
 
  7
TextStyle7
 73
     1
 44
1.0
  0
MTEXT
  5
C9
330
1B
100
AcDbEntity
 67
     1
  8
Sketch Lines
  6
Continuous
 62
     7
370
    50
100
AcDbMText
 10
3561.084402948835
 20
40.27684522792387
 30
0.0
 40
2.489199936389923
 41
0.0
 71
     7
 72
     1
  1
 
  7
TextStyle7
 73
     1
 44
1.0
  0
MTEXT
  5
CA
330
1B
100
AcDbEntity
 67
     1
  8
Sketch Lines
  6
Continuous
 62
     7
370
    50
100
AcDbMText
 10
3588.334279324995
 20
40.30746030960102
 30
0.0
 40
2.489199936389923
 41
0.0
 71
     7
 72
     1
  1
3/24/2007
  7
TextStyle7
 73
     1
 44
1.0
  0
MTEXT
  5
CB
330
1B
100
AcDbEntity
 67
     1
  8
Sketch Lines
  6
Continuous
 62
     7
370
    50
100
AcDbMText
 10
3609.267605952166
 20
21.95823446647771
 30
0.0
 40
3.499999940395355
 41
0.0
 71
     7
 72
     1
  1
 
  7
TextStyle9
 73
     1
 44
1.0
  0
MTEXT
  5
CC
330
1B
100
AcDbEntity
 67
     1
  8
Sketch Lines
  6
Continuous
 62
     7
370
    50
100
AcDbMText
 10
3621.327452879024
 20
22.53218128015573
 30
0.0
 40
2.489199936389923
 41
0.0
 71
     7
 72
     1
  1
1 
  7
TextStyle7
 73
     1
 44
1.0
  0
MTEXT
  5
CD
330
1B
100
AcDbEntity
 67
     1
  8
Sketch Lines
  6
Continuous
 62
     7
370
    50
100
AcDbMText
 10
3631.275806272192
 20
22.5888878402759
 30
0.0
 40
2.489199936389923
 41
0.0
 71
     7
 72
     1
  1
1 
  7
TextStyle7
 73
     1
 44
1.0
  0
INSERT
  5
CE
330
1B
100
AcDbEntity
 67
     1
  8
Sketch Lines
100
AcDbBlockReference
  2
2dTransTitleBlock1
 10
0.0
 20
0.0
 30
0.0
 41
10.0
 42
10.0
 43
10.0
  0
LINE
  5
D0
330
1B
100
AcDbEntity
 67
     1
  8
Visible Edges
  6
Continuous
 62
     7
370
    50
100
AcDbLine
 10
3547.971423423383
 20
643.02032600059
 30
0.0
 11
3176.496423423383
 21
643.02032600059
 31
0.0
  0
LINE
  5
D2
330
1B
100
AcDbEntity
 67
     1
  8
Visible Edges
  6
Continuous
 62
     7
370
    50
100
AcDbLine
 10
3547.971423423383
 20
643.02032600059
 30
0.0
 11
3176.496423423383
 21
643.02032600059
 31
0.0
  0
LINE
  5
D4
330
1B
100
AcDbEntity
 67
     1
  8
Visible Edges
  6
Continuous
 62
     7
370
    50
100
AcDbLine
 10
3176.496423423383
 20
643.02032600059
 30
0.0
 11
3176.496423423383
 21
662.0703260005901
 31
0.0
  0
LINE
  5
D6
330
1B
100
AcDbEntity
 67
     1
  8
Visible Edges
  6
Continuous
 62
     7
370
    50
100
AcDbLine
 10
3176.496423423383
 20
662.0703260005901
 30
0.0
 11
3547.971423423383
 21
662.0703260005901
 31
0.0
  0
LINE
  5
D8
330
1B
100
AcDbEntity
 67
     1
  8
Visible Edges
  6
Continuous
 62
     7
370
    50
100
AcDbLine
 10
3547.971423423383
 20
681.1203260005901
 30
0.0
 11
3547.971423423383
 21
662.0703260005901
 31
0.0
  0
LINE
  5
DA
330
1B
100
AcDbEntity
 67
     1
  8
Visible Edges
  6
Continuous
 62
     7
370
    50
100
AcDbLine
 10
2805.021423423383
 20
681.1203260005901
 30
0.0
 11
3547.971423423383
 21
681.1203260005901
 31
0.0
  0
LINE
  5
DC
330
1B
100
AcDbEntity
 67
     1
  8
Visible Edges
  6
Continuous
 62
     7
370
    50
100
AcDbLine
 10
2805.021423423383
 20
623.97032600059
 30
0.0
 11
2805.021423423383
 21
681.1203260005901
 31
0.0
  0
LINE
  5
DE
330
1B
100
AcDbEntity
 67
     1
  8
Visible Edges
  6
Continuous
 62
     7
370
    50
100
AcDbLine
 10
2805.021423423383
 20
623.97032600059
 30
0.0
 11
2852.646423423383
 21
623.97032600059
 31
0.0
  0
LINE
  5
E0
330
1B
100
AcDbEntity
 67
     1
  8
Visible Edges
  6
Continuous
 62
     7
370
    50
100
AcDbLine
 10
2852.646423423383
 20
623.97032600059
 30
0.0
 11
2852.646423423383
 21
604.92032600059
 31
0.0
  0
LINE
  5
E2
330
1B
100
AcDbEntity
 67
     1
  8
Visible Edges
  6
Continuous
 62
     7
370
    50
100
AcDbLine
 10
2852.646423423383
 20
604.92032600059
 30
0.0
 11
2805.021423423383
 21
604.92032600059
 31
0.0
  0
LINE
  5
E4
330
1B
100
AcDbEntity
 67
     1
  8
Visible Edges
  6
Continuous
 62
     7
370
    50
100
AcDbLine
 10
2805.021423423383
 20
585.87032600059
 30
0.0
 11
2805.021423423383
 21
604.92032600059
 31
0.0
  0
LINE
  5
E6
330
1B
100
AcDbEntity
 67
     1
  8
Visible Edges
  6
Continuous
 62
     7
370
    50
100
AcDbLine
 10
3547.971423423383
 20
585.8703260005902
 30
0.0
 11
2805.021423423383
 21
585.87032600059
 31
0.0
  0
LINE
  5
E8
330
1B
100
AcDbEntity
 67
     1
  8
Visible Edges
  6
Continuous
 62
     7
370
    50
100
AcDbLine
 10
3547.971423423383
 20
604.92032600059
 30
0.0
 11
3547.971423423383
 21
585.8703260005902
 31
0.0
  0
LINE
  5
EA
330
1B
100
AcDbEntity
 67
     1
  8
Visible Edges
  6
Continuous
 62
     7
370
    50
100
AcDbLine
 10
3547.971423423383
 20
604.92032600059
 30
0.0
 11
3500.346423423383
 21
604.92032600059
 31
0.0
  0
LINE
  5
EC
330
1B
100
AcDbEntity
 67
     1
  8
Visible Edges
  6
Continuous
 62
     7
370
    50
100
AcDbLine
 10
3500.346423423383
 20
604.92032600059
 30
0.0
 11
3500.346423423383
 21
623.97032600059
 31
0.0
  0
LINE
  5
EE
330
1B
100
AcDbEntity
 67
     1
  8
Visible Edges
  6
Continuous
 62
     7
370
    50
100
AcDbLine
 10
3500.346423423383
 20
623.97032600059
 30
0.0
 11
3547.971423423383
 21
623.97032600059
 31
0.0
  0
LINE
  5
F0
330
1B
100
AcDbEntity
 67
     1
  8
Visible Edges
  6
Continuous
 62
     7
370
    50
100
AcDbLine
 10
3547.971423423383
 20
643.02032600059
 30
0.0
 11
3547.971423423383
 21
623.97032600059
 31
0.0
  0
ENDSEC
  0
SECTION
  2
OBJECTS
  0
DICTIONARY
  5
C
330
0
100
AcDbDictionary
281
     1
  3
ACAD_GROUP
350
D
  3
ACAD_LAYOUT
350
1A
  3
ACAD_MLINESTYLE
350
17
  3
ACAD_PLOTSETTINGS
350
19
  3
ACAD_PLOTSTYLENAME
350
E
  3
AcDbVariableDictionary
350
F7
  3
DWGPROPS
350
F6
  0
DICTIONARY
  5
D
102
{ACAD_REACTORS
330
C
102
}
330
C
100
AcDbDictionary
281
     1
  0
DICTIONARY
  5
1A
102
{ACAD_REACTORS
330
C
102
}
330
C
100
AcDbDictionary
281
     1
  3
Layout1
350
1E
  3
Layout2
350
26
  3
Model
350
22
  0
DICTIONARY
  5
17
102
{ACAD_REACTORS
330
C
102
}
330
C
100
AcDbDictionary
281
     1
  3
Standard
350
18
  0
DICTIONARY
  5
19
102
{ACAD_REACTORS
330
C
102
}
330
C
100
AcDbDictionary
281
     1
  0
ACDBDICTIONARYWDFLT
  5
E
102
{ACAD_REACTORS
330
C
102
}
330
C
100
AcDbDictionary
281
     1
  3
Normal
350
F
100
AcDbDictionaryWithDefault
340
F
  0
DICTIONARY
  5
F7
102
{ACAD_REACTORS
330
C
102
}
330
C
100
AcDbDictionary
281
     1
  3
DIMASSOC
350
F9
  3
HIDETEXT
350
F8
  0
XRECORD
  5
F6
102
{ACAD_REACTORS
330
C
102
}
330
C
100
AcDbXrecord
280
     1
  1
DWGPROPS COOKIE
  2

  3

  4
Administrator
  6

  7

  8

  9

300
=
301
=
302
=
303
=
304
=
305
=
306
=
307
=
308
=
309
=
 40
0.0000064930555556
 41
2454185.004578148
 42
2454185.004578148
  1

 90
        0
  0
LAYOUT
  5
1E
102
{ACAD_REACTORS
330
1A
102
}
330
1A
100
AcDbPlotSettings
  1

  2

  4

  6

 40
0.0
 41
0.0
 42
0.0
 43
0.0
 44
0.0
 45
0.0
 46
0.0
 47
0.0
 48
0.0
 49
0.0
140
0.0
141
0.0
142
1.0
143
1.0
 70
   688
 72
     0
 73
     0
 74
     5
  7

 75
    16
147
1.0
148
0.0
149
0.0
100
AcDbLayout
  1
Layout1
 70
     1
 71
     1
 10
0.0
 20
0.0
 11
709.676
 21
548.3859999999999
 12
0.0
 22
0.0
 32
0.0
 14
0.0
 24
0.0
 34
0.0
 15
709.676
 25
548.3859999999999
 35
0.0
146
0.0
 13
0.0
 23
0.0
 33
0.0
 16
1.0
 26
0.0
 36
0.0
 17
0.0
 27
1.0
 37
0.0
 76
     0
330
1B
  0
LAYOUT
  5
26
102
{ACAD_REACTORS
330
1A
102
}
330
1A
100
AcDbPlotSettings
  1

  2

  4

  6

 40
0.0
 41
0.0
 42
0.0
 43
0.0
 44
0.0
 45
0.0
 46
0.0
 47
0.0
 48
0.0
 49
0.0
140
0.0
141
0.0
142
1.0
143
1.0
 70
   688
 72
     0
 73
     0
 74
     5
  7

 75
    16
147
1.0
148
0.0
149
0.0
100
AcDbLayout
  1
Layout2
 70
     1
 71
     2
 10
0.0
 20
0.0
 11
12.0
 21
9.0
 12
0.0
 22
0.0
 32
0.0
 14
0.0
 24
0.0
 34
0.0
 15
0.0
 25
0.0
 35
0.0
146
0.0
 13
0.0
 23
0.0
 33
0.0
 16
1.0
 26
0.0
 36
0.0
 17
0.0
 27
1.0
 37
0.0
 76
     0
330
23
  0
LAYOUT
  5
22
102
{ACAD_REACTORS
330
1A
102
}
330
1A
100
AcDbPlotSettings
  1

  2

  4

  6

 40
0.0
 41
0.0
 42
0.0
 43
0.0
 44
0.0
 45
0.0
 46
0.0
 47
0.0
 48
0.0
 49
0.0
140
0.0
141
0.0
142
1.0
143
1.0
 70
  1712
 72
     0
 73
     0
 74
     0
  7

 75
     0
147
1.0
148
0.0
149
0.0
100
AcDbLayout
  1
Model
 70
     1
 71
     0
 10
0.0
 20
0.0
 11
12.0
 21
9.0
 12
0.0
 22
0.0
 32
0.0
 14
0.0
 24
0.0
 34
0.0
 15
0.0
 25
0.0
 35
0.0
146
0.0
 13
0.0
 23
0.0
 33
0.0
 16
1.0
 26
0.0
 36
0.0
 17
0.0
 27
1.0
 37
0.0
 76
     0
330
1F
  0
MLINESTYLE
  5
18
102
{ACAD_REACTORS
330
17
102
}
330
17
100
AcDbMlineStyle
  2
STANDARD
 70
     0
  3

 62
   256
 51
90.0
 52
90.0
 71
     2
 49
0.5
 62
   256
  6
BYLAYER
 49
-0.5
 62
   256
  6
BYLAYER
  0
ACDBPLACEHOLDER
  5
F
102
{ACAD_REACTORS
330
E
102
}
330
E
  0
DICTIONARYVAR
  5
F9
102
{ACAD_REACTORS
330
F7
102
}
330
F7
100
DictionaryVariables
280
     0
  1
2
  0
DICTIONARYVAR
  5
F8
102
{ACAD_REACTORS
330
F7
102
}
330
F7
100
DictionaryVariables
280
     0
  1
1
  0
ENDSEC
  0
EOF
