 0
SECTION
 2
ENTITIES
  0
LINE
 8
Layer0
10
1.73782809526992
20
1.6225338291224
30
0.0
11
0.25
21
1.6225338291224
31
0.0
  0
LINE
 8
Layer0
10
2.59326476335292
20
0.625000000000003
30
0.0
11
2.59326476335292
21
1.57584129605456
31
0.0
  0
LINE
 8
Layer0
10
0.669569939336634
20
2.06003382912241
30
0.0
11
0.66718474717687
21
2.07815116227958
31
0.0
  0
LINE
 8
Layer0
10
0.664880828469091
20
0.205000000000003
30
0.0
11
0.658126080598282
21
0.221307403920121
31
0.0
  0
LINE
 8
Layer0
10
0.66718474717687
20
2.07815116227958
30
0.0
11
0.660191717601545
21
2.09503382912241
31
0.0
  0
LINE
 8
Layer0
10
2.59326476335292
20
0.625000000000003
30
0.0
11
1.10543666808301
21
0.625000000000003
31
0.0
  0
LINE
 8
Layer0
10
0.25
20
0.67169253306785
30
0.0
11
0.25
21
1.6225338291224
31
0.0
  0
LINE
 8
Layer0
10
1.73782809526992
20
1.6225338291224
30
0.0
11
0.25
21
0.67169253306785
31
0.0
  0
LINE
 8
Layer0
10
2.53690561032144
20
2.04324297276854
30
0.0
11
2.54338663896174
21
2.027596385527
31
0.0
  0
LINE
 8
Layer0
10
0.658126080598282
20
0.221307403920121
30
0.0
11
0.647380828469091
21
0.235310889132459
31
0.0
  0
LINE
 8
Layer0
10
0.66718474717687
20
0.187500000000003
30
0.0
11
0.664880828469091
21
0.205000000000003
31
0.0
  0
LINE
 8
Layer0
10
2.53469505214582
20
2.06003382912241
30
0.0
11
2.53690561032144
21
2.04324297276854
31
0.0
  0
LINE
 8
Layer0
10
0.647380828469091
20
0.235310889132459
30
0.0
11
0.633377343256752
21
0.246056141261651
31
0.0
  0
LINE
 8
Layer0
10
0.633377343256752
20
0.246056141261651
30
0.0
11
0.617069939336634
21
0.252810889132459
31
0.0
  0
LINE
 8
Layer0
10
0.617069939336634
20
0.252810889132459
30
0.0
11
0.599569939336634
21
0.255114807840239
31
0.0
  0
LINE
 8
Layer0
10
0.599569939336634
20
0.255114807840239
30
0.0
11
0.582069939336634
21
0.252810889132459
31
0.0
  0
LINE
 8
Layer0
10
0.582069939336634
20
0.252810889132459
30
0.0
11
0.565762535416516
21
0.246056141261651
31
0.0
  0
LINE
 8
Layer0
10
0.565762535416516
20
0.246056141261651
30
0.0
11
0.551759050204177
21
0.235310889132459
31
0.0
  0
LINE
 8
Layer0
10
0.551759050204177
20
0.235310889132459
30
0.0
11
0.541013798074986
21
0.221307403920121
31
0.0
  0
LINE
 8
Layer0
10
0.541013798074986
20
0.221307403920121
30
0.0
11
0.534259050204177
21
0.205000000000003
31
0.0
  0
LINE
 8
Layer0
10
0.534259050204177
20
0.205000000000003
30
0.0
11
0.531955131496398
21
0.187500000000003
31
0.0
  0
LINE
 8
Layer0
10
0.531955131496398
20
0.187500000000003
30
0.0
11
0.534259050204177
21
0.170000000000002
31
0.0
  0
LINE
 8
Layer0
10
0.534259050204177
20
0.170000000000002
30
0.0
11
0.541013798074986
21
0.153692596079885
31
0.0
  0
LINE
 8
Layer0
10
0.541013798074986
20
0.153692596079885
30
0.0
11
0.551759050204177
21
0.139689110867546
31
0.0
  0
LINE
 8
Layer0
10
0.551759050204177
20
0.139689110867546
30
0.0
11
0.565762535416516
21
0.128943858738355
31
0.0
  0
LINE
 8
Layer0
10
0.565762535416516
20
0.128943858738355
30
0.0
11
0.582069939336634
21
0.122189110867546
31
0.0
  0
LINE
 8
Layer0
10
0.582069939336634
20
0.122189110867546
30
0.0
11
0.599569939336634
21
0.119885192159766
31
0.0
  0
LINE
 8
Layer0
10
0.599569939336634
20
0.119885192159766
30
0.0
11
0.617069939336634
21
0.122189110867546
31
0.0
  0
LINE
 8
Layer0
10
0.617069939336634
20
0.122189110867546
30
0.0
11
0.633377343256752
21
0.128943858738355
31
0.0
  0
LINE
 8
Layer0
10
0.633377343256752
20
0.128943858738355
30
0.0
11
0.647380828469091
21
0.139689110867546
31
0.0
  0
LINE
 8
Layer0
10
0.647380828469091
20
0.139689110867546
30
0.0
11
0.658126080598282
21
0.153692596079885
31
0.0
  0
LINE
 8
Layer0
10
0.658126080598282
20
0.153692596079885
30
0.0
11
0.664880828469091
21
0.170000000000002
31
0.0
  0
LINE
 8
Layer0
10
0.664880828469091
20
0.170000000000002
30
0.0
11
0.66718474717687
21
0.187500000000003
31
0.0
  0
LINE
 8
Layer0
10
0.660191717601545
20
2.09503382912241
30
0.0
11
0.649067414019694
21
2.10953130380546
31
0.0
  0
LINE
 8
Layer0
10
0.649067414019694
20
2.10953130380546
30
0.0
11
0.634569939336634
21
2.12065560738732
31
0.0
  0
LINE
 8
Layer0
10
0.634569939336634
20
2.12065560738732
30
0.0
11
0.617687272493813
21
2.12764863696264
31
0.0
  0
LINE
 8
Layer0
10
0.617687272493813
20
2.12764863696264
30
0.0
11
0.599569939336634
21
2.13003382912241
31
0.0
  0
LINE
 8
Layer0
10
0.599569939336634
20
2.13003382912241
30
0.0
11
0.581452606179459
21
2.12764863696264
31
0.0
  0
LINE
 8
Layer0
10
0.581452606179459
20
2.12764863696264
30
0.0
11
0.564569939336634
21
2.12065560738732
31
0.0
  0
LINE
 8
Layer0
10
0.564569939336634
20
2.12065560738732
30
0.0
11
0.550072464653576
21
2.10953130380546
31
0.0
  0
LINE
 8
Layer0
10
0.550072464653576
20
2.10953130380546
30
0.0
11
0.538948161071724
21
2.09503382912241
31
0.0
  0
LINE
 8
Layer0
10
0.538948161071724
20
2.09503382912241
30
0.0
11
0.5319551314964
21
2.07815116227958
31
0.0
  0
LINE
 8
Layer0
10
0.5319551314964
20
2.07815116227958
30
0.0
11
0.529569939336634
21
2.06003382912241
31
0.0
  0
LINE
 8
Layer0
10
0.529569939336634
20
2.06003382912241
30
0.0
11
0.5319551314964
21
2.04191649596523
31
0.0
  0
LINE
 8
Layer0
10
0.5319551314964
20
2.04191649596523
30
0.0
11
0.538948161071724
21
2.02503382912241
31
0.0
  0
LINE
 8
Layer0
10
0.538948161071724
20
2.02503382912241
30
0.0
11
0.550072464653576
21
2.01053635443934
31
0.0
  0
LINE
 8
Layer0
10
0.550072464653576
20
2.01053635443934
30
0.0
11
0.564569939336634
21
1.99941205085749
31
0.0
  0
LINE
 8
Layer0
10
0.564569939336634
20
1.99941205085749
30
0.0
11
0.581452606179459
21
1.99241902128217
31
0.0
  0
LINE
 8
Layer0
10
0.581452606179459
20
1.99241902128217
30
0.0
11
0.599569939336634
21
1.99003382912241
31
0.0
  0
LINE
 8
Layer0
10
0.599569939336634
20
1.99003382912241
30
0.0
11
0.617687272493813
21
1.99241902128217
31
0.0
  0
LINE
 8
Layer0
10
0.617687272493813
20
1.99241902128217
30
0.0
11
0.634569939336634
21
1.99941205085749
31
0.0
  0
LINE
 8
Layer0
10
0.634569939336634
20
1.99941205085749
30
0.0
11
0.649067414019694
21
2.01053635443934
31
0.0
  0
LINE
 8
Layer0
10
0.649067414019694
20
2.01053635443934
30
0.0
11
0.660191717601545
21
2.02503382912241
31
0.0
  0
LINE
 8
Layer0
10
0.660191717601545
20
2.02503382912241
30
0.0
11
0.66718474717687
21
2.04191649596523
31
0.0
  0
LINE
 8
Layer0
10
0.66718474717687
20
2.04191649596523
30
0.0
11
0.669569939336634
21
2.06003382912241
31
0.0
  0
LINE
 8
Layer0
10
2.54338663896174
20
2.027596385527
30
0.0
11
2.5536964666753
21
2.01416035646107
31
0.0
  0
LINE
 8
Layer0
10
2.5536964666753
20
2.01416035646107
30
0.0
11
2.56713249574122
21
2.00385052874751
31
0.0
  0
LINE
 8
Layer0
10
2.56713249574122
20
2.00385052874751
30
0.0
11
2.58277908298277
21
1.9973695001072
31
0.0
  0
LINE
 8
Layer0
10
2.58277908298277
20
1.9973695001072
30
0.0
11
2.59956993933663
21
1.99515894193159
31
0.0
  0
LINE
 8
Layer0
10
2.59956993933663
20
1.99515894193159
30
0.0
11
2.6163607956905
21
1.9973695001072
31
0.0
  0
LINE
 8
Layer0
10
2.6163607956905
20
1.9973695001072
30
0.0
11
2.63200738293204
21
2.00385052874751
31
0.0
  0
LINE
 8
Layer0
10
2.63200738293204
20
2.00385052874751
30
0.0
11
2.64544341199798
21
2.01416035646107
31
0.0
  0
LINE
 8
Layer0
10
2.64544341199798
20
2.01416035646107
30
0.0
11
2.65575323971153
21
2.027596385527
31
0.0
  0
LINE
 8
Layer0
10
2.65575323971153
20
2.027596385527
30
0.0
11
2.66223426835184
21
2.04324297276854
31
0.0
  0
LINE
 8
Layer0
10
2.66223426835184
20
2.04324297276854
30
0.0
11
2.66444482652745
21
2.06003382912241
31
0.0
  0
LINE
 8
Layer0
10
2.66444482652745
20
2.06003382912241
30
0.0
11
2.66223426835184
21
2.07682468547627
31
0.0
  0
LINE
 8
Layer0
10
2.66223426835184
20
2.07682468547627
30
0.0
11
2.65575323971153
21
2.09247127271781
31
0.0
  0
LINE
 8
Layer0
10
2.65575323971153
20
2.09247127271781
30
0.0
11
2.64544341199798
21
2.10590730178375
31
0.0
  0
LINE
 8
Layer0
10
2.64544341199798
20
2.10590730178375
30
0.0
11
2.63200738293204
21
2.1162171294973
31
0.0
  0
LINE
 8
Layer0
10
2.63200738293204
20
2.1162171294973
30
0.0
11
2.6163607956905
21
2.12269815813761
31
0.0
  0
LINE
 8
Layer0
10
2.6163607956905
20
2.12269815813761
30
0.0
11
2.59956993933663
21
2.12490871631322
31
0.0
  0
LINE
 8
Layer0
10
2.59956993933663
20
2.12490871631322
30
0.0
11
2.58277908298277
21
2.12269815813761
31
0.0
  0
LINE
 8
Layer0
10
2.58277908298277
20
2.12269815813761
30
0.0
11
2.56713249574122
21
2.1162171294973
31
0.0
  0
LINE
 8
Layer0
10
2.56713249574122
20
2.1162171294973
30
0.0
11
2.5536964666753
21
2.10590730178375
31
0.0
  0
LINE
 8
Layer0
10
2.5536964666753
20
2.10590730178375
30
0.0
11
2.54338663896174
21
2.09247127271781
31
0.0
  0
LINE
 8
Layer0
10
2.54338663896174
20
2.09247127271781
30
0.0
11
2.53690561032144
21
2.07682468547627
31
0.0
  0
LINE
 8
Layer0
10
2.53690561032144
20
2.07682468547627
30
0.0
11
2.53469505214582
21
2.06003382912241
31
0.0
  0
LINE
 8
Layer0
10
1.10543666808301
20
0.625000000000003
30
0.0
11
2.59326476335292
21
1.57584129605456
31
0.0
  0
LINE
 8
Layer0
10
2.63283985740713
20
0.249088250109765
30
0.0
11
2.64764642452239
21
0.238378792951329
31
0.0
  0
LINE
 8
Layer0
10
2.56630002126614
20
0.125911749890238
30
0.0
11
2.55149345415088
21
0.136621207048676
31
0.0
  0
LINE
 8
Layer0
10
2.6157660003565
20
0.255600569802616
30
0.0
11
2.63283985740713
21
0.249088250109765
31
0.0
  0
LINE
 8
Layer0
10
2.58337387831677
20
0.119399430197386
30
0.0
11
2.56630002126614
21
0.125911749890238
31
0.0
  0
LINE
 8
Layer0
10
2.59758840851263
20
0.257471948204933
30
0.0
11
2.6157660003565
21
0.255600569802616
31
0.0
  0
LINE
 8
Layer0
10
2.60155147016065
20
0.117528051795071
30
0.0
11
2.58337387831677
21
0.119399430197386
31
0.0
  0
LINE
 8
Layer0
10
2.55149345415088
20
0.136621207048676
30
0.0
11
2.53996322005088
21
0.150797969865564
31
0.0
  0
LINE
 8
Layer0
10
2.61959402395349
20
0.12042514602881
30
0.0
11
2.60155147016065
21
0.117528051795071
31
0.0
  0
LINE
 8
Layer0
10
2.5628679092022
20
0.247106719285756
30
0.0
11
2.57954585471977
21
0.254574853971195
31
0.0
  0
LINE
 8
Layer0
10
2.63627196947107
20
0.127893280714246
30
0.0
11
2.61959402395349
21
0.12042514602881
31
0.0
  0
LINE
 8
Layer0
10
2.54869114638531
20
0.235576485185756
30
0.0
11
2.5628679092022
21
0.247106719285756
31
0.0
  0
LINE
 8
Layer0
10
2.65044873228796
20
0.139423514814248
30
0.0
11
2.63627196947107
21
0.127893280714246
31
0.0
  0
LINE
 8
Layer0
10
2.53798168922687
20
0.220769918070494
30
0.0
11
2.54869114638531
21
0.235576485185756
31
0.0
  0
LINE
 8
Layer0
10
2.6611581894464
20
0.154230081929509
30
0.0
11
2.65044873228796
21
0.139423514814248
31
0.0
  0
LINE
 8
Layer0
10
2.53146936953402
20
0.203696061019868
30
0.0
11
2.53798168922687
21
0.220769918070494
31
0.0
  0
LINE
 8
Layer0
10
2.66767050913925
20
0.171303938980137
30
0.0
11
2.6611581894464
21
0.154230081929509
31
0.0
  0
LINE
 8
Layer0
10
2.57954585471977
20
0.254574853971195
30
0.0
11
2.59758840851263
21
0.257471948204933
31
0.0
  0
LINE
 8
Layer0
10
2.66954188754156
20
0.18948153082401
30
0.0
11
2.66767050913925
21
0.171303938980137
31
0.0
  0
LINE
 8
Layer0
10
2.53249508536544
20
0.167475915383142
30
0.0
11
2.5295979911317
21
0.185518469175993
31
0.0
  0
LINE
 8
Layer0
10
2.66664479330783
20
0.207524084616863
30
0.0
11
2.66954188754156
21
0.18948153082401
31
0.0
  0
LINE
 8
Layer0
10
2.5295979911317
20
0.185518469175993
30
0.0
11
2.53146936953402
21
0.203696061019868
31
0.0
  0
LINE
 8
Layer0
10
2.53996322005088
20
0.150797969865564
30
0.0
11
2.53249508536544
21
0.167475915383142
31
0.0
  0
LINE
 8
Layer0
10
2.65917665862239
20
0.224202030134442
30
0.0
11
2.66664479330783
21
0.207524084616863
31
0.0
  0
LINE
 8
Layer0
10
2.64764642452239
20
0.238378792951329
30
0.0
11
2.65917665862239
21
0.224202030134442
31
0.0
  0
LINE
 8
Layer0
10
0.0
20
0.1875
30
0.0
11
0.0
21
2.06003382912241
31
0.0
  0
LINE
 8
Layer0
10
0.0251202367904177
20
0.0937500000000004
30
0.0
11
0.00638890757080013
21
0.138971429043278
31
0.0
  0
LINE
 8
Layer0
10
0.0549174785275222
20
0.0549174785275226
30
0.0
11
0.0251202367904177
21
0.0937500000000004
31
0.0
  0
LINE
 8
Layer0
10
0.09375
20
0.0251202367904182
30
0.0
11
0.0549174785275222
21
0.0549174785275226
31
0.0
  0
LINE
 8
Layer0
10
0.1875
20
4.44089209850063e-016
30
0.0
11
0.138971429043277
21
0.00638890757080013
31
0.0
  0
LINE
 8
Layer0
10
0.138971429043277
20
0.00638890757080013
30
0.0
11
0.09375
21
0.0251202367904182
31
0.0
  0
LINE
 8
Layer0
10
0.00638890757080013
20
0.138971429043278
30
0.0
11
0.0
21
0.1875
31
0.0
  0
LINE
 8
Layer0
10
1.02330908878562
20
0.0
30
0.0
11
0.1875
21
4.44089209850063e-016
31
0.0
  0
LINE
 8
Layer0
10
1.07183765974234
20
0.00638890757079968
30
0.0
11
1.02330908878562
21
0.0
31
0.0
  0
LINE
 8
Layer0
10
1.11705908878562
20
0.0251202367904177
30
0.0
11
1.07183765974234
21
0.00638890757079968
31
0.0
  0
LINE
 8
Layer0
10
1.1558916102581
20
0.0549174785275222
30
0.0
11
1.11705908878562
21
0.0251202367904177
31
0.0
  0
LINE
 8
Layer0
10
1.1856888519952
20
0.09375
30
0.0
11
1.1558916102581
21
0.0549174785275222
31
0.0
  0
LINE
 8
Layer0
10
1.20442018121482
20
0.138971429043278
30
0.0
11
1.1856888519952
21
0.09375
31
0.0
  0
LINE
 8
Layer0
10
1.21719799635642
20
0.236028570956725
30
0.0
11
1.20442018121482
21
0.138971429043278
31
0.0
  0
LINE
 8
Layer0
10
1.39830908878562
20
0.375000000000003
30
0.0
11
1.72963534015119
21
0.375000000000003
31
0.0
  0
LINE
 8
Layer0
10
1.23592932557604
20
0.281250000000003
30
0.0
11
1.21719799635642
21
0.236028570956725
31
0.0
  0
LINE
 8
Layer0
10
1.26572656731314
20
0.320082521472481
30
0.0
11
1.23592932557604
21
0.281250000000003
31
0.0
  0
LINE
 8
Layer0
10
1.30455908878562
20
0.349879763209585
30
0.0
11
1.26572656731314
21
0.320082521472481
31
0.0
  0
LINE
 8
Layer0
10
1.3497805178289
20
0.368611092429203
30
0.0
11
1.30455908878562
21
0.349879763209585
31
0.0
  0
LINE
 8
Layer0
10
1.39830908878562
20
0.375000000000003
30
0.0
11
1.3497805178289
21
0.368611092429203
31
0.0
  0
LINE
 8
Layer0
10
1.02330908878562
20
2.24753382912241
30
0.0
11
0.1875
21
2.24753382912241
31
0.0
  0
LINE
 8
Layer0
10
1.07183765974234
20
2.24114492155161
30
0.0
11
1.11705908878562
21
2.22241359233199
31
0.0
  0
LINE
 8
Layer0
10
1.20442018121482
20
2.10856240007913
30
0.0
11
1.21719799635642
21
2.01150525816568
31
0.0
  0
LINE
 8
Layer0
10
1.1856888519952
20
2.15378382912241
30
0.0
11
1.20442018121482
21
2.10856240007913
31
0.0
  0
LINE
 8
Layer0
10
1.11705908878562
20
2.22241359233199
30
0.0
11
1.1558916102581
21
2.19261635059488
31
0.0
  0
LINE
 8
Layer0
10
1.1558916102581
20
2.19261635059488
30
0.0
11
1.1856888519952
21
2.15378382912241
31
0.0
  0
LINE
 8
Layer0
10
1.02330908878562
20
2.24753382912241
30
0.0
11
1.07183765974234
21
2.24114492155161
31
0.0
  0
LINE
 8
Layer0
10
2.96187585578212
20
2.10856240007913
30
0.0
11
2.96826476335292
21
2.06003382912241
31
0.0
  0
LINE
 8
Layer0
10
2.9431445265625
20
2.15378382912241
30
0.0
11
2.96187585578212
21
2.10856240007913
31
0.0
  0
LINE
 8
Layer0
10
2.9133472848254
20
2.19261635059488
30
0.0
11
2.9431445265625
21
2.15378382912241
31
0.0
  0
LINE
 8
Layer0
10
2.87451476335292
20
2.22241359233199
30
0.0
11
2.9133472848254
21
2.19261635059488
31
0.0
  0
LINE
 8
Layer0
10
2.82929333430964
20
2.24114492155161
30
0.0
11
2.87451476335292
21
2.22241359233199
31
0.0
  0
LINE
 8
Layer0
10
2.78076476335292
20
2.24753382912241
30
0.0
11
2.82929333430964
21
2.24114492155161
31
0.0
  0
LINE
 8
Layer0
10
2.96826476335292
20
0.187500000000002
30
0.0
11
2.96826476335292
21
2.06003382912241
31
0.0
  0
LINE
 8
Layer0
10
2.78076476335292
20
1.77635683940025e-015
30
0.0
11
2.10463534015119
21
8.88178419700125e-016
31
0.0
  0
LINE
 8
Layer0
10
2.96187585578212
20
0.13897142904328
30
0.0
11
2.96826476335292
21
0.187500000000002
31
0.0
  0
LINE
 8
Layer0
10
2.9431445265625
20
0.0937500000000022
30
0.0
11
2.96187585578212
21
0.13897142904328
31
0.0
  0
LINE
 8
Layer0
10
2.9133472848254
20
0.0549174785275244
30
0.0
11
2.9431445265625
21
0.0937500000000022
31
0.0
  0
LINE
 8
Layer0
10
2.87451476335292
20
0.02512023679042
30
0.0
11
2.9133472848254
21
0.0549174785275244
31
0.0
  0
LINE
 8
Layer0
10
2.82929333430964
20
0.00638890757080146
30
0.0
11
2.87451476335292
21
0.02512023679042
31
0.0
  0
LINE
 8
Layer0
10
2.78076476335292
20
1.77635683940025e-015
30
0.0
11
2.82929333430964
21
0.00638890757080146
31
0.0
  0
LINE
 8
Layer0
10
1.92352424772199
20
0.138971429043278
30
0.0
11
1.91074643258039
21
0.236028570956725
31
0.0
  0
LINE
 8
Layer0
10
1.9422555769416
20
0.0937500000000009
30
0.0
11
1.92352424772199
21
0.138971429043278
31
0.0
  0
LINE
 8
Layer0
10
1.97205281867871
20
0.054917478527523
30
0.0
11
1.9422555769416
21
0.0937500000000009
31
0.0
  0
LINE
 8
Layer0
10
2.01088534015119
20
0.0251202367904186
30
0.0
11
1.97205281867871
21
0.054917478527523
31
0.0
  0
LINE
 8
Layer0
10
2.05610676919446
20
0.00638890757080057
30
0.0
11
2.01088534015119
21
0.0251202367904186
31
0.0
  0
LINE
 8
Layer0
10
2.10463534015119
20
8.88178419700125e-016
30
0.0
11
2.05610676919446
21
0.00638890757080057
31
0.0
  0
LINE
 8
Layer0
10
1.91074643258039
20
0.236028570956725
30
0.0
11
1.89201510336077
21
0.281250000000003
31
0.0
  0
LINE
 8
Layer0
10
1.89201510336077
20
0.281250000000003
30
0.0
11
1.86221786162366
21
0.320082521472481
31
0.0
  0
LINE
 8
Layer0
10
1.86221786162366
20
0.320082521472481
30
0.0
11
1.82338534015119
21
0.349879763209585
31
0.0
  0
LINE
 8
Layer0
10
1.82338534015119
20
0.349879763209585
30
0.0
11
1.77816391110791
21
0.368611092429203
31
0.0
  0
LINE
 8
Layer0
10
1.77816391110791
20
0.368611092429203
30
0.0
11
1.72963534015119
21
0.375000000000003
31
0.0
  0
LINE
 8
Layer0
10
2.10463534015119
20
2.24753382912241
30
0.0
11
2.78076476335292
21
2.24753382912241
31
0.0
  0
LINE
 8
Layer0
10
2.05610676919446
20
2.24114492155161
30
0.0
11
2.10463534015119
21
2.24753382912241
31
0.0
  0
LINE
 8
Layer0
10
2.01088534015119
20
2.22241359233199
30
0.0
11
2.05610676919446
21
2.24114492155161
31
0.0
  0
LINE
 8
Layer0
10
1.97205281867871
20
2.19261635059488
30
0.0
11
2.01088534015119
21
2.22241359233199
31
0.0
  0
LINE
 8
Layer0
10
1.9422555769416
20
2.15378382912241
30
0.0
11
1.97205281867871
21
2.19261635059488
31
0.0
  0
LINE
 8
Layer0
10
1.92352424772199
20
2.10856240007913
30
0.0
11
1.9422555769416
21
2.15378382912241
31
0.0
  0
LINE
 8
Layer0
10
0.138971429043277
20
2.24114492155161
30
0.0
11
0.1875
21
2.24753382912241
31
0.0
  0
LINE
 8
Layer0
10
0.09375
20
2.22241359233199
30
0.0
11
0.138971429043277
21
2.24114492155161
31
0.0
  0
LINE
 8
Layer0
10
0.0549174785275222
20
2.19261635059488
30
0.0
11
0.09375
21
2.22241359233199
31
0.0
  0
LINE
 8
Layer0
10
0.0251202367904177
20
2.15378382912241
30
0.0
11
0.0549174785275222
21
2.19261635059488
31
0.0
  0
LINE
 8
Layer0
10
0.00638890757080013
20
2.10856240007913
30
0.0
11
0.0251202367904177
21
2.15378382912241
31
0.0
  0
LINE
 8
Layer0
10
0.0
20
2.06003382912241
30
0.0
11
0.00638890757080013
21
2.10856240007913
31
0.0
  0
LINE
 8
Layer0
10
1.91074643258039
20
2.01150525816568
30
0.0
11
1.92352424772199
21
2.10856240007913
31
0.0
  0
LINE
 8
Layer0
10
1.72963534015119
20
1.8725338291224
30
0.0
11
1.77816391110791
21
1.8789227366932
31
0.0
  0
LINE
 8
Layer0
10
1.77816391110791
20
1.8789227366932
30
0.0
11
1.82338534015119
21
1.89765406591282
31
0.0
  0
LINE
 8
Layer0
10
1.82338534015119
20
1.89765406591282
30
0.0
11
1.86221786162366
21
1.92745130764993
31
0.0
  0
LINE
 8
Layer0
10
1.86221786162366
20
1.92745130764993
30
0.0
11
1.89201510336077
21
1.9662838291224
31
0.0
  0
LINE
 8
Layer0
10
1.89201510336077
20
1.9662838291224
30
0.0
11
1.91074643258039
21
2.01150525816568
31
0.0
  0
LINE
 8
Layer0
10
1.39830908878562
20
1.8725338291224
30
0.0
11
1.72963534015119
21
1.8725338291224
31
0.0
  0
LINE
 8
Layer0
10
1.21719799635642
20
2.01150525816568
30
0.0
11
1.23592932557604
21
1.9662838291224
31
0.0
  0
LINE
 8
Layer0
10
1.23592932557604
20
1.9662838291224
30
0.0
11
1.26572656731314
21
1.92745130764993
31
0.0
  0
LINE
 8
Layer0
10
1.26572656731314
20
1.92745130764993
30
0.0
11
1.30455908878562
21
1.89765406591282
31
0.0
  0
LINE
 8
Layer0
10
1.30455908878562
20
1.89765406591282
30
0.0
11
1.3497805178289
21
1.8789227366932
31
0.0
  0
LINE
 8
Layer0
10
1.3497805178289
20
1.8789227366932
30
0.0
11
1.39830908878562
21
1.8725338291224
31
0.0
 0
ENDSEC
 0
EOF
