0
SECTION
2
HEADER
9
$INSUNITS
70
4
9
$ACADVER
1
AC1014
9
$HANDSEED
5
FFFF
0
ENDSEC
0
SECTION
2
TABLES
0
TABLE
2
VPORT
5
8
100
AcDbSymbolTable
0
ENDTAB
0
TABLE
2
LTYPE
5
5
100
AcDbSymbolTable
0
LTYPE
5
14
100
AcDbSymbolTableRecord
100
AcDbLinetypeTableRecord
2
BYBLOCK
70
0
0
LTYPE
5
15
100
AcDbSymbolTableRecord
100
AcDbLinetypeTableRecord
2
BYLAYER
70
0
0
ENDTAB
0
TABLE
2
LAYER
5
2
100
AcDbSymbolTable
70
2
0
LAYER
5
50
100
AcDbSymbolTableRecord
100
AcDbLayerTableRecord
2
0
70
0
6
CONTINUOUS
0
ENDTAB
0
TABLE
2
STYLE
5
3
100
AcDbSymbolTable
70
1
0
STYLE
5
11
100
AcDbSymbolTableRecord
100
AcDbTextStyleTableRecord
2
STANDARD
70
0
0
ENDTAB
0
TABLE
2
VIEW
5
6
100
AcDbSymbolTable
70
0
0
ENDTAB
0
TABLE
2
UCS
5
7
100
AcDbSymbolTable
70
0
0
ENDTAB
0
TABLE
2
APPID
5
9
100
AcDbSymbolTable
70
2
0
APPID
5
12
100
AcDbSymbolTableRecord
100
AcDbRegAppTableRecord
2
ACAD
70
0
0
ENDTAB
0
TABLE
2
DIMSTYLE
5
A
100
AcDbSymbolTable
70
1
0
ENDTAB
0
TABLE
2
BLOCK_RECORD
5
1
100
AcDbSymbolTable
70
1
0
BLOCK_RECORD
5
1F
100
AcDbSymbolTableRecord
100
AcDbBlockTableRecord
2
*MODEL_SPACE
0
BLOCK_RECORD
5
1B
100
AcDbSymbolTableRecord
100
AcDbBlockTableRecord
2
*PAPER_SPACE
0
ENDTAB
0
ENDSEC
0
SECTION
2
BLOCKS
0
BLOCK
5
20
100
AcDbEntity
100
AcDbBlockBegin
2
*MODEL_SPACE
0
ENDBLK
5
21
100
AcDbEntity
100
AcDbBlockEnd
0
BLOCK
5
1C
100
AcDbEntity
100
AcDbBlockBegin
2
*PAPER_SPACE
0
ENDBLK
5
1D
100
AcDbEntity
100
AcDbBlockEnd
0
ENDSEC
0
SECTION
2
ENTITIES
0
LINE
5
100
100
AcDbEntity
8
0
100
AcDbLine
10
6.2696645573876566
20
-143.80343952256564
30
0
11
6.2696645573876566
21
-144.6011019286149
31
0
0
LINE
5
101
100
AcDbEntity
8
0
100
AcDbLine
10
6.2696645573876566
20
-144.6011019286149
30
0
11
10.900000000201281
21
-144.6011019286149
31
0
0
LINE
5
102
100
AcDbEntity
8
0
100
AcDbLine
10
10.900000000201281
20
-144.6011019286149
30
0
11
10.900000000145806
21
-141.60110192835302
31
0
0
LINE
5
103
100
AcDbEntity
8
0
100
AcDbLine
10
10.900000000145806
20
-141.60110192835302
30
0
11
8.4000000001458055
21
-141.60110192835378
31
0
0
LINE
5
104
100
AcDbEntity
8
0
100
AcDbLine
10
8.4000000001458055
20
-141.60110192835378
30
0
11
8.4000000001441748
21
-140.30110192836156
31
0
0
LINE
5
105
100
AcDbEntity
8
0
100
AcDbLine
10
8.4000000001441748
20
-140.30110192836156
30
0
11
8.7000000001441755
21
-140.3011019283615
31
0
0
LINE
5
106
100
AcDbEntity
8
0
100
AcDbLine
10
8.7000000001441755
20
-140.3011019283615
30
0
11
8.700000000051709
21
-135.30110192835372
31
0
0
ARC
5
107
100
AcDbEntity
8
0
100
AcDbCircle
10
11.200000000026355
20
-135.30107816755046
30
0
40
2.5000000000875469
100
AcDbArc
50
-0.00054455701762856341
51
180.00054455701763
0
LINE
5
108
100
AcDbEntity
8
0
100
AcDbLine
10
13.700000000000987
20
-135.30110192835099
30
0
11
13.70000000000099
21
-140.30110192836139
31
0
0
LINE
5
109
100
AcDbEntity
8
0
100
AcDbLine
10
13.70000000000099
20
-140.30110192836139
30
0
11
14.000000000000991
21
-140.30110192836139
31
0
0
LINE
5
110
100
AcDbEntity
8
0
100
AcDbLine
10
14.000000000000991
20
-140.30110192836139
30
0
11
14.000000000000812
21
-141.6011019283614
31
0
0
LINE
5
111
100
AcDbEntity
8
0
100
AcDbLine
10
14.000000000000812
20
-141.6011019283614
30
0
11
11.500000000000812
21
-141.601101928378
31
0
0
LINE
5
112
100
AcDbEntity
8
0
100
AcDbLine
10
11.500000000000812
20
-141.601101928378
30
0
11
11.500000000000799
21
-144.6011019286149
31
0
0
LINE
5
113
100
AcDbEntity
8
0
100
AcDbLine
10
11.500000000000799
20
-144.6011019286149
30
0
11
16.000000000000004
21
-144.6011019286149
31
0
0
LINE
5
114
100
AcDbEntity
8
0
100
AcDbLine
10
16.000000000000004
20
-144.6011019286149
30
0
11
16.000000000000004
21
-131.66052004436045
31
0
0
SPLINE
5
115
100
AcDbEntity
8
0
100
AcDbSpline
70
1064
71
3
72
8
73
4
74
0
42
0.000000001
43
0.0000000001
44
0.0000000001
40
0.14202994711198666
40
0.14202994711198666
40
0.14202994711198666
40
0.14202994711198666
40
1
40
1
40
1
40
1
10
15.999999999999478
20
-131.66052004436057
30
0
10
20.112752356095278
20
-130.96574732570713
30
0
10
25.530530448201354
20
-129.47797821957266
30
0
10
32.136363624155983
20
-127.23063291228914
30
0
0
SPLINE
5
116
100
AcDbEntity
8
0
100
AcDbSpline
70
1064
71
3
72
8
73
4
74
0
42
0.000000001
43
0.0000000001
44
0.0000000001
40
0
40
0
40
0
40
0
40
1
40
1
40
1
40
1
10
32.136363624155983
20
-127.23063291228914
30
0
10
36.158030290822659
20
-125.85479957895579
30
0
10
40.946988624155985
20
-123.36771624562246
30
0
10
42.534488624155998
20
-121.83313291228913
30
0
0
SPLINE
5
117
100
AcDbEntity
8
0
100
AcDbSpline
70
1064
71
3
72
8
73
4
74
0
42
0.000000001
43
0.0000000001
44
0.0000000001
40
0
40
0
40
0
40
0
40
1
40
1
40
1
40
1
10
42.534488624155998
20
-121.83313291228913
30
0
10
44.492405290822667
20
-119.95459124562245
30
0
10
44.413030290822661
20
-119.31959124562248
30
0
10
42.058238624155997
20
-117.97021624562245
30
0
0
SPLINE
5
118
100
AcDbEntity
8
0
100
AcDbSpline
70
1064
71
3
72
8
73
4
74
0
42
0.000000001
43
0.0000000001
44
0.0000000001
40
0
40
0
40
0
40
0
40
1
40
1
40
1
40
1
10
42.058238624155997
20
-117.97021624562245
30
0
10
38.406988624156007
20
-115.8800079122891
30
0
10
25.204280290822652
20
-102.99479957895578
30
0
10
22.875946957489319
20
-99.264174578955817
30
0
0
SPLINE
5
119
100
AcDbEntity
8
0
100
AcDbSpline
70
1064
71
3
72
8
73
4
74
0
42
0.000000001
43
0.0000000001
44
0.0000000001
40
0
40
0
40
0
40
0
40
1
40
1
40
1
40
1
10
22.875946957489319
20
-99.264174578955817
30
0
10
22.479071957489325
20
-98.602716245622474
30
0
10
21.39428029082266
20
-97.015216245622469
30
0
10
20.468238624156001
20
-95.745216245622444
30
0
0
SPLINE
5
120
100
AcDbEntity
8
0
100
AcDbSpline
70
1064
71
3
72
8
73
4
74
0
42
0.000000001
43
0.0000000001
44
0.0000000001
40
0
40
0
40
0
40
0
40
1
40
1
40
1
40
1
10
20.468238624156001
20
-95.745216245622444
30
0
10
19.542196957489331
20
-94.475216245622448
30
0
10
18.774905290822659
20
-93.363966245622436
30
0
10
18.774905290822659
20
-93.311049578955789
30
0
0
SPLINE
5
121
100
AcDbEntity
8
0
100
AcDbSpline
70
1064
71
3
72
8
73
4
74
0
42
0.000000001
43
0.0000000001
44
0.0000000001
40
0
40
0
40
0
40
0
40
1
40
1
40
1
40
1
10
18.774905290822659
20
-93.311049578955789
30
0
10
18.774905290822659
20
-93.258132912289113
30
0
10
19.939071957489325
20
-93.258132912289113
30
0
10
21.367821957489326
20
-93.337507912289112
30
0
0
SPLINE
5
122
100
AcDbEntity
8
0
100
AcDbSpline
70
1064
71
3
72
8
73
4
74
0
42
0.000000001
43
0.0000000001
44
0.0000000001
40
0
40
0
40
0
40
0
40
1
40
1
40
1
40
1
10
21.367821957489326
20
-93.337507912289112
30
0
10
26.606571957489329
20
-93.602091245622461
30
0
10
33.247613624155996
20
-92.199799578955776
30
0
10
35.390738624155993
20
-90.347716245622465
30
0
0
SPLINE
5
123
100
AcDbEntity
8
0
100
AcDbSpline
70
1064
71
3
72
8
73
4
74
0
42
0.000000001
43
0.0000000001
44
0.0000000001
40
0
40
0
40
0
40
0
40
1
40
1
40
1
40
1
10
35.390738624155993
20
-90.347716245622465
30
0
10
36.422613624156
20
-89.474591245622463
30
0
10
36.475530290822668
20
-89.342299578955817
30
0
10
36.131571957489335
20
-88.945424578955794
30
0
0
SPLINE
5
124
100
AcDbEntity
8
0
100
AcDbSpline
70
1064
71
3
72
8
73
4
74
0
42
0.000000001
43
0.0000000001
44
0.0000000001
40
0
40
0
40
0
40
0
40
1
40
1
40
1
40
1
10
36.131571957489335
20
-88.945424578955794
30
0
10
35.919905290822662
20
-88.707299578955798
30
0
10
34.861571957489332
20
-88.072299578955793
30
0
10
33.803238624156002
20
-87.516674578955787
30
0
0
SPLINE
5
125
100
AcDbEntity
8
0
100
AcDbSpline
70
1064
71
3
72
8
73
4
74
0
42
0.000000001
43
0.0000000001
44
0.0000000001
40
0
40
0
40
0
40
0
40
1
40
1
40
1
40
1
10
33.803238624156002
20
-87.516674578955787
30
0
10
30.072613624156006
20
-85.558757912289138
30
0
10
24.595738624155985
20
-79.446882912289126
30
0
10
18.378030290822657
20
-70.265841245622454
30
0
0
SPLINE
5
126
100
AcDbEntity
8
0
100
AcDbSpline
70
1064
71
3
72
8
73
4
74
0
42
0.000000001
43
0.0000000001
44
0.0000000001
40
0
40
0
40
0
40
0
40
1
40
1
40
1
40
1
10
18.378030290822657
20
-70.265841245622454
30
0
10
16.658238624155992
20
-67.69938291228911
30
0
10
13.483238624155991
20
-62.328341245622454
30
0
10
13.483238624155991
20
-61.93146624562246
30
0
0
SPLINE
5
127
100
AcDbEntity
8
0
100
AcDbSpline
70
1064
71
3
72
8
73
4
74
0
42
0.000000001
43
0.0000000001
44
0.0000000001
40
0
40
0
40
0
40
0
40
1
40
1
40
1
40
1
10
13.483238624155991
20
-61.93146624562246
30
0
10
13.483238624155991
20
-61.852091245622454
30
0
10
14.224071957489324
20
-61.905007912289122
30
0
10
15.150113624155992
20
-62.116674578955788
30
0
0
SPLINE
5
128
100
AcDbEntity
8
0
100
AcDbSpline
70
1064
71
3
72
8
73
4
74
0
42
0.000000001
43
0.0000000001
44
0.0000000001
40
0
40
0
40
0
40
0
40
1
40
1
40
1
40
1
10
15.150113624155992
20
-62.116674578955788
30
0
10
16.049696957489317
20
-62.301882912289123
30
0
10
17.875321957489323
20
-62.460632912289128
30
0
10
19.224696957489318
20
-62.487091245622452
30
0
0
SPLINE
5
129
100
AcDbEntity
8
0
100
AcDbSpline
70
1064
71
3
72
8
73
4
74
0
42
0.000000001
43
0.0000000001
44
0.0000000001
40
0
40
0
40
0
40
0
40
1
40
1
40
1
40
1
10
19.224696957489318
20
-62.487091245622452
30
0
10
24.19886362415599
20
-62.540007912289113
30
0
10
25.918655290822656
20
-60.555632912289113
30
0
10
22.690738624155998
20
-58.491882912289128
30
0
0
SPLINE
5
130
100
AcDbEntity
8
0
100
AcDbSpline
70
1064
71
3
72
8
73
4
74
0
42
0.000000001
43
0.0000000001
44
0.0000000001
40
0
40
0
40
0
40
0
40
1
40
1
40
1
40
1
10
22.690738624155998
20
-58.491882912289128
30
0
10
21.209071957489314
20
-57.565841245622458
30
0
10
16.949280290822664
20
-53.332507912289124
30
0
10
15.520530290822654
20
-51.401049578955792
30
0
0
SPLINE
5
131
100
AcDbEntity
8
0
100
AcDbSpline
70
1064
71
3
72
8
73
4
74
0
42
0.000000001
43
0.0000000001
44
0.0000000001
40
0
40
0
40
0
40
0
40
1
40
1
40
1
40
1
10
15.520530290822654
20
-51.401049578955792
30
0
10
15.044280290822662
20
-50.766049578955773
30
0
10
14.065321957489321
20
-49.469591245622446
30
0
10
13.324488624155997
20
-48.490632912289122
30
0
0
SPLINE
5
132
100
AcDbEntity
8
0
100
AcDbSpline
70
1064
71
3
72
8
73
4
74
0
42
0.000000001
43
0.0000000001
44
0.0000000001
40
0
40
0
40
0
40
0
40
1
40
1
40
1
40
1
10
13.324488624155997
20
-48.490632912289122
30
0
10
11.498863624155984
20
-46.082924578955783
30
0
10
8.4296969574893232
20
-41.479174578955792
30
0
10
7.4507386241559903
20
-39.706466245622451
30
0
0
SPLINE
5
133
100
AcDbEntity
8
0
100
AcDbSpline
70
1064
71
3
72
8
73
4
74
0
42
0.000000001
43
0.0000000001
44
0.0000000001
40
0
40
0
40
0
40
0
40
1
40
1
40
1
40
1
10
7.4507386241559903
20
-39.706466245622451
30
0
10
7.0274052908226547
20
-38.912716245622455
30
0
10
5.757405290822657
20
-36.690216245622445
30
0
10
4.6726136241559946
20
-34.811674578955788
30
0
0
SPLINE
5
134
100
AcDbEntity
8
0
100
AcDbSpline
70
1064
71
3
72
8
73
4
74
0
42
0.000000001
43
0.0000000001
44
0.0000000001
40
0
40
0
40
0
40
0
40
0.96947102587578127
40
0.96947102587578127
40
0.96947102587578127
40
0.96947102587578127
10
4.6726136241559946
20
-34.811674578955788
30
0
10
3.6209395342111583
20
-32.964832274662413
30
0
10
2.7930729571880821
20
-31.441267489033823
30
0
10
2.7676136241560108
20
-31.301746395696931
30
0
0
LINE
5
135
100
AcDbEntity
8
0
100
AcDbLine
10
2.7676136241560108
20
-31.301746395696931
30
0
11
2.7676136241559846
21
-46.292716245622444
31
0
0
LINE
5
136
100
AcDbEntity
8
0
100
AcDbLine
10
2.7676136241559846
20
-46.292716245622444
30
0
11
-0.23238637584401589
21
-46.292716245622444
31
0
0
LINE
5
137
100
AcDbEntity
8
0
100
AcDbLine
10
-0.23238637584401589
20
-46.292716245622444
30
0
11
-0.23238637584415467
21
-32.105113375967917
31
0
0
SPLINE
5
138
100
AcDbEntity
8
0
100
AcDbSpline
70
1064
71
3
72
8
73
4
74
0
42
0.000000001
43
0.0000000001
44
0.0000000001
40
0.77060363905859863
40
0.77060363905859863
40
0.77060363905859863
40
0.77060363905859863
40
1
40
1
40
1
40
1
10
-0.23238637584429184
20
-32.105113375968195
30
0
10
-0.37234124868727325
20
-32.383732624079947
30
0
10
-0.62312243438250237
20
-32.773327278813426
30
0
10
-0.96301137584401175
20
-33.277091245622451
30
0
0
SPLINE
5
139
100
AcDbEntity
8
0
100
AcDbSpline
70
1064
71
3
72
8
73
4
74
0
42
0.000000001
43
0.0000000001
44
0.0000000001
40
0
40
0
40
0
40
0
40
1
40
1
40
1
40
1
10
-0.96301137584401175
20
-33.277091245622451
30
0
10
-1.3069697091773413
20
-33.806257912289119
30
0
10
-1.5980113758440151
20
-34.308966245622443
30
0
10
-1.5980113758440151
20
-34.441257912289117
30
0
0
SPLINE
5
140
100
AcDbEntity
8
0
100
AcDbSpline
70
1064
71
3
72
8
73
4
74
0
42
0.000000001
43
0.0000000001
44
0.0000000001
40
0
40
0
40
0
40
0
40
1
40
1
40
1
40
1
10
-1.5980113758440151
20
-34.441257912289117
30
0
10
-1.5980113758440151
20
-35.023341245622447
30
0
10
-7.0748863758440095
20
-43.410632912289124
30
0
10
-10.435094709177344
20
-47.908549578955792
30
0
0
SPLINE
5
141
100
AcDbEntity
8
0
100
AcDbSpline
70
1064
71
3
72
8
73
4
74
0
42
0.000000001
43
0.0000000001
44
0.0000000001
40
0
40
0
40
0
40
0
40
1
40
1
40
1
40
1
10
-10.435094709177344
20
-47.908549578955792
30
0
10
-13.530719709177346
20
-52.088966245622444
30
0
10
-19.007594709177344
20
-57.671674578955788
30
0
10
-21.600511375844018
20
-59.285632912289124
30
0
0
SPLINE
5
142
100
AcDbEntity
8
0
100
AcDbSpline
70
1064
71
3
72
8
73
4
74
0
42
0.000000001
43
0.0000000001
44
0.0000000001
40
0
40
0
40
0
40
0
40
1
40
1
40
1
40
1
10
-21.600511375844018
20
-59.285632912289124
30
0
10
-22.685303042510682
20
-59.94709124562246
30
0
10
-22.26196970917735
20
-61.164174578955787
30
0
10
-20.753844709177351
20
-61.666882912289125
30
0
0
SPLINE
5
143
100
AcDbEntity
8
0
100
AcDbSpline
70
1064
71
3
72
8
73
4
74
0
42
0.000000001
43
0.0000000001
44
0.0000000001
40
0
40
0
40
0
40
0
40
1
40
1
40
1
40
1
10
-20.753844709177351
20
-61.666882912289125
30
0
10
-17.790511375844016
20
-62.645841245622449
30
0
10
-15.091761375844017
20
-62.910424578955791
30
0
10
-12.710511375844016
20
-62.460632912289128
30
0
0
SPLINE
5
144
100
AcDbEntity
8
0
100
AcDbSpline
70
1064
71
3
72
8
73
4
74
0
42
0.000000001
43
0.0000000001
44
0.0000000001
40
0
40
0
40
0
40
0
40
1
40
1
40
1
40
1
10
-12.710511375844016
20
-62.460632912289128
30
0
10
-11.943219709177351
20
-62.301882912289123
30
0
10
-11.255303042510683
20
-62.222507912289117
30
0
10
-11.202386375844009
20
-62.275424578955779
30
0
0
SPLINE
5
145
100
AcDbEntity
8
0
100
AcDbSpline
70
1064
71
3
72
8
73
4
74
0
42
0.000000001
43
0.0000000001
44
0.0000000001
40
0
40
0
40
0
40
0
40
1
40
1
40
1
40
1
10
-11.202386375844009
20
-62.275424578955779
30
0
10
-11.149469709177344
20
-62.328341245622454
30
0
10
-11.625719709177345
20
-63.122091245622457
30
0
10
-12.234261375844016
20
-64.048132912289134
30
0
0
SPLINE
5
146
100
AcDbEntity
8
0
100
AcDbSpline
70
1064
71
3
72
8
73
4
74
0
42
0.000000001
43
0.0000000001
44
0.0000000001
40
0
40
0
40
0
40
0
40
1
40
1
40
1
40
1
10
-12.234261375844016
20
-64.048132912289134
30
0
10
-12.869261375844019
20
-64.947716245622459
30
0
10
-13.901136375844017
20
-66.508757912289113
30
0
10
-14.562594709177352
20
-67.487716245622465
30
0
0
SPLINE
5
147
100
AcDbEntity
8
0
100
AcDbSpline
70
1064
71
3
72
8
73
4
74
0
42
0.000000001
43
0.0000000001
44
0.0000000001
40
0
40
0
40
0
40
0
40
1
40
1
40
1
40
1
10
-14.562594709177352
20
-67.487716245622465
30
0
10
-21.706344709177351
20
-78.229799578955777
30
0
10
-27.394886375844017
20
-84.315216245622437
30
0
10
-33.083428042510683
20
-87.357924578955817
30
0
0
SPLINE
5
148
100
AcDbEntity
8
0
100
AcDbSpline
70
1064
71
3
72
8
73
4
74
0
42
0.000000001
43
0.0000000001
44
0.0000000001
40
0
40
0
40
0
40
0
40
1
40
1
40
1
40
1
10
-33.083428042510683
20
-87.357924578955817
30
0
10
-34.591553042510682
20
-88.151674578955806
30
0
10
-35.173636375844019
20
-88.866049578955781
30
0
10
-34.776761375844018
20
-89.474591245622463
30
0
0
SPLINE
5
149
100
AcDbEntity
8
0
100
AcDbSpline
70
1064
71
3
72
8
73
4
74
0
42
0.000000001
43
0.0000000001
44
0.0000000001
40
0
40
0
40
0
40
0
40
1
40
1
40
1
40
1
10
-34.776761375844018
20
-89.474591245622463
30
0
10
-34.459261375844015
20
-90.030216245622483
30
0
10
-30.040719709177353
20
-91.855841245622472
30
0
10
-27.791761375844018
20
-92.411466245622449
30
0
0
SPLINE
5
150
100
AcDbEntity
8
0
100
AcDbSpline
70
1064
71
3
72
8
73
4
74
0
42
0.000000001
43
0.0000000001
44
0.0000000001
40
0
40
0
40
0
40
0
40
1
40
1
40
1
40
1
10
-27.791761375844018
20
-92.411466245622449
30
0
10
-25.436969709177347
20
-92.967091245622441
30
0
10
-19.378011375844014
20
-93.205216245622466
30
0
10
-17.922803042510679
20
-92.808341245622472
30
0
0
SPLINE
5
151
100
AcDbEntity
8
0
100
AcDbSpline
70
1064
71
3
72
8
73
4
74
0
42
0.000000001
43
0.0000000001
44
0.0000000001
40
0
40
0
40
0
40
0
40
1
40
1
40
1
40
1
10
-17.922803042510679
20
-92.808341245622472
30
0
10
-16.864469709177349
20
-92.5172995789558
30
0
10
-16.996761375844017
20
-92.914174578955794
30
0
10
-18.716553042510679
20
-95.189591245622466
30
0
0
SPLINE
5
152
100
AcDbEntity
8
0
100
AcDbSpline
70
1064
71
3
72
8
73
4
74
0
42
0.000000001
43
0.0000000001
44
0.0000000001
40
0
40
0
40
0
40
0
40
1
40
1
40
1
40
1
10
-18.716553042510679
20
-95.189591245622466
30
0
10
-19.56321970917735
20
-96.300841245622451
30
0
10
-20.727386375844013
20
-97.861882912289104
30
0
10
-21.309469709177353
20
-98.708549578955811
30
0
0
SPLINE
5
153
100
AcDbEntity
8
0
100
AcDbSpline
70
1064
71
3
72
8
73
4
74
0
42
0.000000001
43
0.0000000001
44
0.0000000001
40
0
40
0
40
0
40
0
40
1
40
1
40
1
40
1
10
-21.309469709177353
20
-98.708549578955811
30
0
10
-23.796553042510688
20
-102.25396624562248
30
0
10
-26.336553042510683
20
-105.19084124562248
30
0
10
-30.305303042510687
20
-109.18604957895582
30
0
0
SPLINE
5
154
100
AcDbEntity
8
0
100
AcDbSpline
70
1064
71
3
72
8
73
4
74
0
42
0.000000001
43
0.0000000001
44
0.0000000001
40
0
40
0
40
0
40
0
40
1
40
1
40
1
40
1
10
-30.305303042510687
20
-109.18604957895582
30
0
10
-34.61801137584402
20
-113.52521624562246
30
0
10
-37.925303042510684
20
-116.06521624562248
30
0
10
-41.629469709177357
20
-117.86438291228912
30
0
0
SPLINE
5
155
100
AcDbEntity
8
0
100
AcDbSpline
70
1064
71
3
72
8
73
4
74
0
42
0.000000001
43
0.0000000001
44
0.0000000001
40
0
40
0
40
0
40
0
40
1
40
1
40
1
40
1
10
-41.629469709177357
20
-117.86438291228912
30
0
10
-43.296344709177355
20
-118.68459124562247
30
0
10
-43.534469709177358
20
-119.29313291228911
30
0
10
-42.714261375844025
20
-120.53667457895578
30
0
0
SPLINE
5
156
100
AcDbEntity
8
0
100
AcDbSpline
70
1064
71
3
72
8
73
4
74
0
42
0.000000001
43
0.0000000001
44
0.0000000001
40
0
40
0
40
0
40
0
40
1
40
1
40
1
40
1
10
-42.714261375844025
20
-120.53667457895578
30
0
10
-41.338428042510685
20
-122.62688291228912
30
0
10
-30.490511375844015
20
-127.81271624562248
30
0
10
-25.807386375844018
20
-128.60646624562247
30
0
0
SPLINE
5
157
100
AcDbEntity
8
0
100
AcDbSpline
70
1064
71
3
72
8
73
4
74
0
42
0.000000001
43
0.0000000001
44
0.0000000001
40
0
40
0
40
0
40
0
40
1
40
1
40
1
40
1
10
-25.807386375844018
20
-128.60646624562247
30
0
10
-24.775511375844019
20
-128.79167457895579
30
0
10
-21.918011375844017
20
-129.42667457895581
30
0
10
-19.457386375844017
20
-130.06167457895577
30
0
0
SPLINE
5
158
100
AcDbEntity
8
0
100
AcDbSpline
70
1064
71
3
72
8
73
4
74
0
42
0.000000001
43
0.0000000001
44
0.0000000001
40
0
40
0
40
0
40
0
40
0.51124566457179443
40
0.51124566457179443
40
0.51124566457179443
40
0.51124566457179443
10
-19.457386375844017
20
-130.06167457895577
30
0
10
-16.576197527441593
20
-130.77859011400426
30
0
10
-14.462625951992113
20
-131.28112605030014
30
0
10
-13.00000000000033
20
-131.60110192861484
30
0
0
LINE
5
159
100
AcDbEntity
8
0
100
AcDbLine
10
-13.000000000000334
20
-131.60110192861484
30
0
11
-13
21
-144.6011019286149
31
0
0
LINE
5
160
100
AcDbEntity
8
0
100
AcDbLine
10
-13
20
-144.6011019286149
30
0
11
-8.4999999999999059
21
-144.6011019286149
31
0
0
LINE
5
161
100
AcDbEntity
8
0
100
AcDbLine
10
-8.4999999999999059
20
-144.6011019286149
30
0
11
-8.5
21
-141.60110192861481
31
0
0
LINE
5
162
100
AcDbEntity
8
0
100
AcDbLine
10
-8.5
20
-141.60110192861481
30
0
11
-11
21
-141.60110192861481
31
0
0
LINE
5
163
100
AcDbEntity
8
0
100
AcDbLine
10
-11
20
-141.60110192861481
30
0
11
-11
21
-140.3011019286148
31
0
0
LINE
5
164
100
AcDbEntity
8
0
100
AcDbLine
10
-11
20
-140.3011019286148
30
0
11
-10.700000000000001
21
-140.3011019286148
31
0
0
LINE
5
165
100
AcDbEntity
8
0
100
AcDbLine
10
-10.700000000000001
20
-140.3011019286148
30
0
11
-10.700000000061241
21
-135.30112128288874
31
0
0
ARC
5
166
100
AcDbEntity
8
0
100
AcDbCircle
10
-8.2000000006095366
20
-135.30110192861514
30
0
40
2.4999999995266311
100
AcDbArc
50
-0.00044372498204204837
51
180.00044356724999
0
LINE
5
167
100
AcDbEntity
8
0
100
AcDbLine
10
-5.7000000011578766
20
-135.30112128980511
30
0
11
-5.7000000005971874
21
-140.30110192861511
31
0
0
LINE
5
168
100
AcDbEntity
8
0
100
AcDbLine
10
-5.7000000005971874
20
-140.30110192861511
30
0
11
-5.4000000005971867
21
-140.30110192861517
31
0
0
LINE
5
169
100
AcDbEntity
8
0
100
AcDbLine
10
-5.4000000005971867
20
-140.30110192861517
30
0
11
-5.4000000005971813
21
-141.60110192861515
31
0
0
LINE
5
170
100
AcDbEntity
8
0
100
AcDbLine
10
-5.4000000005971813
20
-141.60110192861515
30
0
11
-7.9000000005971813
21
-141.60110192861515
31
0
0
LINE
5
171
100
AcDbEntity
8
0
100
AcDbLine
10
-7.9000000005971813
20
-141.60110192861515
30
0
11
-7.9000000005971831
21
-144.6011019286149
31
0
0
LINE
5
172
100
AcDbEntity
8
0
100
AcDbLine
10
-7.9000000005971831
20
-144.6011019286149
30
0
11
-3.2696645573876539
21
-144.6011019286149
31
0
0
LINE
5
173
100
AcDbEntity
8
0
100
AcDbLine
10
-3.2696645573876539
20
-144.6011019286149
30
0
11
-3.2696645573876539
21
-144.07793584821252
31
0
0
LINE
5
174
100
AcDbEntity
8
0
100
AcDbLine
10
-3.2696645573876539
20
-144.07793584821252
30
0
11
-3.2696960070847259
21
-144.07793443802836
31
0
0
LINE
5
175
100
AcDbEntity
8
0
100
AcDbLine
10
-3.2696960070847259
20
-144.07793443802836
30
0
11
-3.2696960070847298
21
-137.65567678235666
31
0
0
LINE
5
176
100
AcDbEntity
8
0
100
AcDbLine
10
-3.2696960070847298
20
-137.65567678235666
30
0
11
6.2696960070847307
21
-137.65567678235666
31
0
0
LINE
5
177
100
AcDbEntity
8
0
100
AcDbLine
10
6.2696960070847307
20
-137.65567678235666
30
0
11
6.269696007084729
21
-143.80343482577746
31
0
0
LINE
5
178
100
AcDbEntity
8
0
100
AcDbLine
10
6.269696007084729
20
-143.80343482577746
30
0
11
6.2696645573876566
21
-143.80343952256564
31
0
0
ENDSEC
0
SECTION
2
OBJECTS
0
DICTIONARY
5
C
100
AcDbDictionary
3
ACAD_GROUP
350
D
3
ACAD_MLINESTYLE
350
17
0
DICTIONARY
5
D
100
AcDbDictionary
0
DICTIONARY
5
1A
330
C
100
AcDbDictionary
0
DICTIONARY
5
17
100
AcDbDictionary
0
ENDSEC
0
EOF
