  0
SECTION
  2
HEADER
  9
$ACADVER
  1
AC1018
  9
$ACADMAINTVER
 70
     0
  9
$DWGCODEPAGE
  3
ANSI_1252
  9
$INSBASE
 10
0.0
 20
0.0
 30
0.0
  9
$EXTMIN
 10
-36.39
 20
-24.6567
 30
0.0
  9
$EXTMAX
 10
11.6202
 20
23.3535
 30
0.0
  9
$LIMMIN
 10
-36.39
 20
-24.6567
  9
$LIMMAX
 10
11.6202
 20
23.3535
  9
$ORTHOMODE
 70
     0
  9
$REGENMODE
 70
     1
  9
$FILLMODE
 70
     1
  9
$QTEXTMODE
 70
     0
  9
$MIRRTEXT
 70
     1
  9
$LTSCALE
 40
1.0
  9
$ATTMODE
 70
     1
  9
$TEXTSIZE
 40
0.2
  9
$TRACEWID
 40
0.05
  9
$TEXTSTYLE
  7
STANDARD
  9
$CLAYER
  8
DEFAULT
  9
$CELTYPE
  6
BYLAYER
  9
$CECOLOR
 62
   256
  9
$CELTSCALE
 40
1.0
  9
$DISPSILH
 70
     0
  9
$DIMSCALE
 40
1.0
  9
$DIMASZ
 40
0.18
  9
$DIMEXO
 40
0.0625
  9
$DIMDLI
 40
0.38
  9
$DIMRND
 40
0.0
  9
$DIMDLE
 40
0.0
  9
$DIMEXE
 40
0.18
  9
$DIMTP
 40
0.0
  9
$DIMTM
 40
0.0
  9
$DIMTXT
 40
0.18
  9
$DIMCEN
 40
0.09
  9
$DIMTSZ
 40
0.0
  9
$DIMTOL
 70
     0
  9
$DIMLIM
 70
     0
  9
$DIMTIH
 70
     1
  9
$DIMTOH
 70
     1
  9
$DIMSE1
 70
     0
  9
$DIMSE2
 70
     0
  9
$DIMTAD
 70
     0
  9
$DIMZIN
 70
     0
  9
$DIMBLK
  1

  9
$DIMASO
 70
     1
  9
$DIMSHO
 70
     1
  9
$DIMPOST
  1

  9
$DIMAPOST
  1

  9
$DIMALT
 70
     0
  9
$DIMALTD
 70
     2
  9
$DIMALTF
 40
25.4
  9
$DIMLFAC
 40
1.0
  9
$DIMTOFL
 70
     0
  9
$DIMTVP
 40
0.0
  9
$DIMTIX
 70
     0
  9
$DIMSOXD
 70
     0
  9
$DIMSAH
 70
     0
  9
$DIMBLK1
  1

  9
$DIMBLK2
  1

  9
$DIMSTYLE
  2
STANDARD
  9
$DIMCLRD
 70
     0
  9
$DIMCLRE
 70
     0
  9
$DIMCLRT
 70
     0
  9
$DIMTFAC
 40
1.0
  9
$DIMGAP
 40
0.09
  9
$DIMJUST
 70
     0
  9
$DIMSD1
 70
     0
  9
$DIMSD2
 70
     0
  9
$DIMTOLJ
 70
     1
  9
$DIMTZIN
 70
     0
  9
$DIMALTZ
 70
     0
  9
$DIMALTTZ
 70
     0
  9
$DIMUPT
 70
     0
  9
$DIMDEC
 70
     4
  9
$DIMTDEC
 70
     4
  9
$DIMALTU
 70
     2
  9
$DIMALTTD
 70
     2
  9
$DIMTXSTY
  7
STANDARD
  9
$DIMAUNIT
 70
     0
  9
$DIMADEC
 70
     0
  9
$DIMALTRND
 40
0.0
  9
$DIMAZIN
 70
     0
  9
$DIMDSEP
 70
    46
  9
$DIMATFIT
 70
     3
  9
$DIMFRAC
 70
     0
  9
$DIMLDRBLK
  1

  9
$DIMLUNIT
 70
     2
  9
$DIMLWD
 70
    -2
  9
$DIMLWE
 70
    -2
  9
$DIMTMOVE
 70
     0
  9
$LUNITS
 70
     2
  9
$LUPREC
 70
     4
  9
$SKETCHINC
 40
0.1
  9
$FILLETRAD
 40
0.5
  9
$AUNITS
 70
     0
  9
$AUPREC
 70
     0
  9
$MENU
  1
.
  9
$ELEVATION
 40
0.0
  9
$PELEVATION
 40
0.0
  9
$THICKNESS
 40
0.0
  9
$LIMCHECK
 70
     0
  9
$CHAMFERA
 40
0.5
  9
$CHAMFERB
 40
0.5
  9
$CHAMFERC
 40
1.0
  9
$CHAMFERD
 40
0.0
  9
$SKPOLY
 70
     0
  9
$TDCREATE
 40
2454006.377337963
  9
$TDUCREATE
 40
2454006.54400463
  9
$TDUPDATE
 40
2454006.377337963
  9
$TDUUPDATE
 40
2454006.54400463
  9
$TDINDWG
 40
0.0
  9
$TDUSRTIMER
 40
0.0
  9
$USRTIMER
 70
     1
  9
$ANGBASE
 50
0.0
  9
$ANGDIR
 70
     0
  9
$PDMODE
 70
     0
  9
$PDSIZE
 40
0.0
  9
$PLINEWID
 40
0.0
  9
$SPLFRAME
 70
     0
  9
$SPLINETYPE
 70
     6
  9
$SPLINESEGS
 70
     8
  9
$HANDSEED
  5
2F3
  9
$SURFTAB1
 70
     6
  9
$SURFTAB2
 70
     6
  9
$SURFTYPE
 70
     6
  9
$SURFU
 70
     6
  9
$SURFV
 70
     6
  9
$UCSBASE
  2

  9
$UCSNAME
  2

  9
$UCSORG
 10
0.0
 20
0.0
 30
0.0
  9
$UCSXDIR
 10
1.0
 20
0.0
 30
0.0
  9
$UCSYDIR
 10
0.0
 20
1.0
 30
0.0
  9
$UCSORTHOREF
  2

  9
$UCSORTHOVIEW
 70
     0
  9
$UCSORGTOP
 10
0.0
 20
0.0
 30
0.0
  9
$UCSORGBOTTOM
 10
0.0
 20
0.0
 30
0.0
  9
$UCSORGLEFT
 10
0.0
 20
0.0
 30
0.0
  9
$UCSORGRIGHT
 10
0.0
 20
0.0
 30
0.0
  9
$UCSORGFRONT
 10
0.0
 20
0.0
 30
0.0
  9
$UCSORGBACK
 10
0.0
 20
0.0
 30
0.0
  9
$PUCSBASE
  2

  9
$PUCSNAME
  2

  9
$PUCSORG
 10
0.0
 20
0.0
 30
0.0
  9
$PUCSXDIR
 10
1.0
 20
0.0
 30
0.0
  9
$PUCSYDIR
 10
0.0
 20
1.0
 30
0.0
  9
$PUCSORTHOREF
  2

  9
$PUCSORTHOVIEW
 70
     0
  9
$PUCSORGTOP
 10
0.0
 20
0.0
 30
0.0
  9
$PUCSORGBOTTOM
 10
0.0
 20
0.0
 30
0.0
  9
$PUCSORGLEFT
 10
0.0
 20
0.0
 30
0.0
  9
$PUCSORGRIGHT
 10
0.0
 20
0.0
 30
0.0
  9
$PUCSORGFRONT
 10
0.0
 20
0.0
 30
0.0
  9
$PUCSORGBACK
 10
0.0
 20
0.0
 30
0.0
  9
$USERI1
 70
     0
  9
$USERI2
 70
     0
  9
$USERI3
 70
     0
  9
$USERI4
 70
     0
  9
$USERI5
 70
     0
  9
$USERR1
 40
0.0
  9
$USERR2
 40
0.0
  9
$USERR3
 40
0.0
  9
$USERR4
 40
0.0
  9
$USERR5
 40
0.0
  9
$WORLDVIEW
 70
     1
  9
$SHADEDGE
 70
     3
  9
$SHADEDIF
 70
    70
  9
$TILEMODE
 70
     1
  9
$MAXACTVP
 70
    48
  9
$PINSBASE
 10
0.0
 20
0.0
 30
0.0
  9
$PLIMCHECK
 70
     0
  9
$PEXTMIN
 10
1.000000000000000E+20
 20
1.000000000000000E+20
 30
1.000000000000000E+20
  9
$PEXTMAX
 10
-1.000000000000000E+20
 20
-1.000000000000000E+20
 30
-1.000000000000000E+20
  9
$PLIMMIN
 10
0.0
 20
0.0
  9
$PLIMMAX
 10
12.0
 20
9.0
  9
$UNITMODE
 70
     0
  9
$VISRETAIN
 70
     1
  9
$PLINEGEN
 70
     0
  9
$PSLTSCALE
 70
     1
  9
$TREEDEPTH
 70
  3020
  9
$CMLSTYLE
  2
STANDARD
  9
$CMLJUST
 70
     0
  9
$CMLSCALE
 40
1.0
  9
$PROXYGRAPHICS
 70
     1
  9
$MEASUREMENT
 70
     0
  9
$CELWEIGHT
370
    -1
  9
$ENDCAPS
280
     0
  9
$JOINSTYLE
280
     0
  9
$LWDISPLAY
290
     0
  9
$INSUNITS
 70
     0
  9
$HYPERLINKBASE
  1

  9
$STYLESHEET
  1

  9
$XEDIT
290
     1
  9
$CEPSNTYPE
380
     0
  9
$PSTYLEMODE
290
     1
  9
$FINGERPRINTGUID
  2
{0B9798E2-F923-4021-BBE9-853E47B214E7}
  9
$VERSIONGUID
  2
{FAEB1C32-E019-11D5-929B-00C0DF256EC4}
  9
$EXTNAMES
290
     1
  9
$PSVPSCALE
 40
0.0
  9
$OLESTARTUP
290
     0
  9
$SORTENTS
280
   127
  9
$INDEXCTL
280
     0
  9
$HIDETEXT
280
     1
  9
$XCLIPFRAME
290
     0
  9
$HALOGAP
280
     0
  9
$OBSCOLOR
 70
   257
  9
$OBSLTYPE
280
     0
  9
$INTERSECTIONDISPLAY
280
     0
  9
$INTERSECTIONCOLOR
 70
   257
  9
$DIMASSOC
280
     2
  9
$PROJECTNAME
  1

  0
ENDSEC
  0
SECTION
  2
CLASSES
  0
ENDSEC
  0
SECTION
  2
TABLES
  0
TABLE
  2
VPORT
  5
8
330
0
100
AcDbSymbolTable
 70
     1
  0
VPORT
  5
1E
330
8
100
AcDbSymbolTableRecord
100
AcDbViewportTableRecord
  2
*ACTIVE
 70
     0
 10
0.0
 20
0.0
 11
1.0
 21
1.0
 12
-12.3849
 22
-0.6516
 13
0.0
 23
0.0
 14
0.1
 24
0.1
 15
0.1
 25
0.1
 16
0.0
 26
0.0
 36
1.0
 17
0.0
 27
0.0
 37
0.0
 40
48.0102
 41
1.0
 42
50.0
 43
0.0
 44
0.0
 50
0.0
 51
0.0
 71
     0
 72
   100
 73
     1
 74
     1
 75
     0
 76
     0
 77
     0
 78
     0
281
     0
 65
     1
110
0.0
120
0.0
130
0.0
111
1.0
121
0.0
131
0.0
112
0.0
122
1.0
132
0.0
 79
     0
146
0.0
  0
ENDTAB
  0
TABLE
  2
LTYPE
  5
5
330
0
100
AcDbSymbolTable
 70
     1
  0
LTYPE
  5
12
330
5
100
AcDbSymbolTableRecord
100
AcDbLinetypeTableRecord
  2
BYBLOCK
 70
     0
  3

 72
    65
 73
     0
 40
0.0
  0
LTYPE
  5
13
330
5
100
AcDbSymbolTableRecord
100
AcDbLinetypeTableRecord
  2
BYLAYER
 70
     0
  3

 72
    65
 73
     0
 40
0.0
  0
LTYPE
  5
14
330
5
100
AcDbSymbolTableRecord
100
AcDbLinetypeTableRecord
  2
CONTINUOUS
 70
     0
  3
Solid line
 72
    65
 73
     0
 40
0.0
  0
ENDTAB
  0
TABLE
  2
LAYER
  5
2
330
0
100
AcDbSymbolTable
 70
     2
  0
LAYER
  5
E
330
2
100
AcDbSymbolTableRecord
100
AcDbLayerTableRecord
  2
0
 70
     0
 62
     7
  6
CONTINUOUS
370
    -3
390
0
  0
LAYER
  5
20
330
2
100
AcDbSymbolTableRecord
100
AcDbLayerTableRecord
  2
DEFAULT
 70
     0
 62
     7
  6
CONTINUOUS
370
    -3
390
0
  0
ENDTAB
  0
TABLE
  2
STYLE
  5
3
330
0
100
AcDbSymbolTable
 70
     2
  0
STYLE
  5
F
330
3
100
AcDbSymbolTableRecord
100
AcDbTextStyleTableRecord
  2
STANDARD
 70
     0
 40
0.0
 41
1.0
 50
0.0
 71
     0
 42
0.2
  3
txt
  4

  0
STYLE
  5
21
330
3
100
AcDbSymbolTableRecord
100
AcDbTextStyleTableRecord
  2
ARIAL
 70
     0
 40
0.0
 41
1.0
 50
0.0
 71
     0
 42
0.2
  3
txt
  4

  0
ENDTAB
  0
TABLE
  2
VIEW
  5
6
330
0
100
AcDbSymbolTable
 70
     0
  0
ENDTAB
  0
TABLE
  2
UCS
  5
7
330
0
100
AcDbSymbolTable
 70
     0
  0
ENDTAB
  0
TABLE
  2
APPID
  5
9
330
0
100
AcDbSymbolTable
 70
     1
  0
APPID
  5
10
330
9
100
AcDbSymbolTableRecord
100
AcDbRegAppTableRecord
  2
ACAD
 70
     0
  0
ENDTAB
  0
TABLE
  2
DIMSTYLE
  5
A
330
0
100
AcDbSymbolTable
 70
     1
100
AcDbDimStyleTable
  0
DIMSTYLE
105
1D
330
A
100
AcDbSymbolTableRecord
100
AcDbDimStyleTableRecord
  2
STANDARD
 70
     0
340
F
  0
ENDTAB
  0
TABLE
  2
BLOCK_RECORD
  5
1
330
0
100
AcDbSymbolTable
 70
     0
  0
BLOCK_RECORD
  5
18
330
1
100
AcDbSymbolTableRecord
100
AcDbBlockTableRecord
  2
*MODEL_SPACE
340
2F1
  0
BLOCK_RECORD
  5
15
330
1
100
AcDbSymbolTableRecord
100
AcDbBlockTableRecord
  2
*PAPER_SPACE
340
2F2
  0
ENDTAB
  0
ENDSEC
  0
SECTION
  2
BLOCKS
  0
BLOCK
  5
19
330
18
100
AcDbEntity
  8
0
100
AcDbBlockBegin
  2
*MODEL_SPACE
 70
     0
 71
     0
 10
0.0
 20
0.0
 30
0.0
  3
*MODEL_SPACE
  1
     0
  0
ENDBLK
  5
1A
330
18
100
AcDbEntity
  8
0
100
AcDbBlockEnd
  0
BLOCK
  5
16
330
15
100
AcDbEntity
 67
     1
  8
0
100
AcDbBlockBegin
  2
*PAPER_SPACE
 70
     0
 71
     0
 10
0.0
 20
0.0
 30
0.0
  3
*PAPER_SPACE
  1
     0
  0
ENDBLK
  5
17
330
15
100
AcDbEntity
 67
     1
  8
0
100
AcDbBlockEnd
  0
ENDSEC
  0
SECTION
  2
ENTITIES
  0
LINE
  5
22
330
18
100
AcDbEntity
  8
DEFAULT
100
AcDbLine
 10
-6.4782
 20
0.4024
 30
0.0
 11
-6.4761
 21
0.3902
 31
0.0
  0
LINE
  5
23
330
18
100
AcDbEntity
  8
DEFAULT
100
AcDbLine
 10
-23.4714
 20
3.9406
 30
0.0
 11
-21.6236
 21
3.1752
 31
0.0
  0
LINE
  5
24
330
18
100
AcDbEntity
  8
DEFAULT
100
AcDbLine
 10
-25.3192
 20
4.7059
 30
0.0
 11
-23.4714
 21
3.9406
 31
0.0
  0
LINE
  5
25
330
18
100
AcDbEntity
  8
DEFAULT
100
AcDbLine
 10
-21.6236
 20
3.1752
 30
0.0
 11
-19.7759
 21
2.4098
 31
0.0
  0
LINE
  5
26
330
18
100
AcDbEntity
  8
DEFAULT
100
AcDbLine
 10
-27.1669
 20
5.4713
 30
0.0
 11
-25.3192
 21
4.7059
 31
0.0
  0
LINE
  5
27
330
18
100
AcDbEntity
  8
DEFAULT
100
AcDbLine
 10
-29.0147
 20
6.2367
 30
0.0
 11
-27.1669
 21
5.4713
 31
0.0
  0
LINE
  5
28
330
18
100
AcDbEntity
  8
DEFAULT
100
AcDbLine
 10
-30.8624
 20
7.002
 30
0.0
 11
-29.0147
 21
6.2367
 31
0.0
  0
LINE
  5
29
330
18
100
AcDbEntity
  8
DEFAULT
100
AcDbLine
 10
-32.7102
 20
7.7674
 30
0.0
 11
-30.8624
 21
7.002
 31
0.0
  0
LINE
  5
2A
330
18
100
AcDbEntity
  8
DEFAULT
100
AcDbLine
 10
-34.558
 20
8.5328
 30
0.0
 11
-32.7102
 21
7.7674
 31
0.0
  0
LINE
  5
2B
330
18
100
AcDbEntity
  8
DEFAULT
100
AcDbLine
 10
-19.7759
 20
2.4098
 30
0.0
 11
-17.9281
 21
1.6445
 31
0.0
  0
LINE
  5
2C
330
18
100
AcDbEntity
  8
DEFAULT
100
AcDbLine
 10
-17.9281
 20
1.6445
 30
0.0
 11
-16.0804
 21
0.8791
 31
0.0
  0
LINE
  5
2D
330
18
100
AcDbEntity
  8
DEFAULT
100
AcDbLine
 10
-16.0804
 20
0.8791
 30
0.0
 11
-14.2326
 21
0.1137
 31
0.0
  0
LINE
  5
2E
330
18
100
AcDbEntity
  8
DEFAULT
100
AcDbLine
 10
-14.2326
 20
0.1137
 30
0.0
 11
-12.3849
 21
-0.6516
 31
0.0
  0
TEXT
  5
2F
330
18
100
AcDbEntity
  8
DEFAULT
100
AcDbText
 10
-18.4643
 20
1.8666
 30
0.0
 40
0.1263
  1
0.0123
 50
337.5
  7
ARIAL
100
AcDbText
  0
TEXT
  5
30
330
18
100
AcDbEntity
  8
DEFAULT
100
AcDbText
 10
-18.4643
 20
1.8666
 30
0.0
 40
0.1263
  1
0.0123
 50
337.5
  7
ARIAL
100
AcDbText
  0
LINE
  5
31
330
18
100
AcDbEntity
  8
DEFAULT
100
AcDbLine
 10
-21.6236
 20
3.1752
 30
0.0
 11
-21.6019
 21
3.2277
 31
0.0
  0
LINE
  5
32
330
18
100
AcDbEntity
  8
DEFAULT
100
AcDbLine
 10
-23.4714
 20
3.9406
 30
0.0
 11
-23.4338
 21
4.0313
 31
0.0
  0
LINE
  5
33
330
18
100
AcDbEntity
  8
DEFAULT
100
AcDbLine
 10
-23.509
 20
3.8498
 30
0.0
 11
-23.4714
 21
3.9406
 31
0.0
  0
LINE
  5
34
330
18
100
AcDbEntity
  8
DEFAULT
100
AcDbLine
 10
-21.6454
 20
3.1227
 30
0.0
 11
-21.6236
 21
3.1752
 31
0.0
  0
LINE
  5
35
330
18
100
AcDbEntity
  8
DEFAULT
100
AcDbLine
 10
-25.3192
 20
4.7059
 30
0.0
 11
-25.2595
 21
4.85
 31
0.0
  0
LINE
  5
36
330
18
100
AcDbEntity
  8
DEFAULT
100
AcDbLine
 10
-25.3788
 20
4.5619
 30
0.0
 11
-25.3192
 21
4.7059
 31
0.0
  0
LINE
  5
37
330
18
100
AcDbEntity
  8
DEFAULT
100
AcDbLine
 10
-27.1669
 20
5.4713
 30
0.0
 11
-27.0779
 21
5.6863
 31
0.0
  0
LINE
  5
38
330
18
100
AcDbEntity
  8
DEFAULT
100
AcDbLine
 10
-27.256
 20
5.2563
 30
0.0
 11
-27.1669
 21
5.4713
 31
0.0
  0
LINE
  5
39
330
18
100
AcDbEntity
  8
DEFAULT
100
AcDbLine
 10
-29.0147
 20
6.2367
 30
0.0
 11
-28.8879
 21
6.5427
 31
0.0
  0
LINE
  5
3A
330
18
100
AcDbEntity
  8
DEFAULT
100
AcDbLine
 10
-29.1415
 20
5.9306
 30
0.0
 11
-29.0147
 21
6.2367
 31
0.0
  0
LINE
  5
3B
330
18
100
AcDbEntity
  8
DEFAULT
100
AcDbLine
 10
-30.8624
 20
7.002
 30
0.0
 11
-30.6885
 21
7.4219
 31
0.0
  0
LINE
  5
3C
330
18
100
AcDbEntity
  8
DEFAULT
100
AcDbLine
 10
-31.0364
 20
6.5821
 30
0.0
 11
-30.8624
 21
7.002
 31
0.0
  0
LINE
  5
3D
330
18
100
AcDbEntity
  8
DEFAULT
100
AcDbLine
 10
-32.7102
 20
7.7674
 30
0.0
 11
-32.4787
 21
8.3263
 31
0.0
  0
LINE
  5
3E
330
18
100
AcDbEntity
  8
DEFAULT
100
AcDbLine
 10
-32.9417
 20
7.2084
 30
0.0
 11
-32.7102
 21
7.7674
 31
0.0
  0
LINE
  5
3F
330
18
100
AcDbEntity
  8
DEFAULT
100
AcDbLine
 10
-34.558
 20
8.5328
 30
0.0
 11
-34.2574
 21
9.2584
 31
0.0
  0
LINE
  5
40
330
18
100
AcDbEntity
  8
DEFAULT
100
AcDbLine
 10
-34.8585
 20
7.8071
 30
0.0
 11
-34.558
 21
8.5328
 31
0.0
  0
SPLINE
  5
41
330
18
100
AcDbEntity
  8
DEFAULT
100
AcDbSpline
210
0.0
220
0.0
230
1.0
 70
     8
 71
     3
 72
    17
 73
    13
 74
    11
 42
0.0000001
 43
0.0000001
 44
0.0000000001
 12
0.8837947270621356
 22
-0.4678748555085701
 32
0.0
 13
0.9238921173005843
 23
-0.3826530485829734
 33
0.0
 40
0.0
 40
0.0
 40
0.0
 40
0.0
 40
2.008129502796066
 40
4.013810284974529
 40
6.017594954044538
 40
8.019973779342088
 40
10.0214672842029
 40
12.0223296432871
 40
14.02273724425246
 40
16.02289159079675
 40
18.02303127841859
 40
24.02295436209225
 40
24.02295436209225
 40
24.02295436209225
 40
24.02295436209225
 10
-34.2574
 20
9.2584
 30
0.0
 10
-33.66580857805698
 20
8.945215566345597
 30
0.0
 10
-32.482238944303
 20
8.321225514819856
 30
0.0
 10
-30.69093271681108
 20
7.418399696257004
 30
0.0
 10
-28.89014360534037
 20
6.53911499198853
 30
0.0
 10
-27.07968431888783
 20
5.683164502153693
 30
0.0
 10
-25.261006228638
 20
4.84718803583014
 30
0.0
 10
-23.43503824518185
 20
4.028877276548833
 30
0.0
 10
-21.60288016609275
 20
3.225652795543146
 30
0.0
 10
-19.76552641813173
 20
2.43500976003741
 30
0.0
 10
-16.69634287777407
 20
1.134317551218417
 30
0.0
 10
-14.23266054713864
 20
0.1136962864103599
 30
0.0
 10
-12.3849
 20
-0.6516
 30
0.0
 11
-34.2574
 21
9.2584
 31
0.0
 11
-32.4787
 21
8.3263
 31
0.0
 11
-30.6885
 21
7.4219
 31
0.0
 11
-28.8879
 21
6.5427
 31
0.0
 11
-27.0779
 21
5.6863
 31
0.0
 11
-25.2595
 21
4.85
 31
0.0
 11
-23.4338
 21
4.0313
 31
0.0
 11
-21.6019
 21
3.2277
 31
0.0
 11
-19.7648
 21
2.4367
 31
0.0
 11
-17.9234
 21
1.6558
 31
0.0
 11
-12.3849
 21
-0.6516
 31
0.0
  0
LINE
  5
42
330
18
100
AcDbEntity
  8
DEFAULT
100
AcDbLine
 10
-17.9328
 20
1.6331
 30
0.0
 11
-17.9281
 21
1.6445
 31
0.0
  0
LINE
  5
43
330
18
100
AcDbEntity
  8
DEFAULT
100
AcDbLine
 10
-19.7759
 20
2.4098
 30
0.0
 11
-19.7648
 21
2.4367
 31
0.0
  0
LINE
  5
44
330
18
100
AcDbEntity
  8
DEFAULT
100
AcDbLine
 10
-19.787
 20
2.3829
 30
0.0
 11
-19.7759
 21
2.4098
 31
0.0
  0
SPLINE
  5
45
330
18
100
AcDbEntity
  8
DEFAULT
100
AcDbSpline
210
0.0
220
0.0
230
1.0
 70
     8
 71
     3
 72
    17
 73
    13
 74
    11
 42
0.0000001
 43
0.0000001
 44
0.0000000001
 12
0.9558128186130291
 22
-0.2939759442114555
 32
0.0
 13
0.9245437569781582
 23
-0.3810758998319265
 33
0.0
 40
0.0
 40
0.0
 40
0.0
 40
0.0
 40
2.008124480703327
 40
4.013721593784613
 40
6.01749260365575
 40
8.019938792695546
 40
10.021456017203
 40
12.0222654659012
 40
14.02268526434352
 40
16.02292390010676
 40
18.02298831906931
 40
24.0229090268787
 40
24.0229090268787
 40
24.0229090268787
 40
24.0229090268787
 10
-34.8585
 20
7.8071
 30
0.0
 10
-34.21870295999104
 20
7.610319903230367
 30
0.0
 10
-32.94066329518352
 20
7.214421118841667
 30
0.0
 10
-31.03561685529922
 20
6.586308058358969
 30
0.0
 10
-29.14052517151965
 20
5.934713923348143
 30
0.0
 10
-27.25506654251183
 20
5.259762050436684
 30
0.0
 10
-25.37788253642662
 20
4.56501007235917
 30
0.0
 10
-23.50816110017624
 20
3.852332125078886
 30
0.0
 10
-21.64459803594129
 20
3.124894634982467
 30
0.0
 10
-19.78641493309333
 20
2.384513148006505
 30
0.0
 10
-16.69613612004945
 20
1.134750748009295
 30
0.0
 10
-14.23396307758972
 20
0.1105417275495582
 30
0.0
 10
-12.3849
 20
-0.6516
 30
0.0
 11
-34.8585
 21
7.8071
 31
0.0
 11
-32.9417
 21
7.2084
 31
0.0
 11
-31.0364
 21
6.5821
 31
0.0
 11
-29.1415
 21
5.9306
 31
0.0
 11
-27.256
 21
5.2563
 31
0.0
 11
-25.3788
 21
4.5619
 31
0.0
 11
-23.509
 21
3.8498
 31
0.0
 11
-21.6454
 21
3.1227
 31
0.0
 11
-19.787
 21
2.3829
 31
0.0
 11
-17.9328
 21
1.6331
 31
0.0
 11
-12.3849
 21
-0.6516
 31
0.0
  0
LINE
  5
46
330
18
100
AcDbEntity
  8
DEFAULT
100
AcDbLine
 10
-20.8701
 20
7.8336
 30
0.0
 11
-19.4559
 21
6.4194
 31
0.0
  0
LINE
  5
47
330
18
100
AcDbEntity
  8
DEFAULT
100
AcDbLine
 10
-22.2843
 20
9.2478
 30
0.0
 11
-20.8701
 21
7.8336
 31
0.0
  0
LINE
  5
48
330
18
100
AcDbEntity
  8
DEFAULT
100
AcDbLine
 10
-19.4559
 20
6.4194
 30
0.0
 11
-18.0417
 21
5.0052
 31
0.0
  0
LINE
  5
49
330
18
100
AcDbEntity
  8
DEFAULT
100
AcDbLine
 10
-23.6986
 20
10.6621
 30
0.0
 11
-22.2843
 21
9.2478
 31
0.0
  0
LINE
  5
4A
330
18
100
AcDbEntity
  8
DEFAULT
100
AcDbLine
 10
-25.1128
 20
12.0763
 30
0.0
 11
-23.6986
 21
10.6621
 31
0.0
  0
LINE
  5
4B
330
18
100
AcDbEntity
  8
DEFAULT
100
AcDbLine
 10
-26.527
 20
13.4905
 30
0.0
 11
-25.1128
 21
12.0763
 31
0.0
  0
LINE
  5
4C
330
18
100
AcDbEntity
  8
DEFAULT
100
AcDbLine
 10
-27.9412
 20
14.9047
 30
0.0
 11
-26.527
 21
13.4905
 31
0.0
  0
LINE
  5
4D
330
18
100
AcDbEntity
  8
DEFAULT
100
AcDbLine
 10
-29.3554
 20
16.3189
 30
0.0
 11
-27.9412
 21
14.9047
 31
0.0
  0
LINE
  5
4E
330
18
100
AcDbEntity
  8
DEFAULT
100
AcDbLine
 10
-18.0417
 20
5.0052
 30
0.0
 11
-16.6275
 21
3.591
 31
0.0
  0
LINE
  5
4F
330
18
100
AcDbEntity
  8
DEFAULT
100
AcDbLine
 10
-16.6275
 20
3.591
 30
0.0
 11
-15.2133
 21
2.1768
 31
0.0
  0
LINE
  5
50
330
18
100
AcDbEntity
  8
DEFAULT
100
AcDbLine
 10
-15.2133
 20
2.1768
 30
0.0
 11
-13.7991
 21
0.7625999999999999
 31
0.0
  0
LINE
  5
51
330
18
100
AcDbEntity
  8
DEFAULT
100
AcDbLine
 10
-13.7991
 20
0.7625999999999999
 30
0.0
 11
-12.3849
 21
-0.6516
 31
0.0
  0
TEXT
  5
52
330
18
100
AcDbEntity
  8
DEFAULT
100
AcDbText
 10
-17.0379
 20
4.0013
 30
0.0
 40
0.1263
  1
0.0123
 50
315.0
  7
ARIAL
100
AcDbText
  0
TEXT
  5
53
330
18
100
AcDbEntity
  8
DEFAULT
100
AcDbText
 10
-17.0379
 20
4.0013
 30
0.0
 40
0.1263
  1
0.0123
 50
315.0
  7
ARIAL
100
AcDbText
  0
LINE
  5
54
330
18
100
AcDbEntity
  8
DEFAULT
100
AcDbLine
 10
-19.4559
 20
6.4194
 30
0.0
 11
-19.4158
 21
6.4596
 31
0.0
  0
LINE
  5
55
330
18
100
AcDbEntity
  8
DEFAULT
100
AcDbLine
 10
-20.8701
 20
7.8336
 30
0.0
 11
-20.8007
 21
7.9031
 31
0.0
  0
LINE
  5
56
330
18
100
AcDbEntity
  8
DEFAULT
100
AcDbLine
 10
-20.9396
 20
7.7642
 30
0.0
 11
-20.8701
 21
7.8336
 31
0.0
  0
LINE
  5
57
330
18
100
AcDbEntity
  8
DEFAULT
100
AcDbLine
 10
-19.4961
 20
6.3793
 30
0.0
 11
-19.4559
 21
6.4194
 31
0.0
  0
LINE
  5
58
330
18
100
AcDbEntity
  8
DEFAULT
100
AcDbLine
 10
-22.2843
 20
9.2478
 30
0.0
 11
-22.1741
 21
9.3581
 31
0.0
  0
LINE
  5
59
330
18
100
AcDbEntity
  8
DEFAULT
100
AcDbLine
 10
-22.3946
 20
9.137600000000001
 30
0.0
 11
-22.2843
 21
9.2478
 31
0.0
  0
LINE
  5
5A
330
18
100
AcDbEntity
  8
DEFAULT
100
AcDbLine
 10
-23.6986
 20
10.6621
 30
0.0
 11
-23.534
 21
10.8266
 31
0.0
  0
LINE
  5
5B
330
18
100
AcDbEntity
  8
DEFAULT
100
AcDbLine
 10
-23.8631
 20
10.4975
 30
0.0
 11
-23.6986
 21
10.6621
 31
0.0
  0
LINE
  5
5C
330
18
100
AcDbEntity
  8
DEFAULT
100
AcDbLine
 10
-25.1128
 20
12.0763
 30
0.0
 11
-24.8785
 21
12.3105
 31
0.0
  0
LINE
  5
5D
330
18
100
AcDbEntity
  8
DEFAULT
100
AcDbLine
 10
-25.347
 20
11.842
 30
0.0
 11
-25.1128
 21
12.0763
 31
0.0
  0
LINE
  5
5E
330
18
100
AcDbEntity
  8
DEFAULT
100
AcDbLine
 10
-26.527
 20
13.4905
 30
0.0
 11
-26.2056
 21
13.8119
 31
0.0
  0
LINE
  5
5F
330
18
100
AcDbEntity
  8
DEFAULT
100
AcDbLine
 10
-26.8484
 20
13.1691
 30
0.0
 11
-26.527
 21
13.4905
 31
0.0
  0
LINE
  5
60
330
18
100
AcDbEntity
  8
DEFAULT
100
AcDbLine
 10
-27.9412
 20
14.9047
 30
0.0
 11
-27.5134
 21
15.3325
 31
0.0
  0
LINE
  5
61
330
18
100
AcDbEntity
  8
DEFAULT
100
AcDbLine
 10
-28.369
 20
14.4769
 30
0.0
 11
-27.9412
 21
14.9047
 31
0.0
  0
LINE
  5
62
330
18
100
AcDbEntity
  8
DEFAULT
100
AcDbLine
 10
-29.3554
 20
16.3189
 30
0.0
 11
-28.8001
 21
16.8743
 31
0.0
  0
LINE
  5
63
330
18
100
AcDbEntity
  8
DEFAULT
100
AcDbLine
 10
-29.9108
 20
15.7636
 30
0.0
 11
-29.3554
 21
16.3189
 31
0.0
  0
SPLINE
  5
64
330
18
100
AcDbEntity
  8
DEFAULT
100
AcDbSpline
210
0.0
220
0.0
230
1.0
 70
     8
 71
     3
 72
    17
 73
    13
 74
    11
 42
0.0000001
 43
0.0000001
 44
0.0000000001
 12
0.6375067854554151
 22
-0.770444740716882
 32
0.0
 13
0.7071067811865475
 23
-0.7071067811865475
 33
0.0
 40
0.0
 40
0.0
 40
0.0
 40
0.0
 40
2.008169347938566
 40
4.013802714234609
 40
6.017648109967524
 40
8.02005652485196
 40
10.02151106093316
 40
12.02232403570116
 40
14.02273405867145
 40
16.02297667645561
 40
18.02302830078934
 40
24.02298337562115
 40
24.02298337562115
 40
24.02298337562115
 40
24.02298337562115
 10
-28.8001
 20
16.8743
 30
0.0
 10
-28.37335947144853
 20
16.35857216247063
 30
0.0
 10
-27.51861153298717
 20
15.3292038787484
 30
0.0
 10
-26.20916105099902
 20
13.80957223022783
 30
0.0
 10
-24.88195657692815
 20
12.30804977223063
 30
0.0
 10
-23.53685731366803
 20
10.82440900192249
 30
0.0
 10
-22.1765850376251
 20
9.356066847895585
 30
0.0
 10
-20.80273345240074
 20
7.901347782139069
 30
0.0
 10
-19.41751493864563
 20
6.458018728874279
 30
0.0
 10
-18.02241566104276
 20
5.024600706441278
 30
0.0
 10
-15.68475438572338
 20
2.648238876129211
 30
0.0
 10
-13.7991029734094
 20
0.7626029734094038
 30
0.0
 10
-12.3849
 20
-0.6516
 30
0.0
 11
-28.8001
 21
16.8743
 31
0.0
 11
-27.5134
 21
15.3325
 31
0.0
 11
-26.2056
 21
13.8119
 31
0.0
 11
-24.8785
 21
12.3105
 31
0.0
 11
-23.534
 21
10.8266
 31
0.0
 11
-22.1741
 21
9.3581
 31
0.0
 11
-20.8007
 21
7.9031
 31
0.0
 11
-19.4158
 21
6.4596
 31
0.0
 11
-18.0211
 21
5.0258
 31
0.0
 11
-16.6188
 21
3.5997
 31
0.0
 11
-12.3849
 21
-0.6516
 31
0.0
  0
LINE
  5
65
330
18
100
AcDbEntity
  8
DEFAULT
100
AcDbLine
 10
-16.6362
 20
3.5823
 30
0.0
 11
-16.6275
 21
3.591
 31
0.0
  0
LINE
  5
66
330
18
100
AcDbEntity
  8
DEFAULT
100
AcDbLine
 10
-18.0417
 20
5.0052
 30
0.0
 11
-18.0211
 21
5.0258
 31
0.0
  0
LINE
  5
67
330
18
100
AcDbEntity
  8
DEFAULT
100
AcDbLine
 10
-18.0623
 20
4.9846
 30
0.0
 11
-18.0417
 21
5.0052
 31
0.0
  0
SPLINE
  5
68
330
18
100
AcDbEntity
  8
DEFAULT
100
AcDbSpline
210
0.0
220
0.0
230
1.0
 70
     8
 71
     3
 72
    17
 73
    13
 74
    11
 42
0.0000001
 43
0.0000001
 44
0.0000000001
 12
0.770444740716882
 22
-0.6375067854554151
 32
0.0
 13
0.708296279479247
 23
-0.7059152785397526
 33
0.0
 40
0.0
 40
0.0
 40
0.0
 40
0.0
 40
2.008169347938563
 40
4.013802714234606
 40
6.017648109967521
 40
8.020056524851958
 40
10.02151106093315
 40
12.02232403570116
 40
14.02273405867145
 40
16.0229766764556
 40
18.02302830078934
 40
24.02298337562115
 40
24.02298337562115
 40
24.02298337562115
 40
24.02298337562115
 10
-29.9108
 20
15.7636
 30
0.0
 10
-29.39507216247063
 20
15.33685947144853
 30
0.0
 10
-28.36570387328237
 20
14.48211153846241
 30
0.0
 10
-26.84607224932575
 20
13.1726610318689
 30
0.0
 10
-25.34454970138419
 20
11.84545664789398
 30
0.0
 10
-23.86090926597873
 20
10.50035704916685
 30
0.0
 10
-22.39256586307875
 20
9.140086024101395
 30
0.0
 10
-20.93785145596002
 20
7.766229772389254
 30
0.0
 10
-19.49450502138449
 20
6.381028669233105
 30
0.0
 10
-18.06115185704609
 20
4.985864424247055
 30
0.0
 10
-15.68438666058777
 20
2.64860719476266
 30
0.0
 10
-13.801481952182
 20
0.7602199859586329
 30
0.0
 10
-12.3849
 20
-0.6516
 30
0.0
 11
-29.9108
 21
15.7636
 31
0.0
 11
-28.369
 21
14.4769
 31
0.0
 11
-26.8484
 21
13.1691
 31
0.0
 11
-25.347
 21
11.842
 31
0.0
 11
-23.8631
 21
10.4975
 31
0.0
 11
-22.3946
 21
9.137600000000001
 31
0.0
 11
-20.9396
 21
7.7642
 31
0.0
 11
-19.4961
 21
6.3793
 31
0.0
 11
-18.0623
 21
4.9846
 31
0.0
 11
-16.6362
 21
3.5823
 31
0.0
 11
-12.3849
 21
-0.6516
 31
0.0
  0
LINE
  5
69
330
18
100
AcDbEntity
  8
DEFAULT
100
AcDbLine
 10
-16.9771
 20
10.4349
 30
0.0
 11
-16.2117
 21
8.5871
 31
0.0
  0
LINE
  5
6A
330
18
100
AcDbEntity
  8
DEFAULT
100
AcDbLine
 10
-17.7424
 20
12.2827
 30
0.0
 11
-16.9771
 21
10.4349
 31
0.0
  0
LINE
  5
6B
330
18
100
AcDbEntity
  8
DEFAULT
100
AcDbLine
 10
-16.2117
 20
8.5871
 30
0.0
 11
-15.4463
 21
6.7394
 31
0.0
  0
LINE
  5
6C
330
18
100
AcDbEntity
  8
DEFAULT
100
AcDbLine
 10
-18.5078
 20
14.1304
 30
0.0
 11
-17.7424
 21
12.2827
 31
0.0
  0
LINE
  5
6D
330
18
100
AcDbEntity
  8
DEFAULT
100
AcDbLine
 10
-19.2732
 20
15.9782
 30
0.0
 11
-18.5078
 21
14.1304
 31
0.0
  0
LINE
  5
6E
330
18
100
AcDbEntity
  8
DEFAULT
100
AcDbLine
 10
-20.0385
 20
17.8259
 30
0.0
 11
-19.2732
 21
15.9782
 31
0.0
  0
LINE
  5
6F
330
18
100
AcDbEntity
  8
DEFAULT
100
AcDbLine
 10
-20.8039
 20
19.6737
 30
0.0
 11
-20.0385
 21
17.8259
 31
0.0
  0
LINE
  5
70
330
18
100
AcDbEntity
  8
DEFAULT
100
AcDbLine
 10
-21.5693
 20
21.5215
 30
0.0
 11
-20.8039
 21
19.6737
 31
0.0
  0
LINE
  5
71
330
18
100
AcDbEntity
  8
DEFAULT
100
AcDbLine
 10
-15.4463
 20
6.7394
 30
0.0
 11
-14.681
 21
4.8916
 31
0.0
  0
LINE
  5
72
330
18
100
AcDbEntity
  8
DEFAULT
100
AcDbLine
 10
-14.681
 20
4.8916
 30
0.0
 11
-13.9156
 21
3.0439
 31
0.0
  0
LINE
  5
73
330
18
100
AcDbEntity
  8
DEFAULT
100
AcDbLine
 10
-13.9156
 20
3.0439
 30
0.0
 11
-13.1502
 21
1.1961
 31
0.0
  0
LINE
  5
74
330
18
100
AcDbEntity
  8
DEFAULT
100
AcDbLine
 10
-13.1502
 20
1.1961
 30
0.0
 11
-12.3849
 21
-0.6516
 31
0.0
  0
TEXT
  5
75
330
18
100
AcDbEntity
  8
DEFAULT
100
AcDbText
 10
-14.9031
 20
5.4277
 30
0.0
 40
0.1263
  1
0.0123
 50
292.5
  7
ARIAL
100
AcDbText
  0
TEXT
  5
76
330
18
100
AcDbEntity
  8
DEFAULT
100
AcDbText
 10
-14.9031
 20
5.4277
 30
0.0
 40
0.1263
  1
0.0123
 50
292.5
  7
ARIAL
100
AcDbText
  0
LINE
  5
77
330
18
100
AcDbEntity
  8
DEFAULT
100
AcDbLine
 10
-16.2117
 20
8.5871
 30
0.0
 11
-16.1592
 21
8.6089
 31
0.0
  0
LINE
  5
78
330
18
100
AcDbEntity
  8
DEFAULT
100
AcDbLine
 10
-16.9771
 20
10.4349
 30
0.0
 11
-16.8863
 21
10.4725
 31
0.0
  0
LINE
  5
79
330
18
100
AcDbEntity
  8
DEFAULT
100
AcDbLine
 10
-17.0678
 20
10.3973
 30
0.0
 11
-16.9771
 21
10.4349
 31
0.0
  0
LINE
  5
7A
330
18
100
AcDbEntity
  8
DEFAULT
100
AcDbLine
 10
-16.2642
 20
8.5654
 30
0.0
 11
-16.2117
 21
8.5871
 31
0.0
  0
LINE
  5
7B
330
18
100
AcDbEntity
  8
DEFAULT
100
AcDbLine
 10
-17.7424
 20
12.2827
 30
0.0
 11
-17.5984
 21
12.3423
 31
0.0
  0
LINE
  5
7C
330
18
100
AcDbEntity
  8
DEFAULT
100
AcDbLine
 10
-17.8865
 20
12.223
 30
0.0
 11
-17.7424
 21
12.2827
 31
0.0
  0
LINE
  5
7D
330
18
100
AcDbEntity
  8
DEFAULT
100
AcDbLine
 10
-18.5078
 20
14.1304
 30
0.0
 11
-18.2928
 21
14.2195
 31
0.0
  0
LINE
  5
7E
330
18
100
AcDbEntity
  8
DEFAULT
100
AcDbLine
 10
-18.7228
 20
14.0414
 30
0.0
 11
-18.5078
 21
14.1304
 31
0.0
  0
LINE
  5
7F
330
18
100
AcDbEntity
  8
DEFAULT
100
AcDbLine
 10
-19.2732
 20
15.9782
 30
0.0
 11
-18.9671
 21
16.105
 31
0.0
  0
LINE
  5
80
330
18
100
AcDbEntity
  8
DEFAULT
100
AcDbLine
 10
-19.5792
 20
15.8514
 30
0.0
 11
-19.2732
 21
15.9782
 31
0.0
  0
LINE
  5
81
330
18
100
AcDbEntity
  8
DEFAULT
100
AcDbLine
 10
-20.0385
 20
17.8259
 30
0.0
 11
-19.6186
 21
17.9999
 31
0.0
  0
LINE
  5
82
330
18
100
AcDbEntity
  8
DEFAULT
100
AcDbLine
 10
-20.4584
 20
17.652
 30
0.0
 11
-20.0385
 21
17.8259
 31
0.0
  0
LINE
  5
83
330
18
100
AcDbEntity
  8
DEFAULT
100
AcDbLine
 10
-20.8039
 20
19.6737
 30
0.0
 11
-20.2449
 21
19.9052
 31
0.0
  0
LINE
  5
84
330
18
100
AcDbEntity
  8
DEFAULT
100
AcDbLine
 10
-21.3628
 20
19.4422
 30
0.0
 11
-20.8039
 21
19.6737
 31
0.0
  0
LINE
  5
85
330
18
100
AcDbEntity
  8
DEFAULT
100
AcDbLine
 10
-21.5693
 20
21.5215
 30
0.0
 11
-20.8436
 21
21.822
 31
0.0
  0
LINE
  5
86
330
18
100
AcDbEntity
  8
DEFAULT
100
AcDbLine
 10
-22.2949
 20
21.2209
 30
0.0
 11
-21.5693
 21
21.5215
 31
0.0
  0
SPLINE
  5
87
330
18
100
AcDbEntity
  8
DEFAULT
100
AcDbSpline
210
0.0
220
0.0
230
1.0
 70
     8
 71
     3
 72
    17
 73
    13
 74
    11
 42
0.0000001
 43
0.0000001
 44
0.0000000001
 12
0.2939759442114555
 22
-0.9558128186130291
 32
0.0
 13
0.3826530485829734
 23
-0.9238921173005843
 33
0.0
 40
0.0
 40
0.0
 40
0.0
 40
0.0
 40
2.008124480703323
 40
4.013721593784613
 40
6.017492603655752
 40
8.019938792695548
 40
10.021456017203
 40
12.0222654659012
 40
14.02268526434352
 40
16.02292390010676
 40
18.02298831906931
 40
24.02290902687871
 40
24.02290902687871
 40
24.02290902687871
 40
24.02290902687871
 10
-20.8436
 20
21.822
 30
0.0
 10
-20.64681990323037
 20
21.18220295999104
 30
0.0
 10
-20.25092111159447
 20
19.90416329817788
 30
0.0
 10
-19.62280808368007
 20
17.99911684483717
 30
0.0
 10
-18.97121382941582
 20
16.10402521033021
 30
0.0
 10
-18.29626240056163
 20
14.21856639784868
 30
0.0
 10
-17.6015087665454
 20
12.34138307595725
 30
0.0
 10
-16.88883699619804
 20
10.47165908754775
 30
0.0
 10
-16.1613764601209
 20
8.608105545354029
 30
0.0
 10
-15.4210809686811
 20
6.749886911232688
 30
0.0
 10
-14.17078374408082
 20
3.659829074765456
 30
0.0
 10
-13.15019598336646
 20
1.196159815457882
 30
0.0
 10
-12.3849
 20
-0.6516
 30
0.0
 11
-20.8436
 21
21.822
 31
0.0
 11
-20.2449
 21
19.9052
 31
0.0
 11
-19.6186
 21
17.9999
 31
0.0
 11
-18.9671
 21
16.105
 31
0.0
 11
-18.2928
 21
14.2195
 31
0.0
 11
-17.5984
 21
12.3423
 31
0.0
 11
-16.8863
 21
10.4725
 31
0.0
 11
-16.1592
 21
8.6089
 31
0.0
 11
-15.4194
 21
6.7505
 31
0.0
 11
-14.6696
 21
4.8963
 31
0.0
 11
-12.3849
 21
-0.6516
 31
0.0
  0
LINE
  5
88
330
18
100
AcDbEntity
  8
DEFAULT
100
AcDbLine
 10
-14.6923
 20
4.8869
 30
0.0
 11
-14.681
 21
4.8916
 31
0.0
  0
LINE
  5
89
330
18
100
AcDbEntity
  8
DEFAULT
100
AcDbLine
 10
-15.4463
 20
6.7394
 30
0.0
 11
-15.4194
 21
6.7505
 31
0.0
  0
LINE
  5
8A
330
18
100
AcDbEntity
  8
DEFAULT
100
AcDbLine
 10
-15.4732
 20
6.7283
 30
0.0
 11
-15.4463
 21
6.7394
 31
0.0
  0
SPLINE
  5
8B
330
18
100
AcDbEntity
  8
DEFAULT
100
AcDbSpline
210
0.0
220
0.0
230
1.0
 70
     8
 71
     3
 72
    17
 73
    13
 74
    11
 42
0.0000001
 43
0.0000001
 44
0.0000000001
 12
0.4678748555085701
 22
-0.8837947270621356
 32
0.0
 13
0.3842699139733119
 23
-0.9232207933181226
 33
0.0
 40
0.0
 40
0.0
 40
0.0
 40
0.0
 40
2.008129502796072
 40
4.013810284974531
 40
6.017594954044539
 40
8.019973779342092
 40
10.0214672842029
 40
12.0223296432871
 40
14.02273724425247
 40
16.02289159079675
 40
18.02303127841859
 40
24.02295436209225
 40
24.02295436209225
 40
24.02295436209225
 40
24.02295436209225
 10
-22.2949
 20
21.2209
 30
0.0
 10
-21.9817155663456
 20
20.62930857805698
 30
0.0
 10
-21.35772550738995
 20
19.4457389473879
 30
0.0
 10
-20.45489972221718
 20
17.65443270603239
 30
0.0
 10
-19.57561489569087
 20
15.85364364532325
 30
0.0
 10
-18.71966486108277
 20
14.04318416986015
 30
0.0
 10
-17.88368669712472
 20
12.2245067844697
 30
0.0
 10
-17.0653822705059
 20
10.39853617168633
 30
0.0
 10
-16.26213416333868
 20
8.566387902201006
 30
0.0
 10
-15.4715792869398
 20
6.728997550498539
 30
0.0
 10
-14.17033876590318
 20
3.660041669872961
 30
0.0
 10
-13.15342997573659
 20
1.194817916385637
 30
0.0
 10
-12.3849
 20
-0.6516
 30
0.0
 11
-22.2949
 21
21.2209
 31
0.0
 11
-21.3628
 21
19.4422
 31
0.0
 11
-20.4584
 21
17.652
 31
0.0
 11
-19.5792
 21
15.8514
 31
0.0
 11
-18.7228
 21
14.0414
 31
0.0
 11
-17.8865
 21
12.223
 31
0.0
 11
-17.0678
 21
10.3973
 31
0.0
 11
-16.2642
 21
8.5654
 31
0.0
 11
-15.4732
 21
6.7283
 31
0.0
 11
-14.6923
 21
4.8869
 31
0.0
 11
-12.3849
 21
-0.6516
 31
0.0
  0
LINE
  5
8C
330
18
100
AcDbEntity
  8
DEFAULT
100
AcDbLine
 10
-12.3849
 20
9.3484
 30
0.0
 11
-12.3849
 21
11.3484
 31
0.0
  0
LINE
  5
8D
330
18
100
AcDbEntity
  8
DEFAULT
100
AcDbLine
 10
-12.3849
 20
11.3484
 30
0.0
 11
-12.3849
 21
13.3484
 31
0.0
  0
LINE
  5
8E
330
18
100
AcDbEntity
  8
DEFAULT
100
AcDbLine
 10
-12.3849
 20
7.3484
 30
0.0
 11
-12.3849
 21
9.3484
 31
0.0
  0
LINE
  5
8F
330
18
100
AcDbEntity
  8
DEFAULT
100
AcDbLine
 10
-12.3849
 20
13.3484
 30
0.0
 11
-12.3849
 21
15.3484
 31
0.0
  0
LINE
  5
90
330
18
100
AcDbEntity
  8
DEFAULT
100
AcDbLine
 10
-12.3849
 20
15.3484
 30
0.0
 11
-12.3849
 21
17.3484
 31
0.0
  0
LINE
  5
91
330
18
100
AcDbEntity
  8
DEFAULT
100
AcDbLine
 10
-12.3849
 20
17.3484
 30
0.0
 11
-12.3849
 21
19.3484
 31
0.0
  0
LINE
  5
92
330
18
100
AcDbEntity
  8
DEFAULT
100
AcDbLine
 10
-12.3849
 20
19.3484
 30
0.0
 11
-12.3849
 21
21.3484
 31
0.0
  0
LINE
  5
93
330
18
100
AcDbEntity
  8
DEFAULT
100
AcDbLine
 10
-12.3849
 20
21.3484
 30
0.0
 11
-12.3849
 21
23.3484
 31
0.0
  0
LINE
  5
94
330
18
100
AcDbEntity
  8
DEFAULT
100
AcDbLine
 10
-12.3849
 20
5.3484
 30
0.0
 11
-12.3849
 21
7.3484
 31
0.0
  0
LINE
  5
95
330
18
100
AcDbEntity
  8
DEFAULT
100
AcDbLine
 10
-12.3849
 20
3.3484
 30
0.0
 11
-12.3849
 21
5.3484
 31
0.0
  0
LINE
  5
96
330
18
100
AcDbEntity
  8
DEFAULT
100
AcDbLine
 10
-12.3849
 20
1.3484
 30
0.0
 11
-12.3849
 21
3.3484
 31
0.0
  0
LINE
  5
97
330
18
100
AcDbEntity
  8
DEFAULT
100
AcDbLine
 10
-12.3849
 20
-0.6516
 30
0.0
 11
-12.3849
 21
1.3484
 31
0.0
  0
TEXT
  5
98
330
18
100
AcDbEntity
  8
DEFAULT
100
AcDbText
 10
-12.2933
 20
5.3484
 30
0.0
 40
0.1263
  1
0.0123
 50
90.0
  7
ARIAL
100
AcDbText
  0
TEXT
  5
99
330
18
100
AcDbEntity
  8
DEFAULT
100
AcDbText
 10
-12.2933
 20
5.3484
 30
0.0
 40
0.1263
  1
0.0123
 50
90.0
  7
ARIAL
100
AcDbText
  0
LINE
  5
9A
330
18
100
AcDbEntity
  8
DEFAULT
100
AcDbLine
 10
-12.3849
 20
9.3484
 30
0.0
 11
-12.3281
 21
9.3484
 31
0.0
  0
LINE
  5
9B
330
18
100
AcDbEntity
  8
DEFAULT
100
AcDbLine
 10
-12.3849
 20
11.3484
 30
0.0
 11
-12.2867
 21
11.3484
 31
0.0
  0
LINE
  5
9C
330
18
100
AcDbEntity
  8
DEFAULT
100
AcDbLine
 10
-12.4831
 20
11.3484
 30
0.0
 11
-12.3849
 21
11.3484
 31
0.0
  0
LINE
  5
9D
330
18
100
AcDbEntity
  8
DEFAULT
100
AcDbLine
 10
-12.4417
 20
9.3484
 30
0.0
 11
-12.3849
 21
9.3484
 31
0.0
  0
LINE
  5
9E
330
18
100
AcDbEntity
  8
DEFAULT
100
AcDbLine
 10
-12.3849
 20
13.3484
 30
0.0
 11
-12.229
 21
13.3484
 31
0.0
  0
LINE
  5
9F
330
18
100
AcDbEntity
  8
DEFAULT
100
AcDbLine
 10
-12.5408
 20
13.3484
 30
0.0
 11
-12.3849
 21
13.3484
 31
0.0
  0
LINE
  5
A0
330
18
100
AcDbEntity
  8
DEFAULT
100
AcDbLine
 10
-12.3849
 20
15.3484
 30
0.0
 11
-12.1522
 21
15.3484
 31
0.0
  0
LINE
  5
A1
330
18
100
AcDbEntity
  8
DEFAULT
100
AcDbLine
 10
-12.6176
 20
15.3484
 30
0.0
 11
-12.3849
 21
15.3484
 31
0.0
  0
LINE
  5
A2
330
18
100
AcDbEntity
  8
DEFAULT
100
AcDbLine
 10
-12.3849
 20
17.3484
 30
0.0
 11
-12.0536
 21
17.3484
 31
0.0
  0
LINE
  5
A3
330
18
100
AcDbEntity
  8
DEFAULT
100
AcDbLine
 10
-12.7162
 20
17.3484
 30
0.0
 11
-12.3849
 21
17.3484
 31
0.0
  0
LINE
  5
A4
330
18
100
AcDbEntity
  8
DEFAULT
100
AcDbLine
 10
-12.3849
 20
19.3484
 30
0.0
 11
-11.9304
 21
19.3484
 31
0.0
  0
LINE
  5
A5
330
18
100
AcDbEntity
  8
DEFAULT
100
AcDbLine
 10
-12.8394
 20
19.3484
 30
0.0
 11
-12.3849
 21
19.3484
 31
0.0
  0
LINE
  5
A6
330
18
100
AcDbEntity
  8
DEFAULT
100
AcDbLine
 10
-12.3849
 20
21.3484
 30
0.0
 11
-11.7799
 21
21.3484
 31
0.0
  0
LINE
  5
A7
330
18
100
AcDbEntity
  8
DEFAULT
100
AcDbLine
 10
-12.9899
 20
21.3484
 30
0.0
 11
-12.3849
 21
21.3484
 31
0.0
  0
LINE
  5
A8
330
18
100
AcDbEntity
  8
DEFAULT
100
AcDbLine
 10
-12.3849
 20
23.3484
 30
0.0
 11
-11.5995
 21
23.3484
 31
0.0
  0
LINE
  5
A9
330
18
100
AcDbEntity
  8
DEFAULT
100
AcDbLine
 10
-13.1703
 20
23.3484
 30
0.0
 11
-12.3849
 21
23.3484
 31
0.0
  0
SPLINE
  5
AA
330
18
100
AcDbEntity
  8
DEFAULT
100
AcDbSpline
210
0.0
220
0.0
230
1.0
 70
     8
 71
     3
 72
    17
 73
    13
 74
    11
 42
0.0000001
 43
0.0000001
 44
0.0000000001
 12
-0.09408997148152214
 22
-0.9955636982466799
 32
0.0
 13
0.0
 23
-1.0
 33
0.0
 40
0.0
 40
0.0
 40
0.0
 40
0.0
 40
2.008119558193685
 40
4.013774127156147
 40
6.017565094298179
 40
8.019994109269748
 40
10.02146812608835
 40
12.0223002754702
 40
14.02272871957912
 40
16.02292053288103
 40
18.0229910916364
 40
24.02300369912315
 40
24.02300369912315
 40
24.02300369912315
 40
24.02300369912315
 10
-11.5995
 20
23.3484
 30
0.0
 10
-11.66248130398731
 20
22.68199635537441
 30
0.0
 10
-11.78588438507803
 20
21.34972801106074
 30
0.0
 10
-11.93459608740774
 20
19.34929955797942
 30
0.0
 10
-12.05774764794216
 20
17.34908479435834
 30
0.0
 10
-12.15578412950599
 20
15.34887231762491
 30
0.0
 10
-12.2321883688203
 20
13.34871941629169
 30
0.0
 10
-12.28939640172065
 20
11.34859949952034
 30
0.0
 10
-12.33039517200523
 20
9.348517015963576
 30
0.0
 10
-12.35761018841359
 20
7.348459452008699
 30
0.0
 10
-12.38485897841644
 20
4.015131926066117
 30
0.0
 10
-12.3849
 20
1.348404202495585
 30
0.0
 10
-12.3849
 20
-0.6516
 30
0.0
 11
-11.5995
 21
23.3484
 31
0.0
 11
-11.7799
 21
21.3484
 31
0.0
 11
-11.9304
 21
19.3484
 31
0.0
 11
-12.0536
 21
17.3484
 31
0.0
 11
-12.1522
 21
15.3484
 31
0.0
 11
-12.229
 21
13.3484
 31
0.0
 11
-12.2867
 21
11.3484
 31
0.0
 11
-12.3281
 21
9.3484
 31
0.0
 11
-12.3558
 21
7.3484
 31
0.0
 11
-12.3726
 21
5.3484
 31
0.0
 11
-12.3849
 21
-0.6516
 31
0.0
  0
LINE
  5
AB
330
18
100
AcDbEntity
  8
DEFAULT
100
AcDbLine
 10
-12.3972
 20
5.3484
 30
0.0
 11
-12.3849
 21
5.3484
 31
0.0
  0
LINE
  5
AC
330
18
100
AcDbEntity
  8
DEFAULT
100
AcDbLine
 10
-12.3849
 20
7.3484
 30
0.0
 11
-12.3558
 21
7.3484
 31
0.0
  0
LINE
  5
AD
330
18
100
AcDbEntity
  8
DEFAULT
100
AcDbLine
 10
-12.414
 20
7.3484
 30
0.0
 11
-12.3849
 21
7.3484
 31
0.0
  0
SPLINE
  5
AE
330
18
100
AcDbEntity
  8
DEFAULT
100
AcDbSpline
210
0.0
220
0.0
230
1.0
 70
     8
 71
     3
 72
    17
 73
    13
 74
    11
 42
0.0000001
 43
0.0000001
 44
0.0000000001
 12
0.09408997148152214
 22
-0.9955636982466799
 32
0.0
 13
0.001713999196308537
 23
-0.9999985311022989
 33
0.0
 40
0.0
 40
0.0
 40
0.0
 40
0.0
 40
2.008119558193685
 40
4.013774127156147
 40
6.017565094298179
 40
8.019994109269748
 40
10.02146812608835
 40
12.0223002754702
 40
14.02272871957912
 40
16.02292053288103
 40
18.0229910916364
 40
24.02300369912315
 40
24.02300369912315
 40
24.02300369912315
 40
24.02300369912315
 10
-13.1703
 20
23.3484
 30
0.0
 10
-13.10731869601269
 20
22.68199635537441
 30
0.0
 10
-12.98391560704593
 20
21.34972801106749
 30
0.0
 10
-12.83520394011116
 20
19.34929955795584
 30
0.0
 10
-12.71205224997538
 20
17.34908479444583
 30
0.0
 10
-12.61401625098822
 20
15.34887231729883
 30
0.0
 10
-12.53761021210165
 20
13.34871941750784
 30
0.0
 10
-12.48040889209279
 20
11.34859949498354
 30
0.0
 10
-12.43938507640556
 20
9.348517032890694
 30
0.0
 10
-12.41226351448354
 20
7.348459388845299
 30
0.0
 10
-12.38443349320832
 20
4.015132361018051
 30
0.0
 10
-12.38832800559569
 20
1.34840126469401
 30
0.0
 10
-12.3849
 20
-0.6516
 30
0.0
 11
-13.1703
 21
23.3484
 31
0.0
 11
-12.9899
 21
21.3484
 31
0.0
 11
-12.8394
 21
19.3484
 31
0.0
 11
-12.7162
 21
17.3484
 31
0.0
 11
-12.6176
 21
15.3484
 31
0.0
 11
-12.5408
 21
13.3484
 31
0.0
 11
-12.4831
 21
11.3484
 31
0.0
 11
-12.4417
 21
9.3484
 31
0.0
 11
-12.414
 21
7.3484
 31
0.0
 11
-12.3972
 21
5.3484
 31
0.0
 11
-12.3849
 21
-0.6516
 31
0.0
  0
LINE
  5
AF
330
18
100
AcDbEntity
  8
DEFAULT
100
AcDbLine
 10
-24.3849
 20
-0.6516
 30
0.0
 11
-22.3849
 21
-0.6516
 31
0.0
  0
LINE
  5
B0
330
18
100
AcDbEntity
  8
DEFAULT
100
AcDbLine
 10
-26.3849
 20
-0.6516
 30
0.0
 11
-24.3849
 21
-0.6516
 31
0.0
  0
LINE
  5
B1
330
18
100
AcDbEntity
  8
DEFAULT
100
AcDbLine
 10
-22.3849
 20
-0.6516
 30
0.0
 11
-20.3849
 21
-0.6516
 31
0.0
  0
LINE
  5
B2
330
18
100
AcDbEntity
  8
DEFAULT
100
AcDbLine
 10
-28.3849
 20
-0.6516
 30
0.0
 11
-26.3849
 21
-0.6516
 31
0.0
  0
LINE
  5
B3
330
18
100
AcDbEntity
  8
DEFAULT
100
AcDbLine
 10
-30.3849
 20
-0.6516
 30
0.0
 11
-28.3849
 21
-0.6516
 31
0.0
  0
LINE
  5
B4
330
18
100
AcDbEntity
  8
DEFAULT
100
AcDbLine
 10
-32.3849
 20
-0.6516
 30
0.0
 11
-30.3849
 21
-0.6516
 31
0.0
  0
LINE
  5
B5
330
18
100
AcDbEntity
  8
DEFAULT
100
AcDbLine
 10
-34.3849
 20
-0.6516
 30
0.0
 11
-32.3849
 21
-0.6516
 31
0.0
  0
LINE
  5
B6
330
18
100
AcDbEntity
  8
DEFAULT
100
AcDbLine
 10
-36.3849
 20
-0.6516
 30
0.0
 11
-34.3849
 21
-0.6516
 31
0.0
  0
LINE
  5
B7
330
18
100
AcDbEntity
  8
DEFAULT
100
AcDbLine
 10
-20.3849
 20
-0.6516
 30
0.0
 11
-18.3849
 21
-0.6516
 31
0.0
  0
LINE
  5
B8
330
18
100
AcDbEntity
  8
DEFAULT
100
AcDbLine
 10
-18.3849
 20
-0.6516
 30
0.0
 11
-16.3849
 21
-0.6516
 31
0.0
  0
LINE
  5
B9
330
18
100
AcDbEntity
  8
DEFAULT
100
AcDbLine
 10
-16.3849
 20
-0.6516
 30
0.0
 11
-14.3849
 21
-0.6516
 31
0.0
  0
LINE
  5
BA
330
18
100
AcDbEntity
  8
DEFAULT
100
AcDbLine
 10
-14.3849
 20
-0.6516
 30
0.0
 11
-12.3849
 21
-0.6516
 31
0.0
  0
TEXT
  5
BB
330
18
100
AcDbEntity
  8
DEFAULT
100
AcDbText
 10
-18.9653
 20
-0.6516
 30
0.0
 40
0.1263
  1
0.0123
  7
ARIAL
100
AcDbText
  0
TEXT
  5
BC
330
18
100
AcDbEntity
  8
DEFAULT
100
AcDbText
 10
-18.9653
 20
-0.6516
 30
0.0
 40
0.1263
  1
0.0123
  7
ARIAL
100
AcDbText
  0
LINE
  5
BD
330
18
100
AcDbEntity
  8
DEFAULT
100
AcDbLine
 10
-22.3849
 20
-0.6516
 30
0.0
 11
-22.3849
 21
-0.5948
 31
0.0
  0
LINE
  5
BE
330
18
100
AcDbEntity
  8
DEFAULT
100
AcDbLine
 10
-24.3849
 20
-0.6516
 30
0.0
 11
-24.3849
 21
-0.5534
 31
0.0
  0
LINE
  5
BF
330
18
100
AcDbEntity
  8
DEFAULT
100
AcDbLine
 10
-24.3849
 20
-0.7498
 30
0.0
 11
-24.3849
 21
-0.6516
 31
0.0
  0
LINE
  5
C0
330
18
100
AcDbEntity
  8
DEFAULT
100
AcDbLine
 10
-22.3849
 20
-0.7084
 30
0.0
 11
-22.3849
 21
-0.6516
 31
0.0
  0
LINE
  5
C1
330
18
100
AcDbEntity
  8
DEFAULT
100
AcDbLine
 10
-26.3849
 20
-0.6516
 30
0.0
 11
-26.3849
 21
-0.4957
 31
0.0
  0
LINE
  5
C2
330
18
100
AcDbEntity
  8
DEFAULT
100
AcDbLine
 10
-26.3849
 20
-0.8075
 30
0.0
 11
-26.3849
 21
-0.6516
 31
0.0
  0
LINE
  5
C3
330
18
100
AcDbEntity
  8
DEFAULT
100
AcDbLine
 10
-28.3849
 20
-0.6516
 30
0.0
 11
-28.3849
 21
-0.4189
 31
0.0
  0
LINE
  5
C4
330
18
100
AcDbEntity
  8
DEFAULT
100
AcDbLine
 10
-28.3849
 20
-0.8843
 30
0.0
 11
-28.3849
 21
-0.6516
 31
0.0
  0
LINE
  5
C5
330
18
100
AcDbEntity
  8
DEFAULT
100
AcDbLine
 10
-30.3849
 20
-0.6516
 30
0.0
 11
-30.3849
 21
-0.3203
 31
0.0
  0
LINE
  5
C6
330
18
100
AcDbEntity
  8
DEFAULT
100
AcDbLine
 10
-30.3849
 20
-0.9829
 30
0.0
 11
-30.3849
 21
-0.6516
 31
0.0
  0
LINE
  5
C7
330
18
100
AcDbEntity
  8
DEFAULT
100
AcDbLine
 10
-32.3849
 20
-0.6516
 30
0.0
 11
-32.3849
 21
-0.1971
 31
0.0
  0
LINE
  5
C8
330
18
100
AcDbEntity
  8
DEFAULT
100
AcDbLine
 10
-32.3849
 20
-1.1061
 30
0.0
 11
-32.3849
 21
-0.6516
 31
0.0
  0
LINE
  5
C9
330
18
100
AcDbEntity
  8
DEFAULT
100
AcDbLine
 10
-34.3849
 20
-0.6516
 30
0.0
 11
-34.3849
 21
-0.0466
 31
0.0
  0
LINE
  5
CA
330
18
100
AcDbEntity
  8
DEFAULT
100
AcDbLine
 10
-34.3849
 20
-1.2566
 30
0.0
 11
-34.3849
 21
-0.6516
 31
0.0
  0
LINE
  5
CB
330
18
100
AcDbEntity
  8
DEFAULT
100
AcDbLine
 10
-36.3849
 20
-0.6516
 30
0.0
 11
-36.3849
 21
0.1338
 31
0.0
  0
LINE
  5
CC
330
18
100
AcDbEntity
  8
DEFAULT
100
AcDbLine
 10
-36.3849
 20
-1.437
 30
0.0
 11
-36.3849
 21
-0.6516
 31
0.0
  0
SPLINE
  5
CD
330
18
100
AcDbEntity
  8
DEFAULT
100
AcDbSpline
210
0.0
220
0.0
230
1.0
 70
     8
 71
     3
 72
    17
 73
    13
 74
    11
 42
0.0000001
 43
0.0000001
 44
0.0000000001
 12
0.9955636982466799
 22
-0.09408997148152214
 32
0.0
 13
1.0
 23
0.0
 33
0.0
 40
0.0
 40
0.0
 40
0.0
 40
0.0
 40
2.008119558193685
 40
4.013774127156147
 40
6.017565094298183
 40
8.019994109269749
 40
10.02146812608835
 40
12.02230027547021
 40
14.02272871957912
 40
16.02292053288103
 40
18.0229910916364
 40
24.02300369912315
 40
24.02300369912315
 40
24.02300369912315
 40
24.02300369912315
 10
-36.3849
 20
0.1338
 30
0.0
 10
-35.71849635537441
 20
0.0708186960126898
 30
0.0
 10
-34.38622801106074
 20
-0.052584385078033
 30
0.0
 10
-32.38579955797942
 20
-0.2012960874077449
 30
0.0
 10
-30.38558479435835
 20
-0.3244476479421566
 30
0.0
 10
-28.38537231762491
 20
-0.4224841295059854
 30
0.0
 10
-26.38521941629169
 20
-0.4988883688203047
 30
0.0
 10
-24.38509949952034
 20
-0.5560964017206523
 30
0.0
 10
-22.38501701596358
 20
-0.5970951720052312
 30
0.0
 10
-20.3849594520087
 20
-0.6243101884135914
 30
0.0
 10
-17.05163192606612
 20
-0.6515589784164449
 30
0.0
 10
-14.38490420249558
 20
-0.6516
 30
0.0
 10
-12.3849
 20
-0.6516
 30
0.0
 11
-36.3849
 21
0.1338
 31
0.0
 11
-34.3849
 21
-0.0466
 31
0.0
 11
-32.3849
 21
-0.1971
 31
0.0
 11
-30.3849
 21
-0.3203
 31
0.0
 11
-28.3849
 21
-0.4189
 31
0.0
 11
-26.3849
 21
-0.4957
 31
0.0
 11
-24.3849
 21
-0.5534
 31
0.0
 11
-22.3849
 21
-0.5948
 31
0.0
 11
-20.3849
 21
-0.6225000000000001
 31
0.0
 11
-18.3849
 21
-0.6393
 31
0.0
 11
-12.3849
 21
-0.6516
 31
0.0
  0
LINE
  5
CE
330
18
100
AcDbEntity
  8
DEFAULT
100
AcDbLine
 10
-18.3849
 20
-0.6639000000000001
 30
0.0
 11
-18.3849
 21
-0.6516
 31
0.0
  0
LINE
  5
CF
330
18
100
AcDbEntity
  8
DEFAULT
100
AcDbLine
 10
-20.3849
 20
-0.6516
 30
0.0
 11
-20.3849
 21
-0.6225000000000001
 31
0.0
  0
LINE
  5
D0
330
18
100
AcDbEntity
  8
DEFAULT
100
AcDbLine
 10
-20.3849
 20
-0.6807
 30
0.0
 11
-20.3849
 21
-0.6516
 31
0.0
  0
SPLINE
  5
D1
330
18
100
AcDbEntity
  8
DEFAULT
100
AcDbSpline
210
0.0
220
0.0
230
1.0
 70
     8
 71
     3
 72
    17
 73
    13
 74
    11
 42
0.0000001
 43
0.0000001
 44
0.0000000001
 12
0.9955636982466799
 22
0.09408997148152214
 32
0.0
 13
0.9999985311022989
 23
0.001713999196308537
 33
0.0
 40
0.0
 40
0.0
 40
0.0
 40
0.0
 40
2.008119558193685
 40
4.013774127156147
 40
6.017565094298183
 40
8.019994109269749
 40
10.02146812608835
 40
12.02230027547021
 40
14.02272871957912
 40
16.02292053288103
 40
18.0229910916364
 40
24.02300369912315
 40
24.02300369912315
 40
24.02300369912315
 40
24.02300369912315
 10
-36.3849
 20
-1.437
 30
0.0
 10
-35.71849635537441
 20
-1.37401869601269
 30
0.0
 10
-34.38622801106749
 20
-1.250615607045931
 30
0.0
 10
-32.38579955795584
 20
-1.101903940111167
 30
0.0
 10
-30.38558479444583
 20
-0.9787522499753762
 30
0.0
 10
-28.38537231729882
 20
-0.8807162509882226
 30
0.0
 10
-26.38521941750784
 20
-0.8043102121016504
 30
0.0
 10
-24.38509949498354
 20
-0.7471088920927949
 30
0.0
 10
-22.38501703289069
 20
-0.7060850764055611
 30
0.0
 10
-20.3849593888453
 20
-0.6789635144835425
 30
0.0
 10
-17.05163236101805
 20
-0.6511334932083228
 30
0.0
 10
-14.38490126469401
 20
-0.6550280055956911
 30
0.0
 10
-12.3849
 20
-0.6516
 30
0.0
 11
-36.3849
 21
-1.437
 31
0.0
 11
-34.3849
 21
-1.2566
 31
0.0
 11
-32.3849
 21
-1.1061
 31
0.0
 11
-30.3849
 21
-0.9829
 31
0.0
 11
-28.3849
 21
-0.8843
 31
0.0
 11
-26.3849
 21
-0.8075
 31
0.0
 11
-24.3849
 21
-0.7498
 31
0.0
 11
-22.3849
 21
-0.7084
 31
0.0
 11
-20.3849
 21
-0.6807
 31
0.0
 11
-18.3849
 21
-0.6639000000000001
 31
0.0
 11
-12.3849
 21
-0.6516
 31
0.0
  0
LINE
  5
D2
330
18
100
AcDbEntity
  8
DEFAULT
100
AcDbLine
 10
-23.4714
 20
-5.2438
 30
0.0
 11
-21.6236
 21
-4.4784
 31
0.0
  0
LINE
  5
D3
330
18
100
AcDbEntity
  8
DEFAULT
100
AcDbLine
 10
-25.3192
 20
-6.0091
 30
0.0
 11
-23.4714
 21
-5.2438
 31
0.0
  0
LINE
  5
D4
330
18
100
AcDbEntity
  8
DEFAULT
100
AcDbLine
 10
-21.6236
 20
-4.4784
 30
0.0
 11
-19.7759
 21
-3.713
 31
0.0
  0
LINE
  5
D5
330
18
100
AcDbEntity
  8
DEFAULT
100
AcDbLine
 10
-27.1669
 20
-6.7745
 30
0.0
 11
-25.3192
 21
-6.0091
 31
0.0
  0
LINE
  5
D6
330
18
100
AcDbEntity
  8
DEFAULT
100
AcDbLine
 10
-29.0147
 20
-7.5399
 30
0.0
 11
-27.1669
 21
-6.7745
 31
0.0
  0
LINE
  5
D7
330
18
100
AcDbEntity
  8
DEFAULT
100
AcDbLine
 10
-30.8624
 20
-8.305199999999999
 30
0.0
 11
-29.0147
 21
-7.5399
 31
0.0
  0
LINE
  5
D8
330
18
100
AcDbEntity
  8
DEFAULT
100
AcDbLine
 10
-32.7102
 20
-9.070600000000001
 30
0.0
 11
-30.8624
 21
-8.305199999999999
 31
0.0
  0
LINE
  5
D9
330
18
100
AcDbEntity
  8
DEFAULT
100
AcDbLine
 10
-34.558
 20
-9.836
 30
0.0
 11
-32.7102
 21
-9.070600000000001
 31
0.0
  0
LINE
  5
DA
330
18
100
AcDbEntity
  8
DEFAULT
100
AcDbLine
 10
-19.7759
 20
-3.713
 30
0.0
 11
-17.9281
 21
-2.9477
 31
0.0
  0
LINE
  5
DB
330
18
100
AcDbEntity
  8
DEFAULT
100
AcDbLine
 10
-17.9281
 20
-2.9477
 30
0.0
 11
-16.0804
 21
-2.1823
 31
0.0
  0
LINE
  5
DC
330
18
100
AcDbEntity
  8
DEFAULT
100
AcDbLine
 10
-16.0804
 20
-2.1823
 30
0.0
 11
-14.2326
 21
-1.4169
 31
0.0
  0
LINE
  5
DD
330
18
100
AcDbEntity
  8
DEFAULT
100
AcDbLine
 10
-14.2326
 20
-1.4169
 30
0.0
 11
-12.3849
 21
-0.6516
 31
0.0
  0
TEXT
  5
DE
330
18
100
AcDbEntity
  8
DEFAULT
100
AcDbText
 10
-18.429
 20
-3.2541
 30
0.0
 40
0.1263
  1
0.0123
 50
22.5
  7
ARIAL
100
AcDbText
  0
TEXT
  5
DF
330
18
100
AcDbEntity
  8
DEFAULT
100
AcDbText
 10
-18.429
 20
-3.2541
 30
0.0
 40
0.1263
  1
0.0123
 50
22.5
  7
ARIAL
100
AcDbText
  0
LINE
  5
E0
330
18
100
AcDbEntity
  8
DEFAULT
100
AcDbLine
 10
-21.6236
 20
-4.4784
 30
0.0
 11
-21.6019
 21
-4.5309
 31
0.0
  0
LINE
  5
E1
330
18
100
AcDbEntity
  8
DEFAULT
100
AcDbLine
 10
-23.4714
 20
-5.2438
 30
0.0
 11
-23.4338
 21
-5.3345
 31
0.0
  0
LINE
  5
E2
330
18
100
AcDbEntity
  8
DEFAULT
100
AcDbLine
 10
-23.509
 20
-5.153
 30
0.0
 11
-23.4714
 21
-5.2438
 31
0.0
  0
LINE
  5
E3
330
18
100
AcDbEntity
  8
DEFAULT
100
AcDbLine
 10
-21.6454
 20
-4.4259
 30
0.0
 11
-21.6236
 21
-4.4784
 31
0.0
  0
LINE
  5
E4
330
18
100
AcDbEntity
  8
DEFAULT
100
AcDbLine
 10
-25.3192
 20
-6.0091
 30
0.0
 11
-25.2595
 21
-6.1532
 31
0.0
  0
LINE
  5
E5
330
18
100
AcDbEntity
  8
DEFAULT
100
AcDbLine
 10
-25.3788
 20
-5.8651
 30
0.0
 11
-25.3192
 21
-6.0091
 31
0.0
  0
LINE
  5
E6
330
18
100
AcDbEntity
  8
DEFAULT
100
AcDbLine
 10
-27.1669
 20
-6.7745
 30
0.0
 11
-27.0779
 21
-6.9895
 31
0.0
  0
LINE
  5
E7
330
18
100
AcDbEntity
  8
DEFAULT
100
AcDbLine
 10
-27.256
 20
-6.5595
 30
0.0
 11
-27.1669
 21
-6.7745
 31
0.0
  0
LINE
  5
E8
330
18
100
AcDbEntity
  8
DEFAULT
100
AcDbLine
 10
-29.0147
 20
-7.5399
 30
0.0
 11
-28.8879
 21
-7.8459
 31
0.0
  0
LINE
  5
E9
330
18
100
AcDbEntity
  8
DEFAULT
100
AcDbLine
 10
-29.1415
 20
-7.2338
 30
0.0
 11
-29.0147
 21
-7.5399
 31
0.0
  0
LINE
  5
EA
330
18
100
AcDbEntity
  8
DEFAULT
100
AcDbLine
 10
-30.8624
 20
-8.305199999999999
 30
0.0
 11
-30.6885
 21
-8.725099999999999
 31
0.0
  0
LINE
  5
EB
330
18
100
AcDbEntity
  8
DEFAULT
100
AcDbLine
 10
-31.0364
 20
-7.8853
 30
0.0
 11
-30.8624
 21
-8.305199999999999
 31
0.0
  0
LINE
  5
EC
330
18
100
AcDbEntity
  8
DEFAULT
100
AcDbLine
 10
-32.7102
 20
-9.070600000000001
 30
0.0
 11
-32.4787
 21
-9.6295
 31
0.0
  0
LINE
  5
ED
330
18
100
AcDbEntity
  8
DEFAULT
100
AcDbLine
 10
-32.9417
 20
-8.5116
 30
0.0
 11
-32.7102
 21
-9.070600000000001
 31
0.0
  0
LINE
  5
EE
330
18
100
AcDbEntity
  8
DEFAULT
100
AcDbLine
 10
-34.558
 20
-9.836
 30
0.0
 11
-34.2574
 21
-10.5616
 31
0.0
  0
LINE
  5
EF
330
18
100
AcDbEntity
  8
DEFAULT
100
AcDbLine
 10
-34.8585
 20
-9.110300000000001
 30
0.0
 11
-34.558
 21
-9.836
 31
0.0
  0
SPLINE
  5
F0
330
18
100
AcDbEntity
  8
DEFAULT
100
AcDbSpline
210
0.0
220
0.0
230
1.0
 70
     8
 71
     3
 72
    17
 73
    13
 74
    11
 42
0.0000001
 43
0.0000001
 44
0.0000000001
 12
0.8837947270621356
 22
0.4678748555085701
 32
0.0
 13
0.9238921173005843
 23
0.3826530485829734
 33
0.0
 40
0.0
 40
0.0
 40
0.0
 40
0.0
 40
2.008129502796066
 40
4.013810284974529
 40
6.017594954044538
 40
8.019973779342088
 40
10.0214672842029
 40
12.0223296432871
 40
14.02273724425246
 40
16.02289159079675
 40
18.02303127841859
 40
24.02295436209225
 40
24.02295436209225
 40
24.02295436209225
 40
24.02295436209225
 10
-34.2574
 20
-10.5616
 30
0.0
 10
-33.66580857805698
 20
-10.2484155663456
 30
0.0
 10
-32.482238944303
 20
-9.624425514819857
 30
0.0
 10
-30.69093271681108
 20
-8.721599696257004
 30
0.0
 10
-28.89014360534037
 20
-7.842314991988529
 30
0.0
 10
-27.07968431888783
 20
-6.986364502153694
 30
0.0
 10
-25.261006228638
 20
-6.15038803583014
 30
0.0
 10
-23.43503824518185
 20
-5.332077276548835
 30
0.0
 10
-21.60288016609275
 20
-4.528852795543146
 30
0.0
 10
-19.76552641813173
 20
-3.73820976003741
 30
0.0
 10
-16.69634287777407
 20
-2.437517551218418
 30
0.0
 10
-14.23266054713864
 20
-1.41689628641036
 30
0.0
 10
-12.3849
 20
-0.6516
 30
0.0
 11
-34.2574
 21
-10.5616
 31
0.0
 11
-32.4787
 21
-9.6295
 31
0.0
 11
-30.6885
 21
-8.725099999999999
 31
0.0
 11
-28.8879
 21
-7.8459
 31
0.0
 11
-27.0779
 21
-6.9895
 31
0.0
 11
-25.2595
 21
-6.1532
 31
0.0
 11
-23.4338
 21
-5.3345
 31
0.0
 11
-21.6019
 21
-4.5309
 31
0.0
 11
-19.7648
 21
-3.7399
 31
0.0
 11
-17.9234
 21
-2.959
 31
0.0
 11
-12.3849
 21
-0.6516
 31
0.0
  0
LINE
  5
F1
330
18
100
AcDbEntity
  8
DEFAULT
100
AcDbLine
 10
-17.9328
 20
-2.9363
 30
0.0
 11
-17.9281
 21
-2.9477
 31
0.0
  0
LINE
  5
F2
330
18
100
AcDbEntity
  8
DEFAULT
100
AcDbLine
 10
-19.7759
 20
-3.713
 30
0.0
 11
-19.7648
 21
-3.7399
 31
0.0
  0
LINE
  5
F3
330
18
100
AcDbEntity
  8
DEFAULT
100
AcDbLine
 10
-19.787
 20
-3.6861
 30
0.0
 11
-19.7759
 21
-3.713
 31
0.0
  0
SPLINE
  5
F4
330
18
100
AcDbEntity
  8
DEFAULT
100
AcDbSpline
210
0.0
220
0.0
230
1.0
 70
     8
 71
     3
 72
    17
 73
    13
 74
    11
 42
0.0000001
 43
0.0000001
 44
0.0000000001
 12
0.9558128186130291
 22
0.2939759442114555
 32
0.0
 13
0.9245437569781582
 23
0.3810758998319265
 33
0.0
 40
0.0
 40
0.0
 40
0.0
 40
0.0
 40
2.008124480703327
 40
4.013721593784613
 40
6.01749260365575
 40
8.019938792695546
 40
10.021456017203
 40
12.0222654659012
 40
14.02268526434352
 40
16.02292390010676
 40
18.02298831906931
 40
24.0229090268787
 40
24.0229090268787
 40
24.0229090268787
 40
24.0229090268787
 10
-34.8585
 20
-9.110300000000001
 30
0.0
 10
-34.21870295999104
 20
-8.913519903230368
 30
0.0
 10
-32.94066329518352
 20
-8.517621118841664
 30
0.0
 10
-31.03561685529922
 20
-7.889508058358972
 30
0.0
 10
-29.14052517151965
 20
-7.237913923348141
 30
0.0
 10
-27.25506654251183
 20
-6.562962050436685
 30
0.0
 10
-25.37788253642662
 20
-5.868210072359171
 30
0.0
 10
-23.50816110017624
 20
-5.155532125078885
 30
0.0
 10
-21.64459803594129
 20
-4.428094634982467
 30
0.0
 10
-19.78641493309333
 20
-3.687713148006504
 30
0.0
 10
-16.69613612004945
 20
-2.437950748009296
 30
0.0
 10
-14.23396307758972
 20
-1.413741727549558
 30
0.0
 10
-12.3849
 20
-0.6516
 30
0.0
 11
-34.8585
 21
-9.110300000000001
 31
0.0
 11
-32.9417
 21
-8.5116
 31
0.0
 11
-31.0364
 21
-7.8853
 31
0.0
 11
-29.1415
 21
-7.2338
 31
0.0
 11
-27.256
 21
-6.5595
 31
0.0
 11
-25.3788
 21
-5.8651
 31
0.0
 11
-23.509
 21
-5.153
 31
0.0
 11
-21.6454
 21
-4.4259
 31
0.0
 11
-19.787
 21
-3.6861
 31
0.0
 11
-17.9328
 21
-2.9363
 31
0.0
 11
-12.3849
 21
-0.6516
 31
0.0
  0
LINE
  5
F5
330
18
100
AcDbEntity
  8
DEFAULT
100
AcDbLine
 10
-20.8701
 20
-9.136799999999999
 30
0.0
 11
-19.4559
 21
-7.7226
 31
0.0
  0
LINE
  5
F6
330
18
100
AcDbEntity
  8
DEFAULT
100
AcDbLine
 10
-22.2843
 20
-10.551
 30
0.0
 11
-20.8701
 21
-9.136799999999999
 31
0.0
  0
LINE
  5
F7
330
18
100
AcDbEntity
  8
DEFAULT
100
AcDbLine
 10
-19.4559
 20
-7.7226
 30
0.0
 11
-18.0417
 21
-6.3084
 31
0.0
  0
LINE
  5
F8
330
18
100
AcDbEntity
  8
DEFAULT
100
AcDbLine
 10
-23.6986
 20
-11.9653
 30
0.0
 11
-22.2843
 21
-10.551
 31
0.0
  0
LINE
  5
F9
330
18
100
AcDbEntity
  8
DEFAULT
100
AcDbLine
 10
-25.1128
 20
-13.3795
 30
0.0
 11
-23.6986
 21
-11.9653
 31
0.0
  0
LINE
  5
FA
330
18
100
AcDbEntity
  8
DEFAULT
100
AcDbLine
 10
-26.527
 20
-14.7937
 30
0.0
 11
-25.1128
 21
-13.3795
 31
0.0
  0
LINE
  5
FB
330
18
100
AcDbEntity
  8
DEFAULT
100
AcDbLine
 10
-27.9412
 20
-16.2079
 30
0.0
 11
-26.527
 21
-14.7937
 31
0.0
  0
LINE
  5
FC
330
18
100
AcDbEntity
  8
DEFAULT
100
AcDbLine
 10
-29.3554
 20
-17.6221
 30
0.0
 11
-27.9412
 21
-16.2079
 31
0.0
  0
LINE
  5
FD
330
18
100
AcDbEntity
  8
DEFAULT
100
AcDbLine
 10
-18.0417
 20
-6.3084
 30
0.0
 11
-16.6275
 21
-4.8942
 31
0.0
  0
LINE
  5
FE
330
18
100
AcDbEntity
  8
DEFAULT
100
AcDbLine
 10
-16.6275
 20
-4.8942
 30
0.0
 11
-15.2133
 21
-3.48
 31
0.0
  0
LINE
  5
FF
330
18
100
AcDbEntity
  8
DEFAULT
100
AcDbLine
 10
-15.2133
 20
-3.48
 30
0.0
 11
-13.7991
 21
-2.0658
 31
0.0
  0
LINE
  5
100
330
18
100
AcDbEntity
  8
DEFAULT
100
AcDbLine
 10
-13.7991
 20
-2.0658
 30
0.0
 11
-12.3849
 21
-0.6516
 31
0.0
  0
TEXT
  5
101
330
18
100
AcDbEntity
  8
DEFAULT
100
AcDbText
 10
-16.9728
 20
-5.3695
 30
0.0
 40
0.1263
  1
0.0123
 50
45.0
  7
ARIAL
100
AcDbText
  0
TEXT
  5
102
330
18
100
AcDbEntity
  8
DEFAULT
100
AcDbText
 10
-16.9728
 20
-5.3695
 30
0.0
 40
0.1263
  1
0.0123
 50
45.0
  7
ARIAL
100
AcDbText
  0
LINE
  5
103
330
18
100
AcDbEntity
  8
DEFAULT
100
AcDbLine
 10
-19.4559
 20
-7.7226
 30
0.0
 11
-19.4158
 21
-7.7628
 31
0.0
  0
LINE
  5
104
330
18
100
AcDbEntity
  8
DEFAULT
100
AcDbLine
 10
-20.8701
 20
-9.136799999999999
 30
0.0
 11
-20.8007
 21
-9.206300000000001
 31
0.0
  0
LINE
  5
105
330
18
100
AcDbEntity
  8
DEFAULT
100
AcDbLine
 10
-20.9396
 20
-9.067399999999999
 30
0.0
 11
-20.8701
 21
-9.136799999999999
 31
0.0
  0
LINE
  5
106
330
18
100
AcDbEntity
  8
DEFAULT
100
AcDbLine
 10
-19.4961
 20
-7.6825
 30
0.0
 11
-19.4559
 21
-7.7226
 31
0.0
  0
LINE
  5
107
330
18
100
AcDbEntity
  8
DEFAULT
100
AcDbLine
 10
-22.2843
 20
-10.551
 30
0.0
 11
-22.1741
 21
-10.6613
 31
0.0
  0
LINE
  5
108
330
18
100
AcDbEntity
  8
DEFAULT
100
AcDbLine
 10
-22.3946
 20
-10.4408
 30
0.0
 11
-22.2843
 21
-10.551
 31
0.0
  0
LINE
  5
109
330
18
100
AcDbEntity
  8
DEFAULT
100
AcDbLine
 10
-23.6986
 20
-11.9653
 30
0.0
 11
-23.534
 21
-12.1298
 31
0.0
  0
LINE
  5
10A
330
18
100
AcDbEntity
  8
DEFAULT
100
AcDbLine
 10
-23.8631
 20
-11.8007
 30
0.0
 11
-23.6986
 21
-11.9653
 31
0.0
  0
LINE
  5
10B
330
18
100
AcDbEntity
  8
DEFAULT
100
AcDbLine
 10
-25.1128
 20
-13.3795
 30
0.0
 11
-24.8785
 21
-13.6137
 31
0.0
  0
LINE
  5
10C
330
18
100
AcDbEntity
  8
DEFAULT
100
AcDbLine
 10
-25.347
 20
-13.1452
 30
0.0
 11
-25.1128
 21
-13.3795
 31
0.0
  0
LINE
  5
10D
330
18
100
AcDbEntity
  8
DEFAULT
100
AcDbLine
 10
-26.527
 20
-14.7937
 30
0.0
 11
-26.2056
 21
-15.1151
 31
0.0
  0
LINE
  5
10E
330
18
100
AcDbEntity
  8
DEFAULT
100
AcDbLine
 10
-26.8484
 20
-14.4723
 30
0.0
 11
-26.527
 21
-14.7937
 31
0.0
  0
LINE
  5
10F
330
18
100
AcDbEntity
  8
DEFAULT
100
AcDbLine
 10
-27.9412
 20
-16.2079
 30
0.0
 11
-27.5134
 21
-16.6357
 31
0.0
  0
LINE
  5
110
330
18
100
AcDbEntity
  8
DEFAULT
100
AcDbLine
 10
-28.369
 20
-15.7801
 30
0.0
 11
-27.9412
 21
-16.2079
 31
0.0
  0
LINE
  5
111
330
18
100
AcDbEntity
  8
DEFAULT
100
AcDbLine
 10
-29.3554
 20
-17.6221
 30
0.0
 11
-28.8001
 21
-18.1775
 31
0.0
  0
LINE
  5
112
330
18
100
AcDbEntity
  8
DEFAULT
100
AcDbLine
 10
-29.9108
 20
-17.0668
 30
0.0
 11
-29.3554
 21
-17.6221
 31
0.0
  0
SPLINE
  5
113
330
18
100
AcDbEntity
  8
DEFAULT
100
AcDbSpline
210
0.0
220
0.0
230
1.0
 70
     8
 71
     3
 72
    17
 73
    13
 74
    11
 42
0.0000001
 43
0.0000001
 44
0.0000000001
 12
0.6375067854554151
 22
0.770444740716882
 32
0.0
 13
0.7071067811865475
 23
0.7071067811865475
 33
0.0
 40
0.0
 40
0.0
 40
0.0
 40
0.0
 40
2.008169347938563
 40
4.013802714234608
 40
6.017648109967523
 40
8.02005652485196
 40
10.02151106093316
 40
12.02232403570116
 40
14.02273405867145
 40
16.02297667645561
 40
18.02302830078934
 40
24.02298337562115
 40
24.02298337562115
 40
24.02298337562115
 40
24.02298337562115
 10
-28.8001
 20
-18.1775
 30
0.0
 10
-28.37335947144853
 20
-17.66177216247063
 30
0.0
 10
-27.51861153298718
 20
-16.63240387874841
 30
0.0
 10
-26.209161050999
 20
-15.11277223022782
 30
0.0
 10
-24.88195657692816
 20
-13.61124977223064
 30
0.0
 10
-23.53685731366803
 20
-12.12760900192249
 30
0.0
 10
-22.1765850376251
 20
-10.65926684789559
 30
0.0
 10
-20.80273345240074
 20
-9.20454778213907
 30
0.0
 10
-19.41751493864563
 20
-7.761218728874281
 30
0.0
 10
-18.02241566104276
 20
-6.327800706441277
 30
0.0
 10
-15.68475438572338
 20
-3.951438876129212
 30
0.0
 10
-13.7991029734094
 20
-2.065802973409403
 30
0.0
 10
-12.3849
 20
-0.6516
 30
0.0
 11
-28.8001
 21
-18.1775
 31
0.0
 11
-27.5134
 21
-16.6357
 31
0.0
 11
-26.2056
 21
-15.1151
 31
0.0
 11
-24.8785
 21
-13.6137
 31
0.0
 11
-23.534
 21
-12.1298
 31
0.0
 11
-22.1741
 21
-10.6613
 31
0.0
 11
-20.8007
 21
-9.206300000000001
 31
0.0
 11
-19.4158
 21
-7.7628
 31
0.0
 11
-18.0211
 21
-6.329
 31
0.0
 11
-16.6188
 21
-4.9029
 31
0.0
 11
-12.3849
 21
-0.6516
 31
0.0
  0
LINE
  5
114
330
18
100
AcDbEntity
  8
DEFAULT
100
AcDbLine
 10
-16.6362
 20
-4.8855
 30
0.0
 11
-16.6275
 21
-4.8942
 31
0.0
  0
LINE
  5
115
330
18
100
AcDbEntity
  8
DEFAULT
100
AcDbLine
 10
-18.0417
 20
-6.3084
 30
0.0
 11
-18.0211
 21
-6.329
 31
0.0
  0
LINE
  5
116
330
18
100
AcDbEntity
  8
DEFAULT
100
AcDbLine
 10
-18.0623
 20
-6.2878
 30
0.0
 11
-18.0417
 21
-6.3084
 31
0.0
  0
SPLINE
  5
117
330
18
100
AcDbEntity
  8
DEFAULT
100
AcDbSpline
210
0.0
220
0.0
230
1.0
 70
     8
 71
     3
 72
    17
 73
    13
 74
    11
 42
0.0000001
 43
0.0000001
 44
0.0000000001
 12
0.770444740716882
 22
0.6375067854554151
 32
0.0
 13
0.708296279479247
 23
0.7059152785397526
 33
0.0
 40
0.0
 40
0.0
 40
0.0
 40
0.0
 40
2.008169347938564
 40
4.013802714234606
 40
6.017648109967521
 40
8.020056524851958
 40
10.02151106093315
 40
12.02232403570116
 40
14.02273405867145
 40
16.02297667645561
 40
18.02302830078934
 40
24.02298337562115
 40
24.02298337562115
 40
24.02298337562115
 40
24.02298337562115
 10
-29.9108
 20
-17.0668
 30
0.0
 10
-29.39507216247063
 20
-16.64005947144853
 30
0.0
 10
-28.36570387328237
 20
-15.78531153846241
 30
0.0
 10
-26.84607224932577
 20
-14.47586103186891
 30
0.0
 10
-25.34454970138419
 20
-13.14865664789397
 30
0.0
 10
-23.86090926597873
 20
-11.80355704916685
 30
0.0
 10
-22.39256586307875
 20
-10.44328602410139
 30
0.0
 10
-20.93785145596002
 20
-9.069429772389253
 30
0.0
 10
-19.49450502138449
 20
-7.684228669233105
 30
0.0
 10
-18.06115185704609
 20
-6.289064424247055
 30
0.0
 10
-15.68438666058777
 20
-3.951807194762661
 30
0.0
 10
-13.801481952182
 20
-2.063419985958633
 30
0.0
 10
-12.3849
 20
-0.6516
 30
0.0
 11
-29.9108
 21
-17.0668
 31
0.0
 11
-28.369
 21
-15.7801
 31
0.0
 11
-26.8484
 21
-14.4723
 31
0.0
 11
-25.347
 21
-13.1452
 31
0.0
 11
-23.8631
 21
-11.8007
 31
0.0
 11
-22.3946
 21
-10.4408
 31
0.0
 11
-20.9396
 21
-9.067399999999999
 31
0.0
 11
-19.4961
 21
-7.6825
 31
0.0
 11
-18.0623
 21
-6.2878
 31
0.0
 11
-16.6362
 21
-4.8855
 31
0.0
 11
-12.3849
 21
-0.6516
 31
0.0
  0
LINE
  5
118
330
18
100
AcDbEntity
  8
DEFAULT
100
AcDbLine
 10
-16.9771
 20
-11.7381
 30
0.0
 11
-16.2117
 21
-9.8903
 31
0.0
  0
LINE
  5
119
330
18
100
AcDbEntity
  8
DEFAULT
100
AcDbLine
 10
-17.7424
 20
-13.5859
 30
0.0
 11
-16.9771
 21
-11.7381
 31
0.0
  0
LINE
  5
11A
330
18
100
AcDbEntity
  8
DEFAULT
100
AcDbLine
 10
-16.2117
 20
-9.8903
 30
0.0
 11
-15.4463
 21
-8.0426
 31
0.0
  0
LINE
  5
11B
330
18
100
AcDbEntity
  8
DEFAULT
100
AcDbLine
 10
-18.5078
 20
-15.4336
 30
0.0
 11
-17.7424
 21
-13.5859
 31
0.0
  0
LINE
  5
11C
330
18
100
AcDbEntity
  8
DEFAULT
100
AcDbLine
 10
-19.2732
 20
-17.2814
 30
0.0
 11
-18.5078
 21
-15.4336
 31
0.0
  0
LINE
  5
11D
330
18
100
AcDbEntity
  8
DEFAULT
100
AcDbLine
 10
-20.0385
 20
-19.1291
 30
0.0
 11
-19.2732
 21
-17.2814
 31
0.0
  0
LINE
  5
11E
330
18
100
AcDbEntity
  8
DEFAULT
100
AcDbLine
 10
-20.8039
 20
-20.9769
 30
0.0
 11
-20.0385
 21
-19.1291
 31
0.0
  0
LINE
  5
11F
330
18
100
AcDbEntity
  8
DEFAULT
100
AcDbLine
 10
-21.5693
 20
-22.8247
 30
0.0
 11
-20.8039
 21
-20.9769
 31
0.0
  0
LINE
  5
120
330
18
100
AcDbEntity
  8
DEFAULT
100
AcDbLine
 10
-15.4463
 20
-8.0426
 30
0.0
 11
-14.681
 21
-6.1948
 31
0.0
  0
LINE
  5
121
330
18
100
AcDbEntity
  8
DEFAULT
100
AcDbLine
 10
-14.681
 20
-6.1948
 30
0.0
 11
-13.9156
 21
-4.3471
 31
0.0
  0
LINE
  5
122
330
18
100
AcDbEntity
  8
DEFAULT
100
AcDbLine
 10
-13.9156
 20
-4.3471
 30
0.0
 11
-13.1502
 21
-2.4993
 31
0.0
  0
LINE
  5
123
330
18
100
AcDbEntity
  8
DEFAULT
100
AcDbLine
 10
-13.1502
 20
-2.4993
 30
0.0
 11
-12.3849
 21
-0.6516
 31
0.0
  0
TEXT
  5
124
330
18
100
AcDbEntity
  8
DEFAULT
100
AcDbText
 10
-14.8182
 20
-6.7659
 30
0.0
 40
0.1263
  1
0.0123
 50
67.5
  7
ARIAL
100
AcDbText
  0
TEXT
  5
125
330
18
100
AcDbEntity
  8
DEFAULT
100
AcDbText
 10
-14.8182
 20
-6.7659
 30
0.0
 40
0.1263
  1
0.0123
 50
67.5
  7
ARIAL
100
AcDbText
  0
LINE
  5
126
330
18
100
AcDbEntity
  8
DEFAULT
100
AcDbLine
 10
-16.2117
 20
-9.8903
 30
0.0
 11
-16.1592
 21
-9.912100000000001
 31
0.0
  0
LINE
  5
127
330
18
100
AcDbEntity
  8
DEFAULT
100
AcDbLine
 10
-16.9771
 20
-11.7381
 30
0.0
 11
-16.8863
 21
-11.7757
 31
0.0
  0
LINE
  5
128
330
18
100
AcDbEntity
  8
DEFAULT
100
AcDbLine
 10
-17.0678
 20
-11.7005
 30
0.0
 11
-16.9771
 21
-11.7381
 31
0.0
  0
LINE
  5
129
330
18
100
AcDbEntity
  8
DEFAULT
100
AcDbLine
 10
-16.2642
 20
-9.868600000000001
 30
0.0
 11
-16.2117
 21
-9.8903
 31
0.0
  0
LINE
  5
12A
330
18
100
AcDbEntity
  8
DEFAULT
100
AcDbLine
 10
-17.7424
 20
-13.5859
 30
0.0
 11
-17.5984
 21
-13.6455
 31
0.0
  0
LINE
  5
12B
330
18
100
AcDbEntity
  8
DEFAULT
100
AcDbLine
 10
-17.8865
 20
-13.5262
 30
0.0
 11
-17.7424
 21
-13.5859
 31
0.0
  0
LINE
  5
12C
330
18
100
AcDbEntity
  8
DEFAULT
100
AcDbLine
 10
-18.5078
 20
-15.4336
 30
0.0
 11
-18.2928
 21
-15.5227
 31
0.0
  0
LINE
  5
12D
330
18
100
AcDbEntity
  8
DEFAULT
100
AcDbLine
 10
-18.7228
 20
-15.3446
 30
0.0
 11
-18.5078
 21
-15.4336
 31
0.0
  0
LINE
  5
12E
330
18
100
AcDbEntity
  8
DEFAULT
100
AcDbLine
 10
-19.2732
 20
-17.2814
 30
0.0
 11
-18.9671
 21
-17.4082
 31
0.0
  0
LINE
  5
12F
330
18
100
AcDbEntity
  8
DEFAULT
100
AcDbLine
 10
-19.5792
 20
-17.1546
 30
0.0
 11
-19.2732
 21
-17.2814
 31
0.0
  0
LINE
  5
130
330
18
100
AcDbEntity
  8
DEFAULT
100
AcDbLine
 10
-20.0385
 20
-19.1291
 30
0.0
 11
-19.6186
 21
-19.3031
 31
0.0
  0
LINE
  5
131
330
18
100
AcDbEntity
  8
DEFAULT
100
AcDbLine
 10
-20.4584
 20
-18.9552
 30
0.0
 11
-20.0385
 21
-19.1291
 31
0.0
  0
LINE
  5
132
330
18
100
AcDbEntity
  8
DEFAULT
100
AcDbLine
 10
-20.8039
 20
-20.9769
 30
0.0
 11
-20.2449
 21
-21.2084
 31
0.0
  0
LINE
  5
133
330
18
100
AcDbEntity
  8
DEFAULT
100
AcDbLine
 10
-21.3628
 20
-20.7454
 30
0.0
 11
-20.8039
 21
-20.9769
 31
0.0
  0
LINE
  5
134
330
18
100
AcDbEntity
  8
DEFAULT
100
AcDbLine
 10
-21.5693
 20
-22.8247
 30
0.0
 11
-20.8436
 21
-23.1252
 31
0.0
  0
LINE
  5
135
330
18
100
AcDbEntity
  8
DEFAULT
100
AcDbLine
 10
-22.2949
 20
-22.5241
 30
0.0
 11
-21.5693
 21
-22.8247
 31
0.0
  0
SPLINE
  5
136
330
18
100
AcDbEntity
  8
DEFAULT
100
AcDbSpline
210
0.0
220
0.0
230
1.0
 70
     8
 71
     3
 72
    17
 73
    13
 74
    11
 42
0.0000001
 43
0.0000001
 44
0.0000000001
 12
0.2939759442114555
 22
0.9558128186130291
 32
0.0
 13
0.3826530485829734
 23
0.9238921173005843
 33
0.0
 40
0.0
 40
0.0
 40
0.0
 40
0.0
 40
2.008124480703323
 40
4.013721593784613
 40
6.017492603655752
 40
8.019938792695548
 40
10.021456017203
 40
12.0222654659012
 40
14.02268526434352
 40
16.02292390010676
 40
18.02298831906931
 40
24.0229090268787
 40
24.0229090268787
 40
24.0229090268787
 40
24.0229090268787
 10
-20.8436
 20
-23.1252
 30
0.0
 10
-20.64681990323037
 20
-22.48540295999104
 30
0.0
 10
-20.25092111159447
 20
-21.20736329817788
 30
0.0
 10
-19.62280808368007
 20
-19.30231684483718
 30
0.0
 10
-18.97121382941582
 20
-17.40722521033021
 30
0.0
 10
-18.29626240056163
 20
-15.52176639784869
 30
0.0
 10
-17.6015087665454
 20
-13.64458307595725
 30
0.0
 10
-16.88883699619804
 20
-11.77485908754776
 30
0.0
 10
-16.1613764601209
 20
-9.911305545354029
 30
0.0
 10
-15.4210809686811
 20
-8.05308691123269
 30
0.0
 10
-14.17078374408082
 20
-4.963029074765456
 30
0.0
 10
-13.15019598336646
 20
-2.499359815457881
 30
0.0
 10
-12.3849
 20
-0.6516
 30
0.0
 11
-20.8436
 21
-23.1252
 31
0.0
 11
-20.2449
 21
-21.2084
 31
0.0
 11
-19.6186
 21
-19.3031
 31
0.0
 11
-18.9671
 21
-17.4082
 31
0.0
 11
-18.2928
 21
-15.5227
 31
0.0
 11
-17.5984
 21
-13.6455
 31
0.0
 11
-16.8863
 21
-11.7757
 31
0.0
 11
-16.1592
 21
-9.912100000000001
 31
0.0
 11
-15.4194
 21
-8.053699999999999
 31
0.0
 11
-14.6696
 21
-6.1995
 31
0.0
 11
-12.3849
 21
-0.6516
 31
0.0
  0
LINE
  5
137
330
18
100
AcDbEntity
  8
DEFAULT
100
AcDbLine
 10
-14.6923
 20
-6.1901
 30
0.0
 11
-14.681
 21
-6.1948
 31
0.0
  0
LINE
  5
138
330
18
100
AcDbEntity
  8
DEFAULT
100
AcDbLine
 10
-15.4463
 20
-8.0426
 30
0.0
 11
-15.4194
 21
-8.053699999999999
 31
0.0
  0
LINE
  5
139
330
18
100
AcDbEntity
  8
DEFAULT
100
AcDbLine
 10
-15.4732
 20
-8.031499999999999
 30
0.0
 11
-15.4463
 21
-8.0426
 31
0.0
  0
SPLINE
  5
13A
330
18
100
AcDbEntity
  8
DEFAULT
100
AcDbSpline
210
0.0
220
0.0
230
1.0
 70
     8
 71
     3
 72
    17
 73
    13
 74
    11
 42
0.0000001
 43
0.0000001
 44
0.0000000001
 12
0.4678748555085701
 22
0.8837947270621356
 32
0.0
 13
0.3842699139733119
 23
0.9232207933181226
 33
0.0
 40
0.0
 40
0.0
 40
0.0
 40
0.0
 40
2.008129502796072
 40
4.013810284974531
 40
6.017594954044541
 40
8.019973779342092
 40
10.0214672842029
 40
12.0223296432871
 40
14.02273724425247
 40
16.02289159079675
 40
18.02303127841859
 40
24.02295436209225
 40
24.02295436209225
 40
24.02295436209225
 40
24.02295436209225
 10
-22.2949
 20
-22.5241
 30
0.0
 10
-21.9817155663456
 20
-21.93250857805698
 30
0.0
 10
-21.35772550738995
 20
-20.74893894738789
 30
0.0
 10
-20.45489972221719
 20
-18.9576327060324
 30
0.0
 10
-19.57561489569087
 20
-17.15684364532325
 30
0.0
 10
-18.71966486108277
 20
-15.34638416986015
 30
0.0
 10
-17.88368669712472
 20
-13.5277067844697
 30
0.0
 10
-17.0653822705059
 20
-11.70173617168633
 30
0.0
 10
-16.26213416333868
 20
-9.869587902201008
 30
0.0
 10
-15.4715792869398
 20
-8.032197550498536
 30
0.0
 10
-14.17033876590318
 20
-4.963241669872965
 30
0.0
 10
-13.15342997573659
 20
-2.498017916385637
 30
0.0
 10
-12.3849
 20
-0.6516
 30
0.0
 11
-22.2949
 21
-22.5241
 31
0.0
 11
-21.3628
 21
-20.7454
 31
0.0
 11
-20.4584
 21
-18.9552
 31
0.0
 11
-19.5792
 21
-17.1546
 31
0.0
 11
-18.7228
 21
-15.3446
 31
0.0
 11
-17.8865
 21
-13.5262
 31
0.0
 11
-17.0678
 21
-11.7005
 31
0.0
 11
-16.2642
 21
-9.868600000000001
 31
0.0
 11
-15.4732
 21
-8.031499999999999
 31
0.0
 11
-14.6923
 21
-6.1901
 31
0.0
 11
-12.3849
 21
-0.6516
 31
0.0
  0
LINE
  5
13B
330
18
100
AcDbEntity
  8
DEFAULT
100
AcDbLine
 10
-12.3849
 20
-12.6516
 30
0.0
 11
-12.3849
 21
-10.6516
 31
0.0
  0
LINE
  5
13C
330
18
100
AcDbEntity
  8
DEFAULT
100
AcDbLine
 10
-12.3849
 20
-14.6516
 30
0.0
 11
-12.3849
 21
-12.6516
 31
0.0
  0
LINE
  5
13D
330
18
100
AcDbEntity
  8
DEFAULT
100
AcDbLine
 10
-12.3849
 20
-10.6516
 30
0.0
 11
-12.3849
 21
-8.6516
 31
0.0
  0
LINE
  5
13E
330
18
100
AcDbEntity
  8
DEFAULT
100
AcDbLine
 10
-12.3849
 20
-16.6516
 30
0.0
 11
-12.3849
 21
-14.6516
 31
0.0
  0
LINE
  5
13F
330
18
100
AcDbEntity
  8
DEFAULT
100
AcDbLine
 10
-12.3849
 20
-18.6516
 30
0.0
 11
-12.3849
 21
-16.6516
 31
0.0
  0
LINE
  5
140
330
18
100
AcDbEntity
  8
DEFAULT
100
AcDbLine
 10
-12.3849
 20
-20.6516
 30
0.0
 11
-12.3849
 21
-18.6516
 31
0.0
  0
LINE
  5
141
330
18
100
AcDbEntity
  8
DEFAULT
100
AcDbLine
 10
-12.3849
 20
-22.6516
 30
0.0
 11
-12.3849
 21
-20.6516
 31
0.0
  0
LINE
  5
142
330
18
100
AcDbEntity
  8
DEFAULT
100
AcDbLine
 10
-12.3849
 20
-24.6516
 30
0.0
 11
-12.3849
 21
-22.6516
 31
0.0
  0
LINE
  5
143
330
18
100
AcDbEntity
  8
DEFAULT
100
AcDbLine
 10
-12.3849
 20
-8.6516
 30
0.0
 11
-12.3849
 21
-6.6516
 31
0.0
  0
LINE
  5
144
330
18
100
AcDbEntity
  8
DEFAULT
100
AcDbLine
 10
-12.3849
 20
-6.6516
 30
0.0
 11
-12.3849
 21
-4.6516
 31
0.0
  0
LINE
  5
145
330
18
100
AcDbEntity
  8
DEFAULT
100
AcDbLine
 10
-12.3849
 20
-4.6516
 30
0.0
 11
-12.3849
 21
-2.6516
 31
0.0
  0
LINE
  5
146
330
18
100
AcDbEntity
  8
DEFAULT
100
AcDbLine
 10
-12.3849
 20
-2.6516
 30
0.0
 11
-12.3849
 21
-0.6516
 31
0.0
  0
TEXT
  5
147
330
18
100
AcDbEntity
  8
DEFAULT
100
AcDbText
 10
-12.3849
 20
-6.6517
 30
0.0
 40
0.1263
  1
0.0123
 50
270.0
  7
ARIAL
100
AcDbText
  0
TEXT
  5
148
330
18
100
AcDbEntity
  8
DEFAULT
100
AcDbText
 10
-12.3849
 20
-6.6517
 30
0.0
 40
0.1263
  1
0.0123
 50
270.0
  7
ARIAL
100
AcDbText
  0
LINE
  5
149
330
18
100
AcDbEntity
  8
DEFAULT
100
AcDbLine
 10
-12.3849
 20
-10.6516
 30
0.0
 11
-12.3281
 21
-10.6516
 31
0.0
  0
LINE
  5
14A
330
18
100
AcDbEntity
  8
DEFAULT
100
AcDbLine
 10
-12.3849
 20
-12.6516
 30
0.0
 11
-12.2867
 21
-12.6516
 31
0.0
  0
LINE
  5
14B
330
18
100
AcDbEntity
  8
DEFAULT
100
AcDbLine
 10
-12.4831
 20
-12.6516
 30
0.0
 11
-12.3849
 21
-12.6516
 31
0.0
  0
LINE
  5
14C
330
18
100
AcDbEntity
  8
DEFAULT
100
AcDbLine
 10
-12.4417
 20
-10.6516
 30
0.0
 11
-12.3849
 21
-10.6516
 31
0.0
  0
LINE
  5
14D
330
18
100
AcDbEntity
  8
DEFAULT
100
AcDbLine
 10
-12.3849
 20
-14.6516
 30
0.0
 11
-12.229
 21
-14.6516
 31
0.0
  0
LINE
  5
14E
330
18
100
AcDbEntity
  8
DEFAULT
100
AcDbLine
 10
-12.5408
 20
-14.6516
 30
0.0
 11
-12.3849
 21
-14.6516
 31
0.0
  0
LINE
  5
14F
330
18
100
AcDbEntity
  8
DEFAULT
100
AcDbLine
 10
-12.3849
 20
-16.6516
 30
0.0
 11
-12.1522
 21
-16.6516
 31
0.0
  0
LINE
  5
150
330
18
100
AcDbEntity
  8
DEFAULT
100
AcDbLine
 10
-12.6176
 20
-16.6516
 30
0.0
 11
-12.3849
 21
-16.6516
 31
0.0
  0
LINE
  5
151
330
18
100
AcDbEntity
  8
DEFAULT
100
AcDbLine
 10
-12.3849
 20
-18.6516
 30
0.0
 11
-12.0536
 21
-18.6516
 31
0.0
  0
LINE
  5
152
330
18
100
AcDbEntity
  8
DEFAULT
100
AcDbLine
 10
-12.7162
 20
-18.6516
 30
0.0
 11
-12.3849
 21
-18.6516
 31
0.0
  0
LINE
  5
153
330
18
100
AcDbEntity
  8
DEFAULT
100
AcDbLine
 10
-12.3849
 20
-20.6516
 30
0.0
 11
-11.9304
 21
-20.6516
 31
0.0
  0
LINE
  5
154
330
18
100
AcDbEntity
  8
DEFAULT
100
AcDbLine
 10
-12.8394
 20
-20.6516
 30
0.0
 11
-12.3849
 21
-20.6516
 31
0.0
  0
LINE
  5
155
330
18
100
AcDbEntity
  8
DEFAULT
100
AcDbLine
 10
-12.3849
 20
-22.6516
 30
0.0
 11
-11.7799
 21
-22.6516
 31
0.0
  0
LINE
  5
156
330
18
100
AcDbEntity
  8
DEFAULT
100
AcDbLine
 10
-12.9899
 20
-22.6516
 30
0.0
 11
-12.3849
 21
-22.6516
 31
0.0
  0
LINE
  5
157
330
18
100
AcDbEntity
  8
DEFAULT
100
AcDbLine
 10
-12.3849
 20
-24.6516
 30
0.0
 11
-11.5995
 21
-24.6516
 31
0.0
  0
LINE
  5
158
330
18
100
AcDbEntity
  8
DEFAULT
100
AcDbLine
 10
-13.1703
 20
-24.6516
 30
0.0
 11
-12.3849
 21
-24.6516
 31
0.0
  0
SPLINE
  5
159
330
18
100
AcDbEntity
  8
DEFAULT
100
AcDbSpline
210
0.0
220
0.0
230
1.0
 70
     8
 71
     3
 72
    17
 73
    13
 74
    11
 42
0.0000001
 43
0.0000001
 44
0.0000000001
 12
-0.09408997148152214
 22
0.9955636982466799
 32
0.0
 13
0.0
 23
1.0
 33
0.0
 40
0.0
 40
0.0
 40
0.0
 40
0.0
 40
2.008119558193685
 40
4.013774127156147
 40
6.017565094298179
 40
8.019994109269746
 40
10.02146812608835
 40
12.0223002754702
 40
14.02272871957911
 40
16.02292053288103
 40
18.02299109163639
 40
24.02300369912314
 40
24.02300369912314
 40
24.02300369912314
 40
24.02300369912314
 10
-11.5995
 20
-24.6516
 30
0.0
 10
-11.66248130398731
 20
-23.9851963553744
 30
0.0
 10
-11.78588438507803
 20
-22.65292801106074
 30
0.0
 10
-11.93459608740775
 20
-20.65249955797942
 30
0.0
 10
-12.05774764794215
 20
-18.65228479435834
 30
0.0
 10
-12.15578412950598
 20
-16.65207231762491
 30
0.0
 10
-12.23218836882031
 20
-14.65191941629169
 30
0.0
 10
-12.28939640172065
 20
-12.65179949952034
 30
0.0
 10
-12.33039517200523
 20
-10.65171701596358
 30
0.0
 10
-12.35761018841359
 20
-8.651659452008701
 30
0.0
 10
-12.38485897841644
 20
-5.31833192606612
 30
0.0
 10
-12.3849
 20
-2.651604202495584
 30
0.0
 10
-12.3849
 20
-0.6516
 30
0.0
 11
-11.5995
 21
-24.6516
 31
0.0
 11
-11.7799
 21
-22.6516
 31
0.0
 11
-11.9304
 21
-20.6516
 31
0.0
 11
-12.0536
 21
-18.6516
 31
0.0
 11
-12.1522
 21
-16.6516
 31
0.0
 11
-12.229
 21
-14.6516
 31
0.0
 11
-12.2867
 21
-12.6516
 31
0.0
 11
-12.3281
 21
-10.6516
 31
0.0
 11
-12.3558
 21
-8.6516
 31
0.0
 11
-12.3726
 21
-6.6516
 31
0.0
 11
-12.3849
 21
-0.6516
 31
0.0
  0
LINE
  5
15A
330
18
100
AcDbEntity
  8
DEFAULT
100
AcDbLine
 10
-12.3972
 20
-6.6516
 30
0.0
 11
-12.3849
 21
-6.6516
 31
0.0
  0
LINE
  5
15B
330
18
100
AcDbEntity
  8
DEFAULT
100
AcDbLine
 10
-12.3849
 20
-8.6516
 30
0.0
 11
-12.3558
 21
-8.6516
 31
0.0
  0
LINE
  5
15C
330
18
100
AcDbEntity
  8
DEFAULT
100
AcDbLine
 10
-12.414
 20
-8.6516
 30
0.0
 11
-12.3849
 21
-8.6516
 31
0.0
  0
SPLINE
  5
15D
330
18
100
AcDbEntity
  8
DEFAULT
100
AcDbSpline
210
0.0
220
0.0
230
1.0
 70
     8
 71
     3
 72
    17
 73
    13
 74
    11
 42
0.0000001
 43
0.0000001
 44
0.0000000001
 12
0.09408997148152214
 22
0.9955636982466799
 32
0.0
 13
0.001713999196308537
 23
0.9999985311022989
 33
0.0
 40
0.0
 40
0.0
 40
0.0
 40
0.0
 40
2.008119558193685
 40
4.013774127156147
 40
6.017565094298179
 40
8.019994109269746
 40
10.02146812608835
 40
12.0223002754702
 40
14.02272871957911
 40
16.02292053288103
 40
18.02299109163639
 40
24.02300369912314
 40
24.02300369912314
 40
24.02300369912314
 40
24.02300369912314
 10
-13.1703
 20
-24.6516
 30
0.0
 10
-13.10731869601269
 20
-23.9851963553744
 30
0.0
 10
-12.98391560704593
 20
-22.65292801106749
 30
0.0
 10
-12.83520394011117
 20
-20.65249955795584
 30
0.0
 10
-12.71205224997538
 20
-18.65228479444582
 30
0.0
 10
-12.61401625098822
 20
-16.65207231729882
 30
0.0
 10
-12.53761021210165
 20
-14.65191941750784
 30
0.0
 10
-12.4804088920928
 20
-12.65179949498354
 30
0.0
 10
-12.43938507640556
 20
-10.65171703289069
 30
0.0
 10
-12.41226351448355
 20
-8.651659388845301
 30
0.0
 10
-12.38443349320832
 20
-5.318332361018054
 30
0.0
 10
-12.38832800559569
 20
-2.651601264694008
 30
0.0
 10
-12.3849
 20
-0.6516
 30
0.0
 11
-13.1703
 21
-24.6516
 31
0.0
 11
-12.9899
 21
-22.6516
 31
0.0
 11
-12.8394
 21
-20.6516
 31
0.0
 11
-12.7162
 21
-18.6516
 31
0.0
 11
-12.6176
 21
-16.6516
 31
0.0
 11
-12.5408
 21
-14.6516
 31
0.0
 11
-12.4831
 21
-12.6516
 31
0.0
 11
-12.4417
 21
-10.6516
 31
0.0
 11
-12.414
 21
-8.6516
 31
0.0
 11
-12.3972
 21
-6.6516
 31
0.0
 11
-12.3849
 21
-0.6516
 31
0.0
  0
LINE
  5
15E
330
18
100
AcDbEntity
  8
DEFAULT
100
AcDbLine
 10
-24.3849
 20
-0.6516
 30
0.0
 11
-22.3849
 21
-0.6516
 31
0.0
  0
LINE
  5
15F
330
18
100
AcDbEntity
  8
DEFAULT
100
AcDbLine
 10
-26.3849
 20
-0.6516
 30
0.0
 11
-24.3849
 21
-0.6516
 31
0.0
  0
LINE
  5
160
330
18
100
AcDbEntity
  8
DEFAULT
100
AcDbLine
 10
-22.3849
 20
-0.6516
 30
0.0
 11
-20.3849
 21
-0.6516
 31
0.0
  0
LINE
  5
161
330
18
100
AcDbEntity
  8
DEFAULT
100
AcDbLine
 10
-28.3849
 20
-0.6516
 30
0.0
 11
-26.3849
 21
-0.6516
 31
0.0
  0
LINE
  5
162
330
18
100
AcDbEntity
  8
DEFAULT
100
AcDbLine
 10
-30.3849
 20
-0.6516
 30
0.0
 11
-28.3849
 21
-0.6516
 31
0.0
  0
LINE
  5
163
330
18
100
AcDbEntity
  8
DEFAULT
100
AcDbLine
 10
-32.3849
 20
-0.6516
 30
0.0
 11
-30.3849
 21
-0.6516
 31
0.0
  0
LINE
  5
164
330
18
100
AcDbEntity
  8
DEFAULT
100
AcDbLine
 10
-34.3849
 20
-0.6516
 30
0.0
 11
-32.3849
 21
-0.6516
 31
0.0
  0
LINE
  5
165
330
18
100
AcDbEntity
  8
DEFAULT
100
AcDbLine
 10
-36.3849
 20
-0.6516
 30
0.0
 11
-34.3849
 21
-0.6516
 31
0.0
  0
LINE
  5
166
330
18
100
AcDbEntity
  8
DEFAULT
100
AcDbLine
 10
-20.3849
 20
-0.6516
 30
0.0
 11
-18.3849
 21
-0.6516
 31
0.0
  0
LINE
  5
167
330
18
100
AcDbEntity
  8
DEFAULT
100
AcDbLine
 10
-18.3849
 20
-0.6516
 30
0.0
 11
-16.3849
 21
-0.6516
 31
0.0
  0
LINE
  5
168
330
18
100
AcDbEntity
  8
DEFAULT
100
AcDbLine
 10
-16.3849
 20
-0.6516
 30
0.0
 11
-14.3849
 21
-0.6516
 31
0.0
  0
LINE
  5
169
330
18
100
AcDbEntity
  8
DEFAULT
100
AcDbLine
 10
-14.3849
 20
-0.6516
 30
0.0
 11
-12.3849
 21
-0.6516
 31
0.0
  0
TEXT
  5
16A
330
18
100
AcDbEntity
  8
DEFAULT
100
AcDbText
 10
-18.9653
 20
-0.7432
 30
0.0
 40
0.1263
  1
0.0123
  7
ARIAL
100
AcDbText
  0
TEXT
  5
16B
330
18
100
AcDbEntity
  8
DEFAULT
100
AcDbText
 10
-18.9653
 20
-0.7432
 30
0.0
 40
0.1263
  1
0.0123
  7
ARIAL
100
AcDbText
  0
LINE
  5
16C
330
18
100
AcDbEntity
  8
DEFAULT
100
AcDbLine
 10
-22.3849
 20
-0.7084
 30
0.0
 11
-22.3849
 21
-0.6516
 31
0.0
  0
LINE
  5
16D
330
18
100
AcDbEntity
  8
DEFAULT
100
AcDbLine
 10
-24.3849
 20
-0.7498
 30
0.0
 11
-24.3849
 21
-0.6516
 31
0.0
  0
LINE
  5
16E
330
18
100
AcDbEntity
  8
DEFAULT
100
AcDbLine
 10
-24.3849
 20
-0.6516
 30
0.0
 11
-24.3849
 21
-0.5534
 31
0.0
  0
LINE
  5
16F
330
18
100
AcDbEntity
  8
DEFAULT
100
AcDbLine
 10
-22.3849
 20
-0.6516
 30
0.0
 11
-22.3849
 21
-0.5948
 31
0.0
  0
LINE
  5
170
330
18
100
AcDbEntity
  8
DEFAULT
100
AcDbLine
 10
-26.3849
 20
-0.8075
 30
0.0
 11
-26.3849
 21
-0.6516
 31
0.0
  0
LINE
  5
171
330
18
100
AcDbEntity
  8
DEFAULT
100
AcDbLine
 10
-26.3849
 20
-0.6516
 30
0.0
 11
-26.3849
 21
-0.4957
 31
0.0
  0
LINE
  5
172
330
18
100
AcDbEntity
  8
DEFAULT
100
AcDbLine
 10
-28.3849
 20
-0.8843
 30
0.0
 11
-28.3849
 21
-0.6516
 31
0.0
  0
LINE
  5
173
330
18
100
AcDbEntity
  8
DEFAULT
100
AcDbLine
 10
-28.3849
 20
-0.6516
 30
0.0
 11
-28.3849
 21
-0.4189
 31
0.0
  0
LINE
  5
174
330
18
100
AcDbEntity
  8
DEFAULT
100
AcDbLine
 10
-30.3849
 20
-0.9829
 30
0.0
 11
-30.3849
 21
-0.6516
 31
0.0
  0
LINE
  5
175
330
18
100
AcDbEntity
  8
DEFAULT
100
AcDbLine
 10
-30.3849
 20
-0.6516
 30
0.0
 11
-30.3849
 21
-0.3203
 31
0.0
  0
LINE
  5
176
330
18
100
AcDbEntity
  8
DEFAULT
100
AcDbLine
 10
-32.3849
 20
-1.1061
 30
0.0
 11
-32.3849
 21
-0.6516
 31
0.0
  0
LINE
  5
177
330
18
100
AcDbEntity
  8
DEFAULT
100
AcDbLine
 10
-32.3849
 20
-0.6516
 30
0.0
 11
-32.3849
 21
-0.1971
 31
0.0
  0
LINE
  5
178
330
18
100
AcDbEntity
  8
DEFAULT
100
AcDbLine
 10
-34.3849
 20
-1.2566
 30
0.0
 11
-34.3849
 21
-0.6516
 31
0.0
  0
LINE
  5
179
330
18
100
AcDbEntity
  8
DEFAULT
100
AcDbLine
 10
-34.3849
 20
-0.6516
 30
0.0
 11
-34.3849
 21
-0.0466
 31
0.0
  0
LINE
  5
17A
330
18
100
AcDbEntity
  8
DEFAULT
100
AcDbLine
 10
-36.3849
 20
-1.437
 30
0.0
 11
-36.3849
 21
-0.6516
 31
0.0
  0
LINE
  5
17B
330
18
100
AcDbEntity
  8
DEFAULT
100
AcDbLine
 10
-36.3849
 20
-0.6516
 30
0.0
 11
-36.3849
 21
0.1338
 31
0.0
  0
SPLINE
  5
17C
330
18
100
AcDbEntity
  8
DEFAULT
100
AcDbSpline
210
0.0
220
0.0
230
1.0
 70
     8
 71
     3
 72
    17
 73
    13
 74
    11
 42
0.0000001
 43
0.0000001
 44
0.0000000001
 12
0.9955636982466799
 22
0.09408997148152214
 32
0.0
 13
1.0
 23
0.0
 33
0.0
 40
0.0
 40
0.0
 40
0.0
 40
0.0
 40
2.008119558193685
 40
4.013774127156147
 40
6.017565094298183
 40
8.019994109269749
 40
10.02146812608835
 40
12.02230027547021
 40
14.02272871957912
 40
16.02292053288103
 40
18.0229910916364
 40
24.02300369912315
 40
24.02300369912315
 40
24.02300369912315
 40
24.02300369912315
 10
-36.3849
 20
-1.437
 30
0.0
 10
-35.71849635537441
 20
-1.37401869601269
 30
0.0
 10
-34.38622801106074
 20
-1.250615614921967
 30
0.0
 10
-32.38579955797942
 20
-1.101903912592255
 30
0.0
 10
-30.38558479435835
 20
-0.9787523520578435
 30
0.0
 10
-28.38537231762491
 20
-0.8807158704940146
 30
0.0
 10
-26.38521941629169
 20
-0.8043116311796952
 30
0.0
 10
-24.38509949952034
 20
-0.747103598279348
 30
0.0
 10
-22.38501701596358
 20
-0.7061048279947686
 30
0.0
 10
-20.3849594520087
 20
-0.6788898115864087
 30
0.0
 10
-17.05163192606612
 20
-0.6516410215835553
 30
0.0
 10
-14.38490420249558
 20
-0.6516
 30
0.0
 10
-12.3849
 20
-0.6516
 30
0.0
 11
-36.3849
 21
-1.437
 31
0.0
 11
-34.3849
 21
-1.2566
 31
0.0
 11
-32.3849
 21
-1.1061
 31
0.0
 11
-30.3849
 21
-0.9829
 31
0.0
 11
-28.3849
 21
-0.8843
 31
0.0
 11
-26.3849
 21
-0.8075
 31
0.0
 11
-24.3849
 21
-0.7498
 31
0.0
 11
-22.3849
 21
-0.7084
 31
0.0
 11
-20.3849
 21
-0.6807
 31
0.0
 11
-18.3849
 21
-0.6639000000000001
 31
0.0
 11
-12.3849
 21
-0.6516
 31
0.0
  0
LINE
  5
17D
330
18
100
AcDbEntity
  8
DEFAULT
100
AcDbLine
 10
-18.3849
 20
-0.6516
 30
0.0
 11
-18.3849
 21
-0.6393
 31
0.0
  0
LINE
  5
17E
330
18
100
AcDbEntity
  8
DEFAULT
100
AcDbLine
 10
-20.3849
 20
-0.6807
 30
0.0
 11
-20.3849
 21
-0.6516
 31
0.0
  0
LINE
  5
17F
330
18
100
AcDbEntity
  8
DEFAULT
100
AcDbLine
 10
-20.3849
 20
-0.6516
 30
0.0
 11
-20.3849
 21
-0.6225000000000001
 31
0.0
  0
SPLINE
  5
180
330
18
100
AcDbEntity
  8
DEFAULT
100
AcDbSpline
210
0.0
220
0.0
230
1.0
 70
     8
 71
     3
 72
    17
 73
    13
 74
    11
 42
0.0000001
 43
0.0000001
 44
0.0000000001
 12
0.9955636982466799
 22
-0.09408997148152214
 32
0.0
 13
0.9999985311022989
 23
-0.001713999196308537
 33
0.0
 40
0.0
 40
0.0
 40
0.0
 40
0.0
 40
2.008119558193685
 40
4.013774127156147
 40
6.017565094298183
 40
8.019994109269749
 40
10.02146812608835
 40
12.02230027547021
 40
14.02272871957912
 40
16.02292053288103
 40
18.0229910916364
 40
24.02300369912315
 40
24.02300369912315
 40
24.02300369912315
 40
24.02300369912315
 10
-36.3849
 20
0.1338
 30
0.0
 10
-35.71849635537441
 20
0.0708186960126898
 30
0.0
 10
-34.38622801106749
 20
-0.0525843929540691
 30
0.0
 10
-32.38579955795584
 20
-0.2012960598888333
 30
0.0
 10
-30.38558479444583
 20
-0.3244477500246238
 30
0.0
 10
-28.38537231729882
 20
-0.4224837490117774
 30
0.0
 10
-26.38521941750784
 20
-0.4988897878983494
 30
0.0
 10
-24.38509949498354
 20
-0.5560911079072054
 30
0.0
 10
-22.38501703289069
 20
-0.5971149235944389
 30
0.0
 10
-20.3849593888453
 20
-0.6242364855164576
 30
0.0
 10
-17.05163236101805
 20
-0.6520665067916774
 30
0.0
 10
-14.38490126469401
 20
-0.6481719944043088
 30
0.0
 10
-12.3849
 20
-0.6516
 30
0.0
 11
-36.3849
 21
0.1338
 31
0.0
 11
-34.3849
 21
-0.0466
 31
0.0
 11
-32.3849
 21
-0.1971
 31
0.0
 11
-30.3849
 21
-0.3203
 31
0.0
 11
-28.3849
 21
-0.4189
 31
0.0
 11
-26.3849
 21
-0.4957
 31
0.0
 11
-24.3849
 21
-0.5534
 31
0.0
 11
-22.3849
 21
-0.5948
 31
0.0
 11
-20.3849
 21
-0.6225000000000001
 31
0.0
 11
-18.3849
 21
-0.6393
 31
0.0
 11
-12.3849
 21
-0.6516
 31
0.0
  0
LINE
  5
181
330
18
100
AcDbEntity
  8
DEFAULT
100
AcDbLine
 10
-18.2937
 20
0.3902
 30
0.0
 11
-18.2916
 21
0.4024
 31
0.0
  0
LINE
  5
182
330
18
100
AcDbEntity
  8
DEFAULT
100
AcDbLine
 10
-3.1462
 20
3.1752
 30
0.0
 11
-1.2984
 21
3.9406
 31
0.0
  0
LINE
  5
183
330
18
100
AcDbEntity
  8
DEFAULT
100
AcDbLine
 10
-1.2984
 20
3.9406
 30
0.0
 11
0.5494
 21
4.7059
 31
0.0
  0
LINE
  5
184
330
18
100
AcDbEntity
  8
DEFAULT
100
AcDbLine
 10
-4.9939
 20
2.4098
 30
0.0
 11
-3.1462
 21
3.1752
 31
0.0
  0
LINE
  5
185
330
18
100
AcDbEntity
  8
DEFAULT
100
AcDbLine
 10
0.5494
 20
4.7059
 30
0.0
 11
2.3971
 21
5.4713
 31
0.0
  0
LINE
  5
186
330
18
100
AcDbEntity
  8
DEFAULT
100
AcDbLine
 10
2.3971
 20
5.4713
 30
0.0
 11
4.2449
 21
6.2367
 31
0.0
  0
LINE
  5
187
330
18
100
AcDbEntity
  8
DEFAULT
100
AcDbLine
 10
4.2449
 20
6.2367
 30
0.0
 11
6.0926
 21
7.002
 31
0.0
  0
LINE
  5
188
330
18
100
AcDbEntity
  8
DEFAULT
100
AcDbLine
 10
6.0926
 20
7.002
 30
0.0
 11
7.9404
 21
7.7674
 31
0.0
  0
LINE
  5
189
330
18
100
AcDbEntity
  8
DEFAULT
100
AcDbLine
 10
7.9404
 20
7.7674
 30
0.0
 11
9.7882
 21
8.5328
 31
0.0
  0
LINE
  5
18A
330
18
100
AcDbEntity
  8
DEFAULT
100
AcDbLine
 10
-6.8417
 20
1.6445
 30
0.0
 11
-4.9939
 21
2.4098
 31
0.0
  0
LINE
  5
18B
330
18
100
AcDbEntity
  8
DEFAULT
100
AcDbLine
 10
-8.689399999999999
 20
0.8791
 30
0.0
 11
-6.8417
 21
1.6445
 31
0.0
  0
LINE
  5
18C
330
18
100
AcDbEntity
  8
DEFAULT
100
AcDbLine
 10
-10.5372
 20
0.1137
 30
0.0
 11
-8.689399999999999
 21
0.8791
 31
0.0
  0
LINE
  5
18D
330
18
100
AcDbEntity
  8
DEFAULT
100
AcDbLine
 10
-12.3849
 20
-0.6516
 30
0.0
 11
-10.5372
 21
0.1137
 31
0.0
  0
TEXT
  5
18E
330
18
100
AcDbEntity
  8
DEFAULT
100
AcDbText
 10
-6.8417
 20
1.6445
 30
0.0
 40
0.1263
  1
0.0123
 50
22.5
  7
ARIAL
100
AcDbText
  0
TEXT
  5
18F
330
18
100
AcDbEntity
  8
DEFAULT
100
AcDbText
 10
-6.8417
 20
1.6445
 30
0.0
 40
0.1263
  1
0.0123
 50
22.5
  7
ARIAL
100
AcDbText
  0
LINE
  5
190
330
18
100
AcDbEntity
  8
DEFAULT
100
AcDbLine
 10
-3.1679
 20
3.2277
 30
0.0
 11
-3.1462
 21
3.1752
 31
0.0
  0
LINE
  5
191
330
18
100
AcDbEntity
  8
DEFAULT
100
AcDbLine
 10
-1.336
 20
4.0313
 30
0.0
 11
-1.2984
 21
3.9406
 31
0.0
  0
LINE
  5
192
330
18
100
AcDbEntity
  8
DEFAULT
100
AcDbLine
 10
-1.2984
 20
3.9406
 30
0.0
 11
-1.2608
 21
3.8498
 31
0.0
  0
LINE
  5
193
330
18
100
AcDbEntity
  8
DEFAULT
100
AcDbLine
 10
-3.1462
 20
3.1752
 30
0.0
 11
-3.1244
 21
3.1227
 31
0.0
  0
LINE
  5
194
330
18
100
AcDbEntity
  8
DEFAULT
100
AcDbLine
 10
0.4897
 20
4.85
 30
0.0
 11
0.5494
 21
4.7059
 31
0.0
  0
LINE
  5
195
330
18
100
AcDbEntity
  8
DEFAULT
100
AcDbLine
 10
0.5494
 20
4.7059
 30
0.0
 11
0.609
 21
4.5619
 31
0.0
  0
LINE
  5
196
330
18
100
AcDbEntity
  8
DEFAULT
100
AcDbLine
 10
2.3081
 20
5.6863
 30
0.0
 11
2.3971
 21
5.4713
 31
0.0
  0
LINE
  5
197
330
18
100
AcDbEntity
  8
DEFAULT
100
AcDbLine
 10
2.3971
 20
5.4713
 30
0.0
 11
2.4862
 21
5.2563
 31
0.0
  0
LINE
  5
198
330
18
100
AcDbEntity
  8
DEFAULT
100
AcDbLine
 10
4.1181
 20
6.5427
 30
0.0
 11
4.2449
 21
6.2367
 31
0.0
  0
LINE
  5
199
330
18
100
AcDbEntity
  8
DEFAULT
100
AcDbLine
 10
4.2449
 20
6.2367
 30
0.0
 11
4.3717
 21
5.9306
 31
0.0
  0
LINE
  5
19A
330
18
100
AcDbEntity
  8
DEFAULT
100
AcDbLine
 10
5.9187
 20
7.4219
 30
0.0
 11
6.0926
 21
7.002
 31
0.0
  0
LINE
  5
19B
330
18
100
AcDbEntity
  8
DEFAULT
100
AcDbLine
 10
6.0926
 20
7.002
 30
0.0
 11
6.2666
 21
6.5821
 31
0.0
  0
LINE
  5
19C
330
18
100
AcDbEntity
  8
DEFAULT
100
AcDbLine
 10
7.7089
 20
8.3263
 30
0.0
 11
7.9404
 21
7.7674
 31
0.0
  0
LINE
  5
19D
330
18
100
AcDbEntity
  8
DEFAULT
100
AcDbLine
 10
7.9404
 20
7.7674
 30
0.0
 11
8.171900000000001
 21
7.2084
 31
0.0
  0
LINE
  5
19E
330
18
100
AcDbEntity
  8
DEFAULT
100
AcDbLine
 10
9.487600000000001
 20
9.2584
 30
0.0
 11
9.7882
 21
8.5328
 31
0.0
  0
LINE
  5
19F
330
18
100
AcDbEntity
  8
DEFAULT
100
AcDbLine
 10
9.7882
 20
8.5328
 30
0.0
 11
10.0887
 21
7.8071
 31
0.0
  0
SPLINE
  5
1A0
330
18
100
AcDbEntity
  8
DEFAULT
100
AcDbSpline
210
0.0
220
0.0
230
1.0
 70
     8
 71
     3
 72
    17
 73
    13
 74
    11
 42
0.0000001
 43
0.0000001
 44
0.0000000001
 12
-0.8837947270621356
 22
-0.4678748555085701
 32
0.0
 13
-0.9238921173005843
 23
-0.3826530485829734
 33
0.0
 40
0.0
 40
0.0
 40
0.0
 40
0.0
 40
2.008129502796073
 40
4.013810284974532
 40
6.01759495404454
 40
8.019973779342092
 40
10.0214672842029
 40
12.0223296432871
 40
14.02273724425247
 40
16.02289159079675
 40
18.02303127841859
 40
24.02295436209225
 40
24.02295436209225
 40
24.02295436209225
 40
24.02295436209225
 10
9.487600000000001
 20
9.2584
 30
0.0
 10
8.896008578056975
 20
8.945215566345597
 30
0.0
 10
7.712438944302988
 20
8.321225514819856
 30
0.0
 10
5.921132716811087
 20
7.418399696257004
 30
0.0
 10
4.120343605340375
 20
6.539114991988532
 30
0.0
 10
2.309884318887838
 20
5.683164502153694
 30
0.0
 10
0.4912062286379892
 20
4.847188035830139
 30
0.0
 10
-1.334761754818151
 20
4.028877276548833
 30
0.0
 10
-3.166919833907254
 20
3.225652795543147
 30
0.0
 10
-5.004273581868273
 20
2.435009760037409
 30
0.0
 10
-8.073457122225928
 20
1.134317551218418
 30
0.0
 10
-10.53713945286136
 20
0.1136962864103599
 30
0.0
 10
-12.3849
 20
-0.6516
 30
0.0
 11
9.487600000000001
 21
9.2584
 31
0.0
 11
7.7089
 21
8.3263
 31
0.0
 11
5.9187
 21
7.4219
 31
0.0
 11
4.1181
 21
6.5427
 31
0.0
 11
2.3081
 21
5.6863
 31
0.0
 11
0.4897
 21
4.85
 31
0.0
 11
-1.336
 21
4.0313
 31
0.0
 11
-3.1679
 21
3.2277
 31
0.0
 11
-5.005
 21
2.4367
 31
0.0
 11
-6.8464
 21
1.6558
 31
0.0
 11
-12.3849
 21
-0.6516
 31
0.0
  0
LINE
  5
1A1
330
18
100
AcDbEntity
  8
DEFAULT
100
AcDbLine
 10
-6.8417
 20
1.6445
 30
0.0
 11
-6.837
 21
1.6331
 31
0.0
  0
LINE
  5
1A2
330
18
100
AcDbEntity
  8
DEFAULT
100
AcDbLine
 10
-5.005
 20
2.4367
 30
0.0
 11
-4.9939
 21
2.4098
 31
0.0
  0
LINE
  5
1A3
330
18
100
AcDbEntity
  8
DEFAULT
100
AcDbLine
 10
-4.9939
 20
2.4098
 30
0.0
 11
-4.9828
 21
2.3829
 31
0.0
  0
SPLINE
  5
1A4
330
18
100
AcDbEntity
  8
DEFAULT
100
AcDbSpline
210
0.0
220
0.0
230
1.0
 70
     8
 71
     3
 72
    17
 73
    13
 74
    11
 42
0.0000001
 43
0.0000001
 44
0.0000000001
 12
-0.9558128186130291
 22
-0.2939759442114555
 32
0.0
 13
-0.9245437569781582
 23
-0.3810758998319265
 33
0.0
 40
0.0
 40
0.0
 40
0.0
 40
0.0
 40
2.008124480703324
 40
4.013721593784613
 40
6.017492603655752
 40
8.019938792695546
 40
10.021456017203
 40
12.0222654659012
 40
14.02268526434351
 40
16.02292390010676
 40
18.02298831906931
 40
24.0229090268787
 40
24.0229090268787
 40
24.0229090268787
 40
24.0229090268787
 10
10.0887
 20
7.8071
 30
0.0
 10
9.448902959991044
 20
7.610319903230367
 30
0.0
 10
8.170863295183523
 20
7.214421118841665
 30
0.0
 10
6.265816855299226
 20
6.586308058358974
 30
0.0
 10
4.370725171519647
 20
5.934713923348144
 30
0.0
 10
2.485266542511835
 20
5.259762050436684
 30
0.0
 10
0.6080825364266167
 20
4.565010072359169
 30
0.0
 10
-1.261638899823758
 20
3.852332125078887
 30
0.0
 10
-3.125201964058714
 20
3.124894634982466
 30
0.0
 10
-4.983385066906665
 20
2.384513148006506
 30
0.0
 10
-8.073663879950564
 20
1.134750748009295
 30
0.0
 10
-10.53583692241029
 20
0.1105417275495582
 30
0.0
 10
-12.3849
 20
-0.6516
 30
0.0
 11
10.0887
 21
7.8071
 31
0.0
 11
8.171900000000001
 21
7.2084
 31
0.0
 11
6.2666
 21
6.5821
 31
0.0
 11
4.3717
 21
5.9306
 31
0.0
 11
2.4862
 21
5.2563
 31
0.0
 11
0.609
 21
4.5619
 31
0.0
 11
-1.2608
 21
3.8498
 31
0.0
 11
-3.1244
 21
3.1227
 31
0.0
 11
-4.9828
 21
2.3829
 31
0.0
 11
-6.837
 21
1.6331
 31
0.0
 11
-12.3849
 21
-0.6516
 31
0.0
  0
LINE
  5
1A5
330
18
100
AcDbEntity
  8
DEFAULT
100
AcDbLine
 10
-5.3139
 20
6.4194
 30
0.0
 11
-3.8997
 21
7.8336
 31
0.0
  0
LINE
  5
1A6
330
18
100
AcDbEntity
  8
DEFAULT
100
AcDbLine
 10
-3.8997
 20
7.8336
 30
0.0
 11
-2.4855
 21
9.2478
 31
0.0
  0
LINE
  5
1A7
330
18
100
AcDbEntity
  8
DEFAULT
100
AcDbLine
 10
-6.7281
 20
5.0052
 30
0.0
 11
-5.3139
 21
6.4194
 31
0.0
  0
LINE
  5
1A8
330
18
100
AcDbEntity
  8
DEFAULT
100
AcDbLine
 10
-2.4855
 20
9.2478
 30
0.0
 11
-1.0712
 21
10.6621
 31
0.0
  0
LINE
  5
1A9
330
18
100
AcDbEntity
  8
DEFAULT
100
AcDbLine
 10
-1.0712
 20
10.6621
 30
0.0
 11
0.343
 21
12.0763
 31
0.0
  0
LINE
  5
1AA
330
18
100
AcDbEntity
  8
DEFAULT
100
AcDbLine
 10
0.343
 20
12.0763
 30
0.0
 11
1.7572
 21
13.4905
 31
0.0
  0
LINE
  5
1AB
330
18
100
AcDbEntity
  8
DEFAULT
100
AcDbLine
 10
1.7572
 20
13.4905
 30
0.0
 11
3.1714
 21
14.9047
 31
0.0
  0
LINE
  5
1AC
330
18
100
AcDbEntity
  8
DEFAULT
100
AcDbLine
 10
3.1714
 20
14.9047
 30
0.0
 11
4.5856
 21
16.3189
 31
0.0
  0
LINE
  5
1AD
330
18
100
AcDbEntity
  8
DEFAULT
100
AcDbLine
 10
-8.142300000000001
 20
3.591
 30
0.0
 11
-6.7281
 21
5.0052
 31
0.0
  0
LINE
  5
1AE
330
18
100
AcDbEntity
  8
DEFAULT
100
AcDbLine
 10
-9.5565
 20
2.1768
 30
0.0
 11
-8.142300000000001
 21
3.591
 31
0.0
  0
LINE
  5
1AF
330
18
100
AcDbEntity
  8
DEFAULT
100
AcDbLine
 10
-10.9707
 20
0.7625999999999999
 30
0.0
 11
-9.5565
 21
2.1768
 31
0.0
  0
LINE
  5
1B0
330
18
100
AcDbEntity
  8
DEFAULT
100
AcDbLine
 10
-12.3849
 20
-0.6516
 30
0.0
 11
-10.9707
 21
0.7625999999999999
 31
0.0
  0
TEXT
  5
1B1
330
18
100
AcDbEntity
  8
DEFAULT
100
AcDbText
 10
-8.142300000000001
 20
3.591
 30
0.0
 40
0.1263
  1
0.0123
 50
45.0
  7
ARIAL
100
AcDbText
  0
TEXT
  5
1B2
330
18
100
AcDbEntity
  8
DEFAULT
100
AcDbText
 10
-8.142300000000001
 20
3.591
 30
0.0
 40
0.1263
  1
0.0123
 50
45.0
  7
ARIAL
100
AcDbText
  0
LINE
  5
1B3
330
18
100
AcDbEntity
  8
DEFAULT
100
AcDbLine
 10
-5.354
 20
6.4596
 30
0.0
 11
-5.3139
 21
6.4194
 31
0.0
  0
LINE
  5
1B4
330
18
100
AcDbEntity
  8
DEFAULT
100
AcDbLine
 10
-3.9691
 20
7.9031
 30
0.0
 11
-3.8997
 21
7.8336
 31
0.0
  0
LINE
  5
1B5
330
18
100
AcDbEntity
  8
DEFAULT
100
AcDbLine
 10
-3.8997
 20
7.8336
 30
0.0
 11
-3.8302
 21
7.7642
 31
0.0
  0
LINE
  5
1B6
330
18
100
AcDbEntity
  8
DEFAULT
100
AcDbLine
 10
-5.3139
 20
6.4194
 30
0.0
 11
-5.2737
 21
6.3793
 31
0.0
  0
LINE
  5
1B7
330
18
100
AcDbEntity
  8
DEFAULT
100
AcDbLine
 10
-2.5957
 20
9.3581
 30
0.0
 11
-2.4855
 21
9.2478
 31
0.0
  0
LINE
  5
1B8
330
18
100
AcDbEntity
  8
DEFAULT
100
AcDbLine
 10
-2.4855
 20
9.2478
 30
0.0
 11
-2.3752
 21
9.137600000000001
 31
0.0
  0
LINE
  5
1B9
330
18
100
AcDbEntity
  8
DEFAULT
100
AcDbLine
 10
-1.2358
 20
10.8266
 30
0.0
 11
-1.0712
 21
10.6621
 31
0.0
  0
LINE
  5
1BA
330
18
100
AcDbEntity
  8
DEFAULT
100
AcDbLine
 10
-1.0712
 20
10.6621
 30
0.0
 11
-0.9067
 21
10.4975
 31
0.0
  0
LINE
  5
1BB
330
18
100
AcDbEntity
  8
DEFAULT
100
AcDbLine
 10
0.1087
 20
12.3105
 30
0.0
 11
0.343
 21
12.0763
 31
0.0
  0
LINE
  5
1BC
330
18
100
AcDbEntity
  8
DEFAULT
100
AcDbLine
 10
0.343
 20
12.0763
 30
0.0
 11
0.5772000000000001
 21
11.842
 31
0.0
  0
LINE
  5
1BD
330
18
100
AcDbEntity
  8
DEFAULT
100
AcDbLine
 10
1.4358
 20
13.8119
 30
0.0
 11
1.7572
 21
13.4905
 31
0.0
  0
LINE
  5
1BE
330
18
100
AcDbEntity
  8
DEFAULT
100
AcDbLine
 10
1.7572
 20
13.4905
 30
0.0
 11
2.0786
 21
13.1691
 31
0.0
  0
LINE
  5
1BF
330
18
100
AcDbEntity
  8
DEFAULT
100
AcDbLine
 10
2.7436
 20
15.3325
 30
0.0
 11
3.1714
 21
14.9047
 31
0.0
  0
LINE
  5
1C0
330
18
100
AcDbEntity
  8
DEFAULT
100
AcDbLine
 10
3.1714
 20
14.9047
 30
0.0
 11
3.5992
 21
14.4769
 31
0.0
  0
LINE
  5
1C1
330
18
100
AcDbEntity
  8
DEFAULT
100
AcDbLine
 10
4.0303
 20
16.8743
 30
0.0
 11
4.5856
 21
16.3189
 31
0.0
  0
LINE
  5
1C2
330
18
100
AcDbEntity
  8
DEFAULT
100
AcDbLine
 10
4.5856
 20
16.3189
 30
0.0
 11
5.141
 21
15.7636
 31
0.0
  0
SPLINE
  5
1C3
330
18
100
AcDbEntity
  8
DEFAULT
100
AcDbSpline
210
0.0
220
0.0
230
1.0
 70
     8
 71
     3
 72
    17
 73
    13
 74
    11
 42
0.0000001
 43
0.0000001
 44
0.0000000001
 12
-0.6375067854554151
 22
-0.770444740716882
 32
0.0
 13
-0.7071067811865475
 23
-0.7071067811865475
 33
0.0
 40
0.0
 40
0.0
 40
0.0
 40
0.0
 40
2.008169347938567
 40
4.013802714234609
 40
6.017648109967524
 40
8.02005652485196
 40
10.02151106093316
 40
12.02232403570116
 40
14.02273405867145
 40
16.02297667645561
 40
18.02302830078934
 40
24.02298337562115
 40
24.02298337562115
 40
24.02298337562115
 40
24.02298337562115
 10
4.0303
 20
16.8743
 30
0.0
 10
3.60355947144853
 20
16.35857216247063
 30
0.0
 10
2.748811532987172
 20
15.32920387874841
 30
0.0
 10
1.439361050999015
 20
13.80957223022782
 30
0.0
 10
0.1121565769281532
 20
12.30804977223064
 30
0.0
 10
-1.232942686331966
 20
10.82440900192249
 30
0.0
 10
-2.593214962374899
 20
9.356066847895585
 30
0.0
 10
-3.96706654759926
 20
7.901347782139069
 30
0.0
 10
-5.352285061354369
 20
6.458018728874279
 30
0.0
 10
-6.747384338957245
 20
5.024600706441278
 30
0.0
 10
-9.085045614276611
 20
2.648238876129211
 30
0.0
 10
-10.9706970265906
 20
0.7626029734094038
 30
0.0
 10
-12.3849
 20
-0.6516
 30
0.0
 11
4.0303
 21
16.8743
 31
0.0
 11
2.7436
 21
15.3325
 31
0.0
 11
1.4358
 21
13.8119
 31
0.0
 11
0.1087
 21
12.3105
 31
0.0
 11
-1.2358
 21
10.8266
 31
0.0
 11
-2.5957
 21
9.3581
 31
0.0
 11
-3.9691
 21
7.9031
 31
0.0
 11
-5.354
 21
6.4596
 31
0.0
 11
-6.7487
 21
5.0258
 31
0.0
 11
-8.151
 21
3.5997
 31
0.0
 11
-12.3849
 21
-0.6516
 31
0.0
  0
LINE
  5
1C4
330
18
100
AcDbEntity
  8
DEFAULT
100
AcDbLine
 10
-8.142300000000001
 20
3.591
 30
0.0
 11
-8.1336
 21
3.5823
 31
0.0
  0
LINE
  5
1C5
330
18
100
AcDbEntity
  8
DEFAULT
100
AcDbLine
 10
-6.7487
 20
5.0258
 30
0.0
 11
-6.7281
 21
5.0052
 31
0.0
  0
LINE
  5
1C6
330
18
100
AcDbEntity
  8
DEFAULT
100
AcDbLine
 10
-6.7281
 20
5.0052
 30
0.0
 11
-6.7075
 21
4.9846
 31
0.0
  0
SPLINE
  5
1C7
330
18
100
AcDbEntity
  8
DEFAULT
100
AcDbSpline
210
0.0
220
0.0
230
1.0
 70
     8
 71
     3
 72
    17
 73
    13
 74
    11
 42
0.0000001
 43
0.0000001
 44
0.0000000001
 12
-0.770444740716882
 22
-0.6375067854554151
 32
0.0
 13
-0.708296279479247
 23
-0.7059152785397526
 33
0.0
 40
0.0
 40
0.0
 40
0.0
 40
0.0
 40
2.008169347938564
 40
4.013802714234608
 40
6.017648109967523
 40
8.02005652485196
 40
10.02151106093316
 40
12.02232403570116
 40
14.02273405867146
 40
16.02297667645561
 40
18.02302830078934
 40
24.02298337562115
 40
24.02298337562115
 40
24.02298337562115
 40
24.02298337562115
 10
5.141
 20
15.7636
 30
0.0
 10
4.625272162470628
 20
15.33685947144853
 30
0.0
 10
3.595903873282371
 20
14.48211153846242
 30
0.0
 10
2.07627224932576
 20
13.1726610318689
 30
0.0
 10
0.5747497013841892
 20
11.84545664789398
 30
0.0
 10
-0.9088907340212711
 20
10.50035704916685
 30
0.0
 10
-2.37723413692125
 20
9.140086024101397
 30
0.0
 10
-3.831948544039983
 20
7.766229772389252
 30
0.0
 10
-5.275294978615505
 20
6.381028669233105
 30
0.0
 10
-6.708648142953918
 20
4.985864424247056
 30
0.0
 10
-9.085413339412222
 20
2.648607194762659
 30
0.0
 10
-10.968318047818
 20
0.7602199859586329
 30
0.0
 10
-12.3849
 20
-0.6516
 30
0.0
 11
5.141
 21
15.7636
 31
0.0
 11
3.5992
 21
14.4769
 31
0.0
 11
2.0786
 21
13.1691
 31
0.0
 11
0.5772000000000001
 21
11.842
 31
0.0
 11
-0.9067
 21
10.4975
 31
0.0
 11
-2.3752
 21
9.137600000000001
 31
0.0
 11
-3.8302
 21
7.7642
 31
0.0
 11
-5.2737
 21
6.3793
 31
0.0
 11
-6.7075
 21
4.9846
 31
0.0
 11
-8.1336
 21
3.5823
 31
0.0
 11
-12.3849
 21
-0.6516
 31
0.0
  0
LINE
  5
1C8
330
18
100
AcDbEntity
  8
DEFAULT
100
AcDbLine
 10
-8.5581
 20
8.5871
 30
0.0
 11
-7.7927
 21
10.4349
 31
0.0
  0
LINE
  5
1C9
330
18
100
AcDbEntity
  8
DEFAULT
100
AcDbLine
 10
-7.7927
 20
10.4349
 30
0.0
 11
-7.0274
 21
12.2827
 31
0.0
  0
LINE
  5
1CA
330
18
100
AcDbEntity
  8
DEFAULT
100
AcDbLine
 10
-9.323499999999999
 20
6.7394
 30
0.0
 11
-8.5581
 21
8.5871
 31
0.0
  0
LINE
  5
1CB
330
18
100
AcDbEntity
  8
DEFAULT
100
AcDbLine
 10
-7.0274
 20
12.2827
 30
0.0
 11
-6.262
 21
14.1304
 31
0.0
  0
LINE
  5
1CC
330
18
100
AcDbEntity
  8
DEFAULT
100
AcDbLine
 10
-6.262
 20
14.1304
 30
0.0
 11
-5.4966
 21
15.9782
 31
0.0
  0
LINE
  5
1CD
330
18
100
AcDbEntity
  8
DEFAULT
100
AcDbLine
 10
-5.4966
 20
15.9782
 30
0.0
 11
-4.7313
 21
17.8259
 31
0.0
  0
LINE
  5
1CE
330
18
100
AcDbEntity
  8
DEFAULT
100
AcDbLine
 10
-4.7313
 20
17.8259
 30
0.0
 11
-3.9659
 21
19.6737
 31
0.0
  0
LINE
  5
1CF
330
18
100
AcDbEntity
  8
DEFAULT
100
AcDbLine
 10
-3.9659
 20
19.6737
 30
0.0
 11
-3.2005
 21
21.5215
 31
0.0
  0
LINE
  5
1D0
330
18
100
AcDbEntity
  8
DEFAULT
100
AcDbLine
 10
-10.0888
 20
4.8916
 30
0.0
 11
-9.323499999999999
 21
6.7394
 31
0.0
  0
LINE
  5
1D1
330
18
100
AcDbEntity
  8
DEFAULT
100
AcDbLine
 10
-10.8542
 20
3.0439
 30
0.0
 11
-10.0888
 21
4.8916
 31
0.0
  0
LINE
  5
1D2
330
18
100
AcDbEntity
  8
DEFAULT
100
AcDbLine
 10
-11.6196
 20
1.1961
 30
0.0
 11
-10.8542
 21
3.0439
 31
0.0
  0
LINE
  5
1D3
330
18
100
AcDbEntity
  8
DEFAULT
100
AcDbLine
 10
-12.3849
 20
-0.6516
 30
0.0
 11
-11.6196
 21
1.1961
 31
0.0
  0
TEXT
  5
1D4
330
18
100
AcDbEntity
  8
DEFAULT
100
AcDbText
 10
-10.0888
 20
4.8916
 30
0.0
 40
0.1263
  1
0.0123
 50
67.5
  7
ARIAL
100
AcDbText
  0
TEXT
  5
1D5
330
18
100
AcDbEntity
  8
DEFAULT
100
AcDbText
 10
-10.0888
 20
4.8916
 30
0.0
 40
0.1263
  1
0.0123
 50
67.5
  7
ARIAL
100
AcDbText
  0
LINE
  5
1D6
330
18
100
AcDbEntity
  8
DEFAULT
100
AcDbLine
 10
-8.6106
 20
8.6089
 30
0.0
 11
-8.5581
 21
8.5871
 31
0.0
  0
LINE
  5
1D7
330
18
100
AcDbEntity
  8
DEFAULT
100
AcDbLine
 10
-7.8835
 20
10.4725
 30
0.0
 11
-7.7927
 21
10.4349
 31
0.0
  0
LINE
  5
1D8
330
18
100
AcDbEntity
  8
DEFAULT
100
AcDbLine
 10
-7.7927
 20
10.4349
 30
0.0
 11
-7.702
 21
10.3973
 31
0.0
  0
LINE
  5
1D9
330
18
100
AcDbEntity
  8
DEFAULT
100
AcDbLine
 10
-8.5581
 20
8.5871
 30
0.0
 11
-8.505599999999999
 21
8.5654
 31
0.0
  0
LINE
  5
1DA
330
18
100
AcDbEntity
  8
DEFAULT
100
AcDbLine
 10
-7.1714
 20
12.3423
 30
0.0
 11
-7.0274
 21
12.2827
 31
0.0
  0
LINE
  5
1DB
330
18
100
AcDbEntity
  8
DEFAULT
100
AcDbLine
 10
-7.0274
 20
12.2827
 30
0.0
 11
-6.8833
 21
12.223
 31
0.0
  0
LINE
  5
1DC
330
18
100
AcDbEntity
  8
DEFAULT
100
AcDbLine
 10
-6.477
 20
14.2195
 30
0.0
 11
-6.262
 21
14.1304
 31
0.0
  0
LINE
  5
1DD
330
18
100
AcDbEntity
  8
DEFAULT
100
AcDbLine
 10
-6.262
 20
14.1304
 30
0.0
 11
-6.047
 21
14.0414
 31
0.0
  0
LINE
  5
1DE
330
18
100
AcDbEntity
  8
DEFAULT
100
AcDbLine
 10
-5.8027
 20
16.105
 30
0.0
 11
-5.4966
 21
15.9782
 31
0.0
  0
LINE
  5
1DF
330
18
100
AcDbEntity
  8
DEFAULT
100
AcDbLine
 10
-5.4966
 20
15.9782
 30
0.0
 11
-5.1906
 21
15.8514
 31
0.0
  0
LINE
  5
1E0
330
18
100
AcDbEntity
  8
DEFAULT
100
AcDbLine
 10
-5.1512
 20
17.9999
 30
0.0
 11
-4.7313
 21
17.8259
 31
0.0
  0
LINE
  5
1E1
330
18
100
AcDbEntity
  8
DEFAULT
100
AcDbLine
 10
-4.7313
 20
17.8259
 30
0.0
 11
-4.3114
 21
17.652
 31
0.0
  0
LINE
  5
1E2
330
18
100
AcDbEntity
  8
DEFAULT
100
AcDbLine
 10
-4.5249
 20
19.9052
 30
0.0
 11
-3.9659
 21
19.6737
 31
0.0
  0
LINE
  5
1E3
330
18
100
AcDbEntity
  8
DEFAULT
100
AcDbLine
 10
-3.9659
 20
19.6737
 30
0.0
 11
-3.407
 21
19.4422
 31
0.0
  0
LINE
  5
1E4
330
18
100
AcDbEntity
  8
DEFAULT
100
AcDbLine
 10
-3.9262
 20
21.822
 30
0.0
 11
-3.2005
 21
21.5215
 31
0.0
  0
LINE
  5
1E5
330
18
100
AcDbEntity
  8
DEFAULT
100
AcDbLine
 10
-3.2005
 20
21.5215
 30
0.0
 11
-2.4749
 21
21.2209
 31
0.0
  0
SPLINE
  5
1E6
330
18
100
AcDbEntity
  8
DEFAULT
100
AcDbSpline
210
0.0
220
0.0
230
1.0
 70
     8
 71
     3
 72
    17
 73
    13
 74
    11
 42
0.0000001
 43
0.0000001
 44
0.0000000001
 12
-0.2939759442114555
 22
-0.9558128186130291
 32
0.0
 13
-0.3826530485829734
 23
-0.9238921173005843
 33
0.0
 40
0.0
 40
0.0
 40
0.0
 40
0.0
 40
2.008124480703324
 40
4.013721593784613
 40
6.01749260365575
 40
8.019938792695546
 40
10.021456017203
 40
12.0222654659012
 40
14.02268526434351
 40
16.02292390010676
 40
18.02298831906931
 40
24.0229090268787
 40
24.0229090268787
 40
24.0229090268787
 40
24.0229090268787
 10
-3.9262
 20
21.822
 30
0.0
 10
-4.122980096769633
 20
21.18220295999104
 30
0.0
 10
-4.518878888405525
 20
19.90416329817789
 30
0.0
 10
-5.146991916319944
 20
17.99911684483717
 30
0.0
 10
-5.798586170584177
 20
16.1040252103302
 30
0.0
 10
-6.473537599438373
 20
14.21856639784869
 30
0.0
 10
-7.1682912334546
 20
12.34138307595725
 30
0.0
 10
-7.880963003801965
 20
10.47165908754776
 30
0.0
 10
-8.608423539879098
 20
8.608105545354029
 30
0.0
 10
-9.348719031318906
 20
6.749886911232688
 30
0.0
 10
-10.59901625591919
 20
3.659829074765457
 30
0.0
 10
-11.61960401663354
 20
1.196159815457881
 30
0.0
 10
-12.3849
 20
-0.6516
 30
0.0
 11
-3.9262
 21
21.822
 31
0.0
 11
-4.5249
 21
19.9052
 31
0.0
 11
-5.1512
 21
17.9999
 31
0.0
 11
-5.8027
 21
16.105
 31
0.0
 11
-6.477
 21
14.2195
 31
0.0
 11
-7.1714
 21
12.3423
 31
0.0
 11
-7.8835
 21
10.4725
 31
0.0
 11
-8.6106
 21
8.6089
 31
0.0
 11
-9.350400000000001
 21
6.7505
 31
0.0
 11
-10.1002
 21
4.8963
 31
0.0
 11
-12.3849
 21
-0.6516
 31
0.0
  0
LINE
  5
1E7
330
18
100
AcDbEntity
  8
DEFAULT
100
AcDbLine
 10
-10.0888
 20
4.8916
 30
0.0
 11
-10.0775
 21
4.8869
 31
0.0
  0
LINE
  5
1E8
330
18
100
AcDbEntity
  8
DEFAULT
100
AcDbLine
 10
-9.350400000000001
 20
6.7505
 30
0.0
 11
-9.323499999999999
 21
6.7394
 31
0.0
  0
LINE
  5
1E9
330
18
100
AcDbEntity
  8
DEFAULT
100
AcDbLine
 10
-9.323499999999999
 20
6.7394
 30
0.0
 11
-9.2966
 21
6.7283
 31
0.0
  0
SPLINE
  5
1EA
330
18
100
AcDbEntity
  8
DEFAULT
100
AcDbSpline
210
0.0
220
0.0
230
1.0
 70
     8
 71
     3
 72
    17
 73
    13
 74
    11
 42
0.0000001
 43
0.0000001
 44
0.0000000001
 12
-0.4678748555085701
 22
-0.8837947270621356
 32
0.0
 13
-0.3842699139733119
 23
-0.9232207933181226
 33
0.0
 40
0.0
 40
0.0
 40
0.0
 40
0.0
 40
2.008129502796073
 40
4.013810284974531
 40
6.01759495404454
 40
8.019973779342092
 40
10.0214672842029
 40
12.0223296432871
 40
14.02273724425247
 40
16.02289159079675
 40
18.02303127841859
 40
24.02295436209225
 40
24.02295436209225
 40
24.02295436209225
 40
24.02295436209225
 10
-2.4749
 20
21.2209
 30
0.0
 10
-2.788084433654403
 20
20.62930857805698
 30
0.0
 10
-3.41207449261005
 20
19.44573894738789
 30
0.0
 10
-4.314900277782812
 20
17.6544327060324
 30
0.0
 10
-5.194185104309133
 20
15.85364364532325
 30
0.0
 10
-6.050135138917219
 20
14.04318416986015
 30
0.0
 10
-6.886113302875289
 20
12.22450678446971
 30
0.0
 10
-7.704417729494096
 20
10.39853617168633
 30
0.0
 10
-8.507665836661319
 20
8.566387902201006
 30
0.0
 10
-9.2982207130602
 20
6.728997550498539
 30
0.0
 10
-10.59946123409682
 20
3.660041669872961
 30
0.0
 10
-11.61637002426341
 20
1.194817916385637
 30
0.0
 10
-12.3849
 20
-0.6516
 30
0.0
 11
-2.4749
 21
21.2209
 31
0.0
 11
-3.407
 21
19.4422
 31
0.0
 11
-4.3114
 21
17.652
 31
0.0
 11
-5.1906
 21
15.8514
 31
0.0
 11
-6.047
 21
14.0414
 31
0.0
 11
-6.8833
 21
12.223
 31
0.0
 11
-7.702
 21
10.3973
 31
0.0
 11
-8.505599999999999
 21
8.5654
 31
0.0
 11
-9.2966
 21
6.7283
 31
0.0
 11
-10.0775
 21
4.8869
 31
0.0
 11
-12.3849
 21
-0.6516
 31
0.0
  0
LINE
  5
1EB
330
18
100
AcDbEntity
  8
DEFAULT
100
AcDbLine
 10
-12.3849
 20
9.3484
 30
0.0
 11
-12.3849
 21
11.3484
 31
0.0
  0
LINE
  5
1EC
330
18
100
AcDbEntity
  8
DEFAULT
100
AcDbLine
 10
-12.3849
 20
11.3484
 30
0.0
 11
-12.3849
 21
13.3484
 31
0.0
  0
LINE
  5
1ED
330
18
100
AcDbEntity
  8
DEFAULT
100
AcDbLine
 10
-12.3849
 20
7.3484
 30
0.0
 11
-12.3849
 21
9.3484
 31
0.0
  0
LINE
  5
1EE
330
18
100
AcDbEntity
  8
DEFAULT
100
AcDbLine
 10
-12.3849
 20
13.3484
 30
0.0
 11
-12.3849
 21
15.3484
 31
0.0
  0
LINE
  5
1EF
330
18
100
AcDbEntity
  8
DEFAULT
100
AcDbLine
 10
-12.3849
 20
15.3484
 30
0.0
 11
-12.3849
 21
17.3484
 31
0.0
  0
LINE
  5
1F0
330
18
100
AcDbEntity
  8
DEFAULT
100
AcDbLine
 10
-12.3849
 20
17.3484
 30
0.0
 11
-12.3849
 21
19.3484
 31
0.0
  0
LINE
  5
1F1
330
18
100
AcDbEntity
  8
DEFAULT
100
AcDbLine
 10
-12.3849
 20
19.3484
 30
0.0
 11
-12.3849
 21
21.3484
 31
0.0
  0
LINE
  5
1F2
330
18
100
AcDbEntity
  8
DEFAULT
100
AcDbLine
 10
-12.3849
 20
21.3484
 30
0.0
 11
-12.3849
 21
23.3484
 31
0.0
  0
LINE
  5
1F3
330
18
100
AcDbEntity
  8
DEFAULT
100
AcDbLine
 10
-12.3849
 20
5.3484
 30
0.0
 11
-12.3849
 21
7.3484
 31
0.0
  0
LINE
  5
1F4
330
18
100
AcDbEntity
  8
DEFAULT
100
AcDbLine
 10
-12.3849
 20
3.3484
 30
0.0
 11
-12.3849
 21
5.3484
 31
0.0
  0
LINE
  5
1F5
330
18
100
AcDbEntity
  8
DEFAULT
100
AcDbLine
 10
-12.3849
 20
1.3484
 30
0.0
 11
-12.3849
 21
3.3484
 31
0.0
  0
LINE
  5
1F6
330
18
100
AcDbEntity
  8
DEFAULT
100
AcDbLine
 10
-12.3849
 20
-0.6516
 30
0.0
 11
-12.3849
 21
1.3484
 31
0.0
  0
TEXT
  5
1F7
330
18
100
AcDbEntity
  8
DEFAULT
100
AcDbText
 10
-12.3849
 20
5.3484
 30
0.0
 40
0.1263
  1
0.0123
 50
90.0
  7
ARIAL
100
AcDbText
  0
TEXT
  5
1F8
330
18
100
AcDbEntity
  8
DEFAULT
100
AcDbText
 10
-12.3849
 20
5.3484
 30
0.0
 40
0.1263
  1
0.0123
 50
90.0
  7
ARIAL
100
AcDbText
  0
LINE
  5
1F9
330
18
100
AcDbEntity
  8
DEFAULT
100
AcDbLine
 10
-12.4417
 20
9.3484
 30
0.0
 11
-12.3849
 21
9.3484
 31
0.0
  0
LINE
  5
1FA
330
18
100
AcDbEntity
  8
DEFAULT
100
AcDbLine
 10
-12.4831
 20
11.3484
 30
0.0
 11
-12.3849
 21
11.3484
 31
0.0
  0
LINE
  5
1FB
330
18
100
AcDbEntity
  8
DEFAULT
100
AcDbLine
 10
-12.3849
 20
11.3484
 30
0.0
 11
-12.2867
 21
11.3484
 31
0.0
  0
LINE
  5
1FC
330
18
100
AcDbEntity
  8
DEFAULT
100
AcDbLine
 10
-12.3849
 20
9.3484
 30
0.0
 11
-12.3281
 21
9.3484
 31
0.0
  0
LINE
  5
1FD
330
18
100
AcDbEntity
  8
DEFAULT
100
AcDbLine
 10
-12.5408
 20
13.3484
 30
0.0
 11
-12.3849
 21
13.3484
 31
0.0
  0
LINE
  5
1FE
330
18
100
AcDbEntity
  8
DEFAULT
100
AcDbLine
 10
-12.3849
 20
13.3484
 30
0.0
 11
-12.229
 21
13.3484
 31
0.0
  0
LINE
  5
1FF
330
18
100
AcDbEntity
  8
DEFAULT
100
AcDbLine
 10
-12.6176
 20
15.3484
 30
0.0
 11
-12.3849
 21
15.3484
 31
0.0
  0
LINE
  5
200
330
18
100
AcDbEntity
  8
DEFAULT
100
AcDbLine
 10
-12.3849
 20
15.3484
 30
0.0
 11
-12.1522
 21
15.3484
 31
0.0
  0
LINE
  5
201
330
18
100
AcDbEntity
  8
DEFAULT
100
AcDbLine
 10
-12.7162
 20
17.3484
 30
0.0
 11
-12.3849
 21
17.3484
 31
0.0
  0
LINE
  5
202
330
18
100
AcDbEntity
  8
DEFAULT
100
AcDbLine
 10
-12.3849
 20
17.3484
 30
0.0
 11
-12.0536
 21
17.3484
 31
0.0
  0
LINE
  5
203
330
18
100
AcDbEntity
  8
DEFAULT
100
AcDbLine
 10
-12.8394
 20
19.3484
 30
0.0
 11
-12.3849
 21
19.3484
 31
0.0
  0
LINE
  5
204
330
18
100
AcDbEntity
  8
DEFAULT
100
AcDbLine
 10
-12.3849
 20
19.3484
 30
0.0
 11
-11.9304
 21
19.3484
 31
0.0
  0
LINE
  5
205
330
18
100
AcDbEntity
  8
DEFAULT
100
AcDbLine
 10
-12.9899
 20
21.3484
 30
0.0
 11
-12.3849
 21
21.3484
 31
0.0
  0
LINE
  5
206
330
18
100
AcDbEntity
  8
DEFAULT
100
AcDbLine
 10
-12.3849
 20
21.3484
 30
0.0
 11
-11.7799
 21
21.3484
 31
0.0
  0
LINE
  5
207
330
18
100
AcDbEntity
  8
DEFAULT
100
AcDbLine
 10
-13.1703
 20
23.3484
 30
0.0
 11
-12.3849
 21
23.3484
 31
0.0
  0
LINE
  5
208
330
18
100
AcDbEntity
  8
DEFAULT
100
AcDbLine
 10
-12.3849
 20
23.3484
 30
0.0
 11
-11.5995
 21
23.3484
 31
0.0
  0
SPLINE
  5
209
330
18
100
AcDbEntity
  8
DEFAULT
100
AcDbSpline
210
0.0
220
0.0
230
1.0
 70
     8
 71
     3
 72
    17
 73
    13
 74
    11
 42
0.0000001
 43
0.0000001
 44
0.0000000001
 12
0.09408997148152214
 22
-0.9955636982466799
 32
0.0
 13
0.0
 23
-1.0
 33
0.0
 40
0.0
 40
0.0
 40
0.0
 40
0.0
 40
2.008119558193685
 40
4.013774127156147
 40
6.017565094298179
 40
8.019994109269748
 40
10.02146812608835
 40
12.0223002754702
 40
14.02272871957912
 40
16.02292053288103
 40
18.0229910916364
 40
24.02300369912315
 40
24.02300369912315
 40
24.02300369912315
 40
24.02300369912315
 10
-13.1703
 20
23.3484
 30
0.0
 10
-13.10731869601269
 20
22.68199635537441
 30
0.0
 10
-12.98391561492197
 20
21.34972801106074
 30
0.0
 10
-12.83520391259225
 20
19.34929955797942
 30
0.0
 10
-12.71205235205785
 20
17.34908479435834
 30
0.0
 10
-12.61401587049401
 20
15.34887231762491
 30
0.0
 10
-12.5376116311797
 20
13.34871941629169
 30
0.0
 10
-12.48040359827935
 20
11.34859949952034
 30
0.0
 10
-12.43940482799477
 20
9.348517015963576
 30
0.0
 10
-12.41218981158641
 20
7.348459452008699
 30
0.0
 10
-12.38494102158356
 20
4.015131926066117
 30
0.0
 10
-12.3849
 20
1.348404202495585
 30
0.0
 10
-12.3849
 20
-0.6516
 30
0.0
 11
-13.1703
 21
23.3484
 31
0.0
 11
-12.9899
 21
21.3484
 31
0.0
 11
-12.8394
 21
19.3484
 31
0.0
 11
-12.7162
 21
17.3484
 31
0.0
 11
-12.6176
 21
15.3484
 31
0.0
 11
-12.5408
 21
13.3484
 31
0.0
 11
-12.4831
 21
11.3484
 31
0.0
 11
-12.4417
 21
9.3484
 31
0.0
 11
-12.414
 21
7.3484
 31
0.0
 11
-12.3972
 21
5.3484
 31
0.0
 11
-12.3849
 21
-0.6516
 31
0.0
  0
LINE
  5
20A
330
18
100
AcDbEntity
  8
DEFAULT
100
AcDbLine
 10
-12.3849
 20
5.3484
 30
0.0
 11
-12.3726
 21
5.3484
 31
0.0
  0
LINE
  5
20B
330
18
100
AcDbEntity
  8
DEFAULT
100
AcDbLine
 10
-12.414
 20
7.3484
 30
0.0
 11
-12.3849
 21
7.3484
 31
0.0
  0
LINE
  5
20C
330
18
100
AcDbEntity
  8
DEFAULT
100
AcDbLine
 10
-12.3849
 20
7.3484
 30
0.0
 11
-12.3558
 21
7.3484
 31
0.0
  0
SPLINE
  5
20D
330
18
100
AcDbEntity
  8
DEFAULT
100
AcDbSpline
210
0.0
220
0.0
230
1.0
 70
     8
 71
     3
 72
    17
 73
    13
 74
    11
 42
0.0000001
 43
0.0000001
 44
0.0000000001
 12
-0.09408997148152214
 22
-0.9955636982466799
 32
0.0
 13
-0.001713999196308537
 23
-0.9999985311022989
 33
0.0
 40
0.0
 40
0.0
 40
0.0
 40
0.0
 40
2.008119558193685
 40
4.013774127156147
 40
6.017565094298179
 40
8.019994109269748
 40
10.02146812608835
 40
12.0223002754702
 40
14.02272871957912
 40
16.02292053288103
 40
18.0229910916364
 40
24.02300369912315
 40
24.02300369912315
 40
24.02300369912315
 40
24.02300369912315
 10
-11.5995
 20
23.3484
 30
0.0
 10
-11.66248130398731
 20
22.68199635537441
 30
0.0
 10
-11.78588439295407
 20
21.34972801106749
 30
0.0
 10
-11.93459605988883
 20
19.34929955795584
 30
0.0
 10
-12.05774775002463
 20
17.34908479444583
 30
0.0
 10
-12.15578374901178
 20
15.34887231729883
 30
0.0
 10
-12.23218978789835
 20
13.34871941750784
 30
0.0
 10
-12.28939110790721
 20
11.34859949498354
 30
0.0
 10
-12.33041492359444
 20
9.348517032890694
 30
0.0
 10
-12.35753648551646
 20
7.348459388845299
 30
0.0
 10
-12.38536650679168
 20
4.015132361018051
 30
0.0
 10
-12.38147199440431
 20
1.34840126469401
 30
0.0
 10
-12.3849
 20
-0.6516
 30
0.0
 11
-11.5995
 21
23.3484
 31
0.0
 11
-11.7799
 21
21.3484
 31
0.0
 11
-11.9304
 21
19.3484
 31
0.0
 11
-12.0536
 21
17.3484
 31
0.0
 11
-12.1522
 21
15.3484
 31
0.0
 11
-12.229
 21
13.3484
 31
0.0
 11
-12.2867
 21
11.3484
 31
0.0
 11
-12.3281
 21
9.3484
 31
0.0
 11
-12.3558
 21
7.3484
 31
0.0
 11
-12.3726
 21
5.3484
 31
0.0
 11
-12.3849
 21
-0.6516
 31
0.0
  0
LINE
  5
20E
330
18
100
AcDbEntity
  8
DEFAULT
100
AcDbLine
 10
-2.3849
 20
-0.6516
 30
0.0
 11
-0.3849
 21
-0.6516
 31
0.0
  0
LINE
  5
20F
330
18
100
AcDbEntity
  8
DEFAULT
100
AcDbLine
 10
-0.3849
 20
-0.6516
 30
0.0
 11
1.6151
 21
-0.6516
 31
0.0
  0
LINE
  5
210
330
18
100
AcDbEntity
  8
DEFAULT
100
AcDbLine
 10
-4.3849
 20
-0.6516
 30
0.0
 11
-2.3849
 21
-0.6516
 31
0.0
  0
LINE
  5
211
330
18
100
AcDbEntity
  8
DEFAULT
100
AcDbLine
 10
1.6151
 20
-0.6516
 30
0.0
 11
3.6151
 21
-0.6516
 31
0.0
  0
LINE
  5
212
330
18
100
AcDbEntity
  8
DEFAULT
100
AcDbLine
 10
3.6151
 20
-0.6516
 30
0.0
 11
5.6151
 21
-0.6516
 31
0.0
  0
LINE
  5
213
330
18
100
AcDbEntity
  8
DEFAULT
100
AcDbLine
 10
5.6151
 20
-0.6516
 30
0.0
 11
7.6151
 21
-0.6516
 31
0.0
  0
LINE
  5
214
330
18
100
AcDbEntity
  8
DEFAULT
100
AcDbLine
 10
7.6151
 20
-0.6516
 30
0.0
 11
9.6151
 21
-0.6516
 31
0.0
  0
LINE
  5
215
330
18
100
AcDbEntity
  8
DEFAULT
100
AcDbLine
 10
9.6151
 20
-0.6516
 30
0.0
 11
11.6151
 21
-0.6516
 31
0.0
  0
LINE
  5
216
330
18
100
AcDbEntity
  8
DEFAULT
100
AcDbLine
 10
-6.3849
 20
-0.6516
 30
0.0
 11
-4.3849
 21
-0.6516
 31
0.0
  0
LINE
  5
217
330
18
100
AcDbEntity
  8
DEFAULT
100
AcDbLine
 10
-8.3849
 20
-0.6516
 30
0.0
 11
-6.3849
 21
-0.6516
 31
0.0
  0
LINE
  5
218
330
18
100
AcDbEntity
  8
DEFAULT
100
AcDbLine
 10
-10.3849
 20
-0.6516
 30
0.0
 11
-8.3849
 21
-0.6516
 31
0.0
  0
LINE
  5
219
330
18
100
AcDbEntity
  8
DEFAULT
100
AcDbLine
 10
-12.3849
 20
-0.6516
 30
0.0
 11
-10.3849
 21
-0.6516
 31
0.0
  0
TEXT
  5
21A
330
18
100
AcDbEntity
  8
DEFAULT
100
AcDbText
 10
-6.3849
 20
-0.6516
 30
0.0
 40
0.1263
  1
0.0123
  7
ARIAL
100
AcDbText
  0
TEXT
  5
21B
330
18
100
AcDbEntity
  8
DEFAULT
100
AcDbText
 10
-6.3849
 20
-0.6516
 30
0.0
 40
0.1263
  1
0.0123
  7
ARIAL
100
AcDbText
  0
LINE
  5
21C
330
18
100
AcDbEntity
  8
DEFAULT
100
AcDbLine
 10
-2.3849
 20
-0.6516
 30
0.0
 11
-2.3849
 21
-0.5948
 31
0.0
  0
LINE
  5
21D
330
18
100
AcDbEntity
  8
DEFAULT
100
AcDbLine
 10
-0.3849
 20
-0.6516
 30
0.0
 11
-0.3849
 21
-0.5534
 31
0.0
  0
LINE
  5
21E
330
18
100
AcDbEntity
  8
DEFAULT
100
AcDbLine
 10
-0.3849
 20
-0.7498
 30
0.0
 11
-0.3849
 21
-0.6516
 31
0.0
  0
LINE
  5
21F
330
18
100
AcDbEntity
  8
DEFAULT
100
AcDbLine
 10
-2.3849
 20
-0.7084
 30
0.0
 11
-2.3849
 21
-0.6516
 31
0.0
  0
LINE
  5
220
330
18
100
AcDbEntity
  8
DEFAULT
100
AcDbLine
 10
1.6151
 20
-0.6516
 30
0.0
 11
1.6151
 21
-0.4957
 31
0.0
  0
LINE
  5
221
330
18
100
AcDbEntity
  8
DEFAULT
100
AcDbLine
 10
1.6151
 20
-0.8075
 30
0.0
 11
1.6151
 21
-0.6516
 31
0.0
  0
LINE
  5
222
330
18
100
AcDbEntity
  8
DEFAULT
100
AcDbLine
 10
3.6151
 20
-0.6516
 30
0.0
 11
3.6151
 21
-0.4189
 31
0.0
  0
LINE
  5
223
330
18
100
AcDbEntity
  8
DEFAULT
100
AcDbLine
 10
3.6151
 20
-0.8843
 30
0.0
 11
3.6151
 21
-0.6516
 31
0.0
  0
LINE
  5
224
330
18
100
AcDbEntity
  8
DEFAULT
100
AcDbLine
 10
5.6151
 20
-0.6516
 30
0.0
 11
5.6151
 21
-0.3203
 31
0.0
  0
LINE
  5
225
330
18
100
AcDbEntity
  8
DEFAULT
100
AcDbLine
 10
5.6151
 20
-0.9829
 30
0.0
 11
5.6151
 21
-0.6516
 31
0.0
  0
LINE
  5
226
330
18
100
AcDbEntity
  8
DEFAULT
100
AcDbLine
 10
7.6151
 20
-0.6516
 30
0.0
 11
7.6151
 21
-0.1971
 31
0.0
  0
LINE
  5
227
330
18
100
AcDbEntity
  8
DEFAULT
100
AcDbLine
 10
7.6151
 20
-1.1061
 30
0.0
 11
7.6151
 21
-0.6516
 31
0.0
  0
LINE
  5
228
330
18
100
AcDbEntity
  8
DEFAULT
100
AcDbLine
 10
9.6151
 20
-0.6516
 30
0.0
 11
9.6151
 21
-0.0466
 31
0.0
  0
LINE
  5
229
330
18
100
AcDbEntity
  8
DEFAULT
100
AcDbLine
 10
9.6151
 20
-1.2566
 30
0.0
 11
9.6151
 21
-0.6516
 31
0.0
  0
LINE
  5
22A
330
18
100
AcDbEntity
  8
DEFAULT
100
AcDbLine
 10
11.6151
 20
-0.6516
 30
0.0
 11
11.6151
 21
0.1338
 31
0.0
  0
LINE
  5
22B
330
18
100
AcDbEntity
  8
DEFAULT
100
AcDbLine
 10
11.6151
 20
-1.437
 30
0.0
 11
11.6151
 21
-0.6516
 31
0.0
  0
SPLINE
  5
22C
330
18
100
AcDbEntity
  8
DEFAULT
100
AcDbSpline
210
0.0
220
0.0
230
1.0
 70
     8
 71
     3
 72
    17
 73
    13
 74
    11
 42
0.0000001
 43
0.0000001
 44
0.0000000001
 12
-0.9955636982466799
 22
-0.09408997148152214
 32
0.0
 13
-1.0
 23
0.0
 33
0.0
 40
0.0
 40
0.0
 40
0.0
 40
0.0
 40
2.008119558193685
 40
4.013774127156147
 40
6.017565094298179
 40
8.019994109269746
 40
10.02146812608835
 40
12.0223002754702
 40
14.02272871957911
 40
16.02292053288103
 40
18.02299109163639
 40
24.02300369912314
 40
24.02300369912314
 40
24.02300369912314
 40
24.02300369912314
 10
11.6151
 20
0.1338
 30
0.0
 10
10.9486963553744
 20
0.0708186960126898
 30
0.0
 10
9.616428011060746
 20
-0.052584385078033
 30
0.0
 10
7.615999557979419
 20
-0.2012960874077448
 30
0.0
 10
5.615784794358342
 20
-0.3244476479421568
 30
0.0
 10
3.615572317624913
 20
-0.4224841295059853
 30
0.0
 10
1.615419416291691
 20
-0.4988883688203047
 30
0.0
 10
-0.3847005004796605
 20
-0.5560964017206523
 30
0.0
 10
-2.384782984036421
 20
-0.5970951720052312
 30
0.0
 10
-4.384840547991301
 20
-0.6243101884135914
 30
0.0
 10
-7.718168073933883
 20
-0.6515589784164449
 30
0.0
 10
-10.38489579750442
 20
-0.6516
 30
0.0
 10
-12.3849
 20
-0.6516
 30
0.0
 11
11.6151
 21
0.1338
 31
0.0
 11
9.6151
 21
-0.0466
 31
0.0
 11
7.6151
 21
-0.1971
 31
0.0
 11
5.6151
 21
-0.3203
 31
0.0
 11
3.6151
 21
-0.4189
 31
0.0
 11
1.6151
 21
-0.4957
 31
0.0
 11
-0.3849
 21
-0.5534
 31
0.0
 11
-2.3849
 21
-0.5948
 31
0.0
 11
-4.3849
 21
-0.6225000000000001
 31
0.0
 11
-6.3849
 21
-0.6393
 31
0.0
 11
-12.3849
 21
-0.6516
 31
0.0
  0
LINE
  5
22D
330
18
100
AcDbEntity
  8
DEFAULT
100
AcDbLine
 10
-6.3849
 20
-0.6639000000000001
 30
0.0
 11
-6.3849
 21
-0.6516
 31
0.0
  0
LINE
  5
22E
330
18
100
AcDbEntity
  8
DEFAULT
100
AcDbLine
 10
-4.3849
 20
-0.6516
 30
0.0
 11
-4.3849
 21
-0.6225000000000001
 31
0.0
  0
LINE
  5
22F
330
18
100
AcDbEntity
  8
DEFAULT
100
AcDbLine
 10
-4.3849
 20
-0.6807
 30
0.0
 11
-4.3849
 21
-0.6516
 31
0.0
  0
SPLINE
  5
230
330
18
100
AcDbEntity
  8
DEFAULT
100
AcDbSpline
210
0.0
220
0.0
230
1.0
 70
     8
 71
     3
 72
    17
 73
    13
 74
    11
 42
0.0000001
 43
0.0000001
 44
0.0000000001
 12
-0.9955636982466799
 22
0.09408997148152214
 32
0.0
 13
-0.9999985311022989
 23
0.001713999196308537
 33
0.0
 40
0.0
 40
0.0
 40
0.0
 40
0.0
 40
2.008119558193685
 40
4.013774127156147
 40
6.017565094298179
 40
8.019994109269746
 40
10.02146812608835
 40
12.0223002754702
 40
14.02272871957911
 40
16.02292053288103
 40
18.02299109163639
 40
24.02300369912314
 40
24.02300369912314
 40
24.02300369912314
 40
24.02300369912314
 10
11.6151
 20
-1.437
 30
0.0
 10
10.9486963553744
 20
-1.37401869601269
 30
0.0
 10
9.616428011067496
 20
-1.250615607045931
 30
0.0
 10
7.615999557955835
 20
-1.101903940111167
 30
0.0
 10
5.615784794445827
 20
-0.9787522499753762
 30
0.0
 10
3.615572317298829
 20
-0.8807162509882224
 30
0.0
 10
1.615419417507842
 20
-0.8043102121016504
 30
0.0
 10
-0.3847005050164598
 20
-0.7471088920927949
 30
0.0
 10
-2.384782967109305
 20
-0.7060850764055611
 30
0.0
 10
-4.384840611154701
 20
-0.6789635144835425
 30
0.0
 10
-7.718167638981949
 20
-0.6511334932083228
 30
0.0
 10
-10.38489873530599
 20
-0.6550280055956911
 30
0.0
 10
-12.3849
 20
-0.6516
 30
0.0
 11
11.6151
 21
-1.437
 31
0.0
 11
9.6151
 21
-1.2566
 31
0.0
 11
7.6151
 21
-1.1061
 31
0.0
 11
5.6151
 21
-0.9829
 31
0.0
 11
3.6151
 21
-0.8843
 31
0.0
 11
1.6151
 21
-0.8075
 31
0.0
 11
-0.3849
 21
-0.7498
 31
0.0
 11
-2.3849
 21
-0.7084
 31
0.0
 11
-4.3849
 21
-0.6807
 31
0.0
 11
-6.3849
 21
-0.6639000000000001
 31
0.0
 11
-12.3849
 21
-0.6516
 31
0.0
  0
LINE
  5
231
330
18
100
AcDbEntity
  8
DEFAULT
100
AcDbLine
 10
-3.1462
 20
-4.4784
 30
0.0
 11
-1.2984
 21
-5.2438
 31
0.0
  0
LINE
  5
232
330
18
100
AcDbEntity
  8
DEFAULT
100
AcDbLine
 10
-1.2984
 20
-5.2438
 30
0.0
 11
0.5494
 21
-6.0091
 31
0.0
  0
LINE
  5
233
330
18
100
AcDbEntity
  8
DEFAULT
100
AcDbLine
 10
-4.9939
 20
-3.713
 30
0.0
 11
-3.1462
 21
-4.4784
 31
0.0
  0
LINE
  5
234
330
18
100
AcDbEntity
  8
DEFAULT
100
AcDbLine
 10
0.5494
 20
-6.0091
 30
0.0
 11
2.3971
 21
-6.7745
 31
0.0
  0
LINE
  5
235
330
18
100
AcDbEntity
  8
DEFAULT
100
AcDbLine
 10
2.3971
 20
-6.7745
 30
0.0
 11
4.2449
 21
-7.5399
 31
0.0
  0
LINE
  5
236
330
18
100
AcDbEntity
  8
DEFAULT
100
AcDbLine
 10
4.2449
 20
-7.5399
 30
0.0
 11
6.0926
 21
-8.305199999999999
 31
0.0
  0
LINE
  5
237
330
18
100
AcDbEntity
  8
DEFAULT
100
AcDbLine
 10
6.0926
 20
-8.305199999999999
 30
0.0
 11
7.9404
 21
-9.070600000000001
 31
0.0
  0
LINE
  5
238
330
18
100
AcDbEntity
  8
DEFAULT
100
AcDbLine
 10
7.9404
 20
-9.070600000000001
 30
0.0
 11
9.7882
 21
-9.836
 31
0.0
  0
LINE
  5
239
330
18
100
AcDbEntity
  8
DEFAULT
100
AcDbLine
 10
-6.8417
 20
-2.9477
 30
0.0
 11
-4.9939
 21
-3.713
 31
0.0
  0
LINE
  5
23A
330
18
100
AcDbEntity
  8
DEFAULT
100
AcDbLine
 10
-8.689399999999999
 20
-2.1823
 30
0.0
 11
-6.8417
 21
-2.9477
 31
0.0
  0
LINE
  5
23B
330
18
100
AcDbEntity
  8
DEFAULT
100
AcDbLine
 10
-10.5372
 20
-1.4169
 30
0.0
 11
-8.689399999999999
 21
-2.1823
 31
0.0
  0
LINE
  5
23C
330
18
100
AcDbEntity
  8
DEFAULT
100
AcDbLine
 10
-12.3849
 20
-0.6516
 30
0.0
 11
-10.5372
 21
-1.4169
 31
0.0
  0
TEXT
  5
23D
330
18
100
AcDbEntity
  8
DEFAULT
100
AcDbText
 10
-6.8769
 20
-3.0321
 30
0.0
 40
0.1263
  1
0.0123
 50
337.5
  7
ARIAL
100
AcDbText
  0
TEXT
  5
23E
330
18
100
AcDbEntity
  8
DEFAULT
100
AcDbText
 10
-6.8769
 20
-3.0321
 30
0.0
 40
0.1263
  1
0.0123
 50
337.5
  7
ARIAL
100
AcDbText
  0
LINE
  5
23F
330
18
100
AcDbEntity
  8
DEFAULT
100
AcDbLine
 10
-3.1679
 20
-4.5309
 30
0.0
 11
-3.1462
 21
-4.4784
 31
0.0
  0
LINE
  5
240
330
18
100
AcDbEntity
  8
DEFAULT
100
AcDbLine
 10
-1.336
 20
-5.3345
 30
0.0
 11
-1.2984
 21
-5.2438
 31
0.0
  0
LINE
  5
241
330
18
100
AcDbEntity
  8
DEFAULT
100
AcDbLine
 10
-1.2984
 20
-5.2438
 30
0.0
 11
-1.2608
 21
-5.153
 31
0.0
  0
LINE
  5
242
330
18
100
AcDbEntity
  8
DEFAULT
100
AcDbLine
 10
-3.1462
 20
-4.4784
 30
0.0
 11
-3.1244
 21
-4.4259
 31
0.0
  0
LINE
  5
243
330
18
100
AcDbEntity
  8
DEFAULT
100
AcDbLine
 10
0.4897
 20
-6.1532
 30
0.0
 11
0.5494
 21
-6.0091
 31
0.0
  0
LINE
  5
244
330
18
100
AcDbEntity
  8
DEFAULT
100
AcDbLine
 10
0.5494
 20
-6.0091
 30
0.0
 11
0.609
 21
-5.8651
 31
0.0
  0
LINE
  5
245
330
18
100
AcDbEntity
  8
DEFAULT
100
AcDbLine
 10
2.3081
 20
-6.9895
 30
0.0
 11
2.3971
 21
-6.7745
 31
0.0
  0
LINE
  5
246
330
18
100
AcDbEntity
  8
DEFAULT
100
AcDbLine
 10
2.3971
 20
-6.7745
 30
0.0
 11
2.4862
 21
-6.5595
 31
0.0
  0
LINE
  5
247
330
18
100
AcDbEntity
  8
DEFAULT
100
AcDbLine
 10
4.1181
 20
-7.8459
 30
0.0
 11
4.2449
 21
-7.5399
 31
0.0
  0
LINE
  5
248
330
18
100
AcDbEntity
  8
DEFAULT
100
AcDbLine
 10
4.2449
 20
-7.5399
 30
0.0
 11
4.3717
 21
-7.2338
 31
0.0
  0
LINE
  5
249
330
18
100
AcDbEntity
  8
DEFAULT
100
AcDbLine
 10
5.9187
 20
-8.725099999999999
 30
0.0
 11
6.0926
 21
-8.305199999999999
 31
0.0
  0
LINE
  5
24A
330
18
100
AcDbEntity
  8
DEFAULT
100
AcDbLine
 10
6.0926
 20
-8.305199999999999
 30
0.0
 11
6.2666
 21
-7.8853
 31
0.0
  0
LINE
  5
24B
330
18
100
AcDbEntity
  8
DEFAULT
100
AcDbLine
 10
7.7089
 20
-9.6295
 30
0.0
 11
7.9404
 21
-9.070600000000001
 31
0.0
  0
LINE
  5
24C
330
18
100
AcDbEntity
  8
DEFAULT
100
AcDbLine
 10
7.9404
 20
-9.070600000000001
 30
0.0
 11
8.171900000000001
 21
-8.5116
 31
0.0
  0
LINE
  5
24D
330
18
100
AcDbEntity
  8
DEFAULT
100
AcDbLine
 10
9.487600000000001
 20
-10.5616
 30
0.0
 11
9.7882
 21
-9.836
 31
0.0
  0
LINE
  5
24E
330
18
100
AcDbEntity
  8
DEFAULT
100
AcDbLine
 10
9.7882
 20
-9.836
 30
0.0
 11
10.0887
 21
-9.110300000000001
 31
0.0
  0
SPLINE
  5
24F
330
18
100
AcDbEntity
  8
DEFAULT
100
AcDbSpline
210
0.0
220
0.0
230
1.0
 70
     8
 71
     3
 72
    17
 73
    13
 74
    11
 42
0.0000001
 43
0.0000001
 44
0.0000000001
 12
-0.8837947270621356
 22
0.4678748555085701
 32
0.0
 13
-0.9238921173005843
 23
0.3826530485829734
 33
0.0
 40
0.0
 40
0.0
 40
0.0
 40
0.0
 40
2.008129502796073
 40
4.013810284974532
 40
6.01759495404454
 40
8.019973779342092
 40
10.0214672842029
 40
12.0223296432871
 40
14.02273724425247
 40
16.02289159079675
 40
18.02303127841859
 40
24.02295436209225
 40
24.02295436209225
 40
24.02295436209225
 40
24.02295436209225
 10
9.487600000000001
 20
-10.5616
 30
0.0
 10
8.896008578056975
 20
-10.2484155663456
 30
0.0
 10
7.712438944302988
 20
-9.624425514819858
 30
0.0
 10
5.921132716811087
 20
-8.721599696257002
 30
0.0
 10
4.120343605340375
 20
-7.842314991988531
 30
0.0
 10
2.309884318887838
 20
-6.986364502153695
 30
0.0
 10
0.4912062286379892
 20
-6.150388035830139
 30
0.0
 10
-1.334761754818151
 20
-5.332077276548834
 30
0.0
 10
-3.166919833907254
 20
-4.528852795543147
 30
0.0
 10
-5.004273581868273
 20
-3.738209760037409
 30
0.0
 10
-8.073457122225928
 20
-2.437517551218418
 30
0.0
 10
-10.53713945286136
 20
-1.41689628641036
 30
0.0
 10
-12.3849
 20
-0.6516
 30
0.0
 11
9.487600000000001
 21
-10.5616
 31
0.0
 11
7.7089
 21
-9.6295
 31
0.0
 11
5.9187
 21
-8.725099999999999
 31
0.0
 11
4.1181
 21
-7.8459
 31
0.0
 11
2.3081
 21
-6.9895
 31
0.0
 11
0.4897
 21
-6.1532
 31
0.0
 11
-1.336
 21
-5.3345
 31
0.0
 11
-3.1679
 21
-4.5309
 31
0.0
 11
-5.005
 21
-3.7399
 31
0.0
 11
-6.8464
 21
-2.959
 31
0.0
 11
-12.3849
 21
-0.6516
 31
0.0
  0
LINE
  5
250
330
18
100
AcDbEntity
  8
DEFAULT
100
AcDbLine
 10
-6.8417
 20
-2.9477
 30
0.0
 11
-6.837
 21
-2.9363
 31
0.0
  0
LINE
  5
251
330
18
100
AcDbEntity
  8
DEFAULT
100
AcDbLine
 10
-5.005
 20
-3.7399
 30
0.0
 11
-4.9939
 21
-3.713
 31
0.0
  0
LINE
  5
252
330
18
100
AcDbEntity
  8
DEFAULT
100
AcDbLine
 10
-4.9939
 20
-3.713
 30
0.0
 11
-4.9828
 21
-3.6861
 31
0.0
  0
SPLINE
  5
253
330
18
100
AcDbEntity
  8
DEFAULT
100
AcDbSpline
210
0.0
220
0.0
230
1.0
 70
     8
 71
     3
 72
    17
 73
    13
 74
    11
 42
0.0000001
 43
0.0000001
 44
0.0000000001
 12
-0.9558128186130291
 22
0.2939759442114555
 32
0.0
 13
-0.9245437569781582
 23
0.3810758998319265
 33
0.0
 40
0.0
 40
0.0
 40
0.0
 40
0.0
 40
2.008124480703324
 40
4.013721593784613
 40
6.017492603655752
 40
8.019938792695546
 40
10.021456017203
 40
12.0222654659012
 40
14.02268526434351
 40
16.02292390010675
 40
18.0229883190693
 40
24.0229090268787
 40
24.0229090268787
 40
24.0229090268787
 40
24.0229090268787
 10
10.0887
 20
-9.110300000000001
 30
0.0
 10
9.448902959991044
 20
-8.913519903230368
 30
0.0
 10
8.170863295183526
 20
-8.517621118841666
 30
0.0
 10
6.265816855299222
 20
-7.88950805835897
 30
0.0
 10
4.370725171519649
 20
-7.237913923348144
 30
0.0
 10
2.485266542511834
 20
-6.562962050436685
 30
0.0
 10
0.6080825364266167
 20
-5.86821007235917
 30
0.0
 10
-1.261638899823756
 20
-5.155532125078887
 30
0.0
 10
-3.125201964058714
 20
-4.428094634982466
 30
0.0
 10
-4.983385066906665
 20
-3.687713148006505
 30
0.0
 10
-8.073663879950564
 20
-2.437950748009295
 30
0.0
 10
-10.53583692241029
 20
-1.413741727549558
 30
0.0
 10
-12.3849
 20
-0.6516
 30
0.0
 11
10.0887
 21
-9.110300000000001
 31
0.0
 11
8.171900000000001
 21
-8.5116
 31
0.0
 11
6.2666
 21
-7.8853
 31
0.0
 11
4.3717
 21
-7.2338
 31
0.0
 11
2.4862
 21
-6.5595
 31
0.0
 11
0.609
 21
-5.8651
 31
0.0
 11
-1.2608
 21
-5.153
 31
0.0
 11
-3.1244
 21
-4.4259
 31
0.0
 11
-4.9828
 21
-3.6861
 31
0.0
 11
-6.837
 21
-2.9363
 31
0.0
 11
-12.3849
 21
-0.6516
 31
0.0
  0
LINE
  5
254
330
18
100
AcDbEntity
  8
DEFAULT
100
AcDbLine
 10
-5.3139
 20
-7.7226
 30
0.0
 11
-3.8997
 21
-9.136799999999999
 31
0.0
  0
LINE
  5
255
330
18
100
AcDbEntity
  8
DEFAULT
100
AcDbLine
 10
-3.8997
 20
-9.136799999999999
 30
0.0
 11
-2.4855
 21
-10.551
 31
0.0
  0
LINE
  5
256
330
18
100
AcDbEntity
  8
DEFAULT
100
AcDbLine
 10
-6.7281
 20
-6.3084
 30
0.0
 11
-5.3139
 21
-7.7226
 31
0.0
  0
LINE
  5
257
330
18
100
AcDbEntity
  8
DEFAULT
100
AcDbLine
 10
-2.4855
 20
-10.551
 30
0.0
 11
-1.0712
 21
-11.9653
 31
0.0
  0
LINE
  5
258
330
18
100
AcDbEntity
  8
DEFAULT
100
AcDbLine
 10
-1.0712
 20
-11.9653
 30
0.0
 11
0.343
 21
-13.3795
 31
0.0
  0
LINE
  5
259
330
18
100
AcDbEntity
  8
DEFAULT
100
AcDbLine
 10
0.343
 20
-13.3795
 30
0.0
 11
1.7572
 21
-14.7937
 31
0.0
  0
LINE
  5
25A
330
18
100
AcDbEntity
  8
DEFAULT
100
AcDbLine
 10
1.7572
 20
-14.7937
 30
0.0
 11
3.1714
 21
-16.2079
 31
0.0
  0
LINE
  5
25B
330
18
100
AcDbEntity
  8
DEFAULT
100
AcDbLine
 10
3.1714
 20
-16.2079
 30
0.0
 11
4.5856
 21
-17.6221
 31
0.0
  0
LINE
  5
25C
330
18
100
AcDbEntity
  8
DEFAULT
100
AcDbLine
 10
-8.142300000000001
 20
-4.8942
 30
0.0
 11
-6.7281
 21
-6.3084
 31
0.0
  0
LINE
  5
25D
330
18
100
AcDbEntity
  8
DEFAULT
100
AcDbLine
 10
-9.5565
 20
-3.48
 30
0.0
 11
-8.142300000000001
 21
-4.8942
 31
0.0
  0
LINE
  5
25E
330
18
100
AcDbEntity
  8
DEFAULT
100
AcDbLine
 10
-10.9707
 20
-2.0658
 30
0.0
 11
-9.5565
 21
-3.48
 31
0.0
  0
LINE
  5
25F
330
18
100
AcDbEntity
  8
DEFAULT
100
AcDbLine
 10
-12.3849
 20
-0.6516
 30
0.0
 11
-10.9707
 21
-2.0658
 31
0.0
  0
TEXT
  5
260
330
18
100
AcDbEntity
  8
DEFAULT
100
AcDbText
 10
-8.2073
 20
-4.9591
 30
0.0
 40
0.1263
  1
0.0123
 50
315.0
  7
ARIAL
100
AcDbText
  0
TEXT
  5
261
330
18
100
AcDbEntity
  8
DEFAULT
100
AcDbText
 10
-8.2073
 20
-4.9591
 30
0.0
 40
0.1263
  1
0.0123
 50
315.0
  7
ARIAL
100
AcDbText
  0
LINE
  5
262
330
18
100
AcDbEntity
  8
DEFAULT
100
AcDbLine
 10
-5.354
 20
-7.7628
 30
0.0
 11
-5.3139
 21
-7.7226
 31
0.0
  0
LINE
  5
263
330
18
100
AcDbEntity
  8
DEFAULT
100
AcDbLine
 10
-3.9691
 20
-9.206300000000001
 30
0.0
 11
-3.8997
 21
-9.136799999999999
 31
0.0
  0
LINE
  5
264
330
18
100
AcDbEntity
  8
DEFAULT
100
AcDbLine
 10
-3.8997
 20
-9.136799999999999
 30
0.0
 11
-3.8302
 21
-9.067399999999999
 31
0.0
  0
LINE
  5
265
330
18
100
AcDbEntity
  8
DEFAULT
100
AcDbLine
 10
-5.3139
 20
-7.7226
 30
0.0
 11
-5.2737
 21
-7.6825
 31
0.0
  0
LINE
  5
266
330
18
100
AcDbEntity
  8
DEFAULT
100
AcDbLine
 10
-2.5957
 20
-10.6613
 30
0.0
 11
-2.4855
 21
-10.551
 31
0.0
  0
LINE
  5
267
330
18
100
AcDbEntity
  8
DEFAULT
100
AcDbLine
 10
-2.4855
 20
-10.551
 30
0.0
 11
-2.3752
 21
-10.4408
 31
0.0
  0
LINE
  5
268
330
18
100
AcDbEntity
  8
DEFAULT
100
AcDbLine
 10
-1.2358
 20
-12.1298
 30
0.0
 11
-1.0712
 21
-11.9653
 31
0.0
  0
LINE
  5
269
330
18
100
AcDbEntity
  8
DEFAULT
100
AcDbLine
 10
-1.0712
 20
-11.9653
 30
0.0
 11
-0.9067
 21
-11.8007
 31
0.0
  0
LINE
  5
26A
330
18
100
AcDbEntity
  8
DEFAULT
100
AcDbLine
 10
0.1087
 20
-13.6137
 30
0.0
 11
0.343
 21
-13.3795
 31
0.0
  0
LINE
  5
26B
330
18
100
AcDbEntity
  8
DEFAULT
100
AcDbLine
 10
0.343
 20
-13.3795
 30
0.0
 11
0.5772000000000001
 21
-13.1452
 31
0.0
  0
LINE
  5
26C
330
18
100
AcDbEntity
  8
DEFAULT
100
AcDbLine
 10
1.4358
 20
-15.1151
 30
0.0
 11
1.7572
 21
-14.7937
 31
0.0
  0
LINE
  5
26D
330
18
100
AcDbEntity
  8
DEFAULT
100
AcDbLine
 10
1.7572
 20
-14.7937
 30
0.0
 11
2.0786
 21
-14.4723
 31
0.0
  0
LINE
  5
26E
330
18
100
AcDbEntity
  8
DEFAULT
100
AcDbLine
 10
2.7436
 20
-16.6357
 30
0.0
 11
3.1714
 21
-16.2079
 31
0.0
  0
LINE
  5
26F
330
18
100
AcDbEntity
  8
DEFAULT
100
AcDbLine
 10
3.1714
 20
-16.2079
 30
0.0
 11
3.5992
 21
-15.7801
 31
0.0
  0
LINE
  5
270
330
18
100
AcDbEntity
  8
DEFAULT
100
AcDbLine
 10
4.0303
 20
-18.1775
 30
0.0
 11
4.5856
 21
-17.6221
 31
0.0
  0
LINE
  5
271
330
18
100
AcDbEntity
  8
DEFAULT
100
AcDbLine
 10
4.5856
 20
-17.6221
 30
0.0
 11
5.141
 21
-17.0668
 31
0.0
  0
SPLINE
  5
272
330
18
100
AcDbEntity
  8
DEFAULT
100
AcDbSpline
210
0.0
220
0.0
230
1.0
 70
     8
 71
     3
 72
    17
 73
    13
 74
    11
 42
0.0000001
 43
0.0000001
 44
0.0000000001
 12
-0.6375067854554151
 22
0.770444740716882
 32
0.0
 13
-0.7071067811865475
 23
0.7071067811865475
 33
0.0
 40
0.0
 40
0.0
 40
0.0
 40
0.0
 40
2.008169347938564
 40
4.013802714234608
 40
6.017648109967523
 40
8.02005652485196
 40
10.02151106093316
 40
12.02232403570116
 40
14.02273405867145
 40
16.02297667645561
 40
18.02302830078934
 40
24.02298337562115
 40
24.02298337562115
 40
24.02298337562115
 40
24.02298337562115
 10
4.0303
 20
-18.1775
 30
0.0
 10
3.60355947144853
 20
-17.66177216247063
 30
0.0
 10
2.748811532987171
 20
-16.63240387874841
 30
0.0
 10
1.439361050999016
 20
-15.11277223022782
 30
0.0
 10
0.1121565769281522
 20
-13.61124977223064
 30
0.0
 10
-1.232942686331965
 20
-12.12760900192249
 30
0.0
 10
-2.5932149623749
 20
-10.65926684789559
 30
0.0
 10
-3.96706654759926
 20
-9.20454778213907
 30
0.0
 10
-5.352285061354369
 20
-7.761218728874281
 30
0.0
 10
-6.747384338957245
 20
-6.327800706441277
 30
0.0
 10
-9.085045614276611
 20
-3.951438876129212
 30
0.0
 10
-10.9706970265906
 20
-2.065802973409403
 30
0.0
 10
-12.3849
 20
-0.6516
 30
0.0
 11
4.0303
 21
-18.1775
 31
0.0
 11
2.7436
 21
-16.6357
 31
0.0
 11
1.4358
 21
-15.1151
 31
0.0
 11
0.1087
 21
-13.6137
 31
0.0
 11
-1.2358
 21
-12.1298
 31
0.0
 11
-2.5957
 21
-10.6613
 31
0.0
 11
-3.9691
 21
-9.206300000000001
 31
0.0
 11
-5.354
 21
-7.7628
 31
0.0
 11
-6.7487
 21
-6.329
 31
0.0
 11
-8.151
 21
-4.9029
 31
0.0
 11
-12.3849
 21
-0.6516
 31
0.0
  0
LINE
  5
273
330
18
100
AcDbEntity
  8
DEFAULT
100
AcDbLine
 10
-8.142300000000001
 20
-4.8942
 30
0.0
 11
-8.1336
 21
-4.8855
 31
0.0
  0
LINE
  5
274
330
18
100
AcDbEntity
  8
DEFAULT
100
AcDbLine
 10
-6.7487
 20
-6.329
 30
0.0
 11
-6.7281
 21
-6.3084
 31
0.0
  0
LINE
  5
275
330
18
100
AcDbEntity
  8
DEFAULT
100
AcDbLine
 10
-6.7281
 20
-6.3084
 30
0.0
 11
-6.7075
 21
-6.2878
 31
0.0
  0
SPLINE
  5
276
330
18
100
AcDbEntity
  8
DEFAULT
100
AcDbSpline
210
0.0
220
0.0
230
1.0
 70
     8
 71
     3
 72
    17
 73
    13
 74
    11
 42
0.0000001
 43
0.0000001
 44
0.0000000001
 12
-0.770444740716882
 22
0.6375067854554151
 32
0.0
 13
-0.708296279479247
 23
0.7059152785397526
 33
0.0
 40
0.0
 40
0.0
 40
0.0
 40
0.0
 40
2.008169347938565
 40
4.013802714234608
 40
6.017648109967522
 40
8.020056524851958
 40
10.02151106093316
 40
12.02232403570116
 40
14.02273405867145
 40
16.02297667645561
 40
18.02302830078934
 40
24.02298337562115
 40
24.02298337562115
 40
24.02298337562115
 40
24.02298337562115
 10
5.141
 20
-17.0668
 30
0.0
 10
4.625272162470628
 20
-16.64005947144853
 30
0.0
 10
3.595903873282372
 20
-15.78531153846241
 30
0.0
 10
2.076272249325758
 20
-14.4758610318689
 30
0.0
 10
0.5747497013841898
 20
-13.14865664789398
 30
0.0
 10
-0.9088907340212714
 20
-11.80355704916685
 30
0.0
 10
-2.37723413692125
 20
-10.44328602410139
 30
0.0
 10
-3.831948544039984
 20
-9.069429772389253
 30
0.0
 10
-5.275294978615504
 20
-7.684228669233105
 30
0.0
 10
-6.708648142953918
 20
-6.289064424247055
 30
0.0
 10
-9.085413339412222
 20
-3.951807194762661
 30
0.0
 10
-10.968318047818
 20
-2.063419985958633
 30
0.0
 10
-12.3849
 20
-0.6516
 30
0.0
 11
5.141
 21
-17.0668
 31
0.0
 11
3.5992
 21
-15.7801
 31
0.0
 11
2.0786
 21
-14.4723
 31
0.0
 11
0.5772000000000001
 21
-13.1452
 31
0.0
 11
-0.9067
 21
-11.8007
 31
0.0
 11
-2.3752
 21
-10.4408
 31
0.0
 11
-3.8302
 21
-9.067399999999999
 31
0.0
 11
-5.2737
 21
-7.6825
 31
0.0
 11
-6.7075
 21
-6.2878
 31
0.0
 11
-8.1336
 21
-4.8855
 31
0.0
 11
-12.3849
 21
-0.6516
 31
0.0
  0
LINE
  5
277
330
18
100
AcDbEntity
  8
DEFAULT
100
AcDbLine
 10
-8.5581
 20
-9.8903
 30
0.0
 11
-7.7927
 21
-11.7381
 31
0.0
  0
LINE
  5
278
330
18
100
AcDbEntity
  8
DEFAULT
100
AcDbLine
 10
-7.7927
 20
-11.7381
 30
0.0
 11
-7.0274
 21
-13.5859
 31
0.0
  0
LINE
  5
279
330
18
100
AcDbEntity
  8
DEFAULT
100
AcDbLine
 10
-9.323499999999999
 20
-8.0426
 30
0.0
 11
-8.5581
 21
-9.8903
 31
0.0
  0
LINE
  5
27A
330
18
100
AcDbEntity
  8
DEFAULT
100
AcDbLine
 10
-7.0274
 20
-13.5859
 30
0.0
 11
-6.262
 21
-15.4336
 31
0.0
  0
LINE
  5
27B
330
18
100
AcDbEntity
  8
DEFAULT
100
AcDbLine
 10
-6.262
 20
-15.4336
 30
0.0
 11
-5.4966
 21
-17.2814
 31
0.0
  0
LINE
  5
27C
330
18
100
AcDbEntity
  8
DEFAULT
100
AcDbLine
 10
-5.4966
 20
-17.2814
 30
0.0
 11
-4.7313
 21
-19.1291
 31
0.0
  0
LINE
  5
27D
330
18
100
AcDbEntity
  8
DEFAULT
100
AcDbLine
 10
-4.7313
 20
-19.1291
 30
0.0
 11
-3.9659
 21
-20.9769
 31
0.0
  0
LINE
  5
27E
330
18
100
AcDbEntity
  8
DEFAULT
100
AcDbLine
 10
-3.9659
 20
-20.9769
 30
0.0
 11
-3.2005
 21
-22.8247
 31
0.0
  0
LINE
  5
27F
330
18
100
AcDbEntity
  8
DEFAULT
100
AcDbLine
 10
-10.0888
 20
-6.1948
 30
0.0
 11
-9.323499999999999
 21
-8.0426
 31
0.0
  0
LINE
  5
280
330
18
100
AcDbEntity
  8
DEFAULT
100
AcDbLine
 10
-10.8542
 20
-4.3471
 30
0.0
 11
-10.0888
 21
-6.1948
 31
0.0
  0
LINE
  5
281
330
18
100
AcDbEntity
  8
DEFAULT
100
AcDbLine
 10
-11.6196
 20
-2.4993
 30
0.0
 11
-10.8542
 21
-4.3471
 31
0.0
  0
LINE
  5
282
330
18
100
AcDbEntity
  8
DEFAULT
100
AcDbLine
 10
-12.3849
 20
-0.6516
 30
0.0
 11
-11.6196
 21
-2.4993
 31
0.0
  0
TEXT
  5
283
330
18
100
AcDbEntity
  8
DEFAULT
100
AcDbText
 10
-10.1736
 20
-6.2298
 30
0.0
 40
0.1263
  1
0.0123
 50
292.5
  7
ARIAL
100
AcDbText
  0
TEXT
  5
284
330
18
100
AcDbEntity
  8
DEFAULT
100
AcDbText
 10
-10.1736
 20
-6.2298
 30
0.0
 40
0.1263
  1
0.0123
 50
292.5
  7
ARIAL
100
AcDbText
  0
LINE
  5
285
330
18
100
AcDbEntity
  8
DEFAULT
100
AcDbLine
 10
-8.6106
 20
-9.912100000000001
 30
0.0
 11
-8.5581
 21
-9.8903
 31
0.0
  0
LINE
  5
286
330
18
100
AcDbEntity
  8
DEFAULT
100
AcDbLine
 10
-7.8835
 20
-11.7757
 30
0.0
 11
-7.7927
 21
-11.7381
 31
0.0
  0
LINE
  5
287
330
18
100
AcDbEntity
  8
DEFAULT
100
AcDbLine
 10
-7.7927
 20
-11.7381
 30
0.0
 11
-7.702
 21
-11.7005
 31
0.0
  0
LINE
  5
288
330
18
100
AcDbEntity
  8
DEFAULT
100
AcDbLine
 10
-8.5581
 20
-9.8903
 30
0.0
 11
-8.505599999999999
 21
-9.868600000000001
 31
0.0
  0
LINE
  5
289
330
18
100
AcDbEntity
  8
DEFAULT
100
AcDbLine
 10
-7.1714
 20
-13.6455
 30
0.0
 11
-7.0274
 21
-13.5859
 31
0.0
  0
LINE
  5
28A
330
18
100
AcDbEntity
  8
DEFAULT
100
AcDbLine
 10
-7.0274
 20
-13.5859
 30
0.0
 11
-6.8833
 21
-13.5262
 31
0.0
  0
LINE
  5
28B
330
18
100
AcDbEntity
  8
DEFAULT
100
AcDbLine
 10
-6.477
 20
-15.5227
 30
0.0
 11
-6.262
 21
-15.4336
 31
0.0
  0
LINE
  5
28C
330
18
100
AcDbEntity
  8
DEFAULT
100
AcDbLine
 10
-6.262
 20
-15.4336
 30
0.0
 11
-6.047
 21
-15.3446
 31
0.0
  0
LINE
  5
28D
330
18
100
AcDbEntity
  8
DEFAULT
100
AcDbLine
 10
-5.8027
 20
-17.4082
 30
0.0
 11
-5.4966
 21
-17.2814
 31
0.0
  0
LINE
  5
28E
330
18
100
AcDbEntity
  8
DEFAULT
100
AcDbLine
 10
-5.4966
 20
-17.2814
 30
0.0
 11
-5.1906
 21
-17.1546
 31
0.0
  0
LINE
  5
28F
330
18
100
AcDbEntity
  8
DEFAULT
100
AcDbLine
 10
-5.1512
 20
-19.3031
 30
0.0
 11
-4.7313
 21
-19.1291
 31
0.0
  0
LINE
  5
290
330
18
100
AcDbEntity
  8
DEFAULT
100
AcDbLine
 10
-4.7313
 20
-19.1291
 30
0.0
 11
-4.3114
 21
-18.9552
 31
0.0
  0
LINE
  5
291
330
18
100
AcDbEntity
  8
DEFAULT
100
AcDbLine
 10
-4.5249
 20
-21.2084
 30
0.0
 11
-3.9659
 21
-20.9769
 31
0.0
  0
LINE
  5
292
330
18
100
AcDbEntity
  8
DEFAULT
100
AcDbLine
 10
-3.9659
 20
-20.9769
 30
0.0
 11
-3.407
 21
-20.7454
 31
0.0
  0
LINE
  5
293
330
18
100
AcDbEntity
  8
DEFAULT
100
AcDbLine
 10
-3.9262
 20
-23.1252
 30
0.0
 11
-3.2005
 21
-22.8247
 31
0.0
  0
LINE
  5
294
330
18
100
AcDbEntity
  8
DEFAULT
100
AcDbLine
 10
-3.2005
 20
-22.8247
 30
0.0
 11
-2.4749
 21
-22.5241
 31
0.0
  0
SPLINE
  5
295
330
18
100
AcDbEntity
  8
DEFAULT
100
AcDbSpline
210
0.0
220
0.0
230
1.0
 70
     8
 71
     3
 72
    17
 73
    13
 74
    11
 42
0.0000001
 43
0.0000001
 44
0.0000000001
 12
-0.2939759442114555
 22
0.9558128186130291
 32
0.0
 13
-0.3826530485829734
 23
0.9238921173005843
 33
0.0
 40
0.0
 40
0.0
 40
0.0
 40
0.0
 40
2.008124480703324
 40
4.013721593784613
 40
6.01749260365575
 40
8.019938792695546
 40
10.021456017203
 40
12.0222654659012
 40
14.02268526434351
 40
16.02292390010676
 40
18.02298831906931
 40
24.0229090268787
 40
24.0229090268787
 40
24.0229090268787
 40
24.0229090268787
 10
-3.9262
 20
-23.1252
 30
0.0
 10
-4.122980096769633
 20
-22.48540295999104
 30
0.0
 10
-4.518878888405525
 20
-21.20736329817789
 30
0.0
 10
-5.146991916319944
 20
-19.30231684483717
 30
0.0
 10
-5.798586170584177
 20
-17.40722521033021
 30
0.0
 10
-6.473537599438373
 20
-15.52176639784869
 30
0.0
 10
-7.1682912334546
 20
-13.64458307595725
 30
0.0
 10
-7.880963003801965
 20
-11.77485908754775
 30
0.0
 10
-8.608423539879098
 20
-9.911305545354029
 30
0.0
 10
-9.348719031318906
 20
-8.05308691123269
 30
0.0
 10
-10.59901625591919
 20
-4.963029074765456
 30
0.0
 10
-11.61960401663354
 20
-2.499359815457881
 30
0.0
 10
-12.3849
 20
-0.6516
 30
0.0
 11
-3.9262
 21
-23.1252
 31
0.0
 11
-4.5249
 21
-21.2084
 31
0.0
 11
-5.1512
 21
-19.3031
 31
0.0
 11
-5.8027
 21
-17.4082
 31
0.0
 11
-6.477
 21
-15.5227
 31
0.0
 11
-7.1714
 21
-13.6455
 31
0.0
 11
-7.8835
 21
-11.7757
 31
0.0
 11
-8.6106
 21
-9.912100000000001
 31
0.0
 11
-9.350400000000001
 21
-8.053699999999999
 31
0.0
 11
-10.1002
 21
-6.1995
 31
0.0
 11
-12.3849
 21
-0.6516
 31
0.0
  0
LINE
  5
296
330
18
100
AcDbEntity
  8
DEFAULT
100
AcDbLine
 10
-10.0888
 20
-6.1948
 30
0.0
 11
-10.0775
 21
-6.1901
 31
0.0
  0
LINE
  5
297
330
18
100
AcDbEntity
  8
DEFAULT
100
AcDbLine
 10
-9.350400000000001
 20
-8.053699999999999
 30
0.0
 11
-9.323499999999999
 21
-8.0426
 31
0.0
  0
LINE
  5
298
330
18
100
AcDbEntity
  8
DEFAULT
100
AcDbLine
 10
-9.323499999999999
 20
-8.0426
 30
0.0
 11
-9.2966
 21
-8.031499999999999
 31
0.0
  0
SPLINE
  5
299
330
18
100
AcDbEntity
  8
DEFAULT
100
AcDbSpline
210
0.0
220
0.0
230
1.0
 70
     8
 71
     3
 72
    17
 73
    13
 74
    11
 42
0.0000001
 43
0.0000001
 44
0.0000000001
 12
-0.4678748555085701
 22
0.8837947270621356
 32
0.0
 13
-0.3842699139733119
 23
0.9232207933181226
 33
0.0
 40
0.0
 40
0.0
 40
0.0
 40
0.0
 40
2.008129502796073
 40
4.013810284974531
 40
6.017594954044542
 40
8.019973779342092
 40
10.0214672842029
 40
12.0223296432871
 40
14.02273724425246
 40
16.02289159079675
 40
18.02303127841859
 40
24.02295436209225
 40
24.02295436209225
 40
24.02295436209225
 40
24.02295436209225
 10
-2.4749
 20
-22.5241
 30
0.0
 10
-2.788084433654403
 20
-21.93250857805698
 30
0.0
 10
-3.41207449261005
 20
-20.74893894738789
 30
0.0
 10
-4.314900277782811
 20
-18.9576327060324
 30
0.0
 10
-5.194185104309133
 20
-17.15684364532325
 30
0.0
 10
-6.05013513891722
 20
-15.34638416986016
 30
0.0
 10
-6.886113302875288
 20
-13.5277067844697
 30
0.0
 10
-7.704417729494095
 20
-11.70173617168633
 30
0.0
 10
-8.507665836661321
 20
-9.869587902201007
 30
0.0
 10
-9.298220713060198
 20
-8.032197550498538
 30
0.0
 10
-10.59946123409682
 20
-4.963241669872963
 30
0.0
 10
-11.61637002426341
 20
-2.498017916385637
 30
0.0
 10
-12.3849
 20
-0.6516
 30
0.0
 11
-2.4749
 21
-22.5241
 31
0.0
 11
-3.407
 21
-20.7454
 31
0.0
 11
-4.3114
 21
-18.9552
 31
0.0
 11
-5.1906
 21
-17.1546
 31
0.0
 11
-6.047
 21
-15.3446
 31
0.0
 11
-6.8833
 21
-13.5262
 31
0.0
 11
-7.702
 21
-11.7005
 31
0.0
 11
-8.505599999999999
 21
-9.868600000000001
 31
0.0
 11
-9.2966
 21
-8.031499999999999
 31
0.0
 11
-10.0775
 21
-6.1901
 31
0.0
 11
-12.3849
 21
-0.6516
 31
0.0
  0
LINE
  5
29A
330
18
100
AcDbEntity
  8
DEFAULT
100
AcDbLine
 10
-12.3849
 20
-12.6516
 30
0.0
 11
-12.3849
 21
-10.6516
 31
0.0
  0
LINE
  5
29B
330
18
100
AcDbEntity
  8
DEFAULT
100
AcDbLine
 10
-12.3849
 20
-14.6516
 30
0.0
 11
-12.3849
 21
-12.6516
 31
0.0
  0
LINE
  5
29C
330
18
100
AcDbEntity
  8
DEFAULT
100
AcDbLine
 10
-12.3849
 20
-10.6516
 30
0.0
 11
-12.3849
 21
-8.6516
 31
0.0
  0
LINE
  5
29D
330
18
100
AcDbEntity
  8
DEFAULT
100
AcDbLine
 10
-12.3849
 20
-16.6516
 30
0.0
 11
-12.3849
 21
-14.6516
 31
0.0
  0
LINE
  5
29E
330
18
100
AcDbEntity
  8
DEFAULT
100
AcDbLine
 10
-12.3849
 20
-18.6516
 30
0.0
 11
-12.3849
 21
-16.6516
 31
0.0
  0
LINE
  5
29F
330
18
100
AcDbEntity
  8
DEFAULT
100
AcDbLine
 10
-12.3849
 20
-20.6516
 30
0.0
 11
-12.3849
 21
-18.6516
 31
0.0
  0
LINE
  5
2A0
330
18
100
AcDbEntity
  8
DEFAULT
100
AcDbLine
 10
-12.3849
 20
-22.6516
 30
0.0
 11
-12.3849
 21
-20.6516
 31
0.0
  0
LINE
  5
2A1
330
18
100
AcDbEntity
  8
DEFAULT
100
AcDbLine
 10
-12.3849
 20
-24.6516
 30
0.0
 11
-12.3849
 21
-22.6516
 31
0.0
  0
LINE
  5
2A2
330
18
100
AcDbEntity
  8
DEFAULT
100
AcDbLine
 10
-12.3849
 20
-8.6516
 30
0.0
 11
-12.3849
 21
-6.6516
 31
0.0
  0
LINE
  5
2A3
330
18
100
AcDbEntity
  8
DEFAULT
100
AcDbLine
 10
-12.3849
 20
-6.6516
 30
0.0
 11
-12.3849
 21
-4.6516
 31
0.0
  0
LINE
  5
2A4
330
18
100
AcDbEntity
  8
DEFAULT
100
AcDbLine
 10
-12.3849
 20
-4.6516
 30
0.0
 11
-12.3849
 21
-2.6516
 31
0.0
  0
LINE
  5
2A5
330
18
100
AcDbEntity
  8
DEFAULT
100
AcDbLine
 10
-12.3849
 20
-2.6516
 30
0.0
 11
-12.3849
 21
-0.6516
 31
0.0
  0
TEXT
  5
2A6
330
18
100
AcDbEntity
  8
DEFAULT
100
AcDbText
 10
-12.4765
 20
-6.6517
 30
0.0
 40
0.1263
  1
0.0123
 50
270.0
  7
ARIAL
100
AcDbText
  0
TEXT
  5
2A7
330
18
100
AcDbEntity
  8
DEFAULT
100
AcDbText
 10
-12.4765
 20
-6.6517
 30
0.0
 40
0.1263
  1
0.0123
 50
270.0
  7
ARIAL
100
AcDbText
  0
LINE
  5
2A8
330
18
100
AcDbEntity
  8
DEFAULT
100
AcDbLine
 10
-12.4417
 20
-10.6516
 30
0.0
 11
-12.3849
 21
-10.6516
 31
0.0
  0
LINE
  5
2A9
330
18
100
AcDbEntity
  8
DEFAULT
100
AcDbLine
 10
-12.4831
 20
-12.6516
 30
0.0
 11
-12.3849
 21
-12.6516
 31
0.0
  0
LINE
  5
2AA
330
18
100
AcDbEntity
  8
DEFAULT
100
AcDbLine
 10
-12.3849
 20
-12.6516
 30
0.0
 11
-12.2867
 21
-12.6516
 31
0.0
  0
LINE
  5
2AB
330
18
100
AcDbEntity
  8
DEFAULT
100
AcDbLine
 10
-12.3849
 20
-10.6516
 30
0.0
 11
-12.3281
 21
-10.6516
 31
0.0
  0
LINE
  5
2AC
330
18
100
AcDbEntity
  8
DEFAULT
100
AcDbLine
 10
-12.5408
 20
-14.6516
 30
0.0
 11
-12.3849
 21
-14.6516
 31
0.0
  0
LINE
  5
2AD
330
18
100
AcDbEntity
  8
DEFAULT
100
AcDbLine
 10
-12.3849
 20
-14.6516
 30
0.0
 11
-12.229
 21
-14.6516
 31
0.0
  0
LINE
  5
2AE
330
18
100
AcDbEntity
  8
DEFAULT
100
AcDbLine
 10
-12.6176
 20
-16.6516
 30
0.0
 11
-12.3849
 21
-16.6516
 31
0.0
  0
LINE
  5
2AF
330
18
100
AcDbEntity
  8
DEFAULT
100
AcDbLine
 10
-12.3849
 20
-16.6516
 30
0.0
 11
-12.1522
 21
-16.6516
 31
0.0
  0
LINE
  5
2B0
330
18
100
AcDbEntity
  8
DEFAULT
100
AcDbLine
 10
-12.7162
 20
-18.6516
 30
0.0
 11
-12.3849
 21
-18.6516
 31
0.0
  0
LINE
  5
2B1
330
18
100
AcDbEntity
  8
DEFAULT
100
AcDbLine
 10
-12.3849
 20
-18.6516
 30
0.0
 11
-12.0536
 21
-18.6516
 31
0.0
  0
LINE
  5
2B2
330
18
100
AcDbEntity
  8
DEFAULT
100
AcDbLine
 10
-12.8394
 20
-20.6516
 30
0.0
 11
-12.3849
 21
-20.6516
 31
0.0
  0
LINE
  5
2B3
330
18
100
AcDbEntity
  8
DEFAULT
100
AcDbLine
 10
-12.3849
 20
-20.6516
 30
0.0
 11
-11.9304
 21
-20.6516
 31
0.0
  0
LINE
  5
2B4
330
18
100
AcDbEntity
  8
DEFAULT
100
AcDbLine
 10
-12.9899
 20
-22.6516
 30
0.0
 11
-12.3849
 21
-22.6516
 31
0.0
  0
LINE
  5
2B5
330
18
100
AcDbEntity
  8
DEFAULT
100
AcDbLine
 10
-12.3849
 20
-22.6516
 30
0.0
 11
-11.7799
 21
-22.6516
 31
0.0
  0
LINE
  5
2B6
330
18
100
AcDbEntity
  8
DEFAULT
100
AcDbLine
 10
-13.1703
 20
-24.6516
 30
0.0
 11
-12.3849
 21
-24.6516
 31
0.0
  0
LINE
  5
2B7
330
18
100
AcDbEntity
  8
DEFAULT
100
AcDbLine
 10
-12.3849
 20
-24.6516
 30
0.0
 11
-11.5995
 21
-24.6516
 31
0.0
  0
SPLINE
  5
2B8
330
18
100
AcDbEntity
  8
DEFAULT
100
AcDbSpline
210
0.0
220
0.0
230
1.0
 70
     8
 71
     3
 72
    17
 73
    13
 74
    11
 42
0.0000001
 43
0.0000001
 44
0.0000000001
 12
0.09408997148152214
 22
0.9955636982466799
 32
0.0
 13
0.0
 23
1.0
 33
0.0
 40
0.0
 40
0.0
 40
0.0
 40
0.0
 40
2.008119558193685
 40
4.013774127156147
 40
6.017565094298179
 40
8.019994109269746
 40
10.02146812608835
 40
12.0223002754702
 40
14.02272871957911
 40
16.02292053288103
 40
18.02299109163639
 40
24.02300369912314
 40
24.02300369912314
 40
24.02300369912314
 40
24.02300369912314
 10
-13.1703
 20
-24.6516
 30
0.0
 10
-13.10731869601269
 20
-23.9851963553744
 30
0.0
 10
-12.98391561492197
 20
-22.65292801106074
 30
0.0
 10
-12.83520391259226
 20
-20.65249955797942
 30
0.0
 10
-12.71205235205785
 20
-18.65228479435834
 30
0.0
 10
-12.61401587049401
 20
-16.65207231762491
 30
0.0
 10
-12.5376116311797
 20
-14.65191941629169
 30
0.0
 10
-12.48040359827935
 20
-12.65179949952034
 30
0.0
 10
-12.43940482799477
 20
-10.65171701596358
 30
0.0
 10
-12.41218981158641
 20
-8.651659452008701
 30
0.0
 10
-12.38494102158355
 20
-5.31833192606612
 30
0.0
 10
-12.3849
 20
-2.651604202495584
 30
0.0
 10
-12.3849
 20
-0.6516
 30
0.0
 11
-13.1703
 21
-24.6516
 31
0.0
 11
-12.9899
 21
-22.6516
 31
0.0
 11
-12.8394
 21
-20.6516
 31
0.0
 11
-12.7162
 21
-18.6516
 31
0.0
 11
-12.6176
 21
-16.6516
 31
0.0
 11
-12.5408
 21
-14.6516
 31
0.0
 11
-12.4831
 21
-12.6516
 31
0.0
 11
-12.4417
 21
-10.6516
 31
0.0
 11
-12.414
 21
-8.6516
 31
0.0
 11
-12.3972
 21
-6.6516
 31
0.0
 11
-12.3849
 21
-0.6516
 31
0.0
  0
LINE
  5
2B9
330
18
100
AcDbEntity
  8
DEFAULT
100
AcDbLine
 10
-12.3849
 20
-6.6516
 30
0.0
 11
-12.3726
 21
-6.6516
 31
0.0
  0
LINE
  5
2BA
330
18
100
AcDbEntity
  8
DEFAULT
100
AcDbLine
 10
-12.414
 20
-8.6516
 30
0.0
 11
-12.3849
 21
-8.6516
 31
0.0
  0
LINE
  5
2BB
330
18
100
AcDbEntity
  8
DEFAULT
100
AcDbLine
 10
-12.3849
 20
-8.6516
 30
0.0
 11
-12.3558
 21
-8.6516
 31
0.0
  0
SPLINE
  5
2BC
330
18
100
AcDbEntity
  8
DEFAULT
100
AcDbSpline
210
0.0
220
0.0
230
1.0
 70
     8
 71
     3
 72
    17
 73
    13
 74
    11
 42
0.0000001
 43
0.0000001
 44
0.0000000001
 12
-0.09408997148152214
 22
0.9955636982466799
 32
0.0
 13
-0.001713999196308537
 23
0.9999985311022989
 33
0.0
 40
0.0
 40
0.0
 40
0.0
 40
0.0
 40
2.008119558193685
 40
4.013774127156147
 40
6.017565094298179
 40
8.019994109269746
 40
10.02146812608835
 40
12.0223002754702
 40
14.02272871957911
 40
16.02292053288103
 40
18.02299109163639
 40
24.02300369912314
 40
24.02300369912314
 40
24.02300369912314
 40
24.02300369912314
 10
-11.5995
 20
-24.6516
 30
0.0
 10
-11.66248130398731
 20
-23.9851963553744
 30
0.0
 10
-11.78588439295407
 20
-22.65292801106749
 30
0.0
 10
-11.93459605988884
 20
-20.65249955795584
 30
0.0
 10
-12.05774775002462
 20
-18.65228479444582
 30
0.0
 10
-12.15578374901178
 20
-16.65207231729882
 30
0.0
 10
-12.23218978789835
 20
-14.65191941750784
 30
0.0
 10
-12.28939110790721
 20
-12.65179949498354
 30
0.0
 10
-12.33041492359444
 20
-10.65171703289069
 30
0.0
 10
-12.35753648551646
 20
-8.651659388845301
 30
0.0
 10
-12.38536650679168
 20
-5.318332361018054
 30
0.0
 10
-12.38147199440431
 20
-2.651601264694008
 30
0.0
 10
-12.3849
 20
-0.6516
 30
0.0
 11
-11.5995
 21
-24.6516
 31
0.0
 11
-11.7799
 21
-22.6516
 31
0.0
 11
-11.9304
 21
-20.6516
 31
0.0
 11
-12.0536
 21
-18.6516
 31
0.0
 11
-12.1522
 21
-16.6516
 31
0.0
 11
-12.229
 21
-14.6516
 31
0.0
 11
-12.2867
 21
-12.6516
 31
0.0
 11
-12.3281
 21
-10.6516
 31
0.0
 11
-12.3558
 21
-8.6516
 31
0.0
 11
-12.3726
 21
-6.6516
 31
0.0
 11
-12.3849
 21
-0.6516
 31
0.0
  0
LINE
  5
2BD
330
18
100
AcDbEntity
  8
DEFAULT
100
AcDbLine
 10
-2.3849
 20
-0.6516
 30
0.0
 11
-0.3849
 21
-0.6516
 31
0.0
  0
LINE
  5
2BE
330
18
100
AcDbEntity
  8
DEFAULT
100
AcDbLine
 10
-0.3849
 20
-0.6516
 30
0.0
 11
1.6151
 21
-0.6516
 31
0.0
  0
LINE
  5
2BF
330
18
100
AcDbEntity
  8
DEFAULT
100
AcDbLine
 10
-4.3849
 20
-0.6516
 30
0.0
 11
-2.3849
 21
-0.6516
 31
0.0
  0
LINE
  5
2C0
330
18
100
AcDbEntity
  8
DEFAULT
100
AcDbLine
 10
1.6151
 20
-0.6516
 30
0.0
 11
3.6151
 21
-0.6516
 31
0.0
  0
LINE
  5
2C1
330
18
100
AcDbEntity
  8
DEFAULT
100
AcDbLine
 10
3.6151
 20
-0.6516
 30
0.0
 11
5.6151
 21
-0.6516
 31
0.0
  0
LINE
  5
2C2
330
18
100
AcDbEntity
  8
DEFAULT
100
AcDbLine
 10
5.6151
 20
-0.6516
 30
0.0
 11
7.6151
 21
-0.6516
 31
0.0
  0
LINE
  5
2C3
330
18
100
AcDbEntity
  8
DEFAULT
100
AcDbLine
 10
7.6151
 20
-0.6516
 30
0.0
 11
9.6151
 21
-0.6516
 31
0.0
  0
LINE
  5
2C4
330
18
100
AcDbEntity
  8
DEFAULT
100
AcDbLine
 10
9.6151
 20
-0.6516
 30
0.0
 11
11.6151
 21
-0.6516
 31
0.0
  0
LINE
  5
2C5
330
18
100
AcDbEntity
  8
DEFAULT
100
AcDbLine
 10
-6.3849
 20
-0.6516
 30
0.0
 11
-4.3849
 21
-0.6516
 31
0.0
  0
LINE
  5
2C6
330
18
100
AcDbEntity
  8
DEFAULT
100
AcDbLine
 10
-8.3849
 20
-0.6516
 30
0.0
 11
-6.3849
 21
-0.6516
 31
0.0
  0
LINE
  5
2C7
330
18
100
AcDbEntity
  8
DEFAULT
100
AcDbLine
 10
-10.3849
 20
-0.6516
 30
0.0
 11
-8.3849
 21
-0.6516
 31
0.0
  0
LINE
  5
2C8
330
18
100
AcDbEntity
  8
DEFAULT
100
AcDbLine
 10
-12.3849
 20
-0.6516
 30
0.0
 11
-10.3849
 21
-0.6516
 31
0.0
  0
TEXT
  5
2C9
330
18
100
AcDbEntity
  8
DEFAULT
100
AcDbText
 10
-6.3849
 20
-0.7432
 30
0.0
 40
0.1263
  1
0.0123
  7
ARIAL
100
AcDbText
  0
TEXT
  5
2CA
330
18
100
AcDbEntity
  8
DEFAULT
100
AcDbText
 10
-6.3849
 20
-0.7432
 30
0.0
 40
0.1263
  1
0.0123
  7
ARIAL
100
AcDbText
  0
LINE
  5
2CB
330
18
100
AcDbEntity
  8
DEFAULT
100
AcDbLine
 10
-2.3849
 20
-0.7084
 30
0.0
 11
-2.3849
 21
-0.6516
 31
0.0
  0
LINE
  5
2CC
330
18
100
AcDbEntity
  8
DEFAULT
100
AcDbLine
 10
-0.3849
 20
-0.7498
 30
0.0
 11
-0.3849
 21
-0.6516
 31
0.0
  0
LINE
  5
2CD
330
18
100
AcDbEntity
  8
DEFAULT
100
AcDbLine
 10
-0.3849
 20
-0.6516
 30
0.0
 11
-0.3849
 21
-0.5534
 31
0.0
  0
LINE
  5
2CE
330
18
100
AcDbEntity
  8
DEFAULT
100
AcDbLine
 10
-2.3849
 20
-0.6516
 30
0.0
 11
-2.3849
 21
-0.5948
 31
0.0
  0
LINE
  5
2CF
330
18
100
AcDbEntity
  8
DEFAULT
100
AcDbLine
 10
1.6151
 20
-0.8075
 30
0.0
 11
1.6151
 21
-0.6516
 31
0.0
  0
LINE
  5
2D0
330
18
100
AcDbEntity
  8
DEFAULT
100
AcDbLine
 10
1.6151
 20
-0.6516
 30
0.0
 11
1.6151
 21
-0.4957
 31
0.0
  0
LINE
  5
2D1
330
18
100
AcDbEntity
  8
DEFAULT
100
AcDbLine
 10
3.6151
 20
-0.8843
 30
0.0
 11
3.6151
 21
-0.6516
 31
0.0
  0
LINE
  5
2D2
330
18
100
AcDbEntity
  8
DEFAULT
100
AcDbLine
 10
3.6151
 20
-0.6516
 30
0.0
 11
3.6151
 21
-0.4189
 31
0.0
  0
LINE
  5
2D3
330
18
100
AcDbEntity
  8
DEFAULT
100
AcDbLine
 10
5.6151
 20
-0.9829
 30
0.0
 11
5.6151
 21
-0.6516
 31
0.0
  0
LINE
  5
2D4
330
18
100
AcDbEntity
  8
DEFAULT
100
AcDbLine
 10
5.6151
 20
-0.6516
 30
0.0
 11
5.6151
 21
-0.3203
 31
0.0
  0
LINE
  5
2D5
330
18
100
AcDbEntity
  8
DEFAULT
100
AcDbLine
 10
7.6151
 20
-1.1061
 30
0.0
 11
7.6151
 21
-0.6516
 31
0.0
  0
LINE
  5
2D6
330
18
100
AcDbEntity
  8
DEFAULT
100
AcDbLine
 10
7.6151
 20
-0.6516
 30
0.0
 11
7.6151
 21
-0.1971
 31
0.0
  0
LINE
  5
2D7
330
18
100
AcDbEntity
  8
DEFAULT
100
AcDbLine
 10
9.6151
 20
-1.2566
 30
0.0
 11
9.6151
 21
-0.6516
 31
0.0
  0
LINE
  5
2D8
330
18
100
AcDbEntity
  8
DEFAULT
100
AcDbLine
 10
9.6151
 20
-0.6516
 30
0.0
 11
9.6151
 21
-0.0466
 31
0.0
  0
LINE
  5
2D9
330
18
100
AcDbEntity
  8
DEFAULT
100
AcDbLine
 10
11.6151
 20
-1.437
 30
0.0
 11
11.6151
 21
-0.6516
 31
0.0
  0
LINE
  5
2DA
330
18
100
AcDbEntity
  8
DEFAULT
100
AcDbLine
 10
11.6151
 20
-0.6516
 30
0.0
 11
11.6151
 21
0.1338
 31
0.0
  0
SPLINE
  5
2DB
330
18
100
AcDbEntity
  8
DEFAULT
100
AcDbSpline
210
0.0
220
0.0
230
1.0
 70
     8
 71
     3
 72
    17
 73
    13
 74
    11
 42
0.0000001
 43
0.0000001
 44
0.0000000001
 12
-0.9955636982466799
 22
0.09408997148152214
 32
0.0
 13
-1.0
 23
0.0
 33
0.0
 40
0.0
 40
0.0
 40
0.0
 40
0.0
 40
2.008119558193685
 40
4.013774127156147
 40
6.017565094298179
 40
8.019994109269746
 40
10.02146812608835
 40
12.0223002754702
 40
14.02272871957911
 40
16.02292053288103
 40
18.02299109163639
 40
24.02300369912314
 40
24.02300369912314
 40
24.02300369912314
 40
24.02300369912314
 10
11.6151
 20
-1.437
 30
0.0
 10
10.9486963553744
 20
-1.37401869601269
 30
0.0
 10
9.616428011060746
 20
-1.250615614921967
 30
0.0
 10
7.615999557979419
 20
-1.101903912592256
 30
0.0
 10
5.615784794358342
 20
-0.9787523520578434
 30
0.0
 10
3.615572317624913
 20
-0.8807158704940143
 30
0.0
 10
1.615419416291691
 20
-0.8043116311796952
 30
0.0
 10
-0.3847005004796605
 20
-0.747103598279348
 30
0.0
 10
-2.384782984036421
 20
-0.7061048279947686
 30
0.0
 10
-4.384840547991301
 20
-0.6788898115864087
 30
0.0
 10
-7.718168073933883
 20
-0.6516410215835553
 30
0.0
 10
-10.38489579750442
 20
-0.6516
 30
0.0
 10
-12.3849
 20
-0.6516
 30
0.0
 11
11.6151
 21
-1.437
 31
0.0
 11
9.6151
 21
-1.2566
 31
0.0
 11
7.6151
 21
-1.1061
 31
0.0
 11
5.6151
 21
-0.9829
 31
0.0
 11
3.6151
 21
-0.8843
 31
0.0
 11
1.6151
 21
-0.8075
 31
0.0
 11
-0.3849
 21
-0.7498
 31
0.0
 11
-2.3849
 21
-0.7084
 31
0.0
 11
-4.3849
 21
-0.6807
 31
0.0
 11
-6.3849
 21
-0.6639000000000001
 31
0.0
 11
-12.3849
 21
-0.6516
 31
0.0
  0
LINE
  5
2DC
330
18
100
AcDbEntity
  8
DEFAULT
100
AcDbLine
 10
-6.3849
 20
-0.6516
 30
0.0
 11
-6.3849
 21
-0.6393
 31
0.0
  0
LINE
  5
2DD
330
18
100
AcDbEntity
  8
DEFAULT
100
AcDbLine
 10
-4.3849
 20
-0.6807
 30
0.0
 11
-4.3849
 21
-0.6516
 31
0.0
  0
LINE
  5
2DE
330
18
100
AcDbEntity
  8
DEFAULT
100
AcDbLine
 10
-4.3849
 20
-0.6516
 30
0.0
 11
-4.3849
 21
-0.6225000000000001
 31
0.0
  0
SPLINE
  5
2DF
330
18
100
AcDbEntity
  8
DEFAULT
100
AcDbSpline
210
0.0
220
0.0
230
1.0
 70
     8
 71
     3
 72
    17
 73
    13
 74
    11
 42
0.0000001
 43
0.0000001
 44
0.0000000001
 12
-0.9955636982466799
 22
-0.09408997148152214
 32
0.0
 13
-0.9999985311022989
 23
-0.001713999196308537
 33
0.0
 40
0.0
 40
0.0
 40
0.0
 40
0.0
 40
2.008119558193685
 40
4.013774127156147
 40
6.017565094298179
 40
8.019994109269746
 40
10.02146812608835
 40
12.0223002754702
 40
14.02272871957911
 40
16.02292053288103
 40
18.02299109163639
 40
24.02300369912314
 40
24.02300369912314
 40
24.02300369912314
 40
24.02300369912314
 10
11.6151
 20
0.1338
 30
0.0
 10
10.9486963553744
 20
0.0708186960126898
 30
0.0
 10
9.616428011067496
 20
-0.0525843929540691
 30
0.0
 10
7.615999557955835
 20
-0.2012960598888332
 30
0.0
 10
5.615784794445827
 20
-0.3244477500246239
 30
0.0
 10
3.615572317298829
 20
-0.4224837490117773
 30
0.0
 10
1.615419417507842
 20
-0.4988897878983494
 30
0.0
 10
-0.3847005050164598
 20
-0.5560911079072054
 30
0.0
 10
-2.384782967109305
 20
-0.5971149235944389
 30
0.0
 10
-4.384840611154701
 20
-0.6242364855164576
 30
0.0
 10
-7.718167638981949
 20
-0.6520665067916774
 30
0.0
 10
-10.38489873530599
 20
-0.6481719944043088
 30
0.0
 10
-12.3849
 20
-0.6516
 30
0.0
 11
11.6151
 21
0.1338
 31
0.0
 11
9.6151
 21
-0.0466
 31
0.0
 11
7.6151
 21
-0.1971
 31
0.0
 11
5.6151
 21
-0.3203
 31
0.0
 11
3.6151
 21
-0.4189
 31
0.0
 11
1.6151
 21
-0.4957
 31
0.0
 11
-0.3849
 21
-0.5534
 31
0.0
 11
-2.3849
 21
-0.5948
 31
0.0
 11
-4.3849
 21
-0.6225000000000001
 31
0.0
 11
-6.3849
 21
-0.6393
 31
0.0
 11
-12.3849
 21
-0.6516
 31
0.0
  0
LINE
  5
2E0
330
18
100
AcDbEntity
  8
DEFAULT
100
AcDbLine
 10
-28.8001
 20
16.8743
 30
0.0
 11
-22.2949
 21
21.2209
 31
0.0
  0
LINE
  5
2E1
330
18
100
AcDbEntity
  8
DEFAULT
100
AcDbLine
 10
-20.8436
 20
21.822
 30
0.0
 11
-13.1703
 21
23.3484
 31
0.0
  0
LINE
  5
2E2
330
18
100
AcDbEntity
  8
DEFAULT
100
AcDbLine
 10
-11.5995
 20
23.3484
 30
0.0
 11
-3.9262
 21
21.822
 31
0.0
  0
LINE
  5
2E3
330
18
100
AcDbEntity
  8
DEFAULT
100
AcDbLine
 10
-2.4749
 20
21.2209
 30
0.0
 11
4.0303
 21
16.8743
 31
0.0
  0
LINE
  5
2E4
330
18
100
AcDbEntity
  8
DEFAULT
100
AcDbLine
 10
5.141
 20
15.7636
 30
0.0
 11
9.487600000000001
 21
9.2584
 31
0.0
  0
LINE
  5
2E5
330
18
100
AcDbEntity
  8
DEFAULT
100
AcDbLine
 10
10.0887
 20
7.8071
 30
0.0
 11
11.6151
 21
0.1338
 31
0.0
  0
LINE
  5
2E6
330
18
100
AcDbEntity
  8
DEFAULT
100
AcDbLine
 10
10.0887
 20
-9.110300000000001
 30
0.0
 11
11.6151
 21
-1.437
 31
0.0
  0
LINE
  5
2E7
330
18
100
AcDbEntity
  8
DEFAULT
100
AcDbLine
 10
5.141
 20
-17.0668
 30
0.0
 11
9.487600000000001
 21
-10.5616
 31
0.0
  0
LINE
  5
2E8
330
18
100
AcDbEntity
  8
DEFAULT
100
AcDbLine
 10
-2.4749
 20
-22.5241
 30
0.0
 11
4.0303
 21
-18.1775
 31
0.0
  0
LINE
  5
2E9
330
18
100
AcDbEntity
  8
DEFAULT
100
AcDbLine
 10
-11.5995
 20
-24.6516
 30
0.0
 11
-3.9262
 21
-23.1252
 31
0.0
  0
LINE
  5
2EA
330
18
100
AcDbEntity
  8
DEFAULT
100
AcDbLine
 10
-20.8436
 20
-23.1252
 30
0.0
 11
-13.1703
 21
-24.6516
 31
0.0
  0
LINE
  5
2EB
330
18
100
AcDbEntity
  8
DEFAULT
100
AcDbLine
 10
-28.8001
 20
-18.1775
 30
0.0
 11
-22.2949
 21
-22.5241
 31
0.0
  0
LINE
  5
2EC
330
18
100
AcDbEntity
  8
DEFAULT
100
AcDbLine
 10
-34.2574
 20
-10.5616
 30
0.0
 11
-29.9108
 21
-17.0668
 31
0.0
  0
LINE
  5
2ED
330
18
100
AcDbEntity
  8
DEFAULT
100
AcDbLine
 10
-36.3849
 20
-1.437
 30
0.0
 11
-34.8585
 21
-9.110300000000001
 31
0.0
  0
LINE
  5
2EE
330
18
100
AcDbEntity
  8
DEFAULT
100
AcDbLine
 10
-36.3849
 20
0.1338
 30
0.0
 11
-34.8585
 21
7.8071
 31
0.0
  0
LINE
  5
2EF
330
18
100
AcDbEntity
  8
DEFAULT
100
AcDbLine
 10
-34.2574
 20
9.2584
 30
0.0
 11
-29.9108
 21
15.7636
 31
0.0
  0
ENDSEC
  0
SECTION
  2
OBJECTS
  0
DICTIONARY
  5
C
330
0
100
AcDbDictionary
281
     1
  3
ACAD_GROUP
350
D
  3
ACAD_LAYOUT
350
2F0
  3
ACAD_MLINESTYLE
350
1B
  0
DICTIONARY
  5
D
102
{ACAD_REACTORS
330
C
102
}
330
C
100
AcDbDictionary
281
     1
  0
DICTIONARY
  5
2F0
102
{ACAD_REACTORS
330
C
102
}
330
C
100
AcDbDictionary
281
     1
  3
Layout1
350
2F2
  3
Model
350
2F1
  0
DICTIONARY
  5
1B
102
{ACAD_REACTORS
330
C
102
}
330
C
100
AcDbDictionary
281
     1
  3
STANDARD
350
1C
  0
LAYOUT
  5
2F2
102
{ACAD_REACTORS
330
2F0
102
}
330
2F0
100
AcDbPlotSettings
  1

  2

  4

  6

 40
0.0
 41
0.0
 42
0.0
 43
0.0
 44
0.0
 45
0.0
 46
0.0
 47
0.0
 48
0.0
 49
0.0
140
0.0
141
0.0
142
1.0
143
1.0
 70
   688
 72
     0
 73
     0
 74
     5
  7

 75
    16
 76
     0
 77
     2
 78
   300
147
1.0
148
0.0
149
0.0
100
AcDbLayout
  1
Layout1
 70
     1
 71
     1
 10
0.0
 20
0.0
 11
0.0
 21
0.0
 12
0.0
 22
0.0
 32
0.0
 14
0.0
 24
0.0
 34
0.0
 15
0.0
 25
0.0
 35
0.0
146
0.0
 13
0.0
 23
0.0
 33
0.0
 16
1.0
 26
0.0
 36
0.0
 17
0.0
 27
1.0
 37
0.0
 76
     0
330
15
  0
LAYOUT
  5
2F1
102
{ACAD_REACTORS
330
2F0
102
}
330
2F0
100
AcDbPlotSettings
  1

  2

  4

  6

 40
0.0
 41
0.0
 42
0.0
 43
0.0
 44
0.0
 45
0.0
 46
0.0
 47
0.0
 48
0.0
 49
0.0
140
0.0
141
0.0
142
1.0
143
1.0
 70
   688
 72
     0
 73
     0
 74
     5
  7

 75
    16
 76
     0
 77
     2
 78
   300
147
1.0
148
0.0
149
0.0
100
AcDbLayout
  1
Model
 70
     1
 71
     0
 10
0.0
 20
0.0
 11
0.0
 21
0.0
 12
0.0
 22
0.0
 32
0.0
 14
0.0
 24
0.0
 34
0.0
 15
0.0
 25
0.0
 35
0.0
146
0.0
 13
0.0
 23
0.0
 33
0.0
 16
1.0
 26
0.0
 36
0.0
 17
0.0
 27
1.0
 37
0.0
 76
     0
330
18
  0
MLINESTYLE
  5
1C
102
{ACAD_REACTORS
330
1B
102
}
330
1B
100
AcDbMlineStyle
  2
STANDARD
 70
     0
  3

 62
   256
 51
90.0
 52
90.0
 71
     2
 49
0.5
 62
   256
  6
BYLAYER
 49
-0.5
 62
   256
  6
BYLAYER
  0
ENDSEC
  0
EOF
