  0
SECTION
  2
HEADER
  9
$ACADVER
  1
AC1009
  9
$DWGCODEPAGE
  3
ansi_1252
  9
$INSBASE
 10
0.0
 20
0.0
 30
0.0
  9
$EXTMIN
 10
-306.7284763395306
 20
27.17999999999999
 30
110.7661764107942
  9
$EXTMAX
 10
-121.6250354446914
 20
27.18000000000001
 30
250.2622650598022
  9
$LIMMIN
 10
0.0
 20
0.0
  9
$LIMMAX
 10
12.0
 20
9.0
  9
$ORTHOMODE
 70
     0
  9
$REGENMODE
 70
     1
  9
$FILLMODE
 70
     1
  9
$QTEXTMODE
 70
     0
  9
$MIRRTEXT
 70
     1
  9
$DRAGMODE
 70
     2
  9
$LTSCALE
 40
1.0
  9
$OSMODE
 70
    37
  9
$ATTMODE
 70
     1
  9
$TEXTSIZE
 40
0.2
  9
$TRACEWID
 40
0.05
  9
$TEXTSTYLE
  7
STANDARD
  9
$CLAYER
  8
DEFAULT
  9
$CELTYPE
  6
BYLAYER
  9
$CECOLOR
 62
   256
  9
$DIMSCALE
 40
1.0
  9
$DIMASZ
 40
0.18
  9
$DIMEXO
 40
0.0625
  9
$DIMDLI
 40
0.38
  9
$DIMRND
 40
0.0
  9
$DIMDLE
 40
0.0
  9
$DIMEXE
 40
0.18
  9
$DIMTP
 40
0.0
  9
$DIMTM
 40
0.0
  9
$DIMTXT
 40
0.18
  9
$DIMCEN
 40
0.09
  9
$DIMTSZ
 40
0.0
  9
$DIMTOL
 70
     0
  9
$DIMLIM
 70
     0
  9
$DIMTIH
 70
     1
  9
$DIMTOH
 70
     1
  9
$DIMSE1
 70
     0
  9
$DIMSE2
 70
     0
  9
$DIMTAD
 70
     0
  9
$DIMZIN
 70
     0
  9
$DIMBLK
  1

  9
$DIMASO
 70
     1
  9
$DIMSHO
 70
     1
  9
$DIMPOST
  1

  9
$DIMAPOST
  1

  9
$DIMALT
 70
     0
  9
$DIMALTD
 70
     2
  9
$DIMALTF
 40
25.4
  9
$DIMLFAC
 40
1.0
  9
$DIMTOFL
 70
     0
  9
$DIMTVP
 40
0.0
  9
$DIMTIX
 70
     0
  9
$DIMSOXD
 70
     0
  9
$DIMSAH
 70
     0
  9
$DIMBLK1
  1

  9
$DIMBLK2
  1

  9
$DIMSTYLE
  2
STANDARD
  9
$DIMCLRD
 70
     0
  9
$DIMCLRE
 70
     0
  9
$DIMCLRT
 70
     0
  9
$DIMTFAC
 40
1.0
  9
$DIMGAP
 40
0.09
  9
$LUNITS
 70
     2
  9
$LUPREC
 70
     2
  9
$SKETCHINC
 40
0.1
  9
$FILLETRAD
 40
0.5
  9
$AUNITS
 70
     0
  9
$AUPREC
 70
     0
  9
$MENU
  1
.
  9
$ELEVATION
 40
0.0
  9
$PELEVATION
 40
0.0
  9
$THICKNESS
 40
0.0
  9
$LIMCHECK
 70
     0
  9
$CHAMFERA
 40
0.5
  9
$CHAMFERB
 40
0.5
  9
$SKPOLY
 70
     0
  9
$TDCREATE
 40
2456079.895531134
  9
$TDUPDATE
 40
2456079.895531146
  9
$TDINDWG
 40
0.0000000116
  9
$TDUSRTIMER
 40
0.0000000116
  9
$USRTIMER
 70
     1
  9
$ANGBASE
 50
0.0
  9
$ANGDIR
 70
     0
  9
$PDMODE
 70
     0
  9
$PDSIZE
 40
0.0
  9
$PLINEWID
 40
0.0
  9
$COORDS
 70
     1
  9
$SPLFRAME
 70
     0
  9
$SPLINETYPE
 70
     6
  9
$SPLINESEGS
 70
     8
  9
$ATTDIA
 70
     0
  9
$ATTREQ
 70
     1
  9
$HANDLING
 70
     1
  9
$HANDSEED
  5
399
  9
$SURFTAB1
 70
     6
  9
$SURFTAB2
 70
     6
  9
$SURFTYPE
 70
     6
  9
$SURFU
 70
     6
  9
$SURFV
 70
     6
  9
$UCSNAME
  2

  9
$UCSORG
 10
0.0
 20
0.0
 30
0.0
  9
$UCSXDIR
 10
1.0
 20
0.0
 30
0.0
  9
$UCSYDIR
 10
0.0
 20
1.0
 30
0.0
  9
$PUCSNAME
  2

  9
$PUCSORG
 10
0.0
 20
0.0
 30
0.0
  9
$PUCSXDIR
 10
1.0
 20
0.0
 30
0.0
  9
$PUCSYDIR
 10
0.0
 20
1.0
 30
0.0
  9
$USERI1
 70
     0
  9
$USERI2
 70
     0
  9
$USERI3
 70
     0
  9
$USERI4
 70
     0
  9
$USERI5
 70
     0
  9
$USERR1
 40
0.0
  9
$USERR2
 40
0.0
  9
$USERR3
 40
0.0
  9
$USERR4
 40
0.0
  9
$USERR5
 40
0.0
  9
$WORLDVIEW
 70
     1
  9
$SHADEDGE
 70
     3
  9
$SHADEDIF
 70
    70
  9
$TILEMODE
 70
     1
  9
$MAXACTVP
 70
    64
  9
$PLIMCHECK
 70
     0
  9
$PEXTMIN
 10
1.000000000000000E+20
 20
1.000000000000000E+20
 30
1.000000000000000E+20
  9
$PEXTMAX
 10
-1.000000000000000E+20
 20
-1.000000000000000E+20
 30
-1.000000000000000E+20
  9
$PLIMMIN
 10
0.0
 20
0.0
  9
$PLIMMAX
 10
12.0
 20
9.0
  9
$UNITMODE
 70
     0
  9
$VISRETAIN
 70
     1
  9
$PLINEGEN
 70
     0
  9
$PSLTSCALE
 70
     1
  0
ENDSEC
  0
SECTION
  2
TABLES
  0
TABLE
  2
VPORT
 70
     1
  0
VPORT
  2
*ACTIVE
 70
     0
 10
0.0
 20
0.0
 11
1.0
 21
1.0
 12
0.0
 22
0.0
 13
0.0
 23
0.0
 14
0.5
 24
0.5
 15
0.5
 25
0.5
 16
0.0
 26
0.0
 36
1.0
 17
-214.176755892111
 27
27.18
 37
0.0
 40
0.000000000000029
 41
6512748339367144
 42
50.0
 43
0.0
 44
0.0
 50
0.0
 51
0.0
 71
     0
 72
   100
 73
     1
 74
     3
 75
     0
 76
     0
 77
     0
 78
     0
  0
ENDTAB
  0
TABLE
  2
LTYPE
 70
     1
  0
LTYPE
  2
CONTINUOUS
 70
     0
  3
Solid line
 72
    65
 73
     0
 40
0.0
  0
ENDTAB
  0
TABLE
  2
LAYER
 70
     2
  0
LAYER
  2
0
 70
     0
 62
     7
  6
CONTINUOUS
  0
LAYER
  2
DEFAULT
 70
     0
 62
     7
  6
CONTINUOUS
  0
ENDTAB
  0
TABLE
  2
STYLE
 70
     1
  0
STYLE
  2
STANDARD
 70
     0
 40
0.0
 41
1.0
 50
0.0
 71
     0
 42
0.2
  3
txt
  4

  0
ENDTAB
  0
TABLE
  2
VIEW
 70
     0
  0
ENDTAB
  0
TABLE
  2
UCS
 70
     0
  0
ENDTAB
  0
TABLE
  2
APPID
 70
     1
  0
APPID
  2
ACAD
 70
     0
  0
ENDTAB
  0
TABLE
  2
DIMSTYLE
 70
     1
  0
DIMSTYLE
  2
STANDARD
 70
     0
  3

  4

  5

  6

  7

 40
1.0
 41
0.18
 42
0.0625
 43
0.38
 44
0.18
 45
0.0
 46
0.0
 47
0.0
 48
0.0
140
0.18
141
0.09
142
0.0
143
25.4
144
1.0
145
0.0
146
1.0
147
0.09
 71
     0
 72
     0
 73
     1
 74
     1
 75
     0
 76
     0
 77
     0
 78
     0
170
     0
171
     2
172
     0
173
     0
174
     0
175
     0
176
     0
177
     0
178
     0
  0
ENDTAB
  0
ENDSEC
  0
SECTION
  2
BLOCKS
  0
BLOCK
  8
0
  2
$MODEL_SPACE
 70
     0
 10
0.0
 20
0.0
 30
0.0
  3
$MODEL_SPACE
  1

  0
ENDBLK
  5
21
  8
0
  0
BLOCK
 67
     1
  8
0
  2
$PAPER_SPACE
 70
     0
 10
0.0
 20
0.0
 30
0.0
  3
$PAPER_SPACE
  1

  0
ENDBLK
  5
1D
 67
     1
  8
0
  0
ENDSEC
  0
SECTION
  2
ENTITIES
  0
CIRCLE
  5
2B
  8
DEFAULT
 10
129.7823405081497
 20
166.6252627178817
 30
27.17999999999984
 40
3.174999999999997
210
1.118964938204886E-15
220
1.0
230
-1.167559295392785E-17
  0
CIRCLE
  5
2C
  8
DEFAULT
 10
210.7284763395305
 20
131.2622650598022
 30
27.17999999999977
 40
2.0
210
-2.524508422126476E-29
220
1.0
230
-1.776464873309750E-15
  0
CIRCLE
  5
2D
  8
DEFAULT
 10
132.7284763395306
 20
131.2622650598022
 30
27.17999999999977
 40
2.0
210
8.881784197001188E-16
220
1.0
230
-8.980281655638254E-16
  0
CIRCLE
  5
2E
  8
DEFAULT
 10
209.7284763395306
 20
245.2622650598021
 30
27.1799999999996
 40
2.0
210
8.881784197001062E-16
220
1.0
230
-8.980281655638504E-16
  0
CIRCLE
  5
2F
  8
DEFAULT
 10
226.7284763395305
 20
243.2622650598022
 30
27.1800000000004
 40
2.000000000000028
210
-1.776356839400250E-15
220
1.0
230
1.959145781793918E-17
  0
CIRCLE
  5
30
  8
DEFAULT
 10
138.7284763395304
 20
225.2622650598022
 30
27.17999999999945
 40
1.999999999999943
210
-1.776356839400238E-15
220
1.0
230
-3.533338288801624E-15
  0
CIRCLE
  5
31
  8
DEFAULT
 10
165.7284763395305
 20
243.2622650598021
 30
27.1800000000003
 40
2.0
210
-1.776356839400263E-15
220
1.0
230
1.959145781790090E-17
  0
CIRCLE
  5
32
  8
DEFAULT
 10
143.7284763395305
 20
159.2622650598022
 30
27.18000000000026
 40
2.0
210
-1.776356839400225E-15
220
1.0
230
1.959145781788842E-17
  0
CIRCLE
  5
33
  8
DEFAULT
 10
259.7552549757067
 20
190.1043845168959
 30
27.17999999999988
 40
19.00000000000011
210
1.869849304631843E-16
220
1.0
230
-3.723340169548565E-16
  0
POLYLINE
  5
34
  8
DEFAULT
 66
     1
 10
0.0
 20
0.0
 30
27.17999999999995
210
-3.331274479484156E-16
220
1.0
230
-7.730804432077166E-16
  0
VERTEX
  5
36
  8
DEFAULT
 10
291.0883570710093
 20
187.9058160795694
 30
27.17999999999995
  0
VERTEX
  5
37
  8
DEFAULT
 10
295.1371881472848
 20
187.9063580722435
 30
27.17999999999995
  0
VERTEX
  5
38
  8
DEFAULT
 10
295.1864336081364
 20
187.9080033048169
 30
27.17999999999995
  0
VERTEX
  5
39
  8
DEFAULT
 10
295.2360611976661
 20
187.91077997714
 30
27.17999999999995
  0
VERTEX
  5
3A
  8
DEFAULT
 10
295.2860368343843
 20
187.914715280621
 30
27.17999999999995
  0
VERTEX
  5
3B
  8
DEFAULT
 10
295.3363246325738
 20
187.9198352726061
 30
27.17999999999995
  0
VERTEX
  5
3C
  8
DEFAULT
 10
295.3868869329187
 20
187.9261647492993
 30
27.17999999999995
  0
VERTEX
  5
3D
  8
DEFAULT
 10
295.4376843427643
 20
187.9337271179455
 30
27.17999999999995
  0
VERTEX
  5
3E
  8
DEFAULT
 10
295.4886757863161
 20
187.9425442690529
 30
27.17999999999995
  0
VERTEX
  5
3F
  8
DEFAULT
 10
295.5398185650216
 20
187.9526364494818
 30
27.17999999999995
  0
VERTEX
  5
40
  8
DEFAULT
 10
295.5910684283035
 20
187.9640221372754
 30
27.17999999999995
  0
VERTEX
  5
41
  8
DEFAULT
 10
295.6423796547361
 20
187.9767179191454
 30
27.17999999999995
  0
VERTEX
  5
42
  8
DEFAULT
 10
295.6937051436691
 20
187.9907383715579
 30
27.17999999999995
  0
VERTEX
  5
43
  8
DEFAULT
 10
295.7449965172106
 20
188.0060959463868
 30
27.17999999999994
  0
VERTEX
  5
44
  8
DEFAULT
 10
295.7962042323829
 20
188.0228008621177
 30
27.17999999999994
  0
VERTEX
  5
45
  8
DEFAULT
 10
295.8472777031673
 20
188.0408610015871
 30
27.17999999999995
  0
VERTEX
  5
46
  8
DEFAULT
 10
295.8981654320454
 20
188.0602818172321
 30
27.17999999999995
  0
VERTEX
  5
47
  8
DEFAULT
 10
295.9488151505446
 20
188.0810662448089
 30
27.17999999999995
  0
VERTEX
  5
48
  8
DEFAULT
 10
295.9991739681859
 20
188.1032146265045
 30
27.17999999999995
  0
VERTEX
  5
49
  8
DEFAULT
 10
296.049188529132
 20
188.1267246443188
 30
27.17999999999995
  0
VERTEX
  5
4A
  8
DEFAULT
 10
296.0988051757325
 20
188.151591264544
 30
27.17999999999995
  0
VERTEX
  5
4B
  8
DEFAULT
 10
296.1479701180691
 20
188.1778066940889
 30
27.17999999999995
  0
VERTEX
  5
4C
  8
DEFAULT
 10
296.1966296085114
 20
188.205360349325
 30
27.17999999999995
  0
VERTEX
  5
4D
  8
DEFAULT
 10
296.2447301202202
 20
188.2342388380272
 30
27.17999999999995
  0
VERTEX
  5
4E
  8
DEFAULT
 10
296.2922185284567
 20
188.2644259548884
 30
27.17999999999995
  0
VERTEX
  5
4F
  8
DEFAULT
 10
296.3390422935048
 20
188.29590269097
 30
27.17999999999995
  0
VERTEX
  5
50
  8
DEFAULT
 10
296.3851496439595
 20
188.3286472573296
 30
27.17999999999995
  0
VERTEX
  5
51
  8
DEFAULT
 10
296.4304897591049
 20
188.3626351229429
 30
27.17999999999995
  0
VERTEX
  5
52
  8
DEFAULT
 10
296.4750129490877
 20
188.3978390669048
 30
27.17999999999995
  0
VERTEX
  5
53
  8
DEFAULT
 10
296.5186708315835
 20
188.4342292447588
 30
27.17999999999995
  0
VERTEX
  5
54
  8
DEFAULT
 10
296.5614165036721
 20
188.4717732686728
 30
27.17999999999995
  0
VERTEX
  5
55
  8
DEFAULT
 10
296.6032047076574
 20
188.5104363010397
 30
27.17999999999995
  0
VERTEX
  5
56
  8
DEFAULT
 10
296.6439919896197
 20
188.550181160959
 30
27.17999999999995
  0
VERTEX
  5
57
  8
DEFAULT
 10
296.683736849539
 20
188.5909684429213
 30
27.17999999999995
  0
VERTEX
  5
58
  8
DEFAULT
 10
296.722399881906
 20
188.6327566469066
 30
27.17999999999995
  0
VERTEX
  5
59
  8
DEFAULT
 10
296.7599439058199
 20
188.6755023189952
 30
27.17999999999995
  0
VERTEX
  5
5A
  8
DEFAULT
 10
296.796334083674
 20
188.7191602014911
 30
27.17999999999995
  0
VERTEX
  5
5B
  8
DEFAULT
 10
296.8315380276358
 20
188.7636833914738
 30
27.17999999999995
  0
VERTEX
  5
5C
  8
DEFAULT
 10
296.8655258932491
 20
188.8090235066193
 30
27.17999999999995
  0
VERTEX
  5
5D
  8
DEFAULT
 10
296.8982704596087
 20
188.8551308570739
 30
27.17999999999996
  0
VERTEX
  5
5E
  8
DEFAULT
 10
296.9297471956903
 20
188.9019546221221
 30
27.17999999999995
  0
VERTEX
  5
5F
  8
DEFAULT
 10
296.9599343125516
 20
188.9494430303586
 30
27.17999999999995
  0
VERTEX
  5
60
  8
DEFAULT
 10
296.9888128012536
 20
188.9975435420673
 30
27.17999999999996
  0
VERTEX
  5
61
  8
DEFAULT
 10
297.0163664564898
 20
189.0462030325097
 30
27.17999999999996
  0
VERTEX
  5
62
  8
DEFAULT
 10
297.0425818860348
 20
189.0953679748462
 30
27.17999999999995
  0
VERTEX
  5
63
  8
DEFAULT
 10
297.0674485062599
 20
189.1449846214467
 30
27.17999999999996
  0
VERTEX
  5
64
  8
DEFAULT
 10
297.0909585240742
 20
189.1949991823927
 30
27.17999999999996
  0
VERTEX
  5
65
  8
DEFAULT
 10
297.1131069057697
 20
189.245358000034
 30
27.17999999999996
  0
VERTEX
  5
66
  8
DEFAULT
 10
297.1338913333466
 20
189.2960077185333
 30
27.17999999999996
  0
VERTEX
  5
67
  8
DEFAULT
 10
297.1533121489916
 20
189.3468954474114
 30
27.17999999999995
  0
VERTEX
  5
68
  8
DEFAULT
 10
297.171372288461
 20
189.3979689181958
 30
27.17999999999995
  0
VERTEX
  5
69
  8
DEFAULT
 10
297.1880772041919
 20
189.4491766333681
 30
27.17999999999995
  0
VERTEX
  5
6A
  8
DEFAULT
 10
297.2034347790208
 20
189.5004680069096
 30
27.17999999999995
  0
VERTEX
  5
6B
  8
DEFAULT
 10
297.2174552314332
 20
189.5517934958426
 30
27.17999999999995
  0
VERTEX
  5
6C
  8
DEFAULT
 10
297.2301510133033
 20
189.6031047222752
 30
27.17999999999995
  0
VERTEX
  5
6D
  8
DEFAULT
 10
297.2415367010968
 20
189.6543545855571
 30
27.17999999999995
  0
VERTEX
  5
6E
  8
DEFAULT
 10
297.2516288815258
 20
189.7054973642628
 30
27.17999999999996
  0
VERTEX
  5
6F
  8
DEFAULT
 10
297.2604460326333
 20
189.7564888078145
 30
27.17999999999996
  0
VERTEX
  5
70
  8
DEFAULT
 10
297.2680084012794
 20
189.80728621766
 30
27.17999999999996
  0
VERTEX
  5
71
  8
DEFAULT
 10
297.2743378779726
 20
189.8578485180049
 30
27.17999999999995
  0
VERTEX
  5
72
  8
DEFAULT
 10
297.2794578699576
 20
189.9081363161945
 30
27.17999999999996
  0
VERTEX
  5
73
  8
DEFAULT
 10
297.2833931734388
 20
189.9581119529126
 30
27.17999999999995
  0
VERTEX
  5
74
  8
DEFAULT
 10
297.2861698457618
 20
190.0077395424424
 30
27.17999999999995
  0
VERTEX
  5
75
  8
DEFAULT
 10
297.2878150783351
 20
190.0569850032938
 30
27.17999999999995
  0
VERTEX
  5
76
  8
DEFAULT
 10
297.2883570710093
 20
190.1058160795694
 30
27.17999999999995
  0
VERTEX
  5
77
  8
DEFAULT
 10
297.2878150783351
 20
190.154647155845
 30
27.17999999999995
  0
VERTEX
  5
78
  8
DEFAULT
 10
297.2861698457617
 20
190.2038926166965
 30
27.17999999999995
  0
VERTEX
  5
79
  8
DEFAULT
 10
297.2833931734388
 20
190.2535202062262
 30
27.17999999999995
  0
VERTEX
  5
7A
  8
DEFAULT
 10
297.2794578699576
 20
190.3034958429444
 30
27.17999999999995
  0
VERTEX
  5
7B
  8
DEFAULT
 10
297.2743378779725
 20
190.3537836411339
 30
27.17999999999995
  0
VERTEX
  5
7C
  8
DEFAULT
 10
297.2680084012795
 20
190.4043459414788
 30
27.17999999999995
  0
VERTEX
  5
7D
  8
DEFAULT
 10
297.2604460326332
 20
190.4551433513243
 30
27.17999999999996
  0
VERTEX
  5
7E
  8
DEFAULT
 10
297.2516288815258
 20
190.5061347948761
 30
27.17999999999995
  0
VERTEX
  5
7F
  8
DEFAULT
 10
297.2415367010969
 20
190.5572775735817
 30
27.17999999999995
  0
VERTEX
  5
80
  8
DEFAULT
 10
297.2301510133034
 20
190.6085274368637
 30
27.17999999999996
  0
VERTEX
  5
81
  8
DEFAULT
 10
297.2174552314333
 20
190.6598386632962
 30
27.17999999999995
  0
VERTEX
  5
82
  8
DEFAULT
 10
297.2034347790208
 20
190.7111641522293
 30
27.17999999999995
  0
VERTEX
  5
83
  8
DEFAULT
 10
297.1880772041919
 20
190.7624555257707
 30
27.17999999999995
  0
VERTEX
  5
84
  8
DEFAULT
 10
297.1713722884609
 20
190.8136632409431
 30
27.17999999999995
  0
VERTEX
  5
85
  8
DEFAULT
 10
297.1533121489917
 20
190.8647367117274
 30
27.17999999999995
  0
VERTEX
  5
86
  8
DEFAULT
 10
297.1338913333466
 20
190.9156244406056
 30
27.17999999999996
  0
VERTEX
  5
87
  8
DEFAULT
 10
297.1131069057697
 20
190.9662741591048
 30
27.17999999999995
  0
VERTEX
  5
88
  8
DEFAULT
 10
297.0909585240742
 20
191.0166329767461
 30
27.17999999999996
  0
VERTEX
  5
89
  8
DEFAULT
 10
297.0674485062598
 20
191.0666475376921
 30
27.17999999999995
  0
VERTEX
  5
8A
  8
DEFAULT
 10
297.0425818860348
 20
191.1162641842926
 30
27.17999999999995
  0
VERTEX
  5
8B
  8
DEFAULT
 10
297.0163664564898
 20
191.1654291266292
 30
27.17999999999996
  0
VERTEX
  5
8C
  8
DEFAULT
 10
296.9888128012536
 20
191.2140886170716
 30
27.17999999999996
  0
VERTEX
  5
8D
  8
DEFAULT
 10
296.9599343125515
 20
191.2621891287802
 30
27.17999999999995
  0
VERTEX
  5
8E
  8
DEFAULT
 10
296.9297471956904
 20
191.3096775370168
 30
27.17999999999995
  0
VERTEX
  5
8F
  8
DEFAULT
 10
296.8982704596087
 20
191.356501302065
 30
27.17999999999996
  0
VERTEX
  5
90
  8
DEFAULT
 10
296.8655258932492
 20
191.4026086525196
 30
27.17999999999995
  0
VERTEX
  5
91
  8
DEFAULT
 10
296.8315380276358
 20
191.4479487676651
 30
27.17999999999995
  0
VERTEX
  5
92
  8
DEFAULT
 10
296.796334083674
 20
191.4924719576478
 30
27.17999999999995
  0
VERTEX
  5
93
  8
DEFAULT
 10
296.7599439058199
 20
191.5361298401437
 30
27.17999999999995
  0
VERTEX
  5
94
  8
DEFAULT
 10
296.722399881906
 20
191.5788755122323
 30
27.17999999999995
  0
VERTEX
  5
95
  8
DEFAULT
 10
296.6837368495391
 20
191.6206637162176
 30
27.17999999999995
  0
VERTEX
  5
96
  8
DEFAULT
 10
296.6439919896197
 20
191.6614509981798
 30
27.17999999999995
  0
VERTEX
  5
97
  8
DEFAULT
 10
296.6032047076574
 20
191.7011958580992
 30
27.17999999999995
  0
VERTEX
  5
98
  8
DEFAULT
 10
296.5614165036721
 20
191.7398588904661
 30
27.17999999999995
  0
VERTEX
  5
99
  8
DEFAULT
 10
296.5186708315835
 20
191.77740291438
 30
27.17999999999995
  0
VERTEX
  5
9A
  8
DEFAULT
 10
296.4750129490876
 20
191.8137930922341
 30
27.17999999999995
  0
VERTEX
  5
9B
  8
DEFAULT
 10
296.4304897591048
 20
191.8489970361959
 30
27.17999999999994
  0
VERTEX
  5
9C
  8
DEFAULT
 10
296.3851496439594
 20
191.8829849018093
 30
27.17999999999995
  0
VERTEX
  5
9D
  8
DEFAULT
 10
296.3390422935047
 20
191.9157294681688
 30
27.17999999999995
  0
VERTEX
  5
9E
  8
DEFAULT
 10
296.2922185284565
 20
191.9472062042505
 30
27.17999999999995
  0
VERTEX
  5
9F
  8
DEFAULT
 10
296.2447301202201
 20
191.9773933211117
 30
27.17999999999995
  0
VERTEX
  5
A0
  8
DEFAULT
 10
296.1966296085114
 20
192.0062718098138
 30
27.17999999999995
  0
VERTEX
  5
A1
  8
DEFAULT
 10
296.1479701180691
 20
192.0338254650499
 30
27.17999999999995
  0
VERTEX
  5
A2
  8
DEFAULT
 10
296.0988051757325
 20
192.0600408945949
 30
27.17999999999995
  0
VERTEX
  5
A3
  8
DEFAULT
 10
296.0491885291319
 20
192.0849075148199
 30
27.17999999999995
  0
VERTEX
  5
A4
  8
DEFAULT
 10
295.9991739681859
 20
192.1084175326343
 30
27.17999999999995
  0
VERTEX
  5
A5
  8
DEFAULT
 10
295.9488151505446
 20
192.1305659143298
 30
27.17999999999995
  0
VERTEX
  5
A6
  8
DEFAULT
 10
295.8981654320453
 20
192.1513503419067
 30
27.17999999999995
  0
VERTEX
  5
A7
  8
DEFAULT
 10
295.8472777031672
 20
192.1707711575517
 30
27.17999999999994
  0
VERTEX
  5
A8
  8
DEFAULT
 10
295.7962042323828
 20
192.1888312970211
 30
27.17999999999994
  0
VERTEX
  5
A9
  8
DEFAULT
 10
295.7449965172106
 20
192.205536212752
 30
27.17999999999994
  0
VERTEX
  5
AA
  8
DEFAULT
 10
295.6937051436691
 20
192.2208937875808
 30
27.17999999999994
  0
VERTEX
  5
AB
  8
DEFAULT
 10
295.6423796547361
 20
192.2349142399933
 30
27.17999999999995
  0
VERTEX
  5
AC
  8
DEFAULT
 10
295.5910684283034
 20
192.2476100218634
 30
27.17999999999995
  0
VERTEX
  5
AD
  8
DEFAULT
 10
295.5398185650216
 20
192.258995709657
 30
27.17999999999995
  0
VERTEX
  5
AE
  8
DEFAULT
 10
295.4886757863161
 20
192.2690878900859
 30
27.17999999999995
  0
VERTEX
  5
AF
  8
DEFAULT
 10
295.4376843427642
 20
192.2779050411933
 30
27.17999999999995
  0
VERTEX
  5
B0
  8
DEFAULT
 10
295.3868869329187
 20
192.2854674098396
 30
27.17999999999995
  0
VERTEX
  5
B1
  8
DEFAULT
 10
295.3363246325738
 20
192.2917968865327
 30
27.17999999999995
  0
VERTEX
  5
B2
  8
DEFAULT
 10
295.2860368343843
 20
192.2969168785177
 30
27.17999999999995
  0
VERTEX
  5
B3
  8
DEFAULT
 10
295.2360611976661
 20
192.3008521819989
 30
27.17999999999995
  0
VERTEX
  5
B4
  8
DEFAULT
 10
295.1864336081364
 20
192.3036288543219
 30
27.17999999999995
  0
VERTEX
  5
B5
  8
DEFAULT
 10
295.1371881472848
 20
192.3052740868953
 30
27.17999999999995
  0
VERTEX
  5
B6
  8
DEFAULT
 10
291.0883570710093
 20
192.3058160795694
 30
27.17999999999995
  0
VERTEX
  5
B7
  8
DEFAULT
 10
291.0395259947338
 20
192.3052740868953
 30
27.17999999999994
  0
VERTEX
  5
B8
  8
DEFAULT
 10
290.9902805338822
 20
192.3036288543219
 30
27.17999999999994
  0
VERTEX
  5
B9
  8
DEFAULT
 10
290.9406529443527
 20
192.3008521819989
 30
27.17999999999995
  0
VERTEX
  5
BA
  8
DEFAULT
 10
290.8906773076344
 20
192.2969168785177
 30
27.17999999999994
  0
VERTEX
  5
BB
  8
DEFAULT
 10
290.8403895094448
 20
192.2917968865327
 30
27.17999999999995
  0
VERTEX
  5
BC
  8
DEFAULT
 10
290.7898272090999
 20
192.2854674098396
 30
27.17999999999995
  0
VERTEX
  5
BD
  8
DEFAULT
 10
290.7390297992545
 20
192.2779050411933
 30
27.17999999999995
  0
VERTEX
  5
BE
  8
DEFAULT
 10
290.6880383557026
 20
192.2690878900859
 30
27.17999999999995
  0
VERTEX
  5
BF
  8
DEFAULT
 10
290.636895576997
 20
192.258995709657
 30
27.17999999999995
  0
VERTEX
  5
C0
  8
DEFAULT
 10
290.5856457137152
 20
192.2476100218635
 30
27.17999999999995
  0
VERTEX
  5
C1
  8
DEFAULT
 10
290.5343344872826
 20
192.2349142399934
 30
27.17999999999995
  0
VERTEX
  5
C2
  8
DEFAULT
 10
290.4830089983496
 20
192.2208937875809
 30
27.17999999999995
  0
VERTEX
  5
C3
  8
DEFAULT
 10
290.4317176248081
 20
192.2055362127521
 30
27.17999999999994
  0
VERTEX
  5
C4
  8
DEFAULT
 10
290.3805099096357
 20
192.1888312970211
 30
27.17999999999995
  0
VERTEX
  5
C5
  8
DEFAULT
 10
290.3294364388514
 20
192.1707711575518
 30
27.17999999999995
  0
VERTEX
  5
C6
  8
DEFAULT
 10
290.2785487099733
 20
192.1513503419068
 30
27.17999999999995
  0
VERTEX
  5
C7
  8
DEFAULT
 10
290.227898991474
 20
192.1305659143298
 30
27.17999999999995
  0
VERTEX
  5
C8
  8
DEFAULT
 10
290.1775401738327
 20
192.1084175326343
 30
27.17999999999995
  0
VERTEX
  5
C9
  8
DEFAULT
 10
290.1275256128866
 20
192.0849075148199
 30
27.17999999999995
  0
VERTEX
  5
CA
  8
DEFAULT
 10
290.0779089662861
 20
192.0600408945949
 30
27.17999999999995
  0
VERTEX
  5
CB
  8
DEFAULT
 10
290.0287440239496
 20
192.0338254650499
 30
27.17999999999995
  0
VERTEX
  5
CC
  8
DEFAULT
 10
289.9800845335072
 20
192.0062718098138
 30
27.17999999999995
  0
VERTEX
  5
CD
  8
DEFAULT
 10
289.9319840217985
 20
191.9773933211117
 30
27.17999999999995
  0
VERTEX
  5
CE
  8
DEFAULT
 10
289.884495613562
 20
191.9472062042504
 30
27.17999999999995
  0
VERTEX
  5
CF
  8
DEFAULT
 10
289.8376718485138
 20
191.9157294681688
 30
27.17999999999995
  0
VERTEX
  5
D0
  8
DEFAULT
 10
289.7915644980592
 20
191.8829849018093
 30
27.17999999999995
  0
VERTEX
  5
D1
  8
DEFAULT
 10
289.7462243829137
 20
191.848997036196
 30
27.17999999999995
  0
VERTEX
  5
D2
  8
DEFAULT
 10
289.701701192931
 20
191.8137930922341
 30
27.17999999999995
  0
VERTEX
  5
D3
  8
DEFAULT
 10
289.6580433104351
 20
191.77740291438
 30
27.17999999999995
  0
VERTEX
  5
D4
  8
DEFAULT
 10
289.6152976383465
 20
191.7398588904661
 30
27.17999999999995
  0
VERTEX
  5
D5
  8
DEFAULT
 10
289.5735094343611
 20
191.7011958580992
 30
27.17999999999995
  0
VERTEX
  5
D6
  8
DEFAULT
 10
289.5327221523989
 20
191.6614509981798
 30
27.17999999999995
  0
VERTEX
  5
D7
  8
DEFAULT
 10
289.4929772924796
 20
191.6206637162176
 30
27.17999999999995
  0
VERTEX
  5
D8
  8
DEFAULT
 10
289.4543142601127
 20
191.5788755122323
 30
27.17999999999995
  0
VERTEX
  5
D9
  8
DEFAULT
 10
289.4167702361988
 20
191.5361298401437
 30
27.17999999999995
  0
VERTEX
  5
DA
  8
DEFAULT
 10
289.3803800583447
 20
191.4924719576478
 30
27.17999999999995
  0
VERTEX
  5
DB
  8
DEFAULT
 10
289.3451761143828
 20
191.4479487676651
 30
27.17999999999994
  0
VERTEX
  5
DC
  8
DEFAULT
 10
289.3111882487695
 20
191.4026086525196
 30
27.17999999999994
  0
VERTEX
  5
DD
  8
DEFAULT
 10
289.2784436824098
 20
191.356501302065
 30
27.17999999999994
  0
VERTEX
  5
DE
  8
DEFAULT
 10
289.2469669463283
 20
191.3096775370168
 30
27.17999999999995
  0
VERTEX
  5
DF
  8
DEFAULT
 10
289.216779829467
 20
191.2621891287802
 30
27.17999999999995
  0
VERTEX
  5
E0
  8
DEFAULT
 10
289.1879013407649
 20
191.2140886170716
 30
27.17999999999995
  0
VERTEX
  5
E1
  8
DEFAULT
 10
289.1603476855288
 20
191.1654291266292
 30
27.17999999999995
  0
VERTEX
  5
E2
  8
DEFAULT
 10
289.1341322559838
 20
191.1162641842927
 30
27.17999999999995
  0
VERTEX
  5
E3
  8
DEFAULT
 10
289.1092656357587
 20
191.0666475376921
 30
27.17999999999994
  0
VERTEX
  5
E4
  8
DEFAULT
 10
289.0857556179444
 20
191.0166329767461
 30
27.17999999999995
  0
VERTEX
  5
E5
  8
DEFAULT
 10
289.0636072362489
 20
190.9662741591048
 30
27.17999999999995
  0
VERTEX
  5
E6
  8
DEFAULT
 10
289.0428228086719
 20
190.9156244406055
 30
27.17999999999994
  0
VERTEX
  5
E7
  8
DEFAULT
 10
289.0234019930269
 20
190.8647367117273
 30
27.17999999999994
  0
VERTEX
  5
E8
  8
DEFAULT
 10
289.0053418535575
 20
190.813663240943
 30
27.17999999999994
  0
VERTEX
  5
E9
  8
DEFAULT
 10
288.9886369378266
 20
190.7624555257707
 30
27.17999999999994
  0
VERTEX
  5
EA
  8
DEFAULT
 10
288.9732793629977
 20
190.7111641522292
 30
27.17999999999994
  0
VERTEX
  5
EB
  8
DEFAULT
 10
288.9592589105852
 20
190.6598386632961
 30
27.17999999999995
  0
VERTEX
  5
EC
  8
DEFAULT
 10
288.9465631287151
 20
190.6085274368636
 30
27.17999999999995
  0
VERTEX
  5
ED
  8
DEFAULT
 10
288.9351774409216
 20
190.5572775735817
 30
27.17999999999995
  0
VERTEX
  5
EE
  8
DEFAULT
 10
288.9250852604928
 20
190.5061347948761
 30
27.17999999999995
  0
VERTEX
  5
EF
  8
DEFAULT
 10
288.9162681093853
 20
190.4551433513242
 30
27.17999999999995
  0
VERTEX
  5
F0
  8
DEFAULT
 10
288.9087057407391
 20
190.4043459414788
 30
27.17999999999995
  0
VERTEX
  5
F1
  8
DEFAULT
 10
288.902376264046
 20
190.3537836411339
 30
27.17999999999995
  0
VERTEX
  5
F2
  8
DEFAULT
 10
288.8972562720609
 20
190.3034958429444
 30
27.17999999999995
  0
VERTEX
  5
F3
  8
DEFAULT
 10
288.8933209685799
 20
190.2535202062262
 30
27.17999999999995
  0
VERTEX
  5
F4
  8
DEFAULT
 10
288.8905442962568
 20
190.2038926166965
 30
27.17999999999995
  0
VERTEX
  5
F5
  8
DEFAULT
 10
288.8888990636834
 20
190.154647155845
 30
27.17999999999995
  0
VERTEX
  5
F6
  8
DEFAULT
 10
288.8883570710093
 20
190.1058160795694
 30
27.17999999999995
  0
VERTEX
  5
F7
  8
DEFAULT
 10
288.8888990636834
 20
190.0569850032938
 30
27.17999999999995
  0
VERTEX
  5
F8
  8
DEFAULT
 10
288.8905442962568
 20
190.0077395424424
 30
27.17999999999995
  0
VERTEX
  5
F9
  8
DEFAULT
 10
288.8933209685799
 20
189.9581119529127
 30
27.17999999999995
  0
VERTEX
  5
FA
  8
DEFAULT
 10
288.897256272061
 20
189.9081363161945
 30
27.17999999999995
  0
VERTEX
  5
FB
  8
DEFAULT
 10
288.9023762640461
 20
189.8578485180049
 30
27.17999999999995
  0
VERTEX
  5
FC
  8
DEFAULT
 10
288.9087057407392
 20
189.80728621766
 30
27.17999999999995
  0
VERTEX
  5
FD
  8
DEFAULT
 10
288.9162681093854
 20
189.7564888078145
 30
27.17999999999995
  0
VERTEX
  5
FE
  8
DEFAULT
 10
288.9250852604929
 20
189.7054973642627
 30
27.17999999999995
  0
VERTEX
  5
FF
  8
DEFAULT
 10
288.9351774409217
 20
189.6543545855571
 30
27.17999999999995
  0
VERTEX
  5
100
  8
DEFAULT
 10
288.9465631287152
 20
189.6031047222752
 30
27.17999999999995
  0
VERTEX
  5
101
  8
DEFAULT
 10
288.9592589105853
 20
189.5517934958426
 30
27.17999999999995
  0
VERTEX
  5
102
  8
DEFAULT
 10
288.9732793629979
 20
189.5004680069095
 30
27.17999999999994
  0
VERTEX
  5
103
  8
DEFAULT
 10
288.9886369378266
 20
189.449176633368
 30
27.17999999999994
  0
VERTEX
  5
104
  8
DEFAULT
 10
289.0053418535576
 20
189.3979689181957
 30
27.17999999999995
  0
VERTEX
  5
105
  8
DEFAULT
 10
289.023401993027
 20
189.3468954474114
 30
27.17999999999995
  0
VERTEX
  5
106
  8
DEFAULT
 10
289.0428228086719
 20
189.2960077185333
 30
27.17999999999995
  0
VERTEX
  5
107
  8
DEFAULT
 10
289.0636072362489
 20
189.245358000034
 30
27.17999999999995
  0
VERTEX
  5
108
  8
DEFAULT
 10
289.0857556179445
 20
189.1949991823927
 30
27.17999999999996
  0
VERTEX
  5
109
  8
DEFAULT
 10
289.1092656357588
 20
189.1449846214467
 30
27.17999999999995
  0
VERTEX
  5
10A
  8
DEFAULT
 10
289.1341322559839
 20
189.0953679748462
 30
27.17999999999995
  0
VERTEX
  5
10B
  8
DEFAULT
 10
289.1603476855288
 20
189.0462030325096
 30
27.17999999999996
  0
VERTEX
  5
10C
  8
DEFAULT
 10
289.1879013407649
 20
188.9975435420672
 30
27.17999999999996
  0
VERTEX
  5
10D
  8
DEFAULT
 10
289.216779829467
 20
188.9494430303586
 30
27.17999999999995
  0
VERTEX
  5
10E
  8
DEFAULT
 10
289.2469669463283
 20
188.9019546221221
 30
27.17999999999995
  0
VERTEX
  5
10F
  8
DEFAULT
 10
289.2784436824099
 20
188.8551308570739
 30
27.17999999999996
  0
VERTEX
  5
110
  8
DEFAULT
 10
289.3111882487695
 20
188.8090235066192
 30
27.17999999999995
  0
VERTEX
  5
111
  8
DEFAULT
 10
289.3451761143828
 20
188.7636833914738
 30
27.17999999999995
  0
VERTEX
  5
112
  8
DEFAULT
 10
289.3803800583447
 20
188.7191602014911
 30
27.17999999999995
  0
VERTEX
  5
113
  8
DEFAULT
 10
289.4167702361987
 20
188.6755023189951
 30
27.17999999999995
  0
VERTEX
  5
114
  8
DEFAULT
 10
289.4543142601127
 20
188.6327566469066
 30
27.17999999999995
  0
VERTEX
  5
115
  8
DEFAULT
 10
289.4929772924796
 20
188.5909684429212
 30
27.17999999999995
  0
VERTEX
  5
116
  8
DEFAULT
 10
289.5327221523989
 20
188.550181160959
 30
27.17999999999995
  0
VERTEX
  5
117
  8
DEFAULT
 10
289.5735094343612
 20
188.5104363010397
 30
27.17999999999995
  0
VERTEX
  5
118
  8
DEFAULT
 10
289.6152976383465
 20
188.4717732686728
 30
27.17999999999995
  0
VERTEX
  5
119
  8
DEFAULT
 10
289.6580433104351
 20
188.4342292447588
 30
27.17999999999995
  0
VERTEX
  5
11A
  8
DEFAULT
 10
289.7017011929311
 20
188.3978390669048
 30
27.17999999999995
  0
VERTEX
  5
11B
  8
DEFAULT
 10
289.7462243829137
 20
188.3626351229429
 30
27.17999999999995
  0
VERTEX
  5
11C
  8
DEFAULT
 10
289.7915644980592
 20
188.3286472573295
 30
27.17999999999995
  0
VERTEX
  5
11D
  8
DEFAULT
 10
289.8376718485139
 20
188.29590269097
 30
27.17999999999995
  0
VERTEX
  5
11E
  8
DEFAULT
 10
289.884495613562
 20
188.2644259548884
 30
27.17999999999995
  0
VERTEX
  5
11F
  8
DEFAULT
 10
289.9319840217985
 20
188.2342388380271
 30
27.17999999999995
  0
VERTEX
  5
120
  8
DEFAULT
 10
289.9800845335072
 20
188.2053603493251
 30
27.17999999999995
  0
VERTEX
  5
121
  8
DEFAULT
 10
290.0287440239496
 20
188.1778066940889
 30
27.17999999999995
  0
VERTEX
  5
122
  8
DEFAULT
 10
290.0779089662861
 20
188.151591264544
 30
27.17999999999995
  0
VERTEX
  5
123
  8
DEFAULT
 10
290.1275256128867
 20
188.1267246443189
 30
27.17999999999995
  0
VERTEX
  5
124
  8
DEFAULT
 10
290.1775401738327
 20
188.1032146265046
 30
27.17999999999995
  0
VERTEX
  5
125
  8
DEFAULT
 10
290.2278989914739
 20
188.081066244809
 30
27.17999999999995
  0
VERTEX
  5
126
  8
DEFAULT
 10
290.2785487099733
 20
188.0602818172321
 30
27.17999999999995
  0
VERTEX
  5
127
  8
DEFAULT
 10
290.3294364388514
 20
188.0408610015871
 30
27.17999999999995
  0
VERTEX
  5
128
  8
DEFAULT
 10
290.3805099096357
 20
188.0228008621177
 30
27.17999999999995
  0
VERTEX
  5
129
  8
DEFAULT
 10
290.431717624808
 20
188.0060959463868
 30
27.17999999999994
  0
VERTEX
  5
12A
  8
DEFAULT
 10
290.4830089983495
 20
187.9907383715579
 30
27.17999999999995
  0
VERTEX
  5
12B
  8
DEFAULT
 10
290.5343344872826
 20
187.9767179191454
 30
27.17999999999995
  0
VERTEX
  5
12C
  8
DEFAULT
 10
290.5856457137152
 20
187.9640221372754
 30
27.17999999999995
  0
VERTEX
  5
12D
  8
DEFAULT
 10
290.6368955769971
 20
187.9526364494818
 30
27.17999999999995
  0
VERTEX
  5
12E
  8
DEFAULT
 10
290.6880383557026
 20
187.942544269053
 30
27.17999999999996
  0
VERTEX
  5
12F
  8
DEFAULT
 10
290.7390297992545
 20
187.9337271179456
 30
27.17999999999995
  0
VERTEX
  5
130
  8
DEFAULT
 10
290.7898272090999
 20
187.9261647492993
 30
27.17999999999995
  0
VERTEX
  5
131
  8
DEFAULT
 10
290.8403895094449
 20
187.9198352726062
 30
27.17999999999995
  0
VERTEX
  5
132
  8
DEFAULT
 10
290.8906773076345
 20
187.9147152806211
 30
27.17999999999995
  0
VERTEX
  5
133
  8
DEFAULT
 10
290.9406529443527
 20
187.91077997714
 30
27.17999999999995
  0
VERTEX
  5
134
  8
DEFAULT
 10
290.9902805338823
 20
187.9080033048169
 30
27.17999999999995
  0
VERTEX
  5
135
  8
DEFAULT
 10
291.0395259947338
 20
187.9063580722435
 30
27.17999999999994
  0
VERTEX
  5
136
  8
DEFAULT
 10
291.0883570710093
 20
187.9058160795694
 30
27.17999999999995
  0
SEQEND
  5
35
  8
DEFAULT
  0
POLYLINE
  5
137
  8
DEFAULT
 66
     1
 10
0.0
 20
0.0
 30
27.17999999999959
210
6.220586616832632E-17
220
1.0
230
-2.535455824722982E-15
  0
VERTEX
  5
139
  8
DEFAULT
 10
257.7538232739483
 20
154.5714594210159
 30
27.17999999999959
  0
VERTEX
  5
13A
  8
DEFAULT
 10
261.8026543502239
 20
154.5720014136901
 30
27.17999999999958
  0
VERTEX
  5
13B
  8
DEFAULT
 10
261.8518998110754
 20
154.5736466462634
 30
27.17999999999958
  0
VERTEX
  5
13C
  8
DEFAULT
 10
261.9015274006051
 20
154.5764233185865
 30
27.17999999999959
  0
VERTEX
  5
13D
  8
DEFAULT
 10
261.9515030373233
 20
154.5803586220676
 30
27.17999999999958
  0
VERTEX
  5
13E
  8
DEFAULT
 10
262.0017908355128
 20
154.5854786140526
 30
27.17999999999959
  0
VERTEX
  5
13F
  8
DEFAULT
 10
262.0523531358577
 20
154.5918080907458
 30
27.17999999999959
  0
VERTEX
  5
140
  8
DEFAULT
 10
262.1031505457032
 20
154.599370459392
 30
27.17999999999959
  0
VERTEX
  5
141
  8
DEFAULT
 10
262.154141989255
 20
154.6081876104994
 30
27.17999999999958
  0
VERTEX
  5
142
  8
DEFAULT
 10
262.2052847679607
 20
154.6182797909283
 30
27.17999999999958
  0
VERTEX
  5
143
  8
DEFAULT
 10
262.2565346312425
 20
154.6296654787219
 30
27.17999999999958
  0
VERTEX
  5
144
  8
DEFAULT
 10
262.3078458576751
 20
154.642361260592
 30
27.17999999999958
  0
VERTEX
  5
145
  8
DEFAULT
 10
262.3591713466082
 20
154.6563817130044
 30
27.17999999999958
  0
VERTEX
  5
146
  8
DEFAULT
 10
262.4104627201496
 20
154.6717392878333
 30
27.17999999999958
  0
VERTEX
  5
147
  8
DEFAULT
 10
262.4616704353219
 20
154.6884442035642
 30
27.17999999999958
  0
VERTEX
  5
148
  8
DEFAULT
 10
262.5127439061063
 20
154.7065043430336
 30
27.17999999999959
  0
VERTEX
  5
149
  8
DEFAULT
 10
262.5636316349845
 20
154.7259251586786
 30
27.17999999999959
  0
VERTEX
  5
14A
  8
DEFAULT
 10
262.6142813534838
 20
154.7467095862555
 30
27.17999999999959
  0
VERTEX
  5
14B
  8
DEFAULT
 10
262.6646401711251
 20
154.7688579679511
 30
27.17999999999959
  0
VERTEX
  5
14C
  8
DEFAULT
 10
262.714654732071
 20
154.7923679857654
 30
27.17999999999958
  0
VERTEX
  5
14D
  8
DEFAULT
 10
262.7642713786716
 20
154.8172346059905
 30
27.17999999999959
  0
VERTEX
  5
14E
  8
DEFAULT
 10
262.8134363210082
 20
154.8434500355355
 30
27.17999999999959
  0
VERTEX
  5
14F
  8
DEFAULT
 10
262.8620958114505
 20
154.8710036907715
 30
27.17999999999958
  0
VERTEX
  5
150
  8
DEFAULT
 10
262.9101963231592
 20
154.8998821794737
 30
27.17999999999959
  0
VERTEX
  5
151
  8
DEFAULT
 10
262.9576847313957
 20
154.9300692963349
 30
27.17999999999959
  0
VERTEX
  5
152
  8
DEFAULT
 10
263.0045084964439
 20
154.9615460324165
 30
27.17999999999958
  0
VERTEX
  5
153
  8
DEFAULT
 10
263.0506158468985
 20
154.994290598776
 30
27.17999999999958
  0
VERTEX
  5
154
  8
DEFAULT
 10
263.095955962044
 20
155.0282784643894
 30
27.17999999999958
  0
VERTEX
  5
155
  8
DEFAULT
 10
263.1404791520267
 20
155.0634824083513
 30
27.17999999999958
  0
VERTEX
  5
156
  8
DEFAULT
 10
263.1841370345226
 20
155.0998725862054
 30
27.17999999999958
  0
VERTEX
  5
157
  8
DEFAULT
 10
263.2268827066112
 20
155.1374166101192
 30
27.17999999999959
  0
VERTEX
  5
158
  8
DEFAULT
 10
263.2686709105965
 20
155.1760796424862
 30
27.17999999999959
  0
VERTEX
  5
159
  8
DEFAULT
 10
263.3094581925587
 20
155.2158245024055
 30
27.17999999999958
  0
VERTEX
  5
15A
  8
DEFAULT
 10
263.3492030524781
 20
155.2566117843677
 30
27.17999999999959
  0
VERTEX
  5
15B
  8
DEFAULT
 10
263.387866084845
 20
155.298399988353
 30
27.17999999999959
  0
VERTEX
  5
15C
  8
DEFAULT
 10
263.4254101087589
 20
155.3411456604416
 30
27.17999999999958
  0
VERTEX
  5
15D
  8
DEFAULT
 10
263.461800286613
 20
155.3848035429376
 30
27.17999999999958
  0
VERTEX
  5
15E
  8
DEFAULT
 10
263.4970042305749
 20
155.4293267329203
 30
27.17999999999958
  0
VERTEX
  5
15F
  8
DEFAULT
 10
263.5309920961882
 20
155.4746668480657
 30
27.17999999999959
  0
VERTEX
  5
160
  8
DEFAULT
 10
263.5637366625478
 20
155.5207741985203
 30
27.17999999999959
  0
VERTEX
  5
161
  8
DEFAULT
 10
263.5952133986294
 20
155.5675979635685
 30
27.17999999999959
  0
VERTEX
  5
162
  8
DEFAULT
 10
263.6254005154906
 20
155.6150863718051
 30
27.17999999999959
  0
VERTEX
  5
163
  8
DEFAULT
 10
263.6542790041927
 20
155.6631868835137
 30
27.17999999999959
  0
VERTEX
  5
164
  8
DEFAULT
 10
263.6818326594288
 20
155.7118463739561
 30
27.17999999999959
  0
VERTEX
  5
165
  8
DEFAULT
 10
263.7080480889738
 20
155.7610113162927
 30
27.17999999999959
  0
VERTEX
  5
166
  8
DEFAULT
 10
263.7329147091989
 20
155.8106279628933
 30
27.17999999999959
  0
VERTEX
  5
167
  8
DEFAULT
 10
263.7564247270132
 20
155.8606425238392
 30
27.17999999999959
  0
VERTEX
  5
168
  8
DEFAULT
 10
263.7785731087088
 20
155.9110013414805
 30
27.17999999999959
  0
VERTEX
  5
169
  8
DEFAULT
 10
263.7993575362858
 20
155.9616510599798
 30
27.17999999999959
  0
VERTEX
  5
16A
  8
DEFAULT
 10
263.8187783519307
 20
156.0125387888579
 30
27.17999999999959
  0
VERTEX
  5
16B
  8
DEFAULT
 10
263.8368384914002
 20
156.0636122596422
 30
27.17999999999959
  0
VERTEX
  5
16C
  8
DEFAULT
 10
263.853543407131
 20
156.1148199748146
 30
27.17999999999958
  0
VERTEX
  5
16D
  8
DEFAULT
 10
263.8689009819599
 20
156.1661113483561
 30
27.17999999999958
  0
VERTEX
  5
16E
  8
DEFAULT
 10
263.8829214343723
 20
156.2174368372891
 30
27.17999999999959
  0
VERTEX
  5
16F
  8
DEFAULT
 10
263.8956172162424
 20
156.2687480637217
 30
27.17999999999958
  0
VERTEX
  5
170
  8
DEFAULT
 10
263.907002904036
 20
156.3199979270035
 30
27.17999999999958
  0
VERTEX
  5
171
  8
DEFAULT
 10
263.9170950844649
 20
156.3711407057092
 30
27.17999999999959
  0
VERTEX
  5
172
  8
DEFAULT
 10
263.9259122355723
 20
156.422132149261
 30
27.17999999999959
  0
VERTEX
  5
173
  8
DEFAULT
 10
263.9334746042185
 20
156.4729295591065
 30
27.17999999999959
  0
VERTEX
  5
174
  8
DEFAULT
 10
263.9398040809116
 20
156.5234918594514
 30
27.17999999999958
  0
VERTEX
  5
175
  8
DEFAULT
 10
263.9449240728968
 20
156.573779657641
 30
27.17999999999959
  0
VERTEX
  5
176
  8
DEFAULT
 10
263.9488593763778
 20
156.6237552943592
 30
27.17999999999958
  0
VERTEX
  5
177
  8
DEFAULT
 10
263.9516360487009
 20
156.6733828838888
 30
27.17999999999958
  0
VERTEX
  5
178
  8
DEFAULT
 10
263.9532812812742
 20
156.7226283447403
 30
27.17999999999958
  0
VERTEX
  5
179
  8
DEFAULT
 10
263.9538232739484
 20
156.7714594210159
 30
27.17999999999958
  0
VERTEX
  5
17A
  8
DEFAULT
 10
263.9532812812743
 20
156.8202904972914
 30
27.17999999999959
  0
VERTEX
  5
17B
  8
DEFAULT
 10
263.9516360487009
 20
156.8695359581429
 30
27.17999999999959
  0
VERTEX
  5
17C
  8
DEFAULT
 10
263.9488593763779
 20
156.9191635476726
 30
27.17999999999959
  0
VERTEX
  5
17D
  8
DEFAULT
 10
263.9449240728968
 20
156.9691391843909
 30
27.17999999999959
  0
VERTEX
  5
17E
  8
DEFAULT
 10
263.9398040809116
 20
157.0194269825804
 30
27.17999999999959
  0
VERTEX
  5
17F
  8
DEFAULT
 10
263.9334746042185
 20
157.0699892829253
 30
27.17999999999959
  0
VERTEX
  5
180
  8
DEFAULT
 10
263.9259122355723
 20
157.1207866927708
 30
27.17999999999959
  0
VERTEX
  5
181
  8
DEFAULT
 10
263.9170950844649
 20
157.1717781363226
 30
27.1799999999996
  0
VERTEX
  5
182
  8
DEFAULT
 10
263.9070029040359
 20
157.2229209150282
 30
27.17999999999959
  0
VERTEX
  5
183
  8
DEFAULT
 10
263.8956172162424
 20
157.2741707783101
 30
27.17999999999959
  0
VERTEX
  5
184
  8
DEFAULT
 10
263.8829214343723
 20
157.3254820047426
 30
27.17999999999959
  0
VERTEX
  5
185
  8
DEFAULT
 10
263.8689009819599
 20
157.3768074936757
 30
27.1799999999996
  0
VERTEX
  5
186
  8
DEFAULT
 10
263.853543407131
 20
157.4280988672171
 30
27.17999999999959
  0
VERTEX
  5
187
  8
DEFAULT
 10
263.8368384914002
 20
157.4793065823895
 30
27.1799999999996
  0
VERTEX
  5
188
  8
DEFAULT
 10
263.8187783519307
 20
157.5303800531738
 30
27.17999999999959
  0
VERTEX
  5
189
  8
DEFAULT
 10
263.7993575362858
 20
157.581267782052
 30
27.17999999999959
  0
VERTEX
  5
18A
  8
DEFAULT
 10
263.7785731087088
 20
157.6319175005513
 30
27.17999999999959
  0
VERTEX
  5
18B
  8
DEFAULT
 10
263.7564247270132
 20
157.6822763181925
 30
27.17999999999959
  0
VERTEX
  5
18C
  8
DEFAULT
 10
263.7329147091988
 20
157.7322908791385
 30
27.17999999999958
  0
VERTEX
  5
18D
  8
DEFAULT
 10
263.7080480889738
 20
157.7819075257391
 30
27.17999999999958
  0
VERTEX
  5
18E
  8
DEFAULT
 10
263.6818326594288
 20
157.8310724680757
 30
27.17999999999959
  0
VERTEX
  5
18F
  8
DEFAULT
 10
263.6542790041927
 20
157.879731958518
 30
27.17999999999959
  0
VERTEX
  5
190
  8
DEFAULT
 10
263.6254005154906
 20
157.9278324702267
 30
27.17999999999958
  0
VERTEX
  5
191
  8
DEFAULT
 10
263.5952133986294
 20
157.9753208784632
 30
27.17999999999958
  0
VERTEX
  5
192
  8
DEFAULT
 10
263.5637366625478
 20
158.0221446435114
 30
27.17999999999958
  0
VERTEX
  5
193
  8
DEFAULT
 10
263.5309920961882
 20
158.0682519939661
 30
27.17999999999958
  0
VERTEX
  5
194
  8
DEFAULT
 10
263.4970042305749
 20
158.1135921091115
 30
27.17999999999958
  0
VERTEX
  5
195
  8
DEFAULT
 10
263.461800286613
 20
158.1581152990942
 30
27.17999999999958
  0
VERTEX
  5
196
  8
DEFAULT
 10
263.4254101087589
 20
158.2017731815901
 30
27.17999999999958
  0
VERTEX
  5
197
  8
DEFAULT
 10
263.387866084845
 20
158.2445188536787
 30
27.17999999999958
  0
VERTEX
  5
198
  8
DEFAULT
 10
263.3492030524781
 20
158.286307057664
 30
27.17999999999958
  0
VERTEX
  5
199
  8
DEFAULT
 10
263.3094581925587
 20
158.3270943396263
 30
27.17999999999957
  0
VERTEX
  5
19A
  8
DEFAULT
 10
263.2686709105965
 20
158.3668391995456
 30
27.17999999999958
  0
VERTEX
  5
19B
  8
DEFAULT
 10
263.2268827066112
 20
158.4055022319126
 30
27.17999999999958
  0
VERTEX
  5
19C
  8
DEFAULT
 10
263.1841370345226
 20
158.4430462558265
 30
27.17999999999957
  0
VERTEX
  5
19D
  8
DEFAULT
 10
263.1404791520267
 20
158.4794364336806
 30
27.17999999999957
  0
VERTEX
  5
19E
  8
DEFAULT
 10
263.0959559620439
 20
158.5146403776424
 30
27.17999999999957
  0
VERTEX
  5
19F
  8
DEFAULT
 10
263.0506158468986
 20
158.5486282432557
 30
27.17999999999957
  0
VERTEX
  5
1A0
  8
DEFAULT
 10
263.0045084964439
 20
158.5813728096153
 30
27.17999999999957
  0
VERTEX
  5
1A1
  8
DEFAULT
 10
262.9576847313957
 20
158.6128495456969
 30
27.17999999999957
  0
VERTEX
  5
1A2
  8
DEFAULT
 10
262.9101963231591
 20
158.6430366625581
 30
27.17999999999957
  0
VERTEX
  5
1A3
  8
DEFAULT
 10
262.8620958114504
 20
158.6719151512602
 30
27.17999999999957
  0
VERTEX
  5
1A4
  8
DEFAULT
 10
262.8134363210081
 20
158.6994688064963
 30
27.17999999999957
  0
VERTEX
  5
1A5
  8
DEFAULT
 10
262.7642713786715
 20
158.7256842360413
 30
27.17999999999957
  0
VERTEX
  5
1A6
  8
DEFAULT
 10
262.714654732071
 20
158.7505508562664
 30
27.17999999999957
  0
VERTEX
  5
1A7
  8
DEFAULT
 10
262.664640171125
 20
158.7740608740807
 30
27.17999999999957
  0
VERTEX
  5
1A8
  8
DEFAULT
 10
262.6142813534838
 20
158.7962092557762
 30
27.17999999999957
  0
VERTEX
  5
1A9
  8
DEFAULT
 10
262.5636316349845
 20
158.8169936833532
 30
27.17999999999957
  0
VERTEX
  5
1AA
  8
DEFAULT
 10
262.5127439061063
 20
158.8364144989982
 30
27.17999999999957
  0
VERTEX
  5
1AB
  8
DEFAULT
 10
262.461670435322
 20
158.8544746384676
 30
27.17999999999957
  0
VERTEX
  5
1AC
  8
DEFAULT
 10
262.4104627201496
 20
158.8711795541984
 30
27.17999999999956
  0
VERTEX
  5
1AD
  8
DEFAULT
 10
262.3591713466082
 20
158.8865371290273
 30
27.17999999999957
  0
VERTEX
  5
1AE
  8
DEFAULT
 10
262.3078458576751
 20
158.9005575814398
 30
27.17999999999956
  0
VERTEX
  5
1AF
  8
DEFAULT
 10
262.2565346312425
 20
158.9132533633099
 30
27.17999999999956
  0
VERTEX
  5
1B0
  8
DEFAULT
 10
262.2052847679607
 20
158.9246390511035
 30
27.17999999999957
  0
VERTEX
  5
1B1
  8
DEFAULT
 10
262.1541419892551
 20
158.9347312315324
 30
27.17999999999957
  0
VERTEX
  5
1B2
  8
DEFAULT
 10
262.1031505457032
 20
158.9435483826398
 30
27.17999999999957
  0
VERTEX
  5
1B3
  8
DEFAULT
 10
262.0523531358577
 20
158.951110751286
 30
27.17999999999957
  0
VERTEX
  5
1B4
  8
DEFAULT
 10
262.0017908355128
 20
158.9574402279791
 30
27.17999999999957
  0
VERTEX
  5
1B5
  8
DEFAULT
 10
261.9515030373233
 20
158.9625602199642
 30
27.17999999999957
  0
VERTEX
  5
1B6
  8
DEFAULT
 10
261.901527400605
 20
158.9664955234453
 30
27.17999999999957
  0
VERTEX
  5
1B7
  8
DEFAULT
 10
261.8518998110754
 20
158.9692721957684
 30
27.17999999999958
  0
VERTEX
  5
1B8
  8
DEFAULT
 10
261.8026543502239
 20
158.9709174283417
 30
27.17999999999958
  0
VERTEX
  5
1B9
  8
DEFAULT
 10
257.7538232739483
 20
158.9714594210159
 30
27.17999999999958
  0
VERTEX
  5
1BA
  8
DEFAULT
 10
257.7049921976728
 20
158.9709174283417
 30
27.17999999999958
  0
VERTEX
  5
1BB
  8
DEFAULT
 10
257.6557467368213
 20
158.9692721957684
 30
27.17999999999958
  0
VERTEX
  5
1BC
  8
DEFAULT
 10
257.6061191472917
 20
158.9664955234453
 30
27.17999999999958
  0
VERTEX
  5
1BD
  8
DEFAULT
 10
257.5561435105735
 20
158.9625602199642
 30
27.17999999999959
  0
VERTEX
  5
1BE
  8
DEFAULT
 10
257.5058557123838
 20
158.9574402279792
 30
27.17999999999958
  0
VERTEX
  5
1BF
  8
DEFAULT
 10
257.455293412039
 20
158.9511107512861
 30
27.17999999999959
  0
VERTEX
  5
1C0
  8
DEFAULT
 10
257.4044960021936
 20
158.9435483826398
 30
27.17999999999959
  0
VERTEX
  5
1C1
  8
DEFAULT
 10
257.3535045586417
 20
158.9347312315324
 30
27.17999999999959
  0
VERTEX
  5
1C2
  8
DEFAULT
 10
257.3023617799361
 20
158.9246390511035
 30
27.17999999999959
  0
VERTEX
  5
1C3
  8
DEFAULT
 10
257.2511119166542
 20
158.9132533633099
 30
27.17999999999959
  0
VERTEX
  5
1C4
  8
DEFAULT
 10
257.1998006902216
 20
158.9005575814399
 30
27.17999999999959
  0
VERTEX
  5
1C5
  8
DEFAULT
 10
257.1484752012886
 20
158.8865371290273
 30
27.17999999999958
  0
VERTEX
  5
1C6
  8
DEFAULT
 10
257.0971838277471
 20
158.8711795541985
 30
27.17999999999958
  0
VERTEX
  5
1C7
  8
DEFAULT
 10
257.0459761125748
 20
158.8544746384676
 30
27.17999999999959
  0
VERTEX
  5
1C8
  8
DEFAULT
 10
256.9949026417904
 20
158.8364144989982
 30
27.17999999999959
  0
VERTEX
  5
1C9
  8
DEFAULT
 10
256.9440149129123
 20
158.8169936833532
 30
27.17999999999959
  0
VERTEX
  5
1CA
  8
DEFAULT
 10
256.893365194413
 20
158.7962092557762
 30
27.17999999999959
  0
VERTEX
  5
1CB
  8
DEFAULT
 10
256.8430063767717
 20
158.7740608740807
 30
27.17999999999959
  0
VERTEX
  5
1CC
  8
DEFAULT
 10
256.7929918158257
 20
158.7505508562664
 30
27.17999999999959
  0
VERTEX
  5
1CD
  8
DEFAULT
 10
256.7433751692251
 20
158.7256842360413
 30
27.17999999999959
  0
VERTEX
  5
1CE
  8
DEFAULT
 10
256.6942102268886
 20
158.6994688064963
 30
27.1799999999996
  0
VERTEX
  5
1CF
  8
DEFAULT
 10
256.6455507364462
 20
158.6719151512602
 30
27.17999999999959
  0
VERTEX
  5
1D0
  8
DEFAULT
 10
256.5974502247375
 20
158.6430366625581
 30
27.17999999999959
  0
VERTEX
  5
1D1
  8
DEFAULT
 10
256.5499618165011
 20
158.6128495456969
 30
27.17999999999959
  0
VERTEX
  5
1D2
  8
DEFAULT
 10
256.5031380514529
 20
158.5813728096153
 30
27.17999999999959
  0
VERTEX
  5
1D3
  8
DEFAULT
 10
256.4570307009982
 20
158.5486282432557
 30
27.17999999999959
  0
VERTEX
  5
1D4
  8
DEFAULT
 10
256.4116905858528
 20
158.5146403776424
 30
27.17999999999959
  0
VERTEX
  5
1D5
  8
DEFAULT
 10
256.3671673958701
 20
158.4794364336805
 30
27.17999999999959
  0
VERTEX
  5
1D6
  8
DEFAULT
 10
256.3235095133741
 20
158.4430462558264
 30
27.17999999999959
  0
VERTEX
  5
1D7
  8
DEFAULT
 10
256.2807638412856
 20
158.4055022319125
 30
27.17999999999959
  0
VERTEX
  5
1D8
  8
DEFAULT
 10
256.2389756373003
 20
158.3668391995456
 30
27.17999999999959
  0
VERTEX
  5
1D9
  8
DEFAULT
 10
256.198188355338
 20
158.3270943396263
 30
27.17999999999959
  0
VERTEX
  5
1DA
  8
DEFAULT
 10
256.1584434954187
 20
158.286307057664
 30
27.17999999999959
  0
VERTEX
  5
1DB
  8
DEFAULT
 10
256.1197804630517
 20
158.2445188536787
 30
27.17999999999959
  0
VERTEX
  5
1DC
  8
DEFAULT
 10
256.0822364391378
 20
158.2017731815901
 30
27.17999999999958
  0
VERTEX
  5
1DD
  8
DEFAULT
 10
256.0458462612837
 20
158.1581152990942
 30
27.17999999999958
  0
VERTEX
  5
1DE
  8
DEFAULT
 10
256.0106423173218
 20
158.1135921091114
 30
27.17999999999958
  0
VERTEX
  5
1DF
  8
DEFAULT
 10
255.9766544517085
 20
158.068251993966
 30
27.17999999999958
  0
VERTEX
  5
1E0
  8
DEFAULT
 10
255.9439098853489
 20
158.0221446435114
 30
27.17999999999958
  0
VERTEX
  5
1E1
  8
DEFAULT
 10
255.9124331492673
 20
157.9753208784632
 30
27.17999999999958
  0
VERTEX
  5
1E2
  8
DEFAULT
 10
255.8822460324061
 20
157.9278324702267
 30
27.17999999999958
  0
VERTEX
  5
1E3
  8
DEFAULT
 10
255.853367543704
 20
157.879731958518
 30
27.17999999999958
  0
VERTEX
  5
1E4
  8
DEFAULT
 10
255.8258138884679
 20
157.8310724680756
 30
27.17999999999959
  0
VERTEX
  5
1E5
  8
DEFAULT
 10
255.7995984589229
 20
157.7819075257391
 30
27.17999999999958
  0
VERTEX
  5
1E6
  8
DEFAULT
 10
255.7747318386978
 20
157.7322908791385
 30
27.17999999999958
  0
VERTEX
  5
1E7
  8
DEFAULT
 10
255.7512218208835
 20
157.6822763181925
 30
27.17999999999958
  0
VERTEX
  5
1E8
  8
DEFAULT
 10
255.7290734391879
 20
157.6319175005513
 30
27.17999999999959
  0
VERTEX
  5
1E9
  8
DEFAULT
 10
255.708289011611
 20
157.581267782052
 30
27.17999999999958
  0
VERTEX
  5
1EA
  8
DEFAULT
 10
255.688868195966
 20
157.5303800531738
 30
27.17999999999958
  0
VERTEX
  5
1EB
  8
DEFAULT
 10
255.6708080564966
 20
157.4793065823895
 30
27.17999999999958
  0
VERTEX
  5
1EC
  8
DEFAULT
 10
255.6541031407657
 20
157.4280988672171
 30
27.17999999999958
  0
VERTEX
  5
1ED
  8
DEFAULT
 10
255.6387455659369
 20
157.3768074936757
 30
27.17999999999958
  0
VERTEX
  5
1EE
  8
DEFAULT
 10
255.6247251135244
 20
157.3254820047426
 30
27.17999999999958
  0
VERTEX
  5
1EF
  8
DEFAULT
 10
255.6120293316543
 20
157.2741707783101
 30
27.17999999999958
  0
VERTEX
  5
1F0
  8
DEFAULT
 10
255.6006436438607
 20
157.2229209150282
 30
27.17999999999958
  0
VERTEX
  5
1F1
  8
DEFAULT
 10
255.5905514634319
 20
157.1717781363226
 30
27.17999999999958
  0
VERTEX
  5
1F2
  8
DEFAULT
 10
255.5817343123245
 20
157.1207866927707
 30
27.17999999999959
  0
VERTEX
  5
1F3
  8
DEFAULT
 10
255.5741719436783
 20
157.0699892829253
 30
27.17999999999959
  0
VERTEX
  5
1F4
  8
DEFAULT
 10
255.5678424669851
 20
157.0194269825804
 30
27.17999999999959
  0
VERTEX
  5
1F5
  8
DEFAULT
 10
255.562722475
 20
156.9691391843908
 30
27.17999999999958
  0
VERTEX
  5
1F6
  8
DEFAULT
 10
255.5587871715189
 20
156.9191635476726
 30
27.17999999999959
  0
VERTEX
  5
1F7
  8
DEFAULT
 10
255.5560104991958
 20
156.8695359581429
 30
27.17999999999958
  0
VERTEX
  5
1F8
  8
DEFAULT
 10
255.5543652666225
 20
156.8202904972914
 30
27.17999999999958
  0
VERTEX
  5
1F9
  8
DEFAULT
 10
255.5538232739484
 20
156.7714594210159
 30
27.17999999999959
  0
VERTEX
  5
1FA
  8
DEFAULT
 10
255.5543652666225
 20
156.7226283447403
 30
27.17999999999958
  0
VERTEX
  5
1FB
  8
DEFAULT
 10
255.5560104991959
 20
156.6733828838888
 30
27.17999999999959
  0
VERTEX
  5
1FC
  8
DEFAULT
 10
255.5587871715189
 20
156.6237552943592
 30
27.17999999999959
  0
VERTEX
  5
1FD
  8
DEFAULT
 10
255.5627224750001
 20
156.573779657641
 30
27.17999999999959
  0
VERTEX
  5
1FE
  8
DEFAULT
 10
255.5678424669851
 20
156.5234918594514
 30
27.17999999999959
  0
VERTEX
  5
1FF
  8
DEFAULT
 10
255.5741719436782
 20
156.4729295591065
 30
27.17999999999959
  0
VERTEX
  5
200
  8
DEFAULT
 10
255.5817343123245
 20
156.4221321492611
 30
27.17999999999959
  0
VERTEX
  5
201
  8
DEFAULT
 10
255.5905514634319
 20
156.3711407057092
 30
27.17999999999959
  0
VERTEX
  5
202
  8
DEFAULT
 10
255.6006436438608
 20
156.3199979270036
 30
27.17999999999959
  0
VERTEX
  5
203
  8
DEFAULT
 10
255.6120293316544
 20
156.2687480637217
 30
27.1799999999996
  0
VERTEX
  5
204
  8
DEFAULT
 10
255.6247251135244
 20
156.2174368372892
 30
27.1799999999996
  0
VERTEX
  5
205
  8
DEFAULT
 10
255.6387455659369
 20
156.1661113483561
 30
27.17999999999961
  0
VERTEX
  5
206
  8
DEFAULT
 10
255.6541031407657
 20
156.1148199748146
 30
27.1799999999996
  0
VERTEX
  5
207
  8
DEFAULT
 10
255.6708080564966
 20
156.0636122596422
 30
27.1799999999996
  0
VERTEX
  5
208
  8
DEFAULT
 10
255.688868195966
 20
156.0125387888579
 30
27.1799999999996
  0
VERTEX
  5
209
  8
DEFAULT
 10
255.708289011611
 20
155.9616510599798
 30
27.1799999999996
  0
VERTEX
  5
20A
  8
DEFAULT
 10
255.7290734391879
 20
155.9110013414805
 30
27.17999999999959
  0
VERTEX
  5
20B
  8
DEFAULT
 10
255.7512218208835
 20
155.8606425238392
 30
27.1799999999996
  0
VERTEX
  5
20C
  8
DEFAULT
 10
255.7747318386978
 20
155.8106279628933
 30
27.17999999999959
  0
VERTEX
  5
20D
  8
DEFAULT
 10
255.7995984589229
 20
155.7610113162927
 30
27.17999999999959
  0
VERTEX
  5
20E
  8
DEFAULT
 10
255.8258138884679
 20
155.7118463739561
 30
27.1799999999996
  0
VERTEX
  5
20F
  8
DEFAULT
 10
255.8533675437041
 20
155.6631868835138
 30
27.1799999999996
  0
VERTEX
  5
210
  8
DEFAULT
 10
255.8822460324061
 20
155.6150863718051
 30
27.17999999999959
  0
VERTEX
  5
211
  8
DEFAULT
 10
255.9124331492673
 20
155.5675979635685
 30
27.17999999999959
  0
VERTEX
  5
212
  8
DEFAULT
 10
255.9439098853489
 20
155.5207741985203
 30
27.17999999999959
  0
VERTEX
  5
213
  8
DEFAULT
 10
255.9766544517086
 20
155.4746668480657
 30
27.17999999999959
  0
VERTEX
  5
214
  8
DEFAULT
 10
256.0106423173218
 20
155.4293267329203
 30
27.17999999999959
  0
VERTEX
  5
215
  8
DEFAULT
 10
256.0458462612837
 20
155.3848035429376
 30
27.17999999999959
  0
VERTEX
  5
216
  8
DEFAULT
 10
256.0822364391378
 20
155.3411456604417
 30
27.17999999999959
  0
VERTEX
  5
217
  8
DEFAULT
 10
256.1197804630517
 20
155.2983999883531
 30
27.17999999999959
  0
VERTEX
  5
218
  8
DEFAULT
 10
256.1584434954186
 20
155.2566117843678
 30
27.17999999999959
  0
VERTEX
  5
219
  8
DEFAULT
 10
256.198188355338
 20
155.2158245024055
 30
27.1799999999996
  0
VERTEX
  5
21A
  8
DEFAULT
 10
256.2389756373002
 20
155.1760796424862
 30
27.1799999999996
  0
VERTEX
  5
21B
  8
DEFAULT
 10
256.2807638412856
 20
155.1374166101193
 30
27.1799999999996
  0
VERTEX
  5
21C
  8
DEFAULT
 10
256.3235095133742
 20
155.0998725862054
 30
27.1799999999996
  0
VERTEX
  5
21D
  8
DEFAULT
 10
256.3671673958701
 20
155.0634824083513
 30
27.1799999999996
  0
VERTEX
  5
21E
  8
DEFAULT
 10
256.4116905858528
 20
155.0282784643895
 30
27.17999999999959
  0
VERTEX
  5
21F
  8
DEFAULT
 10
256.4570307009982
 20
154.9942905987761
 30
27.17999999999959
  0
VERTEX
  5
220
  8
DEFAULT
 10
256.5031380514529
 20
154.9615460324165
 30
27.1799999999996
  0
VERTEX
  5
221
  8
DEFAULT
 10
256.5499618165011
 20
154.9300692963349
 30
27.1799999999996
  0
VERTEX
  5
222
  8
DEFAULT
 10
256.5974502247376
 20
154.8998821794737
 30
27.1799999999996
  0
VERTEX
  5
223
  8
DEFAULT
 10
256.6455507364462
 20
154.8710036907716
 30
27.17999999999959
  0
VERTEX
  5
224
  8
DEFAULT
 10
256.6942102268886
 20
154.8434500355355
 30
27.1799999999996
  0
VERTEX
  5
225
  8
DEFAULT
 10
256.7433751692251
 20
154.8172346059905
 30
27.1799999999996
  0
VERTEX
  5
226
  8
DEFAULT
 10
256.7929918158257
 20
154.7923679857654
 30
27.1799999999996
  0
VERTEX
  5
227
  8
DEFAULT
 10
256.8430063767717
 20
154.7688579679511
 30
27.1799999999996
  0
VERTEX
  5
228
  8
DEFAULT
 10
256.893365194413
 20
154.7467095862555
 30
27.1799999999996
  0
VERTEX
  5
229
  8
DEFAULT
 10
256.9440149129123
 20
154.7259251586786
 30
27.1799999999996
  0
VERTEX
  5
22A
  8
DEFAULT
 10
256.9949026417904
 20
154.7065043430336
 30
27.17999999999959
  0
VERTEX
  5
22B
  8
DEFAULT
 10
257.0459761125748
 20
154.6884442035642
 30
27.17999999999959
  0
VERTEX
  5
22C
  8
DEFAULT
 10
257.0971838277471
 20
154.6717392878333
 30
27.17999999999959
  0
VERTEX
  5
22D
  8
DEFAULT
 10
257.1484752012886
 20
154.6563817130045
 30
27.17999999999959
  0
VERTEX
  5
22E
  8
DEFAULT
 10
257.1998006902217
 20
154.642361260592
 30
27.17999999999959
  0
VERTEX
  5
22F
  8
DEFAULT
 10
257.2511119166542
 20
154.6296654787219
 30
27.17999999999959
  0
VERTEX
  5
230
  8
DEFAULT
 10
257.3023617799361
 20
154.6182797909283
 30
27.17999999999959
  0
VERTEX
  5
231
  8
DEFAULT
 10
257.3535045586416
 20
154.6081876104994
 30
27.17999999999959
  0
VERTEX
  5
232
  8
DEFAULT
 10
257.4044960021935
 20
154.599370459392
 30
27.17999999999959
  0
VERTEX
  5
233
  8
DEFAULT
 10
257.455293412039
 20
154.5918080907458
 30
27.17999999999959
  0
VERTEX
  5
234
  8
DEFAULT
 10
257.5058557123838
 20
154.5854786140527
 30
27.17999999999959
  0
VERTEX
  5
235
  8
DEFAULT
 10
257.5561435105733
 20
154.5803586220676
 30
27.17999999999958
  0
VERTEX
  5
236
  8
DEFAULT
 10
257.6061191472917
 20
154.5764233185865
 30
27.17999999999959
  0
VERTEX
  5
237
  8
DEFAULT
 10
257.6557467368213
 20
154.5736466462634
 30
27.17999999999959
  0
VERTEX
  5
238
  8
DEFAULT
 10
257.7049921976728
 20
154.5720014136901
 30
27.17999999999959
  0
VERTEX
  5
239
  8
DEFAULT
 10
257.7538232739483
 20
154.5714594210159
 30
27.17999999999959
  0
SEQEND
  5
138
  8
DEFAULT
  0
POLYLINE
  5
23A
  8
DEFAULT
 66
     1
 10
0.0
 20
0.0
 30
27.17999999999993
210
2.060970553858787E-15
220
1.0
230
2.103026834523362E-15
  0
VERTEX
  5
23C
  8
DEFAULT
 10
257.75516491912
 20
221.2350017038891
 30
27.17999999999993
  0
VERTEX
  5
23D
  8
DEFAULT
 10
261.8039959953954
 20
221.2355436965632
 30
27.17999999999992
  0
VERTEX
  5
23E
  8
DEFAULT
 10
261.8532414562469
 20
221.2371889291366
 30
27.17999999999992
  0
VERTEX
  5
23F
  8
DEFAULT
 10
261.9028690457766
 20
221.2399656014596
 30
27.17999999999993
  0
VERTEX
  5
240
  8
DEFAULT
 10
261.9528446824949
 20
221.2439009049407
 30
27.17999999999992
  0
VERTEX
  5
241
  8
DEFAULT
 10
262.0031324806844
 20
221.2490208969258
 30
27.17999999999993
  0
VERTEX
  5
242
  8
DEFAULT
 10
262.0536947810293
 20
221.2553503736189
 30
27.17999999999993
  0
VERTEX
  5
243
  8
DEFAULT
 10
262.1044921908749
 20
221.2629127422652
 30
27.17999999999993
  0
VERTEX
  5
244
  8
DEFAULT
 10
262.1554836344267
 20
221.2717298933726
 30
27.17999999999993
  0
VERTEX
  5
245
  8
DEFAULT
 10
262.2066264131323
 20
221.2818220738015
 30
27.17999999999993
  0
VERTEX
  5
246
  8
DEFAULT
 10
262.2578762764142
 20
221.2932077615951
 30
27.17999999999993
  0
VERTEX
  5
247
  8
DEFAULT
 10
262.3091875028467
 20
221.3059035434651
 30
27.17999999999993
  0
VERTEX
  5
248
  8
DEFAULT
 10
262.3605129917798
 20
221.3199239958776
 30
27.17999999999993
  0
VERTEX
  5
249
  8
DEFAULT
 10
262.4118043653212
 20
221.3352815707064
 30
27.17999999999992
  0
VERTEX
  5
24A
  8
DEFAULT
 10
262.4630120804936
 20
221.3519864864374
 30
27.17999999999993
  0
VERTEX
  5
24B
  8
DEFAULT
 10
262.514085551278
 20
221.3700466259068
 30
27.17999999999993
  0
VERTEX
  5
24C
  8
DEFAULT
 10
262.5649732801561
 20
221.3894674415518
 30
27.17999999999993
  0
VERTEX
  5
24D
  8
DEFAULT
 10
262.6156229986553
 20
221.4102518691286
 30
27.17999999999993
  0
VERTEX
  5
24E
  8
DEFAULT
 10
262.6659818162967
 20
221.4324002508242
 30
27.17999999999993
  0
VERTEX
  5
24F
  8
DEFAULT
 10
262.7159963772426
 20
221.4559102686385
 30
27.17999999999993
  0
VERTEX
  5
250
  8
DEFAULT
 10
262.7656130238432
 20
221.4807768888636
 30
27.17999999999993
  0
VERTEX
  5
251
  8
DEFAULT
 10
262.8147779661797
 20
221.5069923184086
 30
27.17999999999993
  0
VERTEX
  5
252
  8
DEFAULT
 10
262.8634374566221
 20
221.5345459736447
 30
27.17999999999993
  0
VERTEX
  5
253
  8
DEFAULT
 10
262.9115379683308
 20
221.5634244623468
 30
27.17999999999993
  0
VERTEX
  5
254
  8
DEFAULT
 10
262.9590263765673
 20
221.5936115792081
 30
27.17999999999993
  0
VERTEX
  5
255
  8
DEFAULT
 10
263.0058501416155
 20
221.6250883152897
 30
27.17999999999993
  0
VERTEX
  5
256
  8
DEFAULT
 10
263.0519574920702
 20
221.6578328816493
 30
27.17999999999993
  0
VERTEX
  5
257
  8
DEFAULT
 10
263.0972976072155
 20
221.6918207472625
 30
27.17999999999992
  0
VERTEX
  5
258
  8
DEFAULT
 10
263.1418207971983
 20
221.7270246912244
 30
27.17999999999992
  0
VERTEX
  5
259
  8
DEFAULT
 10
263.1854786796942
 20
221.7634148690785
 30
27.17999999999992
  0
VERTEX
  5
25A
  8
DEFAULT
 10
263.2282243517828
 20
221.8009588929924
 30
27.17999999999993
  0
VERTEX
  5
25B
  8
DEFAULT
 10
263.2700125557681
 20
221.8396219253594
 30
27.17999999999993
  0
VERTEX
  5
25C
  8
DEFAULT
 10
263.3107998377304
 20
221.8793667852787
 30
27.17999999999992
  0
VERTEX
  5
25D
  8
DEFAULT
 10
263.3505446976496
 20
221.920154067241
 30
27.17999999999993
  0
VERTEX
  5
25E
  8
DEFAULT
 10
263.3892077300167
 20
221.9619422712263
 30
27.17999999999993
  0
VERTEX
  5
25F
  8
DEFAULT
 10
263.4267517539305
 20
222.0046879433148
 30
27.17999999999992
  0
VERTEX
  5
260
  8
DEFAULT
 10
263.4631419317847
 20
222.0483458258108
 30
27.17999999999992
  0
VERTEX
  5
261
  8
DEFAULT
 10
263.4983458757464
 20
222.0928690157934
 30
27.17999999999991
  0
VERTEX
  5
262
  8
DEFAULT
 10
263.5323337413598
 20
222.1382091309389
 30
27.17999999999992
  0
VERTEX
  5
263
  8
DEFAULT
 10
263.5650783077193
 20
222.1843164813935
 30
27.17999999999992
  0
VERTEX
  5
264
  8
DEFAULT
 10
263.596555043801
 20
222.2311402464418
 30
27.17999999999993
  0
VERTEX
  5
265
  8
DEFAULT
 10
263.6267421606622
 20
222.2786286546782
 30
27.17999999999993
  0
VERTEX
  5
266
  8
DEFAULT
 10
263.6556206493643
 20
222.3267291663869
 30
27.17999999999993
  0
VERTEX
  5
267
  8
DEFAULT
 10
263.6831743046004
 20
222.3753886568293
 30
27.17999999999993
  0
VERTEX
  5
268
  8
DEFAULT
 10
263.7093897341454
 20
222.4245535991658
 30
27.17999999999993
  0
VERTEX
  5
269
  8
DEFAULT
 10
263.7342563543705
 20
222.4741702457663
 30
27.17999999999992
  0
VERTEX
  5
26A
  8
DEFAULT
 10
263.7577663721848
 20
222.5241848067124
 30
27.17999999999993
  0
VERTEX
  5
26B
  8
DEFAULT
 10
263.7799147538803
 20
222.5745436243536
 30
27.17999999999993
  0
VERTEX
  5
26C
  8
DEFAULT
 10
263.8006991814573
 20
222.6251933428529
 30
27.17999999999992
  0
VERTEX
  5
26D
  8
DEFAULT
 10
263.8201199971022
 20
222.6760810717311
 30
27.17999999999992
  0
VERTEX
  5
26E
  8
DEFAULT
 10
263.8381801365716
 20
222.7271545425154
 30
27.17999999999992
  0
VERTEX
  5
26F
  8
DEFAULT
 10
263.8548850523026
 20
222.7783622576877
 30
27.17999999999992
  0
VERTEX
  5
270
  8
DEFAULT
 10
263.8702426271314
 20
222.8296536312293
 30
27.17999999999992
  0
VERTEX
  5
271
  8
DEFAULT
 10
263.8842630795439
 20
222.8809791201623
 30
27.17999999999992
  0
VERTEX
  5
272
  8
DEFAULT
 10
263.896958861414
 20
222.9322903465949
 30
27.17999999999992
  0
VERTEX
  5
273
  8
DEFAULT
 10
263.9083445492076
 20
222.9835402098768
 30
27.17999999999993
  0
VERTEX
  5
274
  8
DEFAULT
 10
263.9184367296364
 20
223.0346829885824
 30
27.17999999999993
  0
VERTEX
  5
275
  8
DEFAULT
 10
263.9272538807438
 20
223.0856744321343
 30
27.17999999999993
  0
VERTEX
  5
276
  8
DEFAULT
 10
263.9348162493901
 20
223.1364718419798
 30
27.17999999999993
  0
VERTEX
  5
277
  8
DEFAULT
 10
263.9411457260832
 20
223.1870341423246
 30
27.17999999999993
  0
VERTEX
  5
278
  8
DEFAULT
 10
263.9462657180683
 20
223.2373219405141
 30
27.17999999999992
  0
VERTEX
  5
279
  8
DEFAULT
 10
263.9502010215494
 20
223.2872975772324
 30
27.17999999999993
  0
VERTEX
  5
27A
  8
DEFAULT
 10
263.9529776938724
 20
223.336925166762
 30
27.17999999999992
  0
VERTEX
  5
27B
  8
DEFAULT
 10
263.9546229264457
 20
223.3861706276135
 30
27.17999999999992
  0
VERTEX
  5
27C
  8
DEFAULT
 10
263.95516491912
 20
223.4350017038891
 30
27.17999999999993
  0
VERTEX
  5
27D
  8
DEFAULT
 10
263.9546229264457
 20
223.4838327801646
 30
27.17999999999992
  0
VERTEX
  5
27E
  8
DEFAULT
 10
263.9529776938724
 20
223.5330782410162
 30
27.17999999999993
  0
VERTEX
  5
27F
  8
DEFAULT
 10
263.9502010215494
 20
223.5827058305458
 30
27.17999999999993
  0
VERTEX
  5
280
  8
DEFAULT
 10
263.9462657180683
 20
223.6326814672641
 30
27.17999999999993
  0
VERTEX
  5
281
  8
DEFAULT
 10
263.9411457260832
 20
223.6829692654536
 30
27.17999999999993
  0
VERTEX
  5
282
  8
DEFAULT
 10
263.9348162493901
 20
223.7335315657984
 30
27.17999999999993
  0
VERTEX
  5
283
  8
DEFAULT
 10
263.9272538807439
 20
223.784328975644
 30
27.17999999999994
  0
VERTEX
  5
284
  8
DEFAULT
 10
263.9184367296365
 20
223.8353204191959
 30
27.17999999999994
  0
VERTEX
  5
285
  8
DEFAULT
 10
263.9083445492075
 20
223.8864631979013
 30
27.17999999999994
  0
VERTEX
  5
286
  8
DEFAULT
 10
263.896958861414
 20
223.9377130611832
 30
27.17999999999994
  0
VERTEX
  5
287
  8
DEFAULT
 10
263.8842630795439
 20
223.9890242876158
 30
27.17999999999994
  0
VERTEX
  5
288
  8
DEFAULT
 10
263.8702426271315
 20
224.0403497765489
 30
27.17999999999993
  0
VERTEX
  5
289
  8
DEFAULT
 10
263.8548850523026
 20
224.0916411500904
 30
27.17999999999993
  0
VERTEX
  5
28A
  8
DEFAULT
 10
263.8381801365717
 20
224.1428488652627
 30
27.17999999999994
  0
VERTEX
  5
28B
  8
DEFAULT
 10
263.8201199971023
 20
224.1939223360471
 30
27.17999999999994
  0
VERTEX
  5
28C
  8
DEFAULT
 10
263.8006991814574
 20
224.2448100649253
 30
27.17999999999994
  0
VERTEX
  5
28D
  8
DEFAULT
 10
263.7799147538803
 20
224.2954597834245
 30
27.17999999999994
  0
VERTEX
  5
28E
  8
DEFAULT
 10
263.7577663721848
 20
224.3458186010658
 30
27.17999999999994
  0
VERTEX
  5
28F
  8
DEFAULT
 10
263.7342563543705
 20
224.3958331620118
 30
27.17999999999994
  0
VERTEX
  5
290
  8
DEFAULT
 10
263.7093897341455
 20
224.4454498086124
 30
27.17999999999994
  0
VERTEX
  5
291
  8
DEFAULT
 10
263.6831743046005
 20
224.494614750949
 30
27.17999999999994
  0
VERTEX
  5
292
  8
DEFAULT
 10
263.6556206493644
 20
224.5432742413913
 30
27.17999999999994
  0
VERTEX
  5
293
  8
DEFAULT
 10
263.6267421606622
 20
224.5913747531
 30
27.17999999999994
  0
VERTEX
  5
294
  8
DEFAULT
 10
263.5965550438011
 20
224.6388631613365
 30
27.17999999999994
  0
VERTEX
  5
295
  8
DEFAULT
 10
263.5650783077194
 20
224.6856869263846
 30
27.17999999999994
  0
VERTEX
  5
296
  8
DEFAULT
 10
263.5323337413598
 20
224.7317942768393
 30
27.17999999999993
  0
VERTEX
  5
297
  8
DEFAULT
 10
263.4983458757465
 20
224.7771343919847
 30
27.17999999999993
  0
VERTEX
  5
298
  8
DEFAULT
 10
263.4631419317847
 20
224.8216575819674
 30
27.17999999999993
  0
VERTEX
  5
299
  8
DEFAULT
 10
263.4267517539305
 20
224.8653154644633
 30
27.17999999999993
  0
VERTEX
  5
29A
  8
DEFAULT
 10
263.3892077300167
 20
224.9080611365519
 30
27.17999999999993
  0
VERTEX
  5
29B
  8
DEFAULT
 10
263.3505446976497
 20
224.9498493405372
 30
27.17999999999993
  0
VERTEX
  5
29C
  8
DEFAULT
 10
263.3107998377304
 20
224.9906366224995
 30
27.17999999999993
  0
VERTEX
  5
29D
  8
DEFAULT
 10
263.2700125557682
 20
225.0303814824188
 30
27.17999999999993
  0
VERTEX
  5
29E
  8
DEFAULT
 10
263.2282243517829
 20
225.0690445147858
 30
27.17999999999993
  0
VERTEX
  5
29F
  8
DEFAULT
 10
263.1854786796943
 20
225.1065885386997
 30
27.17999999999993
  0
VERTEX
  5
2A0
  8
DEFAULT
 10
263.1418207971984
 20
225.1429787165538
 30
27.17999999999993
  0
VERTEX
  5
2A1
  8
DEFAULT
 10
263.0972976072156
 20
225.1781826605156
 30
27.17999999999992
  0
VERTEX
  5
2A2
  8
DEFAULT
 10
263.0519574920702
 20
225.212170526129
 30
27.17999999999993
  0
VERTEX
  5
2A3
  8
DEFAULT
 10
263.0058501416154
 20
225.2449150924885
 30
27.17999999999993
  0
VERTEX
  5
2A4
  8
DEFAULT
 10
262.9590263765674
 20
225.2763918285702
 30
27.17999999999993
  0
VERTEX
  5
2A5
  8
DEFAULT
 10
262.9115379683308
 20
225.3065789454314
 30
27.17999999999993
  0
VERTEX
  5
2A6
  8
DEFAULT
 10
262.8634374566221
 20
225.3354574341335
 30
27.17999999999993
  0
VERTEX
  5
2A7
  8
DEFAULT
 10
262.8147779661797
 20
225.3630110893696
 30
27.17999999999994
  0
VERTEX
  5
2A8
  8
DEFAULT
 10
262.7656130238432
 20
225.3892265189146
 30
27.17999999999993
  0
VERTEX
  5
2A9
  8
DEFAULT
 10
262.7159963772426
 20
225.4140931391397
 30
27.17999999999993
  0
VERTEX
  5
2AA
  8
DEFAULT
 10
262.6659818162967
 20
225.437603156954
 30
27.17999999999993
  0
VERTEX
  5
2AB
  8
DEFAULT
 10
262.6156229986553
 20
225.4597515386495
 30
27.17999999999993
  0
VERTEX
  5
2AC
  8
DEFAULT
 10
262.5649732801561
 20
225.4805359662265
 30
27.17999999999993
  0
VERTEX
  5
2AD
  8
DEFAULT
 10
262.5140855512779
 20
225.4999567818714
 30
27.17999999999993
  0
VERTEX
  5
2AE
  8
DEFAULT
 10
262.4630120804936
 20
225.5180169213408
 30
27.17999999999993
  0
VERTEX
  5
2AF
  8
DEFAULT
 10
262.4118043653212
 20
225.5347218370718
 30
27.17999999999993
  0
VERTEX
  5
2B0
  8
DEFAULT
 10
262.3605129917798
 20
225.5500794119006
 30
27.17999999999993
  0
VERTEX
  5
2B1
  8
DEFAULT
 10
262.3091875028467
 20
225.5640998643131
 30
27.17999999999993
  0
VERTEX
  5
2B2
  8
DEFAULT
 10
262.2578762764142
 20
225.5767956461831
 30
27.17999999999993
  0
VERTEX
  5
2B3
  8
DEFAULT
 10
262.2066264131323
 20
225.5881813339767
 30
27.17999999999993
  0
VERTEX
  5
2B4
  8
DEFAULT
 10
262.1554836344267
 20
225.5982735144056
 30
27.17999999999993
  0
VERTEX
  5
2B5
  8
DEFAULT
 10
262.1044921908749
 20
225.607090665513
 30
27.17999999999994
  0
VERTEX
  5
2B6
  8
DEFAULT
 10
262.0536947810294
 20
225.6146530341593
 30
27.17999999999994
  0
VERTEX
  5
2B7
  8
DEFAULT
 10
262.0031324806845
 20
225.6209825108524
 30
27.17999999999994
  0
VERTEX
  5
2B8
  8
DEFAULT
 10
261.9528446824949
 20
225.6261025028375
 30
27.17999999999993
  0
VERTEX
  5
2B9
  8
DEFAULT
 10
261.9028690457768
 20
225.6300378063186
 30
27.17999999999994
  0
VERTEX
  5
2BA
  8
DEFAULT
 10
261.853241456247
 20
225.6328144786415
 30
27.17999999999993
  0
VERTEX
  5
2BB
  8
DEFAULT
 10
261.8039959953955
 20
225.6344597112149
 30
27.17999999999993
  0
VERTEX
  5
2BC
  8
DEFAULT
 10
257.75516491912
 20
225.6350017038891
 30
27.17999999999994
  0
VERTEX
  5
2BD
  8
DEFAULT
 10
257.7063338428444
 20
225.6344597112149
 30
27.17999999999994
  0
VERTEX
  5
2BE
  8
DEFAULT
 10
257.6570883819929
 20
225.6328144786415
 30
27.17999999999994
  0
VERTEX
  5
2BF
  8
DEFAULT
 10
257.6074607924633
 20
225.6300378063186
 30
27.17999999999994
  0
VERTEX
  5
2C0
  8
DEFAULT
 10
257.557485155745
 20
225.6261025028375
 30
27.17999999999994
  0
VERTEX
  5
2C1
  8
DEFAULT
 10
257.5071973575554
 20
225.6209825108524
 30
27.17999999999994
  0
VERTEX
  5
2C2
  8
DEFAULT
 10
257.4566350572106
 20
225.6146530341593
 30
27.17999999999994
  0
VERTEX
  5
2C3
  8
DEFAULT
 10
257.4058376473652
 20
225.6070906655131
 30
27.17999999999994
  0
VERTEX
  5
2C4
  8
DEFAULT
 10
257.3548462038133
 20
225.5982735144056
 30
27.17999999999994
  0
VERTEX
  5
2C5
  8
DEFAULT
 10
257.3037034251076
 20
225.5881813339768
 30
27.17999999999994
  0
VERTEX
  5
2C6
  8
DEFAULT
 10
257.2524535618258
 20
225.5767956461832
 30
27.17999999999994
  0
VERTEX
  5
2C7
  8
DEFAULT
 10
257.2011423353932
 20
225.5640998643132
 30
27.17999999999994
  0
VERTEX
  5
2C8
  8
DEFAULT
 10
257.1498168464602
 20
225.5500794119006
 30
27.17999999999994
  0
VERTEX
  5
2C9
  8
DEFAULT
 10
257.0985254729187
 20
225.5347218370718
 30
27.17999999999994
  0
VERTEX
  5
2CA
  8
DEFAULT
 10
257.0473177577463
 20
225.5180169213408
 30
27.17999999999993
  0
VERTEX
  5
2CB
  8
DEFAULT
 10
256.9962442869621
 20
225.4999567818715
 30
27.17999999999994
  0
VERTEX
  5
2CC
  8
DEFAULT
 10
256.9453565580839
 20
225.4805359662265
 30
27.17999999999994
  0
VERTEX
  5
2CD
  8
DEFAULT
 10
256.8947068395846
 20
225.4597515386495
 30
27.17999999999993
  0
VERTEX
  5
2CE
  8
DEFAULT
 10
256.8443480219433
 20
225.437603156954
 30
27.17999999999993
  0
VERTEX
  5
2CF
  8
DEFAULT
 10
256.7943334609973
 20
225.4140931391396
 30
27.17999999999993
  0
VERTEX
  5
2D0
  8
DEFAULT
 10
256.7447168143968
 20
225.3892265189146
 30
27.17999999999993
  0
VERTEX
  5
2D1
  8
DEFAULT
 10
256.6955518720602
 20
225.3630110893696
 30
27.17999999999993
  0
VERTEX
  5
2D2
  8
DEFAULT
 10
256.6468923816179
 20
225.3354574341335
 30
27.17999999999993
  0
VERTEX
  5
2D3
  8
DEFAULT
 10
256.5987918699092
 20
225.3065789454314
 30
27.17999999999993
  0
VERTEX
  5
2D4
  8
DEFAULT
 10
256.5513034616727
 20
225.2763918285702
 30
27.17999999999994
  0
VERTEX
  5
2D5
  8
DEFAULT
 10
256.5044796966245
 20
225.2449150924885
 30
27.17999999999994
  0
VERTEX
  5
2D6
  8
DEFAULT
 10
256.4583723461699
 20
225.2121705261289
 30
27.17999999999994
  0
VERTEX
  5
2D7
  8
DEFAULT
 10
256.4130322310244
 20
225.1781826605156
 30
27.17999999999993
  0
VERTEX
  5
2D8
  8
DEFAULT
 10
256.3685090410417
 20
225.1429787165538
 30
27.17999999999994
  0
VERTEX
  5
2D9
  8
DEFAULT
 10
256.3248511585457
 20
225.1065885386997
 30
27.17999999999993
  0
VERTEX
  5
2DA
  8
DEFAULT
 10
256.2821054864572
 20
225.0690445147858
 30
27.17999999999993
  0
VERTEX
  5
2DB
  8
DEFAULT
 10
256.2403172824718
 20
225.0303814824188
 30
27.17999999999993
  0
VERTEX
  5
2DC
  8
DEFAULT
 10
256.1995300005096
 20
224.9906366224995
 30
27.17999999999993
  0
VERTEX
  5
2DD
  8
DEFAULT
 10
256.1597851405903
 20
224.9498493405372
 30
27.17999999999993
  0
VERTEX
  5
2DE
  8
DEFAULT
 10
256.1211221082233
 20
224.9080611365519
 30
27.17999999999993
  0
VERTEX
  5
2DF
  8
DEFAULT
 10
256.0835780843095
 20
224.8653154644633
 30
27.17999999999993
  0
VERTEX
  5
2E0
  8
DEFAULT
 10
256.0471879064553
 20
224.8216575819674
 30
27.17999999999994
  0
VERTEX
  5
2E1
  8
DEFAULT
 10
256.0119839624934
 20
224.7771343919847
 30
27.17999999999993
  0
VERTEX
  5
2E2
  8
DEFAULT
 10
255.9779960968802
 20
224.7317942768393
 30
27.17999999999994
  0
VERTEX
  5
2E3
  8
DEFAULT
 10
255.9452515305206
 20
224.6856869263846
 30
27.17999999999994
  0
VERTEX
  5
2E4
  8
DEFAULT
 10
255.913774794439
 20
224.6388631613364
 30
27.17999999999994
  0
VERTEX
  5
2E5
  8
DEFAULT
 10
255.8835876775777
 20
224.5913747530999
 30
27.17999999999993
  0
VERTEX
  5
2E6
  8
DEFAULT
 10
255.8547091888756
 20
224.5432742413913
 30
27.17999999999994
  0
VERTEX
  5
2E7
  8
DEFAULT
 10
255.8271555336395
 20
224.4946147509489
 30
27.17999999999994
  0
VERTEX
  5
2E8
  8
DEFAULT
 10
255.8009401040945
 20
224.4454498086123
 30
27.17999999999993
  0
VERTEX
  5
2E9
  8
DEFAULT
 10
255.7760734838694
 20
224.3958331620117
 30
27.17999999999993
  0
VERTEX
  5
2EA
  8
DEFAULT
 10
255.7525634660551
 20
224.3458186010658
 30
27.17999999999994
  0
VERTEX
  5
2EB
  8
DEFAULT
 10
255.7304150843596
 20
224.2954597834245
 30
27.17999999999994
  0
VERTEX
  5
2EC
  8
DEFAULT
 10
255.7096306567827
 20
224.2448100649252
 30
27.17999999999994
  0
VERTEX
  5
2ED
  8
DEFAULT
 10
255.6902098411376
 20
224.1939223360471
 30
27.17999999999994
  0
VERTEX
  5
2EE
  8
DEFAULT
 10
255.6721497016682
 20
224.1428488652627
 30
27.17999999999994
  0
VERTEX
  5
2EF
  8
DEFAULT
 10
255.6554447859373
 20
224.0916411500904
 30
27.17999999999994
  0
VERTEX
  5
2F0
  8
DEFAULT
 10
255.6400872111085
 20
224.0403497765489
 30
27.17999999999994
  0
VERTEX
  5
2F1
  8
DEFAULT
 10
255.626066758696
 20
223.9890242876158
 30
27.17999999999994
  0
VERTEX
  5
2F2
  8
DEFAULT
 10
255.613370976826
 20
223.9377130611833
 30
27.17999999999994
  0
VERTEX
  5
2F3
  8
DEFAULT
 10
255.6019852890324
 20
223.8864631979014
 30
27.17999999999994
  0
VERTEX
  5
2F4
  8
DEFAULT
 10
255.5918931086035
 20
223.8353204191958
 30
27.17999999999994
  0
VERTEX
  5
2F5
  8
DEFAULT
 10
255.5830759574961
 20
223.784328975644
 30
27.17999999999994
  0
VERTEX
  5
2F6
  8
DEFAULT
 10
255.5755135888498
 20
223.7335315657985
 30
27.17999999999994
  0
VERTEX
  5
2F7
  8
DEFAULT
 10
255.5691841121567
 20
223.6829692654536
 30
27.17999999999994
  0
VERTEX
  5
2F8
  8
DEFAULT
 10
255.5640641201716
 20
223.632681467264
 30
27.17999999999994
  0
VERTEX
  5
2F9
  8
DEFAULT
 10
255.5601288166906
 20
223.5827058305458
 30
27.17999999999994
  0
VERTEX
  5
2FA
  8
DEFAULT
 10
255.5573521443675
 20
223.5330782410161
 30
27.17999999999994
  0
VERTEX
  5
2FB
  8
DEFAULT
 10
255.5557069117941
 20
223.4838327801646
 30
27.17999999999994
  0
VERTEX
  5
2FC
  8
DEFAULT
 10
255.55516491912
 20
223.4350017038891
 30
27.17999999999994
  0
VERTEX
  5
2FD
  8
DEFAULT
 10
255.5557069117942
 20
223.3861706276136
 30
27.17999999999995
  0
VERTEX
  5
2FE
  8
DEFAULT
 10
255.5573521443675
 20
223.3369251667621
 30
27.17999999999995
  0
VERTEX
  5
2FF
  8
DEFAULT
 10
255.5601288166906
 20
223.2872975772324
 30
27.17999999999995
  0
VERTEX
  5
300
  8
DEFAULT
 10
255.5640641201717
 20
223.2373219405142
 30
27.17999999999995
  0
VERTEX
  5
301
  8
DEFAULT
 10
255.5691841121567
 20
223.1870341423246
 30
27.17999999999995
  0
VERTEX
  5
302
  8
DEFAULT
 10
255.5755135888499
 20
223.1364718419798
 30
27.17999999999995
  0
VERTEX
  5
303
  8
DEFAULT
 10
255.5830759574962
 20
223.0856744321343
 30
27.17999999999995
  0
VERTEX
  5
304
  8
DEFAULT
 10
255.5918931086036
 20
223.0346829885824
 30
27.17999999999996
  0
VERTEX
  5
305
  8
DEFAULT
 10
255.6019852890324
 20
222.9835402098768
 30
27.17999999999995
  0
VERTEX
  5
306
  8
DEFAULT
 10
255.6133709768259
 20
222.9322903465949
 30
27.17999999999995
  0
VERTEX
  5
307
  8
DEFAULT
 10
255.626066758696
 20
222.8809791201623
 30
27.17999999999995
  0
VERTEX
  5
308
  8
DEFAULT
 10
255.6400872111085
 20
222.8296536312293
 30
27.17999999999995
  0
VERTEX
  5
309
  8
DEFAULT
 10
255.6554447859373
 20
222.7783622576878
 30
27.17999999999995
  0
VERTEX
  5
30A
  8
DEFAULT
 10
255.6721497016683
 20
222.7271545425155
 30
27.17999999999995
  0
VERTEX
  5
30B
  8
DEFAULT
 10
255.6902098411377
 20
222.6760810717311
 30
27.17999999999995
  0
VERTEX
  5
30C
  8
DEFAULT
 10
255.7096306567827
 20
222.625193342853
 30
27.17999999999995
  0
VERTEX
  5
30D
  8
DEFAULT
 10
255.7304150843596
 20
222.5745436243537
 30
27.17999999999995
  0
VERTEX
  5
30E
  8
DEFAULT
 10
255.7525634660551
 20
222.5241848067124
 30
27.17999999999995
  0
VERTEX
  5
30F
  8
DEFAULT
 10
255.7760734838695
 20
222.4741702457664
 30
27.17999999999995
  0
VERTEX
  5
310
  8
DEFAULT
 10
255.8009401040945
 20
222.4245535991659
 30
27.17999999999995
  0
VERTEX
  5
311
  8
DEFAULT
 10
255.8271555336395
 20
222.3753886568293
 30
27.17999999999996
  0
VERTEX
  5
312
  8
DEFAULT
 10
255.8547091888756
 20
222.326729166387
 30
27.17999999999995
  0
VERTEX
  5
313
  8
DEFAULT
 10
255.8835876775777
 20
222.2786286546782
 30
27.17999999999995
  0
VERTEX
  5
314
  8
DEFAULT
 10
255.913774794439
 20
222.2311402464418
 30
27.17999999999995
  0
VERTEX
  5
315
  8
DEFAULT
 10
255.9452515305206
 20
222.1843164813936
 30
27.17999999999995
  0
VERTEX
  5
316
  8
DEFAULT
 10
255.9779960968802
 20
222.1382091309389
 30
27.17999999999995
  0
VERTEX
  5
317
  8
DEFAULT
 10
256.0119839624935
 20
222.0928690157935
 30
27.17999999999994
  0
VERTEX
  5
318
  8
DEFAULT
 10
256.0471879064553
 20
222.0483458258108
 30
27.17999999999994
  0
VERTEX
  5
319
  8
DEFAULT
 10
256.0835780843094
 20
222.0046879433148
 30
27.17999999999994
  0
VERTEX
  5
31A
  8
DEFAULT
 10
256.1211221082233
 20
221.9619422712263
 30
27.17999999999994
  0
VERTEX
  5
31B
  8
DEFAULT
 10
256.1597851405903
 20
221.920154067241
 30
27.17999999999994
  0
VERTEX
  5
31C
  8
DEFAULT
 10
256.1995300005096
 20
221.8793667852787
 30
27.17999999999994
  0
VERTEX
  5
31D
  8
DEFAULT
 10
256.2403172824718
 20
221.8396219253594
 30
27.17999999999994
  0
VERTEX
  5
31E
  8
DEFAULT
 10
256.2821054864571
 20
221.8009588929925
 30
27.17999999999994
  0
VERTEX
  5
31F
  8
DEFAULT
 10
256.3248511585457
 20
221.7634148690785
 30
27.17999999999994
  0
VERTEX
  5
320
  8
DEFAULT
 10
256.3685090410417
 20
221.7270246912245
 30
27.17999999999994
  0
VERTEX
  5
321
  8
DEFAULT
 10
256.4130322310244
 20
221.6918207472626
 30
27.17999999999993
  0
VERTEX
  5
322
  8
DEFAULT
 10
256.4583723461698
 20
221.6578328816493
 30
27.17999999999993
  0
VERTEX
  5
323
  8
DEFAULT
 10
256.5044796966245
 20
221.6250883152897
 30
27.17999999999993
  0
VERTEX
  5
324
  8
DEFAULT
 10
256.5513034616727
 20
221.5936115792081
 30
27.17999999999994
  0
VERTEX
  5
325
  8
DEFAULT
 10
256.5987918699091
 20
221.5634244623468
 30
27.17999999999994
  0
VERTEX
  5
326
  8
DEFAULT
 10
256.6468923816178
 20
221.5345459736448
 30
27.17999999999994
  0
VERTEX
  5
327
  8
DEFAULT
 10
256.6955518720602
 20
221.5069923184086
 30
27.17999999999994
  0
VERTEX
  5
328
  8
DEFAULT
 10
256.7447168143967
 20
221.4807768888636
 30
27.17999999999994
  0
VERTEX
  5
329
  8
DEFAULT
 10
256.7943334609973
 20
221.4559102686385
 30
27.17999999999993
  0
VERTEX
  5
32A
  8
DEFAULT
 10
256.8443480219433
 20
221.4324002508243
 30
27.17999999999994
  0
VERTEX
  5
32B
  8
DEFAULT
 10
256.8947068395846
 20
221.4102518691287
 30
27.17999999999994
  0
VERTEX
  5
32C
  8
DEFAULT
 10
256.9453565580838
 20
221.3894674415517
 30
27.17999999999993
  0
VERTEX
  5
32D
  8
DEFAULT
 10
256.9962442869619
 20
221.3700466259067
 30
27.17999999999993
  0
VERTEX
  5
32E
  8
DEFAULT
 10
257.0473177577463
 20
221.3519864864374
 30
27.17999999999993
  0
VERTEX
  5
32F
  8
DEFAULT
 10
257.0985254729187
 20
221.3352815707064
 30
27.17999999999993
  0
VERTEX
  5
330
  8
DEFAULT
 10
257.1498168464602
 20
221.3199239958776
 30
27.17999999999993
  0
VERTEX
  5
331
  8
DEFAULT
 10
257.2011423353932
 20
221.3059035434651
 30
27.17999999999993
  0
VERTEX
  5
332
  8
DEFAULT
 10
257.2524535618258
 20
221.2932077615951
 30
27.17999999999993
  0
VERTEX
  5
333
  8
DEFAULT
 10
257.3037034251077
 20
221.2818220738015
 30
27.17999999999993
  0
VERTEX
  5
334
  8
DEFAULT
 10
257.3548462038132
 20
221.2717298933727
 30
27.17999999999993
  0
VERTEX
  5
335
  8
DEFAULT
 10
257.4058376473651
 20
221.2629127422652
 30
27.17999999999994
  0
VERTEX
  5
336
  8
DEFAULT
 10
257.4566350572106
 20
221.255350373619
 30
27.17999999999994
  0
VERTEX
  5
337
  8
DEFAULT
 10
257.5071973575555
 20
221.2490208969258
 30
27.17999999999994
  0
VERTEX
  5
338
  8
DEFAULT
 10
257.557485155745
 20
221.2439009049408
 30
27.17999999999993
  0
VERTEX
  5
339
  8
DEFAULT
 10
257.6074607924633
 20
221.2399656014597
 30
27.17999999999994
  0
VERTEX
  5
33A
  8
DEFAULT
 10
257.6570883819929
 20
221.2371889291366
 30
27.17999999999993
  0
VERTEX
  5
33B
  8
DEFAULT
 10
257.7063338428444
 20
221.2355436965632
 30
27.17999999999993
  0
VERTEX
  5
33C
  8
DEFAULT
 10
257.75516491912
 20
221.2350017038891
 30
27.17999999999993
  0
SEQEND
  5
23B
  8
DEFAULT
  0
CIRCLE
  5
33D
  8
DEFAULT
 10
197.2550889679706
 20
190.1049082169623
 30
27.17999999999993
 40
9.250000000000028
210
-3.840771544649202E-16
220
1.0
230
-7.667781798399884E-16
  0
CIRCLE
  5
33E
  8
DEFAULT
 10
226.7284763395305
 20
131.2622650598021
 30
27.18000000000055
 40
1.999999999999972
210
-8.881784197001379E-16
220
1.0
230
2.674493038873683E-15
  0
CIRCLE
  5
33F
  8
DEFAULT
 10
177.7284763395306
 20
131.2622650598022
 30
27.17999999999977
 40
2.000000000000028
210
0.0
220
1.0
230
-1.776464873309750E-15
  0
POLYLINE
  5
340
  8
DEFAULT
 66
     1
 10
0.0
 20
0.0
 30
-27.18
210
0.0
220
-1.0
230
0.0
  0
VERTEX
  5
342
  8
DEFAULT
 10
-306.7284763395306
 20
242.2622650598022
 30
-27.18
  0
VERTEX
  5
343
  8
DEFAULT
 10
-306.7284763395306
 20
233.1710413729599
 30
-27.18
  0
VERTEX
  5
344
  8
DEFAULT
 10
-293.6824447875757
 20
233.1710413729599
 30
-27.18
  0
VERTEX
  5
345
  8
DEFAULT
 10
-293.6824447874549
 20
235.8210413723465
 30
-27.18
  0
VERTEX
  5
346
  8
DEFAULT
 10
-284.8824447874549
 20
235.8210413723465
 30
-27.18
  0
VERTEX
  5
347
  8
DEFAULT
 10
-284.8824447875046
 20
233.3710413725991
 30
-27.18
  0
VERTEX
  5
348
  8
DEFAULT
 10
-275.8824447875046
 20
233.3710413725991
 30
-27.18
  0
VERTEX
  5
349
  8
DEFAULT
 10
-275.8824447876468
 20
226.6710413671133
 30
-27.18
  0
VERTEX
  5
34A
  8
DEFAULT
 10
-284.8824447876468
 20
226.6710413671133
 30
-27.18
  0
VERTEX
  5
34B
  8
DEFAULT
 10
-284.8824447876964
 20
224.2210413673658
 30
-27.18
  0
VERTEX
  5
34C
  8
DEFAULT
 10
-293.6824447876966
 20
224.2210413673658
 30
-27.18000000000001
  0
VERTEX
  5
34D
  8
DEFAULT
 10
-293.6824447875757
 20
226.8710413667525
 30
-27.18
  0
VERTEX
  5
34E
  8
DEFAULT
 10
-306.7284763395305
 20
226.8710413667524
 30
-27.18
  0
VERTEX
  5
34F
  8
DEFAULT
 10
-306.7284763395306
 20
154.408310693802
 30
-27.17999999999999
  0
VERTEX
  5
350
  8
DEFAULT
 10
-293.6824447875757
 20
154.408310693802
 30
-27.18
  0
VERTEX
  5
351
  8
DEFAULT
 10
-293.6824447874549
 20
157.0583106931886
 30
-27.18
  0
VERTEX
  5
352
  8
DEFAULT
 10
-284.8824447874549
 20
157.0583106931886
 30
-27.18
  0
VERTEX
  5
353
  8
DEFAULT
 10
-284.8824447875046
 20
154.6083106934412
 30
-27.18
  0
VERTEX
  5
354
  8
DEFAULT
 10
-275.8824447875046
 20
154.6083106934412
 30
-27.18
  0
VERTEX
  5
355
  8
DEFAULT
 10
-275.8824447876468
 20
147.9083106879554
 30
-27.18
  0
VERTEX
  5
356
  8
DEFAULT
 10
-284.8824447876468
 20
147.9083106879554
 30
-27.18
  0
VERTEX
  5
357
  8
DEFAULT
 10
-284.8824447876964
 20
145.4583106882079
 30
-27.18
  0
VERTEX
  5
358
  8
DEFAULT
 10
-293.6824447876965
 20
145.4583106882079
 30
-27.18
  0
VERTEX
  5
359
  8
DEFAULT
 10
-293.6824447875757
 20
148.1083106875946
 30
-27.18
  0
VERTEX
  5
35A
  8
DEFAULT
 10
-306.7284763395305
 20
148.1083106875946
 30
-27.17999999999999
  0
VERTEX
  5
35B
  8
DEFAULT
 10
-306.7284763395305
 20
118.7661764107943
 30
-27.17999999999999
 42
0.414208908050787
  0
VERTEX
  5
35C
  8
DEFAULT
 10
-298.7284763395306
 20
110.7661764107943
 30
-27.17999999999999
  0
VERTEX
  5
35D
  8
DEFAULT
 10
-277.3284763402521
 20
110.7661764107942
 30
-27.18
  0
VERTEX
  5
35E
  8
DEFAULT
 10
-277.3284763402521
 20
122.462911083023
 30
-27.18
  0
VERTEX
  5
35F
  8
DEFAULT
 10
-279.9784763396387
 20
122.4629110831437
 30
-27.18000000000001
  0
VERTEX
  5
360
  8
DEFAULT
 10
-279.9784763396387
 20
131.2629110831437
 30
-27.18
  0
VERTEX
  5
361
  8
DEFAULT
 10
-277.5284763398913
 20
131.262911083094
 30
-27.18
  0
VERTEX
  5
362
  8
DEFAULT
 10
-277.5284763398913
 20
140.2629110830941
 30
-27.18
  0
VERTEX
  5
363
  8
DEFAULT
 10
-270.8284763344055
 20
140.2629110829519
 30
-27.18
  0
VERTEX
  5
364
  8
DEFAULT
 10
-270.8284763344055
 20
131.2629110829519
 30
-27.18
  0
VERTEX
  5
365
  8
DEFAULT
 10
-268.378476334658
 20
131.2629110829022
 30
-27.18
  0
VERTEX
  5
366
  8
DEFAULT
 10
-268.378476334658
 20
122.4629110829022
 30
-27.18
  0
VERTEX
  5
367
  8
DEFAULT
 10
-271.0284763340447
 20
122.4629110830229
 30
-27.18000000000001
  0
VERTEX
  5
368
  8
DEFAULT
 10
-271.0284763340447
 20
110.7661764107943
 30
-27.18
  0
VERTEX
  5
369
  8
DEFAULT
 10
-207.0290115467027
 20
110.7661764107943
 30
-27.18
 42
0.4142089080507935
  0
VERTEX
  5
36A
  8
DEFAULT
 10
-199.0290115467027
 20
118.7661764107943
 30
-27.18
  0
VERTEX
  5
36B
  8
DEFAULT
 10
-199.0290115467027
 20
120.4911350889324
 30
-27.18
  0
VERTEX
  5
36C
  8
DEFAULT
 10
-182.0290115467027
 20
120.4911350889324
 30
-27.18
  0
VERTEX
  5
36D
  8
DEFAULT
 10
-182.0290115467027
 20
118.7661764107943
 30
-27.18
 42
0.414208908050787
  0
VERTEX
  5
36E
  8
DEFAULT
 10
-174.0290115467027
 20
110.7661764107943
 30
-27.17999999999999
  0
VERTEX
  5
36F
  8
DEFAULT
 10
-157.3284763402521
 20
110.7661764107943
 30
-27.17999999999999
  0
VERTEX
  5
370
  8
DEFAULT
 10
-157.3284763402521
 20
122.4629238041075
 30
-27.18
  0
VERTEX
  5
371
  8
DEFAULT
 10
-159.9784763396388
 20
122.4629238042283
 30
-27.18
  0
VERTEX
  5
372
  8
DEFAULT
 10
-159.9784763396388
 20
131.2629238042283
 30
-27.18
  0
VERTEX
  5
373
  8
DEFAULT
 10
-157.5284763398913
 20
131.2629238041786
 30
-27.18
  0
VERTEX
  5
374
  8
DEFAULT
 10
-157.5284763398913
 20
140.2629238041787
 30
-27.18
  0
VERTEX
  5
375
  8
DEFAULT
 10
-150.8284763344055
 20
140.2629238040365
 30
-27.18
  0
VERTEX
  5
376
  8
DEFAULT
 10
-150.8284763344055
 20
131.2629238040364
 30
-27.18
  0
VERTEX
  5
377
  8
DEFAULT
 10
-148.378476334658
 20
131.2629238039868
 30
-27.18
  0
VERTEX
  5
378
  8
DEFAULT
 10
-148.378476334658
 20
122.4629238039868
 30
-27.18
  0
VERTEX
  5
379
  8
DEFAULT
 10
-151.0284763340447
 20
122.4629238041075
 30
-27.18
  0
VERTEX
  5
37A
  8
DEFAULT
 10
-151.0284763340447
 20
110.7661764107944
 30
-27.17999999999999
  0
VERTEX
  5
37B
  8
DEFAULT
 10
-129.6250354446914
 20
110.7661764107943
 30
-27.17999999999998
 42
0.4142089080507971
  0
VERTEX
  5
37C
  8
DEFAULT
 10
-121.6250354446914
 20
118.7661764107943
 30
-27.17999999999999
  0
VERTEX
  5
37D
  8
DEFAULT
 10
-121.6250354446914
 20
242.2622650598022
 30
-27.18
 42
0.4142089080507928
  0
VERTEX
  5
37E
  8
DEFAULT
 10
-129.6250354446914
 20
250.2622650598022
 30
-27.18
  0
VERTEX
  5
37F
  8
DEFAULT
 10
-145.9047674597133
 20
250.2622650598022
 30
-27.18
  0
VERTEX
  5
380
  8
DEFAULT
 10
-145.9047674597133
 20
242.3036484138489
 30
-27.18
  0
VERTEX
  5
381
  8
DEFAULT
 10
-143.2547674603267
 20
242.3036484137282
 30
-27.18
  0
VERTEX
  5
382
  8
DEFAULT
 10
-143.2547674603267
 20
233.5036484137282
 30
-27.18
  0
VERTEX
  5
383
  8
DEFAULT
 10
-145.7047674600741
 20
233.5036484137779
 30
-27.18
  0
VERTEX
  5
384
  8
DEFAULT
 10
-145.7047674600741
 20
224.5036484137778
 30
-27.17999999999999
  0
VERTEX
  5
385
  8
DEFAULT
 10
-152.4047674655599
 20
224.50364841392
 30
-27.18
  0
VERTEX
  5
386
  8
DEFAULT
 10
-152.4047674655599
 20
233.50364841392
 30
-27.18
  0
VERTEX
  5
387
  8
DEFAULT
 10
-154.8547674653074
 20
233.5036484139697
 30
-27.18
  0
VERTEX
  5
388
  8
DEFAULT
 10
-154.8547674653074
 20
242.3036484139697
 30
-27.18
  0
VERTEX
  5
389
  8
DEFAULT
 10
-152.2047674659207
 20
242.3036484138489
 30
-27.17999999999999
  0
VERTEX
  5
38A
  8
DEFAULT
 10
-152.2047674659208
 20
250.2622650598022
 30
-27.18
  0
VERTEX
  5
38B
  8
DEFAULT
 10
-241.4645806560409
 20
250.2622650598022
 30
-27.18
  0
VERTEX
  5
38C
  8
DEFAULT
 10
-241.4645806560409
 20
242.3036484138489
 30
-27.18
  0
VERTEX
  5
38D
  8
DEFAULT
 10
-238.8145806566543
 20
242.3036484137282
 30
-27.18
  0
VERTEX
  5
38E
  8
DEFAULT
 10
-238.8145806566543
 20
233.5036484137282
 30
-27.18
  0
VERTEX
  5
38F
  8
DEFAULT
 10
-241.2645806564017
 20
233.5036484137779
 30
-27.18
  0
VERTEX
  5
390
  8
DEFAULT
 10
-241.2645806564017
 20
224.5036484137778
 30
-27.17999999999999
  0
VERTEX
  5
391
  8
DEFAULT
 10
-247.9645806618875
 20
224.50364841392
 30
-27.18
  0
VERTEX
  5
392
  8
DEFAULT
 10
-247.9645806618875
 20
233.50364841392
 30
-27.17999999999999
  0
VERTEX
  5
393
  8
DEFAULT
 10
-250.4145806616351
 20
233.5036484139697
 30
-27.18
  0
VERTEX
  5
394
  8
DEFAULT
 10
-250.414580661635
 20
242.3036484139697
 30
-27.18
  0
VERTEX
  5
395
  8
DEFAULT
 10
-247.7645806622484
 20
242.3036484138489
 30
-27.18
  0
VERTEX
  5
396
  8
DEFAULT
 10
-247.7645806622484
 20
250.2622650598022
 30
-27.18
  0
VERTEX
  5
397
  8
DEFAULT
 10
-298.7284763395305
 20
250.2622650598022
 30
-27.18
 42
0.4142089080507916
  0
VERTEX
  5
398
  8
DEFAULT
 10
-306.7284763395306
 20
242.2622650598022
 30
-27.18
  0
SEQEND
  5
341
  8
DEFAULT
  0
ENDSEC
  0
EOF
