0
SECTION
2
HEADER
9
$INSUNITS
70
4
9
$ACADVER
1
AC1014
9
$HANDSEED
5
FFFF
0
ENDSEC
0
SECTION
2
TABLES
0
TABLE
2
VPORT
5
8
100
AcDbSymbolTable
0
ENDTAB
0
TABLE
2
LTYPE
5
5
100
AcDbSymbolTable
0
LTYPE
5
14
100
AcDbSymbolTableRecord
100
AcDbLinetypeTableRecord
2
BYBLOCK
70
0
0
LTYPE
5
15
100
AcDbSymbolTableRecord
100
AcDbLinetypeTableRecord
2
BYLAYER
70
0
0
ENDTAB
0
TABLE
2
LAYER
5
2
100
AcDbSymbolTable
70
2
0
LAYER
5
50
100
AcDbSymbolTableRecord
100
AcDbLayerTableRecord
2
0
70
0
6
CONTINUOUS
0
ENDTAB
0
TABLE
2
STYLE
5
3
100
AcDbSymbolTable
70
1
0
STYLE
5
11
100
AcDbSymbolTableRecord
100
AcDbTextStyleTableRecord
2
STANDARD
70
0
0
ENDTAB
0
TABLE
2
VIEW
5
6
100
AcDbSymbolTable
70
0
0
ENDTAB
0
TABLE
2
UCS
5
7
100
AcDbSymbolTable
70
0
0
ENDTAB
0
TABLE
2
APPID
5
9
100
AcDbSymbolTable
70
2
0
APPID
5
12
100
AcDbSymbolTableRecord
100
AcDbRegAppTableRecord
2
ACAD
70
0
0
ENDTAB
0
TABLE
2
DIMSTYLE
5
A
100
AcDbSymbolTable
70
1
0
ENDTAB
0
TABLE
2
BLOCK_RECORD
5
1
100
AcDbSymbolTable
70
1
0
BLOCK_RECORD
5
1F
100
AcDbSymbolTableRecord
100
AcDbBlockTableRecord
2
*MODEL_SPACE
0
BLOCK_RECORD
5
1B
100
AcDbSymbolTableRecord
100
AcDbBlockTableRecord
2
*PAPER_SPACE
0
ENDTAB
0
ENDSEC
0
SECTION
2
BLOCKS
0
BLOCK
5
20
100
AcDbEntity
100
AcDbBlockBegin
2
*MODEL_SPACE
0
ENDBLK
5
21
100
AcDbEntity
100
AcDbBlockEnd
0
BLOCK
5
1C
100
AcDbEntity
100
AcDbBlockBegin
2
*PAPER_SPACE
0
ENDBLK
5
1D
100
AcDbEntity
100
AcDbBlockEnd
0
ENDSEC
0
SECTION
2
ENTITIES
0
SPLINE
5
100
100
AcDbEntity
8
0
100
AcDbSpline
70
0
71
3
72
9
73
5
74
0
42
0.000000001
43
0.0000000001
44
0.0000000001
40
0.052147021675540667
40
0.052147021675540667
40
0.052147021675540667
40
0.052147021675540667
40
0.072636408227417848
40
0.15196132017892608
40
0.15196132017892608
40
0.15196132017892608
40
0.15196132017892608
10
-72.471927670917651
20
82.584541465867602
30
0
10
-72.536914826535039
20
82.565939394761642
30
0
10
-72.844814257319143
20
82.456761588323729
30
0
10
-73.093771898191221
20
82.221659294666992
30
0
10
-73.291624743303998
20
82.034817639477851
30
0
0
SPLINE
5
101
100
AcDbEntity
8
0
100
AcDbSpline
70
0
71
3
72
9
73
5
74
0
42
0.000000001
43
0.0000000001
44
0.0000000001
40
0
40
0
40
0
40
0
40
0.085087839148358282
40
0.17596455273681405
40
0.17596455273681405
40
0.17596455273681405
40
0.17596455273681405
10
-73.291624743303998
20
82.034817639477851
30
0
10
-73.464153292916592
20
81.80192252929308
30
0
10
-73.820948216501151
20
81.320287500028797
30
0
10
-73.860914186327221
20
80.721180046937832
30
0
10
-73.881554570635771
20
80.411771614520831
30
0
0
SPLINE
5
102
100
AcDbEntity
8
0
100
AcDbSpline
70
0
71
3
72
9
73
5
74
0
42
0.000000001
43
0.0000000001
44
0.0000000001
40
0
40
0
40
0
40
0
40
0.091528127209503762
40
0.17670930110887412
40
0.17670930110887412
40
0.17670930110887412
40
0.17670930110887412
10
-73.881554570635771
20
80.411771614520831
30
0
10
-73.859725755649421
20
80.100027937203095
30
0
10
-73.817581829428335
20
79.498158227601849
30
0
10
-73.454486454008631
20
79.017767718622935
30
0
10
-73.279459502277177
20
78.7861996730919
30
0
0
SPLINE
5
103
100
AcDbEntity
8
0
100
AcDbSpline
70
0
71
3
72
9
73
5
74
0
42
0.000000001
43
0.0000000001
44
0.0000000001
40
0
40
0
40
0
40
0
40
0.080221718977789555
40
0.097651804168226858
40
0.097651804168226858
40
0.097651804168226858
40
0.097651804168226858
10
-73.279459502277177
20
78.7861996730919
30
0
10
-73.075636910655518
20
78.60165896874598
30
0
10
-72.82752899105823
20
78.377022387138425
30
0
10
-72.526879864985801
20
78.269799971221403
30
0
10
-72.471927670917651
20
78.253541406933834
30
0
0
LINE
5
104
100
AcDbEntity
8
0
100
AcDbLine
10
-72.471927670917665
20
78.253541406933834
30
0
11
-72.471927670917665
21
75.62657819729813
31
0
0
SPLINE
5
105
100
AcDbEntity
8
0
100
AcDbSpline
70
0
71
3
72
9
73
5
74
0
42
0.000000001
43
0.0000000001
44
0.0000000001
40
0.051420159482127338
40
0.051420159482127338
40
0.051420159482127338
40
0.051420159482127338
40
0.066281270782967402
40
0.12949463186878338
40
0.12949463186878338
40
0.12949463186878338
40
0.12949463186878338
10
-72.471927670917665
20
75.62657819729813
30
0
10
-72.519071749317007
20
75.613791761348921
30
0
10
-72.761347646158271
20
75.533390083233698
30
0
10
-72.967050345457878
20
75.363417290991379
30
0
10
-73.133598496340753
20
75.225798026175028
30
0
0
SPLINE
5
106
100
AcDbEntity
8
0
100
AcDbSpline
70
0
71
3
72
9
73
5
74
0
42
0.000000001
43
0.0000000001
44
0.0000000001
40
0
40
0
40
0
40
0
40
0.064075179548214165
40
0.13283202027755811
40
0.13283202027755811
40
0.13283202027755811
40
0.13283202027755811
10
-73.133598496340753
20
75.225798026175028
30
0
10
-73.267470802652056
20
75.052989885923978
30
0
10
-73.544996812441241
20
74.694747356573259
30
0
10
-73.575564930463884
20
74.241706437477944
30
0
10
-73.591387675746844
20
74.007202270086509
30
0
0
SPLINE
5
107
100
AcDbEntity
8
0
100
AcDbSpline
70
0
71
3
72
9
73
5
74
0
42
0.000000001
43
0.0000000001
44
0.0000000001
40
0
40
0
40
0
40
0
40
0.071490435743953085
40
0.13800960007959506
40
0.13800960007959506
40
0.13800960007959506
40
0.13800960007959506
10
-73.591387675746844
20
74.007202270086509
30
0
10
-73.573872047301094
20
73.76335003880078
30
0
10
-73.540058784704684
20
73.292602468611193
30
0
10
-73.248347216081569
20
72.922832358374961
30
0
10
-73.107745332149889
20
72.74460708480683
30
0
0
SPLINE
5
108
100
AcDbEntity
8
0
100
AcDbSpline
70
0
71
3
72
9
73
5
74
0
42
0.000000001
43
0.0000000001
44
0.0000000001
40
0
40
0
40
0
40
0
40
0.065766695526354862
40
0.075264182986570047
40
0.075264182986570047
40
0.075264182986570047
40
0.075264182986570047
10
-73.107745332149889
20
72.74460708480683
30
0
10
-72.93309592736162
20
72.60325560821741
30
0
10
-72.733225086120797
20
72.441491309216161
30
0
10
-72.501593240639409
20
72.359265924496754
30
0
10
-72.471927670917665
20
72.349982521434541
30
0
0
LINE
5
109
100
AcDbEntity
8
0
100
AcDbLine
10
-72.471927670917665
20
72.349982521434541
30
0
11
-72.471927670917665
21
69.744201496832829
31
0
0
SPLINE
5
110
100
AcDbEntity
8
0
100
AcDbSpline
70
0
71
3
72
9
73
5
74
0
42
0.000000001
43
0.0000000001
44
0.0000000001
40
0.078979962966909761
40
0.078979962966909761
40
0.078979962966909761
40
0.078979962966909761
40
0.26311814679877732
40
0.46531773150156697
40
0.46531773150156697
40
0.46531773150156697
40
0.46531773150156697
10
-72.471927670918717
20
69.744201496832886
30
0
10
-73.093385359817034
20
69.769646644652212
30
0
10
-74.377017948385486
20
69.895626387468582
30
0
10
-75.519185280224249
20
70.529012258951681
30
0
10
-76.116967270410811
20
70.860510679766847
30
0
0
SPLINE
5
111
100
AcDbEntity
8
0
100
AcDbSpline
70
0
71
3
72
9
73
5
74
0
42
0.000000001
43
0.0000000001
44
0.0000000001
40
0
40
0
40
0
40
0
40
0.16845703429113937
40
0.33157212868758607
40
0.33157212868758607
40
0.33157212868758607
40
0.33157212868758607
10
-76.116967270410811
20
70.860510679766847
30
0
10
-76.537097343232091
20
71.261508023977072
30
0
10
-77.364034746927956
20
72.050786688280652
30
0
10
-77.495924521441779
20
73.184875977111901
30
0
10
-77.560806974333346
20
73.742784997191237
30
0
0
SPLINE
5
112
100
AcDbEntity
8
0
100
AcDbSpline
70
0
71
3
72
9
73
5
74
0
42
0.000000001
43
0.0000000001
44
0.0000000001
40
0
40
0
40
0
40
0
40
0.099012348474013509
40
0.19993872157178944
40
0.19993872157178944
40
0.19993872157178944
40
0.19993872157178944
10
-77.560806974333346
20
73.742784997191237
30
0
10
-77.536757838476376
20
74.076325747041508
30
0
10
-77.488194668808617
20
74.74985497996002
30
0
10
-77.158405034340802
20
75.33935791319854
30
0
10
-76.991931669749775
20
75.636931052181041
30
0
0
SPLINE
5
113
100
AcDbEntity
8
0
100
AcDbSpline
70
0
71
3
72
9
73
5
74
0
42
0.000000001
43
0.0000000001
44
0.0000000001
40
0
40
0
40
0
40
0
40
0.084900098801785007
40
0.1862169757692087
40
0.1862169757692087
40
0.1862169757692087
40
0.1862169757692087
10
-76.991931669749775
20
75.636931052181041
30
0
10
-76.817078787982723
20
75.86142132828526
30
0
10
-76.433562451644718
20
76.353810629307446
30
0
10
-75.922264063684267
20
76.713124144200776
30
0
10
-75.644076988351046
20
76.908619334855672
30
0
0
SPLINE
5
114
100
AcDbEntity
8
0
100
AcDbSpline
70
0
71
3
72
9
73
5
74
0
42
0.000000001
43
0.0000000001
44
0.0000000001
40
0
40
0
40
0
40
0
40
0.1260607878977793
40
0.24092853157580335
40
0.24092853157580335
40
0.24092853157580335
40
0.24092853157580335
10
-75.644076988351046
20
76.908619334855672
30
0
10
-76.019385156844024
20
77.109884019267682
30
0
10
-76.736677563399113
20
77.494542926149734
30
0
10
-77.228912016973055
20
78.141325508341041
30
0
10
-77.463595143428918
20
78.449692704955879
30
0
0
SPLINE
5
115
100
AcDbEntity
8
0
100
AcDbSpline
70
0
71
3
72
9
73
5
74
0
42
0.000000001
43
0.0000000001
44
0.0000000001
40
0
40
0
40
0
40
0
40
0.11079807233617861
40
0.22332540807097195
40
0.22332540807097195
40
0.22332540807097195
40
0.22332540807097195
10
-77.463595143428918
20
78.449692704955879
30
0
10
-77.638890807017901
20
78.779923106550839
30
0
10
-77.992218033553996
20
79.445537928529603
30
0
10
-78.041797238298543
20
80.197656652357665
30
0
10
-78.066778792640932
20
80.576627934128368
30
0
0
SPLINE
5
116
100
AcDbEntity
8
0
100
AcDbSpline
70
0
71
3
72
9
73
5
74
0
42
0.000000001
43
0.0000000001
44
0.0000000001
40
0
40
0
40
0
40
0
40
0.1096059876303099
40
0.21818157409881034
40
0.21818157409881034
40
0.21818157409881034
40
0.21818157409881034
10
-78.066778792640932
20
80.576627934128368
30
0
10
-78.046459523151043
20
80.944885128634908
30
0
10
-78.006012004747319
20
81.677937547647389
30
0
10
-77.704619611177961
20
82.347303589762134
30
0
10
-77.55463510389724
20
82.680406010921615
30
0
0
SPLINE
5
117
100
AcDbEntity
8
0
100
AcDbSpline
70
0
71
3
72
9
73
5
74
0
42
0.000000001
43
0.0000000001
44
0.0000000001
40
0
40
0
40
0
40
0
40
0.10397074239430895
40
0.19854478427315869
40
0.19854478427315869
40
0.19854478427315869
40
0.19854478427315869
10
-77.55463510389724
20
82.680406010921615
30
0
10
-77.37972640096325
20
82.983256364112037
30
0
10
-77.045716948959665
20
83.56158596584936
30
0
10
-76.533258576125633
20
83.988846368071322
30
0
10
-76.289156169754222
20
84.192365908112819
30
0
0
SPLINE
5
118
100
AcDbEntity
8
0
100
AcDbSpline
70
0
71
3
72
9
73
5
74
0
42
0.000000001
43
0.0000000001
44
0.0000000001
40
0
40
0
40
0
40
0
40
0.096215728707227652
40
0.20394115394104262
40
0.20394115394104262
40
0.20394115394104262
40
0.20394115394104262
10
-76.289156169754222
20
84.192365908112819
30
0
10
-76.01398514165669
20
84.360628844162576
30
0
10
-75.43072606587593
20
84.717282977583011
30
0
10
-74.768314029919779
20
84.888651901421525
30
0
10
-74.418415949643148
20
84.979172082540543
30
0
0
SPLINE
5
119
100
AcDbEntity
8
0
100
AcDbSpline
70
0
71
3
72
9
73
5
74
0
42
0.000000001
43
0.0000000001
44
0.0000000001
40
0
40
0
40
0
40
0
40
0.117265382722387
40
0.19643534220127382
40
0.19643534220127382
40
0.19643534220127382
40
0.19643534220127382
10
-74.418415949643148
20
84.979172082540543
30
0
10
-74.03385678447394
20
85.053109131013755
30
0
10
-73.389668282693535
20
85.176963665753775
30
0
10
-72.735951417424047
20
85.213019756608418
30
0
10
-72.471927670922497
20
85.222445258012783
30
0
0
LINE
5
120
100
AcDbEntity
8
0
100
AcDbLine
10
-72.471927670922497
20
85.222445258012783
30
0
11
-72.471927670917651
21
82.584541465867602
31
0
0
LINE
5
121
100
AcDbEntity
8
0
100
AcDbLine
10
6.0082812674905304
20
100.62727480655774
30
0
11
6.0082812674905304
21
96.830253546656522
31
0
0
SPLINE
5
122
100
AcDbEntity
8
0
100
AcDbSpline
70
0
71
3
72
9
73
5
74
0
42
0.000000001
43
0.0000000001
44
0.0000000001
40
0.084869929887579437
40
0.084869929887579437
40
0.084869929887579437
40
0.084869929887579437
40
0.18456437152728644
40
0.33528292481211236
40
0.33528292481211236
40
0.33528292481211236
40
0.33528292481211236
10
6.0082812674905295
20
96.830253546656536
30
0
10
5.6757033418447644
20
96.848432413835823
30
0
10
4.8464501964801263
20
96.928350922928587
30
0
10
4.0506143438101994
20
97.195391915700441
30
0
10
3.5716167246859953
20
97.356118526994919
30
0
0
SPLINE
5
123
100
AcDbEntity
8
0
100
AcDbSpline
70
0
71
3
72
9
73
5
74
0
42
0.000000001
43
0.0000000001
44
0.0000000001
40
0
40
0
40
0
40
0
40
0.13277413341254396
40
0.26291923196876876
40
0.26291923196876876
40
0.26291923196876876
40
0.26291923196876876
10
3.5716167246859953
20
97.356118526994919
30
0
10
3.1733328044894904
20
97.558577781031175
30
0
10
2.3846513067296016
20
97.959487432693422
30
0
10
1.792680228907475
20
98.616731154929681
30
0
10
1.4996543681186125
20
98.942066994249558
30
0
0
SPLINE
5
124
100
AcDbEntity
8
0
100
AcDbSpline
70
0
71
3
72
9
73
5
74
0
42
0.000000001
43
0.0000000001
44
0.0000000001
40
0
40
0
40
0
40
0
40
0.13221209150340779
40
0.26957179812501109
40
0.26957179812501109
40
0.26957179812501109
40
0.26957179812501109
10
1.4996543681186125
20
98.942066994249558
30
0
10
1.2444456214258182
20
99.30482070354094
30
0
10
0.72409169644892302
20
100.0444517658608
30
0
10
0.451598009451466
20
100.90703902457773
30
0
10
0.31274946089205002
20
101.34656843239043
30
0
0
SPLINE
5
125
100
AcDbEntity
8
0
100
AcDbSpline
70
0
71
3
72
9
73
5
74
0
42
0.000000001
43
0.0000000001
44
0.0000000001
40
0
40
0
40
0
40
0
40
0.14387769507991008
40
0.29354742087899577
40
0.29354742087899577
40
0.29354742087899577
40
0.29354742087899577
10
0.31274946089205002
20
101.34656843239043
30
0
10
0.20532658936996739
20
101.81527263822366
30
0
10
-0.013843636155321803
20
102.77154950032562
30
0
10
-0.04149780053509744
20
103.75235603842243
30
0
10
-0.055597707076699976
20
104.25243553215239
30
0
0
SPLINE
5
126
100
AcDbEntity
8
0
100
AcDbSpline
70
0
71
3
72
9
73
5
74
0
42
0.000000001
43
0.0000000001
44
0.0000000001
40
0
40
0
40
0
40
0
40
0.21390177746051395
40
0.37859137491791672
40
0.37859137491791672
40
0.37859137491791672
40
0.37859137491791672
10
-0.055597707076699976
20
104.25243553215239
30
0
10
-0.047306242675198007
20
104.96992719999125
30
0
10
-0.032630923259375777
20
106.23983790500817
30
0
10
0.33283249548484051
20
107.45386342891238
30
0
10
0.49181135054048752
20
107.9819720655081
30
0
0
SPLINE
5
127
100
AcDbEntity
8
0
100
AcDbSpline
70
0
71
3
72
9
73
5
74
0
42
0.000000001
43
0.0000000001
44
0.0000000001
40
0
40
0
40
0
40
0
40
0.13819157424729703
40
0.27067598350948752
40
0.27067598350948752
40
0.27067598350948752
40
0.27067598350948752
10
0.49181135054048752
20
107.9819720655081
30
0
10
0.68842553263252171
20
108.40244621532129
30
0
10
1.0735339402872413
20
109.22602937993112
30
0
10
1.7031047541756017
20
109.88148312303566
30
0
10
2.0112529551547453
20
110.2022999196646
30
0
0
SPLINE
5
128
100
AcDbEntity
8
0
100
AcDbSpline
70
0
71
3
72
9
73
5
74
0
42
0.000000001
43
0.0000000001
44
0.0000000001
40
0
40
0
40
0
40
0
40
0.12536998291877638
40
0.24218120551344113
40
0.24218120551344113
40
0.24218120551344113
40
0.24218120551344113
10
2.0112529551547453
20
110.2022999196646
30
0
10
2.3342013344596246
20
110.4738505029238
30
0
10
2.9580510471084409
20
110.99841344917705
30
0
10
3.7274603842073262
20
111.26549668869225
30
0
10
4.0985694682162688
20
111.39431890541289
30
0
0
SPLINE
5
129
100
AcDbEntity
8
0
100
AcDbSpline
70
0
71
3
72
9
73
5
74
0
42
0.000000001
43
0.0000000001
44
0.0000000001
40
0
40
0
40
0
40
0
40
0.14850033312254504
40
0.19453296779108345
40
0.19453296779108345
40
0.19453296779108345
40
0.19453296779108345
10
4.0985694682162688
20
111.39431890541289
30
0
10
4.5804430179145861
20
111.51355474536101
30
0
10
5.2116893575809282
20
111.66975171357268
30
0
10
5.8554830020860322
20
111.73885752697205
30
0
10
6.0082812674905313
20
111.7520423450736
30
0
0
LINE
5
130
100
AcDbEntity
8
0
100
AcDbLine
10
6.0082812674905313
20
111.7520423450736
30
0
11
6.0082812674905295
21
108.10776951381041
31
0
0
SPLINE
5
131
100
AcDbEntity
8
0
100
AcDbSpline
70
0
71
3
72
8
73
4
74
0
42
0.000000001
43
0.0000000001
44
0.0000000001
40
0.20005335104062322
40
0.20005335104062322
40
0.20005335104062322
40
0.20005335104062322
40
0.21041932839720326
40
0.21041932839720326
40
0.21041932839720326
40
0.21041932839720326
10
6.0082812674905295
20
108.10776951381042
30
0
10
5.9753849796225946
20
108.09657721837991
30
0
10
5.9425005240903328
20
108.08531803794011
30
0
10
5.9096160685580656
20
108.07405885750029
30
0
0
SPLINE
5
132
100
AcDbEntity
8
0
100
AcDbSpline
70
0
71
3
72
9
73
5
74
0
42
0.000000001
43
0.0000000001
44
0.0000000001
40
0
40
0
40
0
40
0
40
0.070391083147429714
40
0.15027741522816768
40
0.15027741522816768
40
0.15027741522816768
40
0.15027741522816768
10
5.9096160685580656
20
108.07405885750029
30
0
10
5.7129167261527503
20
107.93898245566075
30
0
10
5.292984720108187
20
107.65060882054769
30
0
10
5.0676190988426839
20
107.19222179448178
30
0
10
4.9478164469760344
20
106.94854673439238
30
0
0
SPLINE
5
133
100
AcDbEntity
8
0
100
AcDbSpline
70
0
71
3
72
9
73
5
74
0
42
0.000000001
43
0.0000000001
44
0.0000000001
40
0
40
0
40
0
40
0
40
0.10844637684341006
40
0.2638315764359373
40
0.2638315764359373
40
0.2638315764359373
40
0.2638315764359373
10
4.9478164469760344
20
106.94854673439238
30
0
10
4.8471283932743603
20
106.59974308258569
30
0
10
4.6021714965147886
20
105.75116316685786
30
0
10
4.6007580505988344
20
104.86590214622777
30
0
10
4.5999255930941985
20
104.34452232414458
30
0
0
SPLINE
5
134
100
AcDbEntity
8
0
100
AcDbSpline
70
0
71
3
72
9
73
5
74
0
42
0.000000001
43
0.0000000001
44
0.0000000001
40
0
40
0
40
0
40
0
40
0.20174049139362318
40
0.34021811540377589
40
0.34021811540377589
40
0.34021811540377589
40
0.34021811540377589
10
4.5999255930941985
20
104.34452232414458
30
0
10
4.5999689622008511
20
103.65756582557198
30
0
10
4.6000421004966796
20
102.49907233874521
30
0
10
5.1526362173395235
20
101.49089358071973
30
0
10
5.3775563990634367
20
101.08053859764311
30
0
0
SPLINE
5
135
100
AcDbEntity
8
0
100
AcDbSpline
70
0
71
3
72
8
73
4
74
0
42
0.000000001
43
0.0000000001
44
0.0000000001
40
0
40
0
40
0
40
0
40
0.076631304619854804
40
0.076631304619854804
40
0.076631304619854804
40
0.076631304619854804
10
5.3775563990634367
20
101.08053859764311
30
0
10
5.5845668646241169
20
100.92073124466523
30
0
10
5.791577330184797
20
100.76092389168736
30
0
10
6.0082812674905304
20
100.62727480655774
30
0
0
SPLINE
5
136
100
AcDbEntity
8
0
100
AcDbSpline
70
0
71
3
72
8
73
4
74
0
42
0.000000001
43
0.0000000001
44
0.0000000001
40
0.11230970149353865
40
0.11230970149353865
40
0.11230970149353865
40
0.11230970149353865
40
0.15770852482905501
40
0.15770852482905501
40
0.15770852482905501
40
0.15770852482905501
10
52.578882730808388
20
102.52420487652367
30
0
10
52.440898598752923
20
102.46390517745749
30
0
10
52.30707848920359
20
102.38869544311518
30
0
10
52.173258379654257
20
102.31348570877286
30
0
0
SPLINE
5
137
100
AcDbEntity
8
0
100
AcDbSpline
70
0
71
3
72
9
73
5
74
0
42
0.000000001
43
0.0000000001
44
0.0000000001
40
0
40
0
40
0
40
0
40
0.055669182304479092
40
0.11885417140335711
40
0.11885417140335711
40
0.11885417140335711
40
0.11885417140335711
10
52.173258379654257
20
102.31348570877286
30
0
10
52.049541961945437
20
102.1684819396861
30
0
10
51.785406371892222
20
101.85889767579467
30
0
10
51.76139655259108
20
101.45091109072645
30
0
10
51.748632506088583
20
101.23401817375394
30
0
0
SPLINE
5
138
100
AcDbEntity
8
0
100
AcDbSpline
70
0
71
3
72
9
73
5
74
0
42
0.000000001
43
0.0000000001
44
0.0000000001
40
0
40
0
40
0
40
0
40
0.059280189549722417
40
0.1135940252286075
40
0.1135940252286075
40
0.1135940252286075
40
0.1135940252286075
10
51.748632506088583
20
101.23401817375394
30
0
10
51.763018631684723
20
101.03065164237236
30
0
10
51.790585647349197
20
100.64095614591922
30
0
10
52.04947368137465
20
100.3499617831132
30
0
10
52.173258379654257
20
100.21082576805325
30
0
0
SPLINE
5
139
100
AcDbEntity
8
0
100
AcDbSpline
70
0
71
3
72
8
73
4
74
0
42
0.000000001
43
0.0000000001
44
0.0000000001
40
0
40
0
40
0
40
0
40
0.045383034619881066
40
0.045383034619881066
40
0.045383034619881066
40
0.045383034619881066
10
52.173258379654257
20
100.21082576805325
30
0
10
52.307036386421814
20
100.13565045068945
30
0
10
52.44081439318937
20
100.06047513332567
30
0
10
52.578882730808402
20
100.00063546698649
30
0
0
LINE
5
140
100
AcDbEntity
8
0
100
AcDbLine
10
52.578882730808388
20
100.00063546698652
30
0
11
52.578882730808402
21
96.803594198763093
31
0
0
LINE
5
141
100
AcDbEntity
8
0
100
AcDbLine
10
52.578882730808402
20
96.803594198763093
30
0
11
51.697472647384963
21
96.803594198763093
31
0
0
SPLINE
5
142
100
AcDbEntity
8
0
100
AcDbSpline
70
0
71
3
72
9
73
5
74
0
42
0.000000001
43
0.0000000001
44
0.0000000001
40
0
40
0
40
0
40
0
40
0.19359295324000003
40
0.35627748739236903
40
0.35627748739236903
40
0.35627748739236903
40
0.35627748739236903
10
51.697472647384963
20
96.803594198763093
30
0
10
51.037083783067914
20
96.830611376029935
30
0
10
49.821741585208571
20
96.880332256216789
30
0
10
48.823020970770159
20
97.565213747123053
30
0
10
48.366982058243117
20
97.87794646316739
30
0
0
SPLINE
5
143
100
AcDbEntity
8
0
100
AcDbSpline
70
0
71
3
72
9
73
5
74
0
42
0.000000001
43
0.0000000001
44
0.0000000001
40
0
40
0
40
0
40
0
40
0.14845991209785192
40
0.29712729051576625
40
0.29712729051576625
40
0.29712729051576625
40
0.29712729051576625
10
48.366982058243117
20
97.87794646316739
30
0
10
48.02826361133603
20
98.257565016437738
30
0
10
47.35035337311038
20
99.017332623523387
30
0
10
47.253913213549282
20
100.03103973392497
30
0
10
47.205659464554159
20
100.53824719482633
30
0
0
SPLINE
5
144
100
AcDbEntity
8
0
100
AcDbSpline
70
0
71
3
72
9
73
5
74
0
42
0.000000001
43
0.0000000001
44
0.0000000001
40
0
40
0
40
0
40
0
40
0.12527582912042914
40
0.24696965980166871
40
0.24696965980166871
40
0.24696965980166871
40
0.24696965980166871
10
47.205659464554159
20
100.53824719482633
30
0
10
47.238143956897993
20
100.96348191219158
30
0
10
47.302184115955939
20
101.80179265593927
30
0
10
47.792729871658196
20
102.48387289768519
30
0
10
48.034445360855429
20
102.81996664100858
30
0
0
SPLINE
5
145
100
AcDbEntity
8
0
100
AcDbSpline
70
0
71
3
72
9
73
5
74
0
42
0.000000001
43
0.0000000001
44
0.0000000001
40
0
40
0
40
0
40
0
40
0.08862578707044054
40
0.19185404936366862
40
0.19185404936366862
40
0.19185404936366862
40
0.19185404936366862
10
48.034445360855429
20
102.81996664100858
30
0
10
48.251755310872284
20
103.02423398689075
30
0
10
48.722180401084579
20
103.46642489718546
30
0
10
49.326129353052295
20
103.69806109417858
30
0
10
49.651087835983603
20
103.82269438797208
30
0
0
SPLINE
5
146
100
AcDbEntity
8
0
100
AcDbSpline
70
0
71
3
72
9
73
5
74
0
42
0.000000001
43
0.0000000001
44
0.0000000001
40
0
40
0
40
0
40
0
40
0.14991922025385576
40
0.27655425835019765
40
0.27655425835019765
40
0.27655425835019765
40
0.27655425835019765
10
49.651087835983603
20
103.82269438797208
30
0
10
49.161019492800015
20
103.96017072577692
30
0
10
48.256996066313711
20
104.21377174223059
30
0
10
47.581483298835856
20
104.86140703935403
30
0
10
47.272163943008749
20
105.15796121650907
30
0
0
SPLINE
5
147
100
AcDbEntity
8
0
100
AcDbSpline
70
0
71
3
72
9
73
5
74
0
42
0.000000001
43
0.0000000001
44
0.0000000001
40
0
40
0
40
0
40
0
40
0.1211354436559582
40
0.25360981198952809
40
0.25360981198952809
40
0.25360981198952809
40
0.25360981198952809
10
47.272163943008749
20
105.15796121650907
30
0
10
47.049955380448019
20
105.50353425662267
30
0
10
46.584738346748587
20
106.22702781958654
30
0
10
46.535570412654081
20
107.08744135969347
30
0
10
46.509887293533652
20
107.53688272529813
30
0
0
SPLINE
5
148
100
AcDbEntity
8
0
100
AcDbSpline
70
0
71
3
72
9
73
5
74
0
42
0.000000001
43
0.0000000001
44
0.0000000001
40
0
40
0
40
0
40
0
40
0.11158722055370802
40
0.2186105316222316
40
0.2186105316222316
40
0.2186105316222316
40
0.2186105316222316
10
46.509887293533652
20
107.53688272529813
30
0
10
46.530536176344924
20
107.91250353157668
30
0
10
46.570989404110428
20
108.64838227953244
30
0
10
46.894031096344705
20
109.31035231680741
30
0
10
47.05217988844332
20
109.63442739540312
30
0
0
SPLINE
5
149
100
AcDbEntity
8
0
100
AcDbSpline
70
0
71
3
72
9
73
5
74
0
42
0.000000001
43
0.0000000001
44
0.0000000001
40
0
40
0
40
0
40
0
40
0.10524369461849434
40
0.21094170206999349
40
0.21094170206999349
40
0.21094170206999349
40
0.21094170206999349
10
47.05217988844332
20
109.63442739540312
30
0
10
47.249906608849003
20
109.92878906341818
30
0
10
47.646213590452859
20
110.51878309109222
30
0
10
48.238851493726393
20
110.91119638144235
30
0
10
48.535808638290739
20
111.10782560402129
30
0
0
SPLINE
5
150
100
AcDbEntity
8
0
100
AcDbSpline
70
0
71
3
72
9
73
5
74
0
42
0.000000001
43
0.0000000001
44
0.0000000001
40
0
40
0
40
0
40
0
40
0.078755915080117339
40
0.183504313182344
40
0.183504313182344
40
0.183504313182344
40
0.183504313182344
10
48.535808638290739
20
111.10782560402129
30
0
10
48.776696910135072
20
111.21515734845687
30
0
10
49.337975854497614
20
111.46524444382334
30
0
10
49.947670384206539
20
111.55036641580696
30
0
10
50.295697764114713
20
111.59895595604155
30
0
0
SPLINE
5
151
100
AcDbEntity
8
0
100
AcDbSpline
70
0
71
3
72
9
73
5
74
0
42
0.000000001
43
0.0000000001
44
0.0000000001
40
0
40
0
40
0
40
0
40
0.13110281716329317
40
0.20877849747800209
40
0.20877849747800209
40
0.20877849747800209
40
0.20877849747800209
10
50.295697764114713
20
111.59895595604155
30
0
10
50.729056688124949
20
111.65714162940922
30
0
10
51.419171721357614
20
111.74980109869678
30
0
10
52.11419801614003
20
111.7890083868447
30
0
10
52.372781351761198
20
111.80359539085599
30
0
0
LINE
5
152
100
AcDbEntity
8
0
100
AcDbLine
10
52.372781351761198
20
111.80359539085599
30
0
11
52.578882730808402
21
111.80359539085599
31
0
0
LINE
5
153
100
AcDbEntity
8
0
100
AcDbLine
10
52.578882730808402
20
111.80359539085599
30
0
11
52.578882730808402
21
108.5360884536905
31
0
0
SPLINE
5
154
100
AcDbEntity
8
0
100
AcDbSpline
70
0
71
3
72
9
73
5
74
0
42
0.000000001
43
0.0000000001
44
0.0000000001
40
0.075038604320590438
40
0.075038604320590438
40
0.075038604320590438
40
0.075038604320590438
40
0.10261423165657022
40
0.17658406410924982
40
0.17658406410924982
40
0.17658406410924982
40
0.17658406410924982
10
52.578882730808402
20
108.5360884536905
30
0
10
52.488942875599832
20
108.52130073952668
30
0
10
52.163082966072665
20
108.4478813630089
30
0
10
51.864102378124173
20
108.2789624773533
30
0
10
51.646312788681357
20
108.15591510826322
30
0
0
SPLINE
5
155
100
AcDbEntity
8
0
100
AcDbSpline
70
0
71
3
72
9
73
5
74
0
42
0.000000001
43
0.0000000001
44
0.0000000001
40
0
40
0
40
0
40
0
40
0.061904427660036468
40
0.1273988379833948
40
0.1273988379833948
40
0.1273988379833948
40
0.1273988379833948
10
51.646312788681357
20
108.15591510826322
30
0
10
51.503097349030554
20
107.9990244565375
30
0
10
51.208361071150875
20
107.67614469694934
30
0
10
51.173236980279299
20
107.23951932618803
30
0
10
51.155180052475302
20
107.01505478912564
30
0
0
SPLINE
5
156
100
AcDbEntity
8
0
100
AcDbSpline
70
0
71
3
72
9
73
5
74
0
42
0.000000001
43
0.0000000001
44
0.0000000001
40
0
40
0
40
0
40
0
40
0.061202804635093942
40
0.120633195287908
40
0.120633195287908
40
0.120633195287908
40
0.120633195287908
10
51.155180052475302
20
107.01505478912564
30
0
10
51.174214364849178
20
106.80525892714675
30
0
10
51.211731761894285
20
106.39174282539962
30
0
10
51.499452180040628
20
106.09299715092901
30
0
10
51.641198710159628
20
105.94581898742886
30
0
0
SPLINE
5
157
100
AcDbEntity
8
0
100
AcDbSpline
70
0
71
3
72
9
73
5
74
0
42
0.000000001
43
0.0000000001
44
0.0000000001
40
0
40
0
40
0
40
0
40
0.073438769148004915
40
0.10132211858521924
40
0.10132211858521924
40
0.10132211858521924
40
0.10132211858521924
10
51.641198710159628
20
105.94581898742886
30
0
10
51.859891729390355
20
105.82878948444832
30
0
10
52.161618464265196
20
105.66732603242525
30
0
10
52.487772852594254
20
105.59717049280724
30
0
10
52.578882730808388
20
105.58292436126811
30
0
0
LINE
5
158
100
AcDbEntity
8
0
100
AcDbLine
10
52.578882730808388
20
105.58292436126811
30
0
11
52.578882730808388
21
102.52420487652367
31
0
0
LWPOLYLINE
5
159
100
AcDbEntity
8
0
100
AcDbPolyline
90
12
70
1
43
0.0
10
-9.4689640248257412
20
96.803594198763108
10
-21.890524312301327
20
96.803594198763108
10
-21.890524312301324
20
100.00618633323882
10
-14.114254399581583
20
100.00618633323882
10
-14.114254399581581
20
102.3902243047354
10
-21.327761098189981
20
102.3902243047354
10
-21.327761098189978
20
105.4495709806082
10
-14.114254399581583
20
105.4495709806082
10
-14.114254399581581
20
108.40659674698088
10
-22.115620061202677
20
108.40659674698088
10
-22.115620061202673
20
111.803595390856
10
-9.4689640248257234
20
111.803595390856
0
LINE
5
160
100
AcDbEntity
8
0
100
AcDbLine
10
-60.106762334151895
20
106.37044366890167
30
0
11
-60.106762334151895
21
103.24970659309601
31
0
0
LINE
5
161
100
AcDbEntity
8
0
100
AcDbLine
10
-60.106762334151895
20
103.24970659309601
30
0
11
-67.269104405685098
21
103.24970659309601
31
0
0
LINE
5
162
100
AcDbEntity
8
0
100
AcDbLine
10
-67.269104405685098
20
103.24970659309601
30
0
11
-67.269104405685084
21
109.64466032081818
31
0
0
SPLINE
5
163
100
AcDbEntity
8
0
100
AcDbSpline
70
0
71
3
72
9
73
5
74
0
42
0.000000001
43
0.0000000001
44
0.0000000001
40
0
40
0
40
0
40
0
40
0.22676232650211067
40
0.41176498505752235
40
0.41176498505752235
40
0.41176498505752235
40
0.41176498505752235
10
-67.269104405685098
20
109.64466032081818
30
0
10
-66.636597793780425
20
110.06326702712508
30
0
10
-65.488064527178551
20
110.823391457079
30
0
10
-64.207157953410785
20
111.32675528599492
30
0
10
-63.631657048507364
20
111.55291256004546
30
0
0
SPLINE
5
164
100
AcDbEntity
8
0
100
AcDbSpline
70
0
71
3
72
9
73
5
74
0
42
0.000000001
43
0.0000000001
44
0.0000000001
40
0
40
0
40
0
40
0
40
0.17691759425241535
40
0.3795221591539194
40
0.3795221591539194
40
0.3795221591539194
40
0.3795221591539194
10
-63.631657048507364
20
111.55291256004546
30
0
10
-63.058622462713139
20
111.70045501477438
30
0
10
-61.829353411268748
20
112.01696186770894
30
0
10
-60.559537238216606
20
112.04462472646968
30
0
10
-59.881657048507364
20
112.05939230018828
30
0
0
SPLINE
5
165
100
AcDbEntity
8
0
100
AcDbSpline
70
0
71
3
72
9
73
5
74
0
42
0.000000001
43
0.0000000001
44
0.0000000001
40
0
40
0
40
0
40
0
40
0.24343652976677452
40
0.44816358740779505
40
0.44816358740779505
40
0.44816358740779505
40
0.44816358740779505
10
-59.881657048507364
20
112.05939230018828
30
0
10
-59.062098852002158
20
112.0364165382789
30
0
10
-57.553302527197815
20
111.99411844977676
30
0
10
-56.163055094850151
20
111.41383410525977
30
0
10
-55.527971669479044
20
111.14875253730986
30
0
0
SPLINE
5
166
100
AcDbEntity
8
0
100
AcDbSpline
70
0
71
3
72
9
73
5
74
0
42
0.000000001
43
0.0000000001
44
0.0000000001
40
0
40
0
40
0
40
0
40
0.18750236525474698
40
0.38075883805994071
40
0.38075883805994071
40
0.38075883805994071
40
0.38075883805994071
10
-55.527971669479044
20
111.14875253730986
30
0
10
-54.996223939550646
20
110.80369681595246
30
0
10
-53.916410106197304
20
110.10299623891454
30
0
10
-53.254692162730493
20
108.99809255645874
30
0
10
-52.918833180709512
20
108.43729194694731
30
0
0
SPLINE
5
167
100
AcDbEntity
8
0
100
AcDbSpline
70
0
71
3
72
9
73
5
74
0
42
0.000000001
43
0.0000000001
44
0.0000000001
40
0
40
0
40
0
40
0
40
0.20547599220322105
40
0.42667686751920231
40
0.42667686751920231
40
0.42667686751920231
40
0.42667686751920231
10
-52.918833180709512
20
108.43729194694731
30
0
10
-52.648852932090513
20
107.80148054029021
30
0
10
-52.088231102076975
20
106.48119968209087
30
0
10
-52.025411445606139
20
105.04708130411655
30
0
10
-51.992844029708536
20
104.303595390856
30
0
0
SPLINE
5
168
100
AcDbEntity
8
0
100
AcDbSpline
70
0
71
3
72
9
73
5
74
0
42
0.000000001
43
0.0000000001
44
0.0000000001
40
0
40
0
40
0
40
0
40
0.23097141850951217
40
0.44267651792626184
40
0.44267651792626184
40
0.44267651792626184
40
0.44267651792626184
10
-51.992844029708536
20
104.303595390856
30
0
10
-52.027205280434572
20
103.52616530000401
30
0
10
-52.093061562225458
20
102.03615390478328
30
0
10
-52.71051707647139
20
100.68022440049347
30
0
10
-53.005808278365762
20
100.03176626259062
30
0
0
SPLINE
5
169
100
AcDbEntity
8
0
100
AcDbSpline
70
0
71
3
72
9
73
5
74
0
42
0.000000001
43
0.0000000001
44
0.0000000001
40
0
40
0
40
0
40
0
40
0.20273409897280906
40
0.41011113949561384
40
0.41011113949561384
40
0.41011113949561384
40
0.41011113949561384
10
-53.005808278365762
20
100.03176626259062
30
0
10
-53.386298545744765
20
99.461101338388502
30
0
10
-54.155992928250726
20
98.306702332397364
30
0
10
-55.362817423899443
20
97.620997418998542
30
0
10
-55.973061009689005
20
97.274263468324889
30
0
0
SPLINE
5
170
100
AcDbEntity
8
0
100
AcDbSpline
70
0
71
3
72
9
73
5
74
0
42
0.000000001
43
0.0000000001
44
0.0000000001
40
0
40
0
40
0
40
0
40
0.18691963045033214
40
0.41912872344020391
40
0.41912872344020391
40
0.41912872344020391
40
0.41912872344020391
10
-55.973061009689005
20
97.274263468324889
30
0
10
-56.563461550267569
20
97.063015220423409
30
0
10
-57.887313006077349
20
96.589334589562952
30
0
10
-59.295749920957149
20
96.562605026530179
30
0
10
-60.076063557906792
20
96.547796097337951
30
0
0
SPLINE
5
171
100
AcDbEntity
8
0
100
AcDbSpline
70
0
71
3
72
9
73
5
74
0
42
0.000000001
43
0.0000000001
44
0.0000000001
40
0
40
0
40
0
40
0
40
0.2175917017414995
40
0.37586501900051045
40
0.37586501900051045
40
0.37586501900051045
40
0.37586501900051045
10
-60.076063557906792
20
96.547796097337951
30
0
10
-60.804950325897451
20
96.551384455044555
30
0
10
-62.064019659458225
20
96.557582936543554
30
0
10
-63.282340875288853
20
96.867498220394864
30
0
10
-63.795364781661661
20
96.998000708162536
30
0
0
SPLINE
5
172
100
AcDbEntity
8
0
100
AcDbSpline
70
0
71
3
72
9
73
5
74
0
42
0.000000001
43
0.0000000001
44
0.0000000001
40
0
40
0
40
0
40
0
40
0.12658319747247837
40
0.24985626260439264
40
0.24985626260439264
40
0.24985626260439264
40
0.24985626260439264
10
-63.795364781661661
20
96.998000708162536
30
0
10
-64.187018559572167
20
97.166607409077997
30
0
10
-64.960084425639309
20
97.49941177001979
30
0
10
-65.550468368218716
20
98.098890670565197
30
0
10
-65.841749593063028
20
98.39465912872528
30
0
0
SPLINE
5
173
100
AcDbEntity
8
0
100
AcDbSpline
70
0
71
3
72
9
73
5
74
0
42
0.000000001
43
0.0000000001
44
0.0000000001
40
0
40
0
40
0
40
0
40
0.12880239902669427
40
0.27091234483902138
40
0.27091234483902138
40
0.27091234483902138
40
0.27091234483902138
10
-65.841749593063028
20
98.39465912872528
30
0
10
-66.099018141793806
20
98.742125026066645
30
0
10
-66.640135592374392
20
99.472956141881753
30
0
10
-66.918464557939942
20
100.33949378077601
30
0
10
-67.064464970870645
20
100.79404529625153
30
0
0
LINE
5
174
100
AcDbEntity
8
0
100
AcDbLine
10
-67.064464970870631
20
100.79404529625153
30
0
11
-62.593115254684122
21
101.59213480049347
31
0
0
SPLINE
5
175
100
AcDbEntity
8
0
100
AcDbSpline
70
0
71
3
72
9
73
5
74
0
42
0.000000001
43
0.0000000001
44
0.0000000001
40
0
40
0
40
0
40
0
40
0.083680985220970977
40
0.16245947928679461
40
0.16245947928679461
40
0.16245947928679461
40
0.16245947928679461
10
-62.593115254684122
20
101.59213480049347
30
0
10
-62.488539123064854
20
101.32811511142788
30
0
10
-62.285513503280008
20
100.81554345499008
30
0
10
-61.862174966435092
20
100.4634264597002
30
0
10
-61.656893178268106
20
100.29268082672333
30
0
0
SPLINE
5
176
100
AcDbEntity
8
0
100
AcDbSpline
70
0
71
3
72
9
73
5
74
0
42
0.000000001
43
0.0000000001
44
0.0000000001
40
0
40
0
40
0
40
0
40
0.082319607861607746
40
0.1762353031207276
40
0.1762353031207276
40
0.1762353031207276
40
0.1762353031207276
10
-61.656893178268106
20
100.29268082672333
30
0
10
-61.411816699211066
20
100.16152369341056
30
0
10
-60.887140638472403
20
99.880733760777758
30
0
10
-60.291278463149581
20
99.855776125755696
30
0
10
-59.973743840499552
20
99.842476215898742
30
0
0
SPLINE
5
177
100
AcDbEntity
8
0
100
AcDbSpline
70
0
71
3
72
9
73
5
74
0
42
0.000000001
43
0.0000000001
44
0.0000000001
40
0
40
0
40
0
40
0
40
0.13951417173670874
40
0.2719922404535059
40
0.2719922404535059
40
0.2719922404535059
40
0.2719922404535059
10
-59.973743840499552
20
99.842476215898742
30
0
10
-59.495501670111182
20
99.881853505039061
30
0
10
-58.563136464598173
20
99.958622172787557
30
0
10
-57.877578806075022
20
100.59266151846623
30
0
10
-57.543667241378458
20
100.90148028427336
30
0
0
SPLINE
5
178
100
AcDbEntity
8
0
100
AcDbSpline
70
0
71
3
72
9
73
5
74
0
42
0.000000001
43
0.0000000001
44
0.0000000001
40
0
40
0
40
0
40
0
40
0.15266278404132641
40
0.35232176837796625
40
0.35232176837796625
40
0.35232176837796625
40
0.35232176837796625
10
-57.543667241378458
20
100.90148028427336
30
0
10
-57.28073814744377
20
101.34642780616093
30
0
10
-56.673939025347231
20
102.37329691988276
30
0
10
-56.651085425319501
20
103.57272540655768
30
0
10
-56.638134404464395
20
104.25243553215239
30
0
0
SPLINE
5
179
100
AcDbEntity
8
0
100
AcDbSpline
70
0
71
3
72
9
73
5
74
0
42
0.000000001
43
0.0000000001
44
0.0000000001
40
0
40
0
40
0
40
0
40
0.2099829376655227
40
0.36516369821156996
40
0.36516369821156996
40
0.36516369821156996
40
0.36516369821156996
10
-56.638134404464395
20
104.25243553215239
30
0
10
-56.64731865789161
20
104.96779055285566
30
0
10
-56.663290221981875
20
106.21180441321187
30
0
10
-57.288289553031731
20
107.27813785340044
30
0
10
-57.553890630050333
20
107.73128923469756
30
0
0
SPLINE
5
180
100
AcDbEntity
8
0
100
AcDbSpline
70
0
71
3
72
9
73
5
74
0
42
0.000000001
43
0.0000000001
44
0.0000000001
40
0
40
0
40
0
40
0
40
0.13468976407140434
40
0.28268447144199615
40
0.28268447144199615
40
0.28268447144199615
40
0.28268447144199615
10
-57.553890630050333
20
107.73128923469756
30
0
10
-57.901018805531677
20
108.03550515060721
30
0
10
-58.629565220955975
20
108.67398808200181
30
0
10
-59.599151645613695
20
108.74025314580331
30
0
10
-60.106762334151895
20
108.77494510704253
30
0
0
SPLINE
5
181
100
AcDbEntity
8
0
100
AcDbSpline
70
0
71
3
72
9
73
5
74
0
42
0.000000001
43
0.0000000001
44
0.0000000001
40
0
40
0
40
0
40
0
40
0.076179744184300152
40
0.1505128914865741
40
0.1505128914865741
40
0.1505128914865741
40
0.1505128914865741
10
-60.106762334151895
20
108.77494510704253
30
0
10
-60.361504828682833
20
108.76603487930667
30
0
10
-60.864814860068535
20
108.74843040774158
30
0
10
-61.35051387212981
20
108.61549542139473
30
0
10
-61.590383931441934
20
108.5498433976767
30
0
0
SPLINE
5
182
100
AcDbEntity
8
0
100
AcDbSpline
70
0
71
3
72
9
73
5
74
0
42
0.000000001
43
0.0000000001
44
0.0000000001
40
0
40
0
40
0
40
0
40
0.081605805143030244
40
0.17923193258811329
40
0.17923193258811329
40
0.17923193258811329
40
0.17923193258811329
10
-61.590383931441934
20
108.5498433976767
30
0
10
-61.845708299619417
20
108.4546462686998
30
0
10
-62.406480659687169
20
108.24556352791359
30
0
10
-62.92474132830737
20
107.94575323849251
30
0
10
-63.207033559127481
20
107.78244909340118
30
0
0
LINE
5
183
100
AcDbEntity
8
0
100
AcDbLine
10
-63.207033559127481
20
107.78244909340118
30
0
11
-63.207033559127481
21
106.37044366890167
31
0
0
LINE
5
184
100
AcDbEntity
8
0
100
AcDbLine
10
-63.207033559127481
20
106.37044366890167
30
0
11
-60.106762334151895
21
106.37044366890167
31
0
0
SPLINE
5
185
100
AcDbEntity
8
0
100
AcDbSpline
70
0
71
3
72
11
73
7
74
0
42
0.000000001
43
0.0000000001
44
0.0000000001
40
0
40
0
40
0
40
0
40
0.17412561780659247
40
0.17412561780659247
40
0.17412561780659247
40
0.24100225081388452
40
0.24100225081388452
40
0.24100225081388452
40
0.24100225081388452
10
72.108671940031087
20
-21.365914951858226
30
0
10
74.200629093466517
20
-21.715106006863977
30
0
10
76.071265757771528
20
-21.561498573813203
30
0
10
77.720372113826926
20
-20.972197361952936
30
0
10
78.358149567249185
20
-20.744290274687877
30
0
10
78.944235176735603
20
-20.459258663299007
30
0
10
79.497288276708545
20
-20.159983717708823
30
0
0
SPLINE
5
186
100
AcDbEntity
8
0
100
AcDbSpline
70
4
71
5
72
36
73
30
74
0
42
0.000000001
43
0.0000000001
44
0.0000000001
40
-0.98270492056087766
40
-0.98270492056087766
40
-0.98270492056087766
40
-0.98270492056087766
40
-0.98270492056087766
40
-0.98270492056087766
40
-0.9600000000000003
40
-0.92000000000000026
40
-0.88000000000000023
40
-0.84000000000000019
40
-0.80000000000000016
40
-0.76000000000000012
40
-0.72000000000000008
40
-0.68000000000000005
40
-0.64000000000000001
40
-0.59999999999999998
40
-0.55999999999999994
40
-0.51999999999999991
40
-0.47999999999999993
40
-0.43999999999999995
40
-0.39999999999999997
40
-0.35999999999999999
40
-0.32000000000000001
40
-0.28000000000000003
40
-0.24000000000000002
40
-0.20000000000000001
40
-0.16
40
-0.12
40
-0.080000000000000002
40
-0.040000000000000001
40
0
40
0
40
0
40
0
40
0
40
0
41
1
41
1
41
1
41
1
41
1
41
1
41
1
41
1
41
1
41
1
41
1
41
1
41
1
41
1
41
1
41
1
41
1
41
1
41
1
41
1
41
1
41
1
41
1
41
1
41
1
41
1
41
1
41
1
41
1
41
1
10
79.497288252042594
20
-20.159983606899115
30
0
10
79.632755512031494
20
-20.28921497713819
30
0
10
80.005075221465347
20
-20.632197129870402
30
0
10
80.606721767449841
20
-21.13097606559155
30
0
10
81.423865417986747
20
-21.680433765898645
30
0
10
82.434098407080427
20
-22.128730251856812
30
0
10
83.485975758956229
20
-22.312232426659783
30
0
10
84.464324767056155
20
-22.204518884564131
30
0
10
85.337424737278113
20
-21.835641991406334
30
0
10
86.05658533730292
20
-21.255444622031337
30
0
10
86.558222418344499
20
-20.534658632858587
30
0
10
86.783620288214323
20
-19.754290245140162
30
0
10
86.694355976708465
20
-18.997601527155197
30
0
10
86.291840590378513
20
-18.340854591484433
30
0
10
85.629408422798718
20
-17.845393803964132
30
0
10
84.786961055107227
20
-17.554538412906783
30
0
10
83.85079225983938
20
-17.489780979429028
30
0
10
82.891283460811536
20
-17.646789586153396
30
0
10
81.942412808495646
20
-17.991546243756002
30
0
10
81.011178137714779
20
-18.470188355249025
30
0
10
80.085823835717889
20
-19.018035208793084
30
0
10
79.144435908889747
20
-19.568920467381531
30
0
10
78.16287250904017
20
-20.063833455308924
30
0
10
77.123889724095449
20
-20.461143428695191
30
0
10
76.016866297960689
20
-20.73466494078437
30
0
10
74.83590238123864
20
-20.869657525316011
30
0
10
73.830034491963289
20
-20.861713047514833
30
0
10
73.041080702111515
20
-20.789924609144101
30
0
10
72.499795393696147
20
-20.712884999305473
30
0
10
72.22532366733779
20
-20.667069973152124
30
0
0
LINE
5
187
100
AcDbEntity
8
0
100
AcDbLine
10
72.22532366733779
20
-20.667069973152124
30
0
11
71.977838571644114
21
-16.829999083340812
31
0
0
SPLINE
5
188
100
AcDbEntity
8
0
100
AcDbSpline
70
4
71
5
72
41
73
35
74
0
42
0.000000001
43
0.0000000001
44
0.0000000001
40
0
40
0
40
0
40
0
40
0
40
0
40
0.033333333333333333
40
0.066666666666666666
40
0.10000000000000001
40
0.13333333333333333
40
0.16666666666666666
40
0.19999999999999998
40
0.23333333333333331
40
0.26666666666666666
40
0.29999999999999999
40
0.33333333333333331
40
0.36666666666666664
40
0.39999999999999997
40
0.43333333333333329
40
0.46666666666666662
40
0.49999999999999994
40
0.53333333333333333
40
0.56666666666666665
40
0.59999999999999998
40
0.6333333333333333
40
0.66666666666666663
40
0.69999999999999996
40
0.73333333333333328
40
0.76666666666666661
40
0.79999999999999993
40
0.83333333333333326
40
0.86666666666666659
40
0.89999999999999991
40
0.93333333333333324
40
0.96666666666666656
40
1
40
1
40
1
40
1
40
1
40
1
41
1
41
1
41
1
41
1
41
1
41
1
41
1
41
1
41
1
41
1
41
1
41
1
41
1
41
1
41
1
41
1
41
1
41
1
41
1
41
1
41
1
41
1
41
1
41
1
41
1
41
1
41
1
41
1
41
1
41
1
41
1
41
1
41
1
41
1
41
1
10
71.977838571644114
20
-16.829999083340812
30
0
10
72.205582383213283
20
-16.88561859292895
30
0
10
72.659306582644632
20
-16.97940784461494
30
0
10
73.334602707075618
20
-17.067742375648702
30
0
10
74.224397144273297
20
-17.080633795921148
30
0
10
75.321798410977436
20
-16.924771837761877
30
0
10
76.413029210419424
20
-16.607396865016636
30
0
10
77.515655120097776
20
-16.150952928328191
30
0
10
78.659134045373349
20
-15.594373846709797
30
0
10
79.874711690687008
20
-14.991334827584446
30
0
10
81.184852503538167
20
-14.40897411130784
30
0
10
82.593724193033879
20
-13.925831680923613
30
0
10
84.074891505532889
20
-13.631909936354884
30
0
10
85.567124808333546
20
-13.622468089838415
30
0
10
86.989504856790845
20
-13.978032765742833
30
0
10
88.252949898164076
20
-14.745617748334375
30
0
10
89.272323055765597
20
-15.922086333192876
30
0
10
89.980173951151613
20
-17.429137842372505
30
0
10
90.333108432215852
20
-19.11706525203271
30
0
10
90.308176330729452
20
-20.80524314176078
30
0
10
89.902050794974002
20
-22.314045805810856
30
0
10
89.12919943199924
20
-23.498034233803168
30
0
10
88.020963742536708
20
-24.283899509511102
30
0
10
86.623664945714935
20
-24.690768795255028
30
0
10
84.994210533707985
20
-24.795885236131447
30
0
10
83.196263194259203
20
-24.710802268730824
30
0
10
81.296276318781068
20
-24.553335963974373
30
0
10
79.359716579559674
20
-24.422564495485947
30
0
10
77.447078696771655
20
-24.369586048479409
30
0
10
75.611994309752376
20
-24.407092210380089
30
0
10
73.899538609126708
20
-24.523097419066346
30
0
10
72.655422896351581
20
-24.65899598823168
30
0
10
71.803212644791358
20
-24.774060640084443
30
0
10
71.272106107043626
20
-24.854957828067921
30
0
10
71.015811269684846
20
-24.896453362554006
30
0
0
SPLINE
5
189
100
AcDbEntity
8
0
100
AcDbSpline
70
4
71
5
72
51
73
45
74
0
42
0.000000001
43
0.0000000001
44
0.0000000001
40
0
40
0
40
0
40
0
40
0
40
0
40
0.025000000000000001
40
0.050000000000000003
40
0.075000000000000011
40
0.10000000000000001
40
0.125
40
0.14999999999999999
40
0.17499999999999999
40
0.19999999999999998
40
0.22499999999999998
40
0.24999999999999997
40
0.27499999999999997
40
0.29999999999999999
40
0.32500000000000001
40
0.35000000000000003
40
0.37500000000000006
40
0.40000000000000008
40
0.4250000000000001
40
0.45000000000000012
40
0.47500000000000014
40
0.50000000000000011
40
0.52500000000000013
40
0.55000000000000016
40
0.57500000000000018
40
0.6000000000000002
40
0.62500000000000022
40
0.65000000000000024
40
0.67500000000000027
40
0.70000000000000029
40
0.72500000000000031
40
0.75000000000000033
40
0.77500000000000036
40
0.80000000000000038
40
0.8250000000000004
40
0.85000000000000042
40
0.87500000000000044
40
0.90000000000000047
40
0.92500000000000049
40
0.95000000000000051
40
0.97500000000000053
40
1
40
1
40
1
40
1
40
1
40
1
41
1
41
1
41
1
41
1
41
1
41
1
41
1
41
1
41
1
41
1
41
1
41
1
41
1
41
1
41
1
41
1
41
1
41
1
41
1
41
1
41
1
41
1
41
1
41
1
41
1
41
1
41
1
41
1
41
1
41
1
41
1
41
1
41
1
41
1
41
1
41
1
41
1
41
1
41
1
41
1
41
1
41
1
41
1
41
1
41
1
10
71.015811269684846
20
-24.896453362554006
30
0
10
70.510376552995552
20
-24.978286004728865
30
0
10
69.501055782604354
20
-25.130135368084872
30
0
10
67.991720582837189
20
-25.322461670603062
30
0
10
65.98793532552007
20
-25.50782147051164
30
0
10
63.494401168973297
20
-25.61973492576676
30
0
10
61.008650794158605
20
-25.609676060476257
30
0
10
58.528571792492386
20
-25.474631384015638
30
0
10
56.05485684577112
20
-25.210776178499184
30
0
10
53.592460248975023
20
-24.813536425574544
30
0
10
51.152198571681033
20
-24.277555403868444
30
0
10
48.752003438707526
20
-23.596938014383557
30
0
10
46.414164876366257
20
-22.768361601456743
30
0
10
44.162860876696605
20
-21.794068398924004
30
0
10
42.021617495737644
20
-20.684785732027436
30
0
10
40.010719963871594
20
-19.463054007695323
30
0
10
38.144797906355677
20
-18.165658955285426
30
0
10
36.429888424811885
20
-16.848410444197569
30
0
10
34.862148604868473
20
-15.583373522518727
30
0
10
33.429268824340667
20
-14.444229374792918
30
0
10
32.111158282034353
20
-13.494134795743305
30
0
10
30.88100036813524
20
-12.773143444627832
30
0
10
29.705827215967325
20
-12.28428753542179
30
0
10
28.548117692993607
20
-11.984378730173271
30
0
10
27.37218928014055
20
-11.799404138648185
30
0
10
26.149997110342625
20
-11.636507114538849
30
0
10
24.867104376707712
20
-11.397225923193169
30
0
10
23.529444998133005
20
-10.990284484075652
30
0
10
22.172289682755704
20
-10.345742185677004
30
0
10
20.86617197843227
20
-9.4271439767968985
30
0
10
19.730183420869775
20
-8.2485723024700448
30
0
10
18.911363017306535
20
-6.8698529070001655
30
0
10
18.544414538098593
20
-5.3803391622432315
30
0
10
18.721392571519615
20
-3.8869284507125852
30
0
10
19.448103668832236
20
-2.4992159279837125
30
0
10
20.638764740957498
20
-1.3203231574596237
30
0
10
22.158419636038658
20
-0.44384666969741837
30
0
10
23.852829854477164
20
0.050656919236486769
30
0
10
25.584049626577947
20
0.10182808971737552
30
0
10
27.261468350293576
20
-0.32953505523556087
30
0
10
28.830960013966504
20
-1.2656640028094444
30
0
10
29.978932463880732
20
-2.4262714672522097
30
0
10
30.775506195933303
20
-3.5293165788623346
30
0
10
31.277961590900038
20
-4.3679473737932062
30
0
10
31.522040743727576
20
-4.8130796523768078
30
0
0
SPLINE
5
190
100
AcDbEntity
8
0
100
AcDbSpline
70
4
71
5
72
21
73
15
74
0
42
0.000000001
43
0.0000000001
44
0.0000000001
40
0
40
0
40
0
40
0
40
0
40
0
40
0.10000000000000001
40
0.20000000000000001
40
0.30000000000000004
40
0.40000000000000002
40
0.5
40
0.59999999999999998
40
0.69999999999999996
40
0.79999999999999993
40
0.89999999999999991
40
1
40
1
40
1
40
1
40
1
40
1
41
1
41
1
41
1
41
1
41
1
41
1
41
1
41
1
41
1
41
1
41
1
41
1
41
1
41
1
41
1
10
31.522040743727576
20
-4.8130796523768078
30
0
10
31.634617415068377
20
-4.9264546978255588
30
0
10
31.860957048309928
20
-5.1498247882337731
30
0
10
32.204025215973743
20
-5.4747403608116043
30
0
10
32.668685301176552
20
-5.8873445765418744
30
0
10
33.262397091225111
20
-6.3663828746837856
30
0
10
33.870179548999509
20
-6.8053307721752461
30
0
10
34.493232381771413
20
-7.2007700413716327
30
0
10
35.132301923024507
20
-7.5505742154152333
30
0
10
35.786875013745728
20
-7.8562053962244436
30
0
10
36.455831093104493
20
-8.120856305950074
30
0
10
37.001583564045731
20
-8.302410631276798
30
0
10
37.416478613502456
20
-8.4226757546789486
30
0
10
37.695515307448211
20
-8.4959004277439529
30
0
10
37.835643662997917
20
-8.5307747168173371
30
0
0
LINE
5
191
100
AcDbEntity
8
0
100
AcDbLine
10
37.835643662997917
20
-8.5307747168173371
30
0
11
37.425946825389744
21
-11.374512105543374
31
0
0
SPLINE
5
192
100
AcDbEntity
8
0
100
AcDbSpline
70
4
71
5
72
36
73
30
74
0
42
0.000000001
43
0.0000000001
44
0.0000000001
40
0
40
0
40
0
40
0
40
0
40
0
40
0.040000000000000001
40
0.080000000000000002
40
0.12
40
0.16
40
0.20000000000000001
40
0.24000000000000002
40
0.28000000000000003
40
0.32000000000000001
40
0.35999999999999999
40
0.39999999999999997
40
0.43999999999999995
40
0.47999999999999993
40
0.51999999999999991
40
0.55999999999999994
40
0.59999999999999998
40
0.64000000000000001
40
0.68000000000000005
40
0.72000000000000008
40
0.76000000000000012
40
0.80000000000000016
40
0.84000000000000019
40
0.88000000000000023
40
0.92000000000000026
40
0.9600000000000003
40
0.97701957750049861
40
0.97701957750049861
40
0.97701957750049861
40
0.97701957750049861
40
0.97701957750049861
40
0.97701957750049861
41
1
41
1
41
1
41
1
41
1
41
1
41
1
41
1
41
1
41
1
41
1
41
1
41
1
41
1
41
1
41
1
41
1
41
1
41
1
41
1
41
1
41
1
41
1
41
1
41
1
41
1
41
1
41
1
41
1
41
1
10
37.425946825389744
20
-11.374512105543374
30
0
10
37.18905056685859
20
-11.340700962395873
30
0
10
36.723014122800585
20
-11.268337698013406
30
0
10
36.047227108281412
20
-11.145569368328182
30
0
10
35.192839413519145
20
-10.953361530425862
30
0
10
34.201965146367307
20
-10.664435583163371
30
0
10
33.285065240266846
20
-10.324261753377876
30
0
10
32.434723957506414
20
-9.9281010087342807
30
0
10
31.637957098205739
20
-9.4688732163689195
30
0
10
30.873464309066438
20
-8.9356780204029143
30
0
10
30.114348616471197
20
-8.3174495550958945
30
0
10
29.335000319573204
20
-7.6104981336677948
30
0
10
28.516831133386749
20
-6.8251452772671639
30
0
10
27.654409162602448
20
-5.9926259358079061
30
0
10
26.761884210259808
20
-5.1727751443124355
30
0
10
25.878599922251787
20
-4.4598746475963855
30
0
10
25.058675512422042
20
-3.9575570823112654
30
0
10
24.361314505814015
20
-3.7544599394214968
30
0
10
23.841442158032116
20
-3.9013805368885661
30
0
10
23.538863004638884
20
-4.3827275905664917
30
0
10
23.471886236207844
20
-5.1042685941081745
30
0
10
23.645280083768508
20
-5.9345322353111278
30
0
10
24.055155465147191
20
-6.7335545670362364
30
0
10
24.695589301564876
20
-7.392523006968478
30
0
10
25.56132240836299
20
-7.8439090183882669
30
0
10
26.522811483278733
20
-8.0248171317432391
30
0
10
27.394317069626617
20
-8.0096111640306713
30
0
10
28.07465523209261
20
-7.9199297986665682
30
0
10
28.496283801242885
20
-7.8399403778491195
30
0
10
28.62407403440934
20
-7.8136338469077344
30
0
0
SPLINE
5
193
100
AcDbEntity
8
0
100
AcDbSpline
70
0
71
3
72
14
73
10
74
0
42
0.000000001
43
0.0000000001
44
0.0000000001
40
-0.37274172937074024
40
-0.37274172937074024
40
-0.37274172937074024
40
-0.37274172937074024
40
-0.35411401575410573
40
-0.35411401575410573
40
-0.35411401575410573
40
-0.18829367468178534
40
-0.18829367468178534
40
-0.18829367468178534
40
-0.037718116801137534
40
-0.037718116801137534
40
-0.037718116801137534
40
-0.037718116801137534
10
28.624072184783998
20
-7.8136358450231143
30
0
10
28.752638945645728
20
-7.9353696382052732
30
0
10
28.880320462036714
20
-8.0551214638457829
30
0
10
29.006954918881082
20
-8.1719816614643594
30
0
10
30.13200873190284
20
-9.2101983853915463
30
0
10
31.173241860809156
20
-10.009214177768913
30
0
10
32.410122071322355
20
-10.61249244379686
30
0
10
33.527748849486635
20
-11.157605817805486
30
0
10
34.789871800391325
20
-11.551183481677027
30
0
10
36.224324532783847
20
-11.825954667215449
30
0
0
SPLINE
5
194
100
AcDbEntity
8
0
100
AcDbSpline
70
4
71
5
72
24
73
18
74
0
42
0.000000001
43
0.0000000001
44
0.0000000001
40
-0.96885057141922726
40
-0.96885057141922726
40
-0.96885057141922726
40
-0.96885057141922726
40
-0.96885057141922726
40
-0.96885057141922726
40
-0.93333333333333324
40
-0.86666666666666659
40
-0.79999999999999993
40
-0.73333333333333328
40
-0.66666666666666663
40
-0.59999999999999998
40
-0.53333333333333333
40
-0.46666666666666662
40
-0.39999999999999997
40
-0.33333333333333331
40
-0.26666666666666666
40
-0.20000000000000001
40
-0.13592724054208738
40
-0.13592724054208738
40
-0.13592724054208738
40
-0.13592724054208738
40
-0.13592724054208738
40
-0.13592724054208738
41
1
41
1
41
1
41
1
41
1
41
1
41
1
41
1
41
1
41
1
41
1
41
1
41
1
41
1
41
1
41
1
41
1
41
1
10
36.224323067906006
20
-11.825954386822012
30
0
10
36.491892809650707
20
-12.03281269305112
30
0
10
37.259750787088663
20
-12.619956832034784
30
0
10
38.519311364596561
20
-13.552107873359008
30
0
10
40.254761897863887
20
-14.763951366028449
30
0
10
42.443409801217001
20
-16.157488789362738
30
0
10
44.813567676067592
20
-17.487753831152343
30
0
10
47.148444951430847
20
-18.607687589601969
30
0
10
49.464534156479168
20
-19.518723568248916
30
0
10
51.789396354694581
20
-20.231509761837042
30
0
10
54.157510885290556
20
-20.763036094643105
30
0
10
56.604723608926477
20
-21.133042007630202
30
0
10
59.163605851301895
20
-21.361480953479241
30
0
10
61.836113012577655
20
-21.465161275842132
30
0
10
64.083781328034306
20
-21.461555738947148
30
0
10
65.829051855109753
20
-21.415011261506258
30
0
10
67.01331102676113
20
-21.365805643392161
30
0
10
67.600484311378622
20
-21.337354667141284
30
0
0
SPLINE
5
195
100
AcDbEntity
8
0
100
AcDbSpline
70
4
71
5
72
21
73
15
74
0
42
0.000000001
43
0.0000000001
44
0.0000000001
40
-0.94536484573358959
40
-0.94536484573358959
40
-0.94536484573358959
40
-0.94536484573358959
40
-0.94536484573358959
40
-0.94536484573358959
40
-0.89999999999999991
40
-0.79999999999999993
40
-0.69999999999999996
40
-0.59999999999999998
40
-0.5
40
-0.40000000000000002
40
-0.30000000000000004
40
-0.20000000000000001
40
-0.10000000000000001
40
0
40
0
40
0
40
0
40
0
40
0
41
1
41
1
41
1
41
1
41
1
41
1
41
1
41
1
41
1
41
1
41
1
41
1
41
1
41
1
41
1
10
67.600484663034536
20
-21.337361924641264
30
0
10
67.641056476801538
20
-21.332860796795849
30
0
10
67.771243982467539
20
-21.318758725348651
30
0
10
67.991974600165122
20
-21.296699149179066
30
0
10
68.305044221347742
20
-21.269864485546968
30
0
10
68.713314972321328
20
-21.243326577815751
30
0
10
69.178102993371041
20
-21.224932111009274
30
0
10
69.649824642478421
20
-21.218824409932189
30
0
10
70.128709021651844
20
-21.225409455784433
30
0
10
70.614422031322277
20
-21.244095205961564
30
0
10
71.106427038167027
20
-21.273930717039566
30
0
10
71.504641014542415
20
-21.305968244829824
30
0
10
71.80572819953332
20
-21.334296639727913
30
0
10
72.007513871823079
20
-21.355062177396782
30
0
10
72.108671940031087
20
-21.365914951858226
30
0
0
LWPOLYLINE
5
196
100
AcDbEntity
8
0
100
AcDbPolyline
90
8
70
1
43
0.0
10
-24.0260254606569
20
32.123441261895032
10
-28.122824060351547
20
-11.234343918206351
42
-0.41421356237309537
10
-32.799145324745162
20
-15.103242806014022
10
-66.980025933550294
20
-11.87355329967021
42
-0.41421356237309498
10
-70.848924821357969
20
-7.1972320352765706
10
-66.752126221663332
20
36.160553144824803
42
-0.41421356237309476
10
-62.07580495726971
20
40.029452032632456
10
-27.894924348464571
20
36.799762526288653
42
-0.4142135623730972
0
LWPOLYLINE
5
197
100
AcDbEntity
8
0
100
AcDbPolyline
90
12
70
1
43
0.0
10
-32.580489552042678
20
-54.300687658842364
10
11.357416805587564
20
-53.180189249908068
42
0.58775381364525581
10
14.718275938386505
20
-53.094481085292728
10
18.362947736866531
20
-53.00153516934391
42
-0.41421356237309132
10
18.896035387666586
20
-53.508109504031765
10
19.042245961090263
20
-59.241438915624428
42
-0.41421356237310991
10
18.535671626402408
20
-59.774526566424491
10
14.890999827922426
20
-59.867472482373358
42
0.58775381364526147
10
11.530140695123482
20
-59.953180646988706
10
-32.407765662506762
20
-61.073679055922923
42
-0.41421356237308449
10
-32.940853313306832
20
-60.567104721235069
10
-33.087063886730533
20
-54.833775309642419
42
-0.41421356237309509
0
LWPOLYLINE
5
198
100
AcDbEntity
8
0
100
AcDbPolyline
90
6
70
1
43
0.0
10
-56.706065640837366
20
-58.691205220068454
10
-53.91283355543851
20
-53.689547606799991
42
-0.41414148613303842
10
-53.205402889487686
20
-53.489026367450236
10
-26.373628383959932
20
-68.464872169163854
10
-35.916404115548715
20
-70.89701998095876
10
-56.505606781820234
20
-59.398747618686215
42
-0.41421356237324519
0
LWPOLYLINE
5
199
100
AcDbEntity
8
0
100
AcDbPolyline
90
12
70
1
43
0.0
10
-51.185380368184134
20
-76.398462727655115
10
-47.65246343411323
20
-75.498035385324243
42
0.58775381364526214
10
-44.394656750868585
20
-74.667724832213821
10
-1.8039978196442075
20
-63.812730348838862
42
-0.41421355178198865
10
-1.1716803388396406
20
-64.188196171402637
10
0.21197560753215192
20
-69.617108970975124
42
-0.41421356237309387
10
-0.163490210387707
20
-70.249426470000543
10
-42.75414912339123
20
-81.104420948731587
42
0.58775381364526247
10
-46.011955806635797
20
-81.934731501842037
10
-49.544872690560872
20
-82.835158831392292
42
-0.41421359152098403
10
-50.177190239732155
20
-82.459693026252978
10
-51.560846186103994
20
-77.030780226680534
42
-0.41421356237308532
0
LWPOLYLINE
5
200
100
AcDbEntity
8
0
100
AcDbPolyline
90
9
70
1
43
0.0
10
-23.529601533622927
20
-77.814569538038086
10
-14.713851263883438
20
-75.567717224732448
42
0.47633850470231975
10
-11.89266031503022
20
-76.551932053164933
10
-8.7095425105143267
20
-78.329580079209677
42
-0.41421356237310991
10
-8.5090836514974502
20
-79.037122477827396
10
-11.306002759107454
20
-84.045382200103916
42
-0.41421356237308959
10
-12.013545157725162
20
-84.245841059120821
10
-15.196662962241039
20
-82.468193033076091
42
0.58775381364525581
10
-18.131909573072761
20
-80.828971469772057
0
LWPOLYLINE
5
201
100
AcDbEntity
8
0
100
AcDbPolyline
90
11
70
1
43
0.0
10
-41.879871228962543
20
-15.969523866794413
10
-32.960629800062357
20
-16.812286836454287
42
0.4142135623730952
10
-26.413780029911287
20
-11.395828393523546
10
-22.316981430216639
20
31.961956786577836
42
0.18658275443465611
10
-23.492492784076944
20
36.13279023417536
10
-19.890765641254319
20
37.415467042227831
42
-0.41421356237309659
10
-14.408053687877702
20
34.812347988438653
10
0.20277764503928708
20
-6.214532251854159
42
-0.41421356237309509
10
-2.4003414087499135
20
-11.697244205230785
10
-34.743665437413206
20
-23.215615803580434
42
-0.41421356237309709
10
-40.226377390789864
20
-20.612496749791205
0
SPLINE
5
202
100
AcDbEntity
8
0
100
AcDbSpline
70
0
71
3
72
11
73
7
74
0
42
0.000000001
43
0.0000000001
44
0.0000000001
40
0
40
0
40
0
40
0
40
0.17843236280309835
40
0.17843236280309835
40
0.17843236280309835
40
0.23942457636767411
40
0.23942457636767411
40
0.23942457636767411
40
0.23942457636767411
10
68.541893016934452
20
-8.6605433943189354
30
0
10
70.484707116183486
20
-7.7328943632096134
30
0
10
71.928100636454602
20
-6.5142045680904133
30
0
10
72.932236757743169
20
-5.0602707492507504
30
0
10
73.278604465603934
20
-4.5587493782572484
30
0
10
73.563568800307905
20
-4.0462848328984986
30
0
10
73.819294729977528
20
-3.5376225567993873
30
0
0
SPLINE
5
203
100
AcDbEntity
8
0
100
AcDbSpline
70
4
71
5
72
36
73
30
74
0
42
0.000000001
43
0.0000000001
44
0.0000000001
40
-0.98619796008162619
40
-0.98619796008162619
40
-0.98619796008162619
40
-0.98619796008162619
40
-0.98619796008162619
40
-0.98619796008162619
40
-0.9600000000000003
40
-0.92000000000000026
40
-0.88000000000000023
40
-0.84000000000000019
40
-0.80000000000000016
40
-0.76000000000000012
40
-0.72000000000000008
40
-0.68000000000000005
40
-0.64000000000000001
40
-0.59999999999999998
40
-0.55999999999999994
40
-0.51999999999999991
40
-0.47999999999999993
40
-0.43999999999999995
40
-0.39999999999999997
40
-0.35999999999999999
40
-0.32000000000000001
40
-0.28000000000000003
40
-0.24000000000000002
40
-0.20000000000000001
40
-0.16
40
-0.12
40
-0.080000000000000002
40
-0.040000000000000001
40
0
40
0
40
0
40
0
40
0
40
0
41
1
41
1
41
1
41
1
41
1
41
1
41
1
41
1
41
1
41
1
41
1
41
1
41
1
41
1
41
1
41
1
41
1
41
1
41
1
41
1
41
1
41
1
41
1
41
1
41
1
41
1
41
1
41
1
41
1
41
1
10
73.819294518723396
20
-3.5376224199538306
30
0
10
74.035294891502531
20
-3.5727797596141904
30
0
10
74.569568983575635
20
-3.6489889621364613
30
0
10
75.379936657660195
20
-3.7200429877410999
30
0
10
76.391999612342232
20
-3.7046747687648307
30
0
10
77.497403928689067
20
-3.4883967003513909
30
0
10
78.464304822076116
20
-3.0353827117633152
30
0
10
79.203940733662805
20
-2.3859924538849535
30
0
10
79.707564837125489
20
-1.5830376091754279
30
0
10
79.96388091115054
20
-0.69527467562400636
30
0
10
79.961373811610883
20
0.18288585507600452
30
0
10
79.698409523106918
20
0.95140963691258418
30
0
10
79.191270774796735
20
1.5200538342506862
30
0
10
78.484855507538157
20
1.827157471237377
30
0
10
77.658038261184515
20
1.8530613248226324
30
0
10
76.801117499575071
20
1.6081098315873785
30
0
10
75.997108631926167
20
1.1241932281692852
30
0
10
75.301180145689955
20
0.44522903180104273
30
0
10
74.721653487922737
20
-0.38142780185075437
30
0
10
74.233366727141416
20
-1.3076417739380062
30
0
10
73.789590987469737
20
-2.287172198124328
30
0
10
73.33442400596158
20
-3.2783880251156088
30
0
10
72.814242872764879
20
-4.2467976295467595
30
0
10
72.191043835725836
20
-5.1681897296936548
30
0
10
71.441107146028287
20
-6.0272065190932214
30
0
10
70.551145162879777
20
-6.8151573032454458
30
0
10
69.722628543500434
20
-7.3855900654109643
30
0
10
69.035178506583122
20
-7.7793083767704454
30
0
10
68.547594950748149
20
-8.0266687665820449
30
0
10
68.296482220954331
20
-8.1465693173256764
30
0
0
LINE
5
204
100
AcDbEntity
8
0
100
AcDbLine
10
68.296482220954346
20
-8.1465693173256764
30
0
11
65.892810397375456
21
-5.1452960583888157
31
0
0
SPLINE
5
205
100
AcDbEntity
8
0
100
AcDbSpline
70
4
71
5
72
41
73
35
74
0
42
0.000000001
43
0.0000000001
44
0.0000000001
40
0
40
0
40
0
40
0
40
0
40
0
40
0.033333333333333333
40
0.066666666666666666
40
0.10000000000000001
40
0.13333333333333333
40
0.16666666666666666
40
0.19999999999999998
40
0.23333333333333331
40
0.26666666666666666
40
0.29999999999999999
40
0.33333333333333331
40
0.36666666666666664
40
0.39999999999999997
40
0.43333333333333329
40
0.46666666666666662
40
0.49999999999999994
40
0.53333333333333333
40
0.56666666666666665
40
0.59999999999999998
40
0.6333333333333333
40
0.66666666666666663
40
0.69999999999999996
40
0.73333333333333328
40
0.76666666666666661
40
0.79999999999999993
40
0.83333333333333326
40
0.86666666666666659
40
0.89999999999999991
40
0.93333333333333324
40
0.96666666666666656
40
1
40
1
40
1
40
1
40
1
40
1
41
1
41
1
41
1
41
1
41
1
41
1
41
1
41
1
41
1
41
1
41
1
41
1
41
1
41
1
41
1
41
1
41
1
41
1
41
1
41
1
41
1
41
1
41
1
41
1
41
1
41
1
41
1
41
1
41
1
41
1
41
1
41
1
41
1
41
1
41
1
10
65.892810397375456
20
-5.1452960583888157
30
0
10
66.111262062949137
20
-5.0602330886364175
30
0
10
66.536712731045043
20
-4.8768240314937215
30
0
10
67.140530798437098
20
-4.561861001374619
30
0
10
67.876780709728905
20
-4.0620678647505857
30
0
10
68.686300213687005
20
-3.304959137090969
30
0
10
69.398131397571476
20
-2.4190808598300721
30
0
10
70.039536636928744
20
-1.4127438341625926
30
0
10
70.656977573313199
20
-0.30094608915683357
30
0
10
71.306834787477101
20
0.89026384066730269
30
0
10
72.046017339817396
20
2.118772244995915
30
0
10
72.92298602030273
20
3.3226313276473638
30
0
10
73.967707664487989
20
4.4129509918177234
30
0
10
75.184662992873058
20
5.2765797253212803
30
0
10
76.553754171521561
20
5.801142286106554
30
0
10
78.028975190810371
20
5.8970347715142015
30
0
10
79.538786622980837
20
5.5179973488013365
30
0
10
80.983024699865609
20
4.6894857611500091
30
0
10
82.2402751362972
20
3.509244259981037
30
0
10
83.188136850906687
20
2.1120686167272402
30
0
10
83.720857081102963
20
0.64318993213912889
30
0
10
83.766868270120867
20
-0.76995895339966469
30
0
10
83.309797516215752
20
-2.0493527859721143
30
0
10
82.398560816031377
20
-3.1840923636278213
30
0
10
81.124079024082917
20
-4.2048112433801652
30
0
10
79.602485502933888
20
-5.166373018943422
30
0
10
77.955791328426329
20
-6.1271702375086008
30
0
10
76.2944514375056
20
-7.1308119994770323
30
0
10
74.697327914865511
20
-8.1844565699340759
30
0
10
73.215632201446127
20
-9.267738408658591
30
0
10
71.879412692205051
20
-10.344985662561701
30
0
10
70.93824376646306
20
-11.169900437297661
30
0
10
70.306154090467544
20
-11.752962067822221
30
0
10
69.917498787488256
20
-12.123858435887946
30
0
10
69.731355658282595
20
-12.304853829739608
30
0
0
SPLINE
5
206
100
AcDbEntity
8
0
100
AcDbSpline
70
4
71
5
72
16
73
10
74
0
42
0.000000001
43
0.0000000001
44
0.0000000001
40
0
40
0
40
0
40
0
40
0
40
0
40
0.20000000000000001
40
0.40000000000000002
40
0.60000000000000009
40
0.80000000000000004
40
1
40
1
40
1
40
1
40
1
40
1
41
1
41
1
41
1
41
1
41
1
41
1
41
1
41
1
41
1
41
1
10
69.731355658282595
20
-12.304853829739608
30
0
10
69.375640609618173
20
-12.623596385764049
30
0
10
68.660588399613999
20
-13.258768028809575
30
0
10
67.57714831518642
20
-14.204588004367844
30
0
10
66.10932838601957
20
-15.45084212780667
30
0
10
64.216887850828755
20
-16.971828340075042
30
0
10
62.627734153629504
20
-18.140585727086702
30
0
10
61.372320777776473
20
-18.976565144206731
30
0
10
60.502615293064359
20
-19.512958646080484
30
0
10
60.059564367191854
20
-19.775919159180155
30
0
0
SPLINE
5
207
100
AcDbEntity
8
0
100
AcDbSpline
70
0
71
3
72
8
73
4
74
0
42
0.000000001
43
0.0000000001
44
0.0000000001
40
0.31160326061228949
40
0.31160326061228949
40
0.31160326061228949
40
0.31160326061228949
40
0.51129690615540035
40
0.51129690615540035
40
0.51129690615540035
40
0.51129690615540035
10
60.05956436719184
20
-19.775919159180152
30
0
10
57.490462461729088
20
-19.651046174960648
30
0
10
55.165007808907411
20
-19.35799139220088
30
0
10
52.92126057142525
20
-18.818885592944042
30
0
0
SPLINE
5
208
100
AcDbEntity
8
0
100
AcDbSpline
70
4
71
5
72
20
73
14
74
0
42
0.000000001
43
0.0000000001
44
0.0000000001
40
-1
40
-1
40
-1
40
-1
40
-1
40
-1
40
-0.89999999999999991
40
-0.79999999999999993
40
-0.69999999999999996
40
-0.59999999999999998
40
-0.5
40
-0.40000000000000002
40
-0.30000000000000004
40
-0.20000000000000001
40
-0.10524598131578114
40
-0.10524598131578114
40
-0.10524598131578114
40
-0.10524598131578114
40
-0.10524598131578114
40
-0.10524598131578114
41
1
41
1
41
1
41
1
41
1
41
1
41
1
41
1
41
1
41
1
41
1
41
1
41
1
41
1
10
52.92126057142525
20
-18.818885592944046
30
0
10
53.17032026933046
20
-18.712039029979028
30
0
10
53.656408449828035
20
-18.500772248820031
30
0
10
54.349439256171166
20
-18.191158763547385
30
0
10
55.220251161159844
20
-17.778965221658858
30
0
10
56.318973675354023
20
-17.192008136031887
30
0
10
57.541827800203471
20
-16.449985562625944
30
0
10
58.975228684022021
20
-15.492067125909536
30
0
10
60.651743643140179
20
-14.300461857927688
30
0
10
62.556000310711902
20
-12.893361249944666
30
0
10
64.259796077111559
20
-11.602444070031968
30
0
10
65.628202634305055
20
-10.551629115115464
30
0
10
66.572779567650969
20
-9.8208911931450427
30
0
10
67.041782984059182
20
-9.4568653616354137
30
0
0
SPLINE
5
209
100
AcDbEntity
8
0
100
AcDbSpline
70
4
71
5
72
16
73
10
74
0
42
0.000000001
43
0.0000000001
44
0.0000000001
40
-0.47076280245997409
40
-0.47076280245997409
40
-0.47076280245997409
40
-0.47076280245997409
40
-0.47076280245997409
40
-0.47076280245997409
40
-0.40000000000000002
40
-0.30000000000000004
40
-0.20000000000000001
40
-0.10000000000000001
40
0
40
0
40
0
40
0
40
0
40
0
41
1
41
1
41
1
41
1
41
1
41
1
41
1
41
1
41
1
41
1
10
67.041783106175103
20
-9.4568655482840782
30
0
10
67.089988774927349
20
-9.4253267198814878
30
0
10
67.205713808333286
20
-9.3506938094615464
30
0
10
67.386897069662879
20
-9.2380065475281103
30
0
10
67.630036296802515
20
-9.0958283917899934
30
0
10
67.930634560439245
20
-8.935154882501644
30
0
10
68.179160260229366
20
-8.8154752314383096
30
0
10
68.361918040826168
20
-8.734607164800634
30
0
10
68.482166383293716
20
-8.6845832992337257
30
0
10
68.541893016934452
20
-8.6605433943189354
30
0
0
SPLINE
5
210
100
AcDbEntity
8
0
100
AcDbSpline
70
4
71
5
72
46
73
40
74
0
42
0.000000001
43
0.0000000001
44
0.0000000001
40
0
40
0
40
0
40
0
40
0
40
0
40
0.028571428571428571
40
0.057142857142857141
40
0.085714285714285715
40
0.11428571428571428
40
0.14285714285714285
40
0.17142857142857143
40
0.20000000000000001
40
0.22857142857142859
40
0.25714285714285717
40
0.28571428571428575
40
0.31428571428571433
40
0.34285714285714292
40
0.3714285714285715
40
0.40000000000000008
40
0.42857142857142866
40
0.45714285714285724
40
0.48571428571428582
40
0.51428571428571435
40
0.54285714285714293
40
0.57142857142857151
40
0.60000000000000009
40
0.62857142857142867
40
0.65714285714285725
40
0.68571428571428583
40
0.71428571428571441
40
0.74285714285714299
40
0.77142857142857157
40
0.80000000000000016
40
0.82857142857142874
40
0.85714285714285732
40
0.8857142857142859
40
0.91428571428571448
40
0.94285714285714306
40
0.97142857142857164
40
1
40
1
40
1
40
1
40
1
40
1
41
1
41
1
41
1
41
1
41
1
41
1
41
1
41
1
41
1
41
1
41
1
41
1
41
1
41
1
41
1
41
1
41
1
41
1
41
1
41
1
41
1
41
1
41
1
41
1
41
1
41
1
41
1
41
1
41
1
41
1
41
1
41
1
41
1
41
1
41
1
41
1
41
1
41
1
41
1
41
1
10
47.495785552697029
20
-24.820403885972262
30
0
10
47.179632884147694
20
-24.88855945662452
30
0
10
46.559565880721067
20
-25.018360939286119
30
0
10
45.666182589271791
20
-25.193534768272656
30
0
10
44.537507867622558
20
-25.386633940067071
30
0
10
43.170213022810032
20
-25.554185957965565
30
0
10
41.773170719081364
20
-25.642715999941807
30
0
10
40.28211176555854
20
-25.652529468509073
30
0
10
38.661002187302735
20
-25.593164344904366
30
0
10
36.927730155045047
20
-25.488739892314349
30
0
10
35.14359874177466
20
-25.374330886964465
30
0
10
33.390839252739106
20
-25.289373823780565
30
0
10
31.754473641620407
20
-25.272143226182664
30
0
10
30.301885306304332
20
-25.353663059978171
30
0
10
29.064514113554662
20
-25.552100105925064
30
0
10
28.015197067242838
20
-25.866138888296994
30
0
10
27.085799952753451
20
-26.277317101854987
30
0
10
26.190389526587357
20
-26.753444850598143
30
0
10
25.245512523569992
20
-27.251587199435928
30
0
10
24.19367512880962
20
-27.721064645783425
30
0
10
23.007004510963668
20
-28.107232598735127
30
0
10
21.688290494515876
20
-28.35540571400578
30
0
10
20.272097287206154
20
-28.414786473454971
30
0
10
18.828406750006778
20
-28.242293781641486
30
0
10
17.457231071057663
20
-27.806895774800864
30
0
10
16.268608385389463
20
-27.094380350549908
30
0
10
15.365197181802158
20
-26.112623684783376
30
0
10
14.825634253445809
20
-24.895738715555851
30
0
10
14.682839799523823
20
-23.511530894662712
30
0
10
14.926626155319598
20
-22.054828881669639
30
0
10
15.519806738984624
20
-20.633234104721634
30
0
10
16.410310311316422
20
-19.354851894228464
30
0
10
17.543959318389227
20
-18.316221234671396
30
0
10
18.879037229006546
20
-17.587572686427894
30
0
10
20.388001903721602
20
-17.21334897690809
30
0
10
22.053618421660659
20
-17.219135799866446
30
0
10
23.504282349875037
20
-17.536921725620655
30
0
10
24.657220012791093
20
-17.952669296657255
30
0
10
25.454671018168288
20
-18.30857510974478
30
0
10
25.860602872674654
20
-18.506213355172711
30
0
0
SPLINE
5
211
100
AcDbEntity
8
0
100
AcDbSpline
70
4
71
5
72
21
73
15
74
0
42
0.000000001
43
0.0000000001
44
0.0000000001
40
0
40
0
40
0
40
0
40
0
40
0
40
0.10000000000000001
40
0.20000000000000001
40
0.30000000000000004
40
0.40000000000000002
40
0.5
40
0.59999999999999998
40
0.69999999999999996
40
0.79999999999999993
40
0.89999999999999991
40
1
40
1
40
1
40
1
40
1
40
1
41
1
41
1
41
1
41
1
41
1
41
1
41
1
41
1
41
1
41
1
41
1
41
1
41
1
41
1
41
1
10
25.860602872674654
20
-18.506213355172711
30
0
10
26.017850185286292
20
-18.534510592279538
30
0
10
26.331377263369404
20
-18.587656464832286
30
0
10
26.798765364614358
20
-18.65702991614004
30
0
10
27.416047878394121
20
-18.728492865042675
30
0
10
28.177140540579124
20
-18.780359336254072
30
0
10
28.926757027775825
20
-18.791321592614814
30
0
10
29.663918801383193
20
-18.757891855913257
30
0
10
30.388017040992999
20
-18.677900124321837
30
0
10
31.099470178650854
20
-18.552837803676599
30
0
10
31.79919212893833
20
-18.385962334587195
30
0
10
32.350334103287324
20
-18.221682378110923
30
0
10
32.759138789258216
20
-18.082248573795219
30
0
10
33.029685108846834
20
-17.982199311103624
30
0
10
33.164460726061641
20
-17.930401302428553
30
0
0
LINE
5
212
100
AcDbEntity
8
0
100
AcDbLine
10
33.164460726061648
20
-17.930401302428553
30
0
11
34.459873688022142
21
-20.494895380606266
31
0
0
SPLINE
5
213
100
AcDbEntity
8
0
100
AcDbSpline
70
4
71
5
72
36
73
30
74
0
42
0.000000001
43
0.0000000001
44
0.0000000001
40
0
40
0
40
0
40
0
40
0
40
0
40
0.040000000000000001
40
0.080000000000000002
40
0.12
40
0.16
40
0.20000000000000001
40
0.24000000000000002
40
0.28000000000000003
40
0.32000000000000001
40
0.35999999999999999
40
0.39999999999999997
40
0.43999999999999995
40
0.47999999999999993
40
0.51999999999999991
40
0.55999999999999994
40
0.59999999999999998
40
0.64000000000000001
40
0.68000000000000005
40
0.72000000000000008
40
0.76000000000000012
40
0.80000000000000016
40
0.84000000000000019
40
0.88000000000000023
40
0.92000000000000026
40
0.9600000000000003
40
1
40
1
40
1
40
1
40
1
40
1
41
1
41
1
41
1
41
1
41
1
41
1
41
1
41
1
41
1
41
1
41
1
41
1
41
1
41
1
41
1
41
1
41
1
41
1
41
1
41
1
41
1
41
1
41
1
41
1
41
1
41
1
41
1
41
1
41
1
41
1
10
34.459873688022142
20
-20.494895380606266
30
0
10
34.249098229393617
20
-20.602698103336216
30
0
10
33.831157965426343
20
-20.809981602520772
30
0
10
33.215078861125065
20
-21.095940978180327
30
0
10
32.415364983145039
20
-21.4271584317815
30
0
10
31.450821738462224
20
-21.757243557450387
30
0
10
30.517569929696666
20
-22.003228381960152
30
0
10
29.607329031474858
20
-22.165803163489493
30
0
10
28.706211915739722
20
-22.247118618080492
30
0
10
27.791881568638637
20
-22.251294406219756
30
0
10
26.836646704639392
20
-22.185468330109831
30
0
10
25.817082279290769
20
-22.061476320838011
30
0
10
24.721811869124352
20
-21.897372672485037
30
0
10
23.560479623842973
20
-21.719244731255657
30
0
10
22.371732992749394
20
-21.562682382939897
30
0
10
21.233880681883655
20
-21.475374074905499
30
0
10
20.246140819180969
20
-21.506375048830044
30
0
10
19.507080340479259
20
-21.694006514649772
30
0
10
19.094176155885055
20
-22.054198074915277
30
0
10
19.042365119906282
20
-22.568187223989071
30
0
10
19.323283381813351
20
-23.170606472180918
30
0
10
19.870364765890749
20
-23.769444421255479
30
0
10
20.601358770500898
20
-24.264132218568967
30
0
10
21.443732553037623
20
-24.566002325687805
30
0
10
22.351812387796912
20
-24.612258938069687
30
0
10
23.298364376576227
20
-24.359589757864683
30
0
10
24.07620515294003
20
-23.897128592459712
30
0
10
24.669473475447813
20
-23.397788441576758
30
0
10
25.069439668423549
20
-22.996660577409912
30
0
10
25.270535984508243
20
-22.779037790326502
30
0
0
SPLINE
5
214
100
AcDbEntity
8
0
100
AcDbSpline
70
0
71
3
72
14
73
10
74
0
42
0.000000001
43
0.0000000001
44
0.0000000001
40
-0.37027804568409162
40
-0.37027804568409162
40
-0.37027804568409162
40
-0.37027804568409162
40
-0.35079140597824743
40
-0.35079140597824743
40
-0.35079140597824743
40
-0.18244986446130079
40
-0.18244986446130079
40
-0.18244986446130079
40
-0.042948204019936327
40
-0.042948204019936327
40
-0.042948204019936327
40
-0.042948204019936327
10
25.270535261997153
20
-22.779042421432965
30
0
10
25.453025200609471
20
-22.805906835213712
30
0
10
25.633536877446161
20
-22.831490300883242
30
0
10
25.811438592282762
20
-22.855064303439111
30
0
10
27.34067733211625
20
-23.057705846239731
30
0
10
28.654668097361736
20
-23.101138370126204
30
0
10
30.022076406031889
20
-22.867116236149293
30
0
10
31.152159321812714
20
-22.673710642629775
30
0
10
32.313566276097959
20
-22.303901309535689
30
0
10
33.537886928305845
20
-21.765379204821645
30
0
0
SPLINE
5
215
100
AcDbEntity
8
0
100
AcDbSpline
70
4
71
5
72
16
73
10
74
0
42
0.000000001
43
0.0000000001
44
0.0000000001
40
-1
40
-1
40
-1
40
-1
40
-1
40
-1
40
-0.80000000000000004
40
-0.60000000000000009
40
-0.40000000000000002
40
-0.20000000000000001
40
0
40
0
40
0
40
0
40
0
40
0
41
1
41
1
41
1
41
1
41
1
41
1
41
1
41
1
41
1
41
1
10
33.537886924043974
20
-21.765379210423564
30
0
10
33.803579016521333
20
-21.713036935218657
30
0
10
34.338770626560546
20
-21.62549423551787
30
0
10
35.152969122324478
20
-21.545555346034075
30
0
10
36.257445415533461
20
-21.523971468042692
30
0
10
37.653354455477356
20
-21.565995322859223
30
0
10
38.769316781603017
20
-21.596273232975342
30
0
10
39.59979508898207
20
-21.589841022997682
30
0
10
40.149626915284699
20
-21.568401894405529
30
0
10
40.423586638255514
20
-21.553389662035187
30
0
0
SPLINE
5
216
100
AcDbEntity
8
0
100
AcDbSpline
70
0
71
3
72
11
73
7
74
0
42
0.000000001
43
0.0000000001
44
0.0000000001
40
-0.30981299804137419
40
-0.30981299804137419
40
-0.30981299804137419
40
-0.30981299804137419
40
-0.24542199434672235
40
-0.24542199434672235
40
-0.24542199434672235
40
-0.23296180213903381
40
-0.23296180213903381
40
-0.23296180213903381
40
-0.23296180213903381
10
40.423586638255514
20
-21.55338966203518
30
0
10
42.24037014690964
20
-22.628033876901419
30
0
10
44.219054711058313
20
-23.600728929576551
30
0
10
46.287048384899769
20
-24.384785419194408
30
0
10
46.687222278484967
20
-24.53650683991728
30
0
10
47.09025042545484
20
-24.681679384687115
30
0
10
47.495785552697029
20
-24.820403885972262
30
0
0
LWPOLYLINE
5
217
100
AcDbEntity
8
0
100
AcDbPolyline
90
10
70
1
43
0.0
10
-31.621082707687069
20
96.803594198763108
10
-43.080833836837456
20
96.803594198763108
10
-43.080833836837456
20
100.026650991976
10
-36.27660600785795
20
100.026650991976
10
-36.276606007857943
20
102.64602359825346
10
-42.088344975753458
20
102.64602359825346
10
-42.088344975753458
20
105.67467268997405
10
-36.27660600785795
20
105.67467268997405
10
-36.276606007857943
20
111.803595390856
10
-31.621082707687052
20
111.803595390856
0
LWPOLYLINE
5
218
100
AcDbEntity
8
0
100
AcDbPolyline
90
12
70
1
43
0.0
10
-77.030371114059136
20
96.803594198763122
10
-81.66543810014312
20
96.803594198763122
10
-81.66543810014312
20
102.0525711446402
10
-86.730230733199761
20
102.0525711446402
10
-86.730230733199761
20
96.803594198763122
10
-91.385763570113824
20
96.803594198763122
10
-91.385763570113809
20
111.80359539085602
10
-86.730230733199733
20
111.80359539085602
10
-86.730230733199733
20
105.73606428199982
10
-81.665438100143092
20
105.73606428199982
10
-81.665438100143092
20
111.80359539085602
10
-77.030371114059108
20
111.80359539085602
0
LINE
5
219
100
AcDbEntity
8
0
100
AcDbLine
10
27.110158518509238
20
105.6644409566519
30
0
11
23.04808767195162
21
106.89227160507414
31
0
0
SPLINE
5
220
100
AcDbEntity
8
0
100
AcDbSpline
70
0
71
3
72
9
73
5
74
0
42
0.000000001
43
0.0000000001
44
0.0000000001
40
0
40
0
40
0
40
0
40
0.1654214309568916
40
0.31497309302165899
40
0.31497309302165899
40
0.31497309302165899
40
0.31497309302165899
10
23.04808767195162
20
106.89227160507414
30
0
10
23.19605577003264
20
107.42763067729329
30
0
10
23.47779658953538
20
108.44698894229354
30
0
10
24.060591835380009
20
109.32845211718012
30
0
10
24.337307528213834
20
109.7469776540396
30
0
0
SPLINE
5
221
100
AcDbEntity
8
0
100
AcDbSpline
70
0
71
3
72
9
73
5
74
0
42
0.000000001
43
0.0000000001
44
0.0000000001
40
0
40
0
40
0
40
0
40
0.14081865000002325
40
0.28082745305002788
40
0.28082745305002788
40
0.28082745305002788
40
0.28082745305002788
10
24.337307528213834
20
109.7469776540396
30
0
10
24.647683882236564
20
110.10523812611254
30
0
10
25.266651618308032
20
110.81969871709765
30
0
10
26.104237364523158
20
111.25776918787247
30
0
10
26.521822527603483
20
111.47617277199004
30
0
0
SPLINE
5
222
100
AcDbEntity
8
0
100
AcDbSpline
70
0
71
3
72
9
73
5
74
0
42
0.000000001
43
0.0000000001
44
0.0000000001
40
0
40
0
40
0
40
0
40
0.15455382481179084
40
0.33892242665311118
40
0.33892242665311118
40
0.33892242665311118
40
0.33892242665311118
10
26.521822527603483
20
111.47617277199004
30
0
10
27.011503987341278
20
111.64593276986523
30
0
10
28.08533071937763
20
112.0182009456839
30
0
10
29.223134674898983
20
112.04487954911019
30
0
10
29.842082575516081
20
112.05939230018828
30
0
0
SPLINE
5
223
100
AcDbEntity
8
0
100
AcDbSpline
70
0
71
3
72
9
73
5
74
0
42
0.000000001
43
0.0000000001
44
0.0000000001
40
0
40
0
40
0
40
0
40
0.2228700495045686
40
0.40809944293704292
40
0.40809944293704292
40
0.40809944293704292
40
0.40809944293704292
10
29.842082575516081
20
112.05939230018828
30
0
10
30.590552078567896
20
112.04237117687775
30
0
10
31.961081622263031
20
112.01120363796153
30
0
10
33.251809514683103
20
111.55556249357173
30
0
10
33.837648943619108
20
111.34875473076079
30
0
0
SPLINE
5
224
100
AcDbEntity
8
0
100
AcDbSpline
70
0
71
3
72
9
73
5
74
0
42
0.000000001
43
0.0000000001
44
0.0000000001
40
0
40
0
40
0
40
0
40
0.17453114006055614
40
0.37014548688942062
40
0.37014548688942062
40
0.37014548688942062
40
0.37014548688942062
10
33.837648943619108
20
111.34875473076079
30
0
10
34.346091530554752
20
111.05149459617307
30
0
10
35.424396117525923
20
110.42106556665087
30
0
10
36.13680375864736
20
109.3923720598694
30
0
10
36.513296679214804
20
108.84872850471709
30
0
0
SPLINE
5
225
100
AcDbEntity
8
0
100
AcDbSpline
70
0
71
3
72
9
73
5
74
0
42
0.000000001
43
0.0000000001
44
0.0000000001
40
0
40
0
40
0
40
0
40
0.22076852312804918
40
0.47642324324841495
40
0.47642324324841495
40
0.47642324324841495
40
0.47642324324841495
10
36.513296679214804
20
108.84872850471709
30
0
10
36.841100744723519
20
108.18067157454296
30
0
10
37.548509001239751
20
106.73899028393831
30
0
10
37.607274496513867
20
105.13077248626936
30
0
10
37.638808802322714
20
104.26778253608916
30
0
0
SPLINE
5
226
100
AcDbEntity
8
0
100
AcDbSpline
70
0
71
3
72
9
73
5
74
0
42
0.000000001
43
0.0000000001
44
0.0000000001
40
0
40
0
40
0
40
0
40
0.33281737957632207
40
0.61757513162095767
40
0.61757513162095767
40
0.61757513162095767
40
0.61757513162095767
10
37.638808802322714
20
104.26778253608916
30
0
10
37.585244644368373
20
103.13019161067574
30
0
10
37.485851121286949
20
101.01928061682278
30
0
10
36.235471053341108
20
99.327104142453521
30
0
10
35.658933237747512
20
98.54685839706633
30
0
0
SPLINE
5
227
100
AcDbEntity
8
0
100
AcDbSpline
70
0
71
3
72
9
73
5
74
0
42
0.000000001
43
0.0000000001
44
0.0000000001
40
0
40
0
40
0
40
0
40
0.28217119661290346
40
0.60719108344754535
40
0.60719108344754535
40
0.60719108344754535
40
0.60719108344754535
10
35.658933237747512
20
98.54685839706633
30
0
10
34.892927093165767
20
97.964573333612819
30
0
10
33.244594072506217
20
96.711581168580892
30
0
10
31.168340817834039
20
96.604900558685856
30
0
10
30.056954935745559
20
96.547796097337937
30
0
0
SPLINE
5
228
100
AcDbEntity
8
0
100
AcDbSpline
70
0
71
3
72
9
73
5
74
0
42
0.000000001
43
0.0000000001
44
0.0000000001
40
0
40
0
40
0
40
0
40
0.25472854592721111
40
0.46553365126323182
40
0.46553365126323182
40
0.46553365126323182
40
0.46553365126323182
10
30.056954935745559
20
96.547796097337937
30
0
10
29.194536369917188
20
96.574708388580859
30
0
10
27.618408094203613
20
96.623892421570062
30
0
10
26.229762687581939
20
97.360305640579924
30
0
10
25.600949839310012
20
97.693771687090134
30
0
0
SPLINE
5
229
100
AcDbEntity
8
0
100
AcDbSpline
70
0
71
3
72
9
73
5
74
0
42
0.000000001
43
0.0000000001
44
0.0000000001
40
0
40
0
40
0
40
0
40
0.20269186467352093
40
0.43213771001846984
40
0.43213771001846984
40
0.43213771001846984
40
0.43213771001846984
10
25.600949839310012
20
97.693771687090134
30
0
10
25.088176774007394
20
98.148930586196798
30
0
10
23.99494800256192
20
99.11932633775443
30
0
10
23.470034961487034
20
100.48724809050032
30
0
10
23.191329554275839
20
101.21355351501677
30
0
0
LINE
5
230
100
AcDbEntity
8
0
100
AcDbLine
10
23.191329554275843
20
101.21355351501676
30
0
11
27.284099177078573
21
102.12419446998808
31
0
0
SPLINE
5
231
100
AcDbEntity
8
0
100
AcDbSpline
70
0
71
3
72
9
73
5
74
0
42
0.000000001
43
0.0000000001
44
0.0000000001
40
0
40
0
40
0
40
0
40
0.063291182961229542
40
0.11024960019935029
40
0.11024960019935029
40
0.11024960019935029
40
0.11024960019935029
10
27.284099177078573
20
102.12419446998808
30
0
10
27.348786276789969
20
101.92237582137378
30
0
10
27.461467483674777
20
101.57081934412906
30
0
10
27.652807756131168
20
101.25568944405887
30
0
10
27.734304979996054
20
101.12146672302458
30
0
0
SPLINE
5
232
100
AcDbEntity
8
0
100
AcDbSpline
70
0
71
3
72
9
73
5
74
0
42
0.000000001
43
0.0000000001
44
0.0000000001
40
0
40
0
40
0
40
0
40
0.063907137310227721
40
0.12641049664963019
40
0.12641049664963019
40
0.12641049664963019
40
0.12641049664963019
10
27.734304979996054
20
101.12146672302458
30
0
10
27.870094496897071
20
100.95489024279249
30
0
10
28.138690791360162
20
100.62539628511347
30
0
10
28.504836566190733
20
100.40960836614983
30
0
10
28.685876444534621
20
100.30291256004546
30
0
0
SPLINE
5
233
100
AcDbEntity
8
0
100
AcDbSpline
70
0
71
3
72
9
73
5
74
0
42
0.000000001
43
0.0000000001
44
0.0000000001
40
0
40
0
40
0
40
0
40
0.063355782174679104
40
0.12999356437229156
40
0.12999356437229156
40
0.12999356437229156
40
0.12999356437229156
10
28.685876444534621
20
100.30291256004546
30
0
10
28.881793877783821
20
100.2193663631666
30
0
10
29.283777794587429
20
100.04794605156681
30
0
10
29.720518602949877
20
100.0271028074967
30
0
10
29.944402292923293
20
100.01641806656096
30
0
0
SPLINE
5
234
100
AcDbEntity
8
0
100
AcDbSpline
70
0
71
3
72
9
73
5
74
0
42
0.000000001
43
0.0000000001
44
0.0000000001
40
0
40
0
40
0
40
0
40
0.14271571245880416
40
0.28237037096711493
40
0.28237037096711493
40
0.28237037096711493
40
0.28237037096711493
10
29.944402292923293
20
100.01641806656096
30
0
10
30.437390389896592
20
100.06689612852813
30
0
10
31.412792673404148
20
100.16676956809417
30
0
10
32.045975090741166
20
100.91411573004486
30
0
10
32.359134272293417
20
101.28373798423979
30
0
0
SPLINE
5
235
100
AcDbEntity
8
0
100
AcDbSpline
70
0
71
3
72
9
73
5
74
0
42
0.000000001
43
0.0000000001
44
0.0000000001
40
0
40
0
40
0
40
0
40
0.12987346117287804
40
0.30508305910447808
40
0.30508305910447808
40
0.30508305910447808
40
0.30508305910447808
10
32.359134272293417
20
101.28373798423979
30
0
10
32.543144681135701
20
101.68052564132155
30
0
10
32.975399723310517
20
102.61261131259096
30
0
10
32.986905739259733
20
103.64448241751131
30
0
10
32.993513659195273
20
104.23708733612273
30
0
0
SPLINE
5
236
100
AcDbEntity
8
0
100
AcDbSpline
70
0
71
3
72
9
73
5
74
0
42
0.000000001
43
0.0000000001
44
0.0000000001
40
0
40
0
40
0
40
0
40
0.21100090346828179
40
0.35442952353722879
40
0.35442952353722879
40
0.35442952353722879
40
0.35442952353722879
10
32.993513659195273
20
104.23708733612273
30
0
10
32.994525173179731
20
104.95385167343494
30
0
10
32.996224267418995
20
106.15783913693049
30
0
10
32.455265668514031
20
107.22415705979915
30
0
10
32.236353472427695
20
107.65566882187102
30
0
0
SPLINE
5
237
100
AcDbEntity
8
0
100
AcDbSpline
70
0
71
3
72
9
73
5
74
0
42
0.000000001
43
0.0000000001
44
0.0000000001
40
0
40
0
40
0
40
0
40
0.11447383017097026
40
0.23840966186972831
40
0.23840966186972831
40
0.23840966186972831
40
0.23840966186972831
10
32.236353472427695
20
107.65566882187102
30
0
10
31.949930508215605
20
107.92530530528795
30
0
10
31.353409871598963
20
108.48686546924128
30
0
10
30.534049563917751
20
108.54849885302818
30
0
10
30.108110026077597
20
108.58053859764311
30
0
0
SPLINE
5
238
100
AcDbEntity
8
0
100
AcDbSpline
70
0
71
3
72
9
73
5
74
0
42
0.000000001
43
0.0000000001
44
0.0000000001
40
0
40
0
40
0
40
0
40
0.11825530500549147
40
0.21945916370620883
40
0.21945916370620883
40
0.21945916370620883
40
0.21945916370620883
10
30.108110026077597
20
108.58053859764311
30
0
10
29.702449129303172
20
108.56031153540486
30
0
10
28.949620314136784
20
108.52277398761508
30
0
10
28.366463789900358
20
108.05111504417532
30
0
10
28.097540453628866
20
107.83360895210478
30
0
0
SPLINE
5
239
100
AcDbEntity
8
0
100
AcDbSpline
70
0
71
3
72
9
73
5
74
0
42
0.000000001
43
0.0000000001
44
0.0000000001
40
0
40
0
40
0
40
0
40
0.10877734165618451
40
0.2403559982552787
40
0.2403559982552787
40
0.2403559982552787
40
0.2403559982552787
10
28.097540453628866
20
107.83360895210478
30
0
10
27.882536848416024
20
107.53744115019492
30
0
10
27.407461751225686
20
106.88302446198321
30
0
10
27.215334950586303
20
106.09553706047714
30
0
10
27.110158518509238
20
105.6644409566519
30
0
0
LWPOLYLINE
5
240
100
AcDbEntity
8
0
100
AcDbPolyline
90
14
70
1
43
0.0
10
76.558896139816611
20
96.803594198763093
10
74.482690409378364
20
96.803594198763093
10
68.846178368286473
20
111.80359539085599
10
73.699947909073217
20
111.80359539085599
10
74.450395420746176
20
109.32747062736722
10
79.712641552643149
20
109.32747062736722
10
80.443744674877493
20
111.80359539085599
10
85.176329353445439
20
111.80359539085599
10
79.538539365486457
20
96.803594198763093
10
77.558896139816625
20
96.803594198763093
10
77.558896139816611
20
102.30890200301013
10
78.705916122154576
20
106.08395036751004
10
75.411876157478659
20
106.08395036751004
10
76.558896139816611
20
102.34827076738486
0
LWPOLYLINE
5
241
100
AcDbEntity
8
0
100
AcDbPolyline
90
4
70
1
43
0.0
10
-120
20
120
10
-120
20
-120
10
120
20
-120
10
120
20
120
0
LINE
5
242
100
AcDbEntity
8
0
100
AcDbLine
10
53.578882730808395
20
102.68633958163264
30
0
11
53.578882730808395
21
105.54165777260037
31
0
0
LINE
5
243
100
AcDbEntity
8
0
100
AcDbLine
10
53.578882730808395
20
105.54165777260037
30
0
11
55.698155478195517
21
105.54165777260037
31
0
0
LINE
5
244
100
AcDbEntity
8
0
100
AcDbLine
10
55.698155478195517
20
105.54165777260037
30
0
11
55.698155478195517
21
108.5805385976431
31
0
0
LINE
5
245
100
AcDbEntity
8
0
100
AcDbLine
10
55.698155478195517
20
108.5805385976431
30
0
11
53.578882730808395
21
108.5805385976431
31
0
0
LINE
5
246
100
AcDbEntity
8
0
100
AcDbLine
10
53.578882730808395
20
108.5805385976431
30
0
11
53.578882730808395
21
111.80359539085599
31
0
0
LINE
5
247
100
AcDbEntity
8
0
100
AcDbLine
10
53.578882730808395
20
111.80359539085599
30
0
11
60.3741446291965
21
111.80359539085599
31
0
0
LINE
5
248
100
AcDbEntity
8
0
100
AcDbLine
10
60.3741446291965
20
111.80359539085599
30
0
11
60.374144629196486
21
96.803594198763093
31
0
0
LINE
5
249
100
AcDbEntity
8
0
100
AcDbLine
10
60.374144629196486
20
96.803594198763093
30
0
11
53.578882730808395
21
96.803594198763093
31
0
0
LINE
5
250
100
AcDbEntity
8
0
100
AcDbLine
10
53.578882730808395
20
96.803594198763093
30
0
11
53.578882730808395
21
99.843012416124793
31
0
0
SPLINE
5
251
100
AcDbEntity
8
0
100
AcDbSpline
70
0
71
3
72
8
73
4
74
0
42
0.000000001
43
0.0000000001
44
0.0000000001
40
0.14741032150102956
40
0.14741032150102956
40
0.14741032150102956
40
0.14741032150102956
40
0.15454745899560368
40
0.15454745899560368
40
0.15454745899560368
40
0.15454745899560368
10
53.578882730808395
20
99.843012416124779
30
0
10
53.603170758137892
20
99.842805260931527
30
0
10
53.627470712466021
20
99.842640738415142
30
0
10
53.65177066679415
20
99.842476215898714
30
0
0
LINE
5
252
100
AcDbEntity
8
0
100
AcDbLine
10
53.651770666794157
20
99.842476215898714
30
0
11
55.698155478195517
21
99.842476215898714
31
0
0
LINE
5
253
100
AcDbEntity
8
0
100
AcDbLine
10
55.698155478195517
20
99.842476215898714
30
0
11
55.698155478195517
21
102.68695053154202
31
0
0
LINE
5
254
100
AcDbEntity
8
0
100
AcDbLine
10
55.698155478195517
20
102.68695053154202
30
0
11
53.682467058853476
21
102.68695053154202
31
0
0
SPLINE
5
255
100
AcDbEntity
8
0
100
AcDbSpline
70
0
71
3
72
8
73
4
74
0
42
0.000000001
43
0.0000000001
44
0.0000000001
40
0
40
0
40
0
40
0
40
0.010141278535367022
40
0.010141278535367022
40
0.010141278535367022
40
0.010141278535367022
10
53.682467058853476
20
102.68695053154202
30
0
10
53.647928023331986
20
102.68678600471014
30
0
10
53.613388987810495
20
102.68662147787828
30
0
10
53.578882730808395
20
102.68633958163264
30
0
0
SPLINE
5
256
100
AcDbEntity
8
0
100
AcDbSpline
70
0
71
3
72
8
73
4
74
0
42
0.000000001
43
0.0000000001
44
0.0000000001
40
0.18544661801953793
40
0.18544661801953793
40
0.18544661801953793
40
0.18544661801953793
40
0.27867805771147974
40
0.27867805771147974
40
0.27867805771147974
40
0.27867805771147974
10
7.0082812674905295
20
100.2653212378675
30
0
10
7.3150441832917164
20
100.21907063329152
30
0
10
7.6355225316255693
20
100.20983173796488
30
0
10
7.956000879959424
20
100.20059284263823
30
0
0
LINE
5
257
100
AcDbEntity
8
0
100
AcDbLine
10
7.956000879959424
20
100.20059284263822
30
0
11
9.1122070109408693
21
100.20059284263823
31
0
0
LINE
5
258
100
AcDbEntity
8
0
100
AcDbLine
10
9.1122070109408693
20
100.20059284263823
30
0
11
9.1122070109408781
21
108.39636501365874
31
0
0
LINE
5
259
100
AcDbEntity
8
0
100
AcDbLine
10
9.1122070109408781
20
108.39636501365874
30
0
11
7.9764619624179289
21
108.39636501365874
31
0
0
SPLINE
5
260
100
AcDbEntity
8
0
100
AcDbSpline
70
0
71
3
72
8
73
4
74
0
42
0.000000001
43
0.0000000001
44
0.0000000001
40
0
40
0
40
0
40
0
40
0.096582584508829672
40
0.096582584508829672
40
0.096582584508829672
40
0.096582584508829672
10
7.9764619624179289
20
108.39636501365874
30
0
10
7.6515368714408014
20
108.39621561040141
30
0
10
7.3266117804636757
20
108.39606620714409
30
0
10
7.0082812674905304
20
108.3586394291014
30
0
0
LINE
5
261
100
AcDbEntity
8
0
100
AcDbLine
10
7.0082812674905313
20
108.35863942910143
30
0
11
7.0082812674905304
21
111.803595390856
31
0
0
LINE
5
262
100
AcDbEntity
8
0
100
AcDbLine
10
7.0082812674905304
20
111.803595390856
30
0
11
13.747269228653289
21
111.803595390856
31
0
0
LINE
5
263
100
AcDbEntity
8
0
100
AcDbLine
10
13.747269228653289
20
111.803595390856
30
0
11
13.747269228653272
21
96.803594198763108
31
0
0
LINE
5
264
100
AcDbEntity
8
0
100
AcDbLine
10
13.747269228653272
20
96.803594198763108
30
0
11
7.0082812674905304
21
96.803594198763108
31
0
0
LINE
5
265
100
AcDbEntity
8
0
100
AcDbLine
10
7.0082812674905304
20
96.803594198763108
30
0
11
7.0082812674905295
21
100.2653212378675
31
0
0
SPLINE
5
266
100
AcDbEntity
8
0
100
AcDbSpline
70
0
71
3
72
9
73
5
74
0
42
0.000000001
43
0.0000000001
44
0.0000000001
40
0
40
0
40
0
40
0
40
0.15013839175377669
40
0.3023681626336559
40
0.3023681626336559
40
0.3023681626336559
40
0.3023681626336559
10
76.811462308271217
20
72.420388798522396
30
0
10
76.440542337778993
20
72.078616841351632
30
0
10
75.693535601848367
20
71.390312154440437
30
0
10
75.215530448845286
20
70.493896978871149
30
0
10
74.974874771715605
20
70.042589289590737
30
0
0
LINE
5
267
100
AcDbEntity
8
0
100
AcDbLine
10
74.974874771715605
20
70.042589289590723
30
0
11
71.52672439691824
21
70.035102521872687
31
0
0
LINE
5
268
100
AcDbEntity
8
0
100
AcDbLine
10
71.52672439691824
20
70.035102521872687
30
0
11
71.493600448126926
21
85.290865855384482
31
0
0
LINE
5
269
100
AcDbEntity
8
0
100
AcDbLine
10
71.493600448126926
20
85.290865855384482
30
0
11
75.70914331834642
21
85.300018817652443
31
0
0
LINE
5
270
100
AcDbEntity
8
0
100
AcDbLine
10
75.70914331834642
20
85.300018817652443
30
0
11
75.730848281110141
21
75.303451766665432
31
0
0
SPLINE
5
271
100
AcDbEntity
8
0
100
AcDbSpline
70
0
71
3
72
9
73
5
74
0
42
0.000000001
43
0.0000000001
44
0.0000000001
40
0
40
0
40
0
40
0
40
0.12280100268604989
40
0.23484794198000508
40
0.23484794198000508
40
0.23484794198000508
40
0.23484794198000508
10
75.730848281110141
20
75.303451766665447
30
0
10
76.0605991857812
20
75.546936488256193
30
0
10
76.691223689117123
20
76.012583221738922
30
0
10
77.379573516095107
20
76.387432471087664
30
0
10
77.707988109070214
20
76.566274622021837
30
0
0
SPLINE
5
272
100
AcDbEntity
8
0
100
AcDbSpline
70
0
71
3
72
9
73
5
74
0
42
0.000000001
43
0.0000000001
44
0.0000000001
40
0
40
0
40
0
40
0
40
0.11764439942315838
40
0.25722401447921128
40
0.25722401447921128
40
0.25722401447921128
40
0.25722401447921128
10
77.707988109070214
20
76.566274622021837
30
0
10
78.064330863463056
20
76.730891527727607
30
0
10
78.843457742982523
20
77.090818745210186
30
0
10
79.661479311094638
20
77.351111263685539
30
0
10
80.105369185902063
20
77.492355966690113
30
0
0
LINE
5
273
100
AcDbEntity
8
0
100
AcDbLine
10
80.105369185902063
20
77.492355966690113
30
0
11
80.112789307080519
21
74.074900719506388
31
0
0
SPLINE
5
274
100
AcDbEntity
8
0
100
AcDbSpline
70
0
71
3
72
9
73
5
74
0
42
0.000000001
43
0.0000000001
44
0.0000000001
40
0
40
0
40
0
40
0
40
0.20353974758852203
40
0.37081100637660386
40
0.37081100637660386
40
0.37081100637660386
40
0.37081100637660386
10
80.112789307080519
20
74.074900719506388
30
0
10
79.467687696230513
20
73.85230984562584
30
0
10
78.292434310252844
20
73.446791282633598
30
0
10
77.27184553782358
20
72.739462008430081
30
0
10
76.811462308271217
20
72.420388798522396
30
0
0
SPLINE
5
275
100
AcDbEntity
8
0
100
AcDbSpline
70
0
71
3
72
9
73
5
74
0
42
0.000000001
43
0.0000000001
44
0.0000000001
40
0
40
0
40
0
40
0
40
0.067684319031607681
40
0.13027842779523544
40
0.13027842779523544
40
0.13027842779523544
40
0.13027842779523544
10
33.171940029079153
20
72.540508524670585
30
0
10
33.402683097288104
20
72.556479879565089
30
0
10
33.84681616357301
20
72.587221461000567
30
0
10
34.19892717597002
20
72.858064515686735
30
0
10
34.368103879894406
20
72.988194882699958
30
0
0
SPLINE
5
276
100
AcDbEntity
8
0
100
AcDbSpline
70
0
71
3
72
9
73
5
74
0
42
0.000000001
43
0.0000000001
44
0.0000000001
40
0
40
0
40
0
40
0
40
0.072423392170651885
40
0.17013669839277101
40
0.17013669839277101
40
0.17013669839277101
40
0.17013669839277101
10
34.368103879894406
20
72.988194882699958
30
0
10
34.511318498864085
20
73.186347214334262
30
0
10
34.847757620296925
20
73.651845756623629
30
0
10
34.937385593804528
20
74.222293837361832
30
0
10
34.988860941005619
20
74.549914912200805
30
0
0
LINE
5
277
100
AcDbEntity
8
0
100
AcDbLine
10
34.988860941005619
20
74.549914912200819
30
0
11
38.929679369494622
21
73.852467004919248
31
0
0
SPLINE
5
278
100
AcDbEntity
8
0
100
AcDbSpline
70
0
71
3
72
9
73
5
74
0
42
0.000000001
43
0.0000000001
44
0.0000000001
40
0
40
0
40
0
40
0
40
0.18108996112823536
40
0.3503407379566843
40
0.3503407379566843
40
0.3503407379566843
40
0.3503407379566843
10
38.929679369494622
20
73.852467004919234
30
0
10
38.737834996526232
20
73.267285076730232
30
0
10
38.366688529986362
20
72.135178872259445
30
0
10
37.477651782117931
20
71.344804843439107
30
0
10
37.048155169524819
20
70.962972518876811
30
0
0
SPLINE
5
279
100
AcDbEntity
8
0
100
AcDbSpline
70
0
71
3
72
9
73
5
74
0
42
0.000000001
43
0.0000000001
44
0.0000000001
40
0
40
0
40
0
40
0
40
0.18470252684296951
40
0.4128486104163302
40
0.4128486104163302
40
0.4128486104163302
40
0.4128486104163302
10
37.048155169524819
20
70.962972518876811
30
0
10
36.497559540087003
20
70.6701509287889
30
0
10
35.266863650864209
20
70.015633697032357
30
0
10
33.868476081788536
20
69.974429518282534
30
0
10
33.095706986403755
20
69.951659496120769
30
0
0
SPLINE
5
280
100
AcDbEntity
8
0
100
AcDbSpline
70
0
71
3
72
9
73
5
74
0
42
0.000000001
43
0.0000000001
44
0.0000000001
40
0
40
0
40
0
40
0
40
0.25446081760625561
40
0.44473081374976781
40
0.44473081374976781
40
0.44473081374976781
40
0.44473081374976781
10
33.095706986403755
20
69.951659496120769
30
0
10
32.230048787457974
20
69.962396430218817
30
0
10
30.717105148952413
20
69.981161776819192
30
0
10
29.407416975401777
20
70.720808588903253
30
0
10
28.847090692566574
20
71.037253035142982
30
0
0
SPLINE
5
281
100
AcDbEntity
8
0
100
AcDbSpline
70
0
71
3
72
9
73
5
74
0
42
0.000000001
43
0.0000000001
44
0.0000000001
40
0
40
0
40
0
40
0
40
0.15783873403998946
40
0.31302063700220961
40
0.31302063700220961
40
0.31302063700220961
40
0.31302063700220961
10
28.847090692566574
20
71.037253035142982
30
0
10
28.464271548775208
20
71.422427626922655
30
0
10
27.705077090107935
20
72.186293333330269
30
0
10
27.588985237199424
20
73.256318758394542
30
0
10
27.531431988233841
20
73.786790433583988
30
0
0
SPLINE
5
282
100
AcDbEntity
8
0
100
AcDbSpline
70
0
71
3
72
9
73
5
74
0
42
0.000000001
43
0.0000000001
44
0.0000000001
40
0
40
0
40
0
40
0
40
0.093549307340545146
40
0.18599555171823526
40
0.18599555171823526
40
0.18599555171823526
40
0.18599555171823526
10
27.531431988233841
20
73.786790433583988
30
0
10
27.552382761653647
20
74.102385036803554
30
0
10
27.594037272754992
20
74.729852989414255
30
0
10
27.905070290123064
20
75.276253162770416
30
0
10
28.059664494487144
20
75.547833012328425
30
0
0
SPLINE
5
283
100
AcDbEntity
8
0
100
AcDbSpline
70
0
71
3
72
9
73
5
74
0
42
0.000000001
43
0.0000000001
44
0.0000000001
40
0
40
0
40
0
40
0
40
0.099611072680728358
40
0.21334511877291687
40
0.21334511877291687
40
0.21334511877291687
40
0.21334511877291687
10
28.059664494487144
20
75.547833012328425
30
0
10
28.269615204489334
20
75.808476935394182
30
0
10
28.719283679654197
20
76.366719179227189
30
0
10
29.334896010878538
20
76.735845739673408
30
0
10
29.663078261576814
20
76.932626699468059
30
0
0
SPLINE
5
284
100
AcDbEntity
8
0
100
AcDbSpline
70
0
71
3
72
9
73
5
74
0
42
0.000000001
43
0.0000000001
44
0.0000000001
40
0
40
0
40
0
40
0
40
0.080192119164005427
40
0.14254888443477054
40
0.14254888443477054
40
0.14254888443477054
40
0.14254888443477054
10
29.663078261576814
20
76.932626699468059
30
0
10
29.403040776832086
20
76.999094400869382
30
0
10
28.940800175785306
20
77.11724686752666
30
0
10
28.517159271451085
20
77.335590562200792
30
0
10
28.33184125556194
20
77.431103105642507
30
0
0
SPLINE
5
285
100
AcDbEntity
8
0
100
AcDbSpline
70
0
71
3
72
9
73
5
74
0
42
0.000000001
43
0.0000000001
44
0.0000000001
40
0
40
0
40
0
40
0
40
0.085151317508447386
40
0.16933975842210153
40
0.16933975842210153
40
0.16933975842210153
40
0.16933975842210153
10
28.33184125556194
20
77.431103105642507
30
0
10
28.096761002643138
20
77.595502208511832
30
0
10
27.629258744264931
20
77.92244141719685
30
0
10
27.321094710061622
20
78.402431018829802
30
0
10
27.167888813070977
20
78.641061194004138
30
0
0
SPLINE
5
286
100
AcDbEntity
8
0
100
AcDbSpline
70
0
71
3
72
9
73
5
74
0
42
0.000000001
43
0.0000000001
44
0.0000000001
40
0
40
0
40
0
40
0
40
0.0881551104539159
40
0.18578172996138934
40
0.18578172996138934
40
0.18578172996138934
40
0.18578172996138934
10
27.167888813070977
20
78.641061194004138
30
0
10
27.046522737087955
20
78.911698441850689
30
0
10
26.790750843222124
20
79.482050584092136
30
0
10
26.763772460168216
20
80.107297558946314
30
0
10
26.749595563775443
20
80.435859191594332
30
0
0
SPLINE
5
287
100
AcDbEntity
8
0
100
AcDbSpline
70
0
71
3
72
9
73
5
74
0
42
0.000000001
43
0.0000000001
44
0.0000000001
40
0
40
0
40
0
40
0
40
0.12942256592182205
40
0.2626541535583708
40
0.2626541535583708
40
0.2626541535583708
40
0.2626541535583708
10
26.749595563775443
20
80.435859191594332
30
0
10
26.778836767171434
20
80.870830414508532
30
0
10
26.838179768697454
20
81.753574451941603
30
0
10
27.230615670675419
20
82.546876223113301
30
0
10
27.429679182741609
20
82.949279356725299
30
0
0
SPLINE
5
288
100
AcDbEntity
8
0
100
AcDbSpline
70
0
71
3
72
9
73
5
74
0
42
0.000000001
43
0.0000000001
44
0.0000000001
40
0
40
0
40
0
40
0
40
0.13535203627627754
40
0.27378822278968895
40
0.27378822278968895
40
0.27378822278968895
40
0.27378822278968895
10
27.429679182741609
20
82.949279356725299
30
0
10
27.684894168008842
20
83.32875059365152
30
0
10
28.201139502530317
20
84.09633975164374
30
0
10
28.997667154855449
20
84.567371882601989
30
0
10
29.400417315241548
20
84.805540972823351
30
0
0
SPLINE
5
289
100
AcDbEntity
8
0
100
AcDbSpline
70
0
71
3
72
9
73
5
74
0
42
0.000000001
43
0.0000000001
44
0.0000000001
40
0
40
0
40
0
40
0
40
0.15688944189379092
40
0.34713071593021128
40
0.34713071593021128
40
0.34713071593021128
40
0.34713071593021128
10
29.400417315241548
20
84.805540972823351
30
0
10
29.891691755952721
20
84.995656470621839
30
0
10
30.978676617800389
20
85.416302551477244
30
0
10
32.146015543141331
20
85.446222171483228
30
0
10
32.785763148864042
20
85.462619299041876
30
0
0
SPLINE
5
290
100
AcDbEntity
8
0
100
AcDbSpline
70
0
71
3
72
9
73
5
74
0
42
0.000000001
43
0.0000000001
44
0.0000000001
40
0
40
0
40
0
40
0
40
0.18341837202759714
40
0.32778961949996133
40
0.32778961949996133
40
0.32778961949996133
40
0.32778961949996133
10
32.785763148864042
20
85.462619299041876
30
0
10
33.400916183830162
20
85.455401818611023
30
0
10
34.500265049686689
20
85.442503355180037
30
0
10
35.551825140029365
20
85.127478777867651
30
0
10
36.014972942777099
20
84.98872974951091
30
0
0
SPLINE
5
291
100
AcDbEntity
8
0
100
AcDbSpline
70
0
71
3
72
9
73
5
74
0
42
0.000000001
43
0.0000000001
44
0.0000000001
40
0
40
0
40
0
40
0
40
0.12289828847803559
40
0.24188251946484543
40
0.24188251946484543
40
0.24188251946484543
40
0.24188251946484543
10
36.014972942777099
20
84.98872974951091
30
0
10
36.389670667906856
20
84.813267185065854
30
0
10
37.127132766968806
20
84.467930177648341
30
0
10
37.686788400956601
20
83.8768318303988
30
0
10
37.962088143057855
20
83.586065129106515
30
0
0
SPLINE
5
292
100
AcDbEntity
8
0
100
AcDbSpline
70
0
71
3
72
9
73
5
74
0
42
0.000000001
43
0.0000000001
44
0.0000000001
40
0
40
0
40
0
40
0
40
0.12434652789461605
40
0.26193931413437266
40
0.26193931413437266
40
0.26193931413437266
40
0.26193931413437266
10
37.962088143057855
20
83.586065129106515
30
0
10
38.205254578640471
20
83.247330754587082
30
0
10
38.717491232413309
20
82.533777660361935
30
0
10
38.993638836756439
20
81.699227931769101
30
0
10
39.138695024372147
20
81.260851497929124
30
0
0
LINE
5
293
100
AcDbEntity
8
0
100
AcDbLine
10
39.138695024372147
20
81.260851497929124
30
0
11
34.975509169093037
21
80.69928658478247
31
0
0
SPLINE
5
294
100
AcDbEntity
8
0
100
AcDbSpline
70
0
71
3
72
9
73
5
74
0
42
0.000000001
43
0.0000000001
44
0.0000000001
40
0
40
0
40
0
40
0
40
0.1110524137091818
40
0.19246334545519828
40
0.19246334545519828
40
0.19246334545519828
40
0.19246334545519828
10
34.975509169093037
20
80.69928658478247
30
0
10
34.899016887807235
20
81.067619969751803
30
0
10
34.766449212184114
20
81.705973276503698
30
0
10
34.375019221152314
20
82.223332010007397
30
0
10
34.209446497640393
20
82.442171895814539
30
0
0
SPLINE
5
295
100
AcDbEntity
8
0
100
AcDbSpline
70
0
71
3
72
9
73
5
74
0
42
0.000000001
43
0.0000000001
44
0.0000000001
40
0
40
0
40
0
40
0
40
0.06910149003884343
40
0.14288369439515258
40
0.14288369439515258
40
0.14288369439515258
40
0.14288369439515258
10
34.209446497640393
20
82.442171895814539
30
0
10
34.021074052473629
20
82.58347647241861
30
0
10
33.631569414114239
20
82.875657146508019
30
0
10
33.144898851172016
20
82.908416183502922
30
0
10
32.893592170719742
20
82.925332277199303
30
0
0
SPLINE
5
296
100
AcDbEntity
8
0
100
AcDbSpline
70
0
71
3
72
9
73
5
74
0
42
0.000000001
43
0.0000000001
44
0.0000000001
40
0
40
0
40
0
40
0
40
0.078384382469319946
40
0.15625393929371623
40
0.15625393929371623
40
0.15625393929371623
40
0.15625393929371623
10
32.893592170719742
20
82.925332277199303
30
0
10
32.62600859145887
20
82.899509893834136
30
0
10
32.092598911715712
20
82.848034727536302
30
0
10
31.695945594733679
20
82.487872910942343
30
0
10
31.498272383127428
20
82.308385333413057
30
0
0
SPLINE
5
297
100
AcDbEntity
8
0
100
AcDbSpline
70
0
71
3
72
9
73
5
74
0
42
0.000000001
43
0.0000000001
44
0.0000000001
40
0
40
0
40
0
40
0
40
0.08294052446768603
40
0.17607704413730668
40
0.17607704413730668
40
0.17607704413730668
40
0.17607704413730668
10
31.498272383127428
20
82.308385333413057
30
0
10
31.336274006008988
20
82.077438970685989
30
0
10
30.992362563669751
20
81.587155684388648
30
0
10
30.960853228354111
20
80.987342964157989
30
0
10
30.94418626394215
20
80.67007009369631
30
0
0
SPLINE
5
298
100
AcDbEntity
8
0
100
AcDbSpline
70
0
71
3
72
9
73
5
74
0
42
0.000000001
43
0.0000000001
44
0.0000000001
40
0
40
0
40
0
40
0
40
0.093567699311996724
40
0.17352502368920786
40
0.17352502368920786
40
0.17352502368920786
40
0.17352502368920786
10
30.94418626394215
20
80.67007009369631
30
0
10
30.959344292967064
20
80.350855293073124
30
0
10
30.987455461297301
20
79.758858736062805
30
0
10
31.327968664234021
20
79.276745025898123
30
0
10
31.484871248328741
20
79.054595381479245
30
0
0
SPLINE
5
299
100
AcDbEntity
8
0
100
AcDbSpline
70
0
71
3
72
9
73
5
74
0
42
0.000000001
43
0.0000000001
44
0.0000000001
40
0
40
0
40
0
40
0
40
0.07651757244419824
40
0.16024676359340817
40
0.16024676359340817
40
0.16024676359340817
40
0.16024676359340817
10
31.484871248328741
20
79.054595381479245
30
0
10
31.686654180117337
20
78.888004555453492
30
0
10
32.109237656495822
20
78.539122071832537
30
0
10
32.657626612077443
20
78.503426757300673
30
0
10
32.944160721449613
20
78.484775898172217
30
0
0
SPLINE
5
300
100
AcDbEntity
8
0
100
AcDbSpline
70
0
71
3
72
9
73
5
74
0
42
0.000000001
43
0.0000000001
44
0.0000000001
40
0
40
0
40
0
40
0
40
0.058644189142115319
40
0.13756263423975851
40
0.13756263423975851
40
0.13756263423975851
40
0.13756263423975851
10
32.944160721449613
20
78.484775898172217
30
0
10
33.139455571162053
20
78.500302229690121
30
0
10
33.597561896322375
20
78.536722599635183
30
0
10
34.040263226880555
20
78.661621062807484
30
0
10
34.294236995581578
20
78.733274186950666
30
0
0
LINE
5
301
100
AcDbEntity
8
0
100
AcDbLine
10
34.294236995581578
20
78.733274186950666
30
0
11
34.085834746188539
21
75.75532425182756
31
0
0
SPLINE
5
302
100
AcDbEntity
8
0
100
AcDbSpline
70
0
71
3
72
9
73
5
74
0
42
0.000000001
43
0.0000000001
44
0.0000000001
40
0
40
0
40
0
40
0
40
0.031188912594869507
40
0.054501300238106794
40
0.054501300238106794
40
0.054501300238106794
40
0.054501300238106794
10
34.085834746188539
20
75.75532425182756
30
0
10
33.982810746291356
20
75.76991879903602
30
0
10
33.802780681663513
20
75.795422150485919
30
0
10
33.621131132480585
20
75.802345255373382
30
0
10
33.5434323493824
20
75.805306544445855
30
0
0
SPLINE
5
303
100
AcDbEntity
8
0
100
AcDbSpline
70
0
71
3
72
9
73
5
74
0
42
0.000000001
43
0.0000000001
44
0.0000000001
40
0
40
0
40
0
40
0
40
0.076201610555563251
40
0.14911504699389871
40
0.14911504699389871
40
0.14911504699389871
40
0.14911504699389871
10
33.5434323493824
20
75.805306544445855
30
0
10
33.284036949393695
20
75.784982696386948
30
0
10
32.77643931494331
20
75.745211994215367
30
0
10
32.374932899705719
20
75.433119327365986
30
0
10
32.178606552518183
20
75.280514011631993
30
0
0
SPLINE
5
304
100
AcDbEntity
8
0
100
AcDbSpline
70
0
71
3
72
9
73
5
74
0
42
0.000000001
43
0.0000000001
44
0.0000000001
40
0
40
0
40
0
40
0
40
0.070281346557499749
40
0.13843292130099299
40
0.13843292130099299
40
0.13843292130099299
40
0.13843292130099299
10
32.178606552518183
20
75.280514011631993
30
0
10
32.019348074093081
20
75.100015012102233
30
0
10
31.705657208874662
20
74.744486767116612
30
0
10
31.657563708341421
20
74.27325551364649
30
0
10
31.633886914082776
20
74.041264801534652
30
0
0
SPLINE
5
305
100
AcDbEntity
8
0
100
AcDbSpline
70
0
71
3
72
9
73
5
74
0
42
0.000000001
43
0.0000000001
44
0.0000000001
40
0
40
0
40
0
40
0
40
0.062490658052840965
40
0.11932689017705896
40
0.11932689017705896
40
0.11932689017705896
40
0.11932689017705896
10
31.633886914082776
20
74.041264801534652
30
0
10
31.64792996641107
20
73.827901132271506
30
0
10
31.674745394750971
20
73.420479864465221
30
0
10
31.925910315163335
20
73.09999125696018
30
0
10
32.045541922899339
20
72.947340292351143
30
0
0
SPLINE
5
306
100
AcDbEntity
8
0
100
AcDbSpline
70
0
71
3
72
9
73
5
74
0
42
0.000000001
43
0.0000000001
44
0.0000000001
40
0
40
0
40
0
40
0
40
0.05748341287262277
40
0.12224638579989897
40
0.12224638579989897
40
0.12224638579989897
40
0.12224638579989897
10
32.045541922899339
20
72.947340292351143
30
0
10
32.201410983087243
20
72.828420563222366
30
0
10
32.5328879833868
20
72.575521398753665
30
0
10
32.95063072875331
20
72.55263378851717
30
0
10
33.171940029079153
20
72.540508524670585
30
0
0
SPLINE
5
307
100
AcDbEntity
8
0
100
AcDbSpline
70
0
71
3
72
9
73
5
74
0
42
0.000000001
43
0.0000000001
44
0.0000000001
40
0
40
0
40
0
40
0
40
0.10786437228105146
40
0.21235323993869309
40
0.21235323993869309
40
0.21235323993869309
40
0.21235323993869309
10
-33.15162245238534
20
70.222214460006299
30
0
10
-33.481540121772909
20
70.373442261456447
30
0
10
-34.131051026308867
20
70.671165345804155
30
0
10
-34.631892093991482
20
71.180387838079525
30
0
10
-34.87833201670572
20
71.430951858760423
30
0
0
SPLINE
5
308
100
AcDbEntity
8
0
100
AcDbSpline
70
0
71
3
72
9
73
5
74
0
42
0.000000001
43
0.0000000001
44
0.0000000001
40
0
40
0
40
0
40
0
40
0.10840538747144585
40
0.22734697932984591
40
0.22734697932984591
40
0.22734697932984591
40
0.22734697932984591
10
-34.87833201670572
20
71.430951858760423
30
0
10
-35.09630063963467
20
71.722132142517907
30
0
10
-35.553422828553813
20
72.332793286735551
30
0
10
-35.798256671646357
20
73.055853081957991
30
0
10
-35.926346902376864
20
73.434137778354994
30
0
0
LINE
5
309
100
AcDbEntity
8
0
100
AcDbLine
10
-35.926346902376864
20
73.43413777835498
30
0
11
-31.783533216685559
21
73.954730236743586
31
0
0
SPLINE
5
310
100
AcDbEntity
8
0
100
AcDbSpline
70
0
71
3
72
9
73
5
74
0
42
0.000000001
43
0.0000000001
44
0.0000000001
40
0
40
0
40
0
40
0
40
0.077338278916221165
40
0.13601173390945512
40
0.13601173390945512
40
0.13601173390945512
40
0.13601173390945512
10
-31.783533216685544
20
73.954730236743586
30
0
10
-31.730407412311763
20
73.69798386102795
30
0
10
-31.636977187726032
20
73.246454292159697
30
0
10
-31.355070097480766
20
72.884313312035232
30
0
10
-31.233459538624189
20
72.728091037031476
30
0
0
SPLINE
5
311
100
AcDbEntity
8
0
100
AcDbSpline
70
0
71
3
72
9
73
5
74
0
42
0.000000001
43
0.0000000001
44
0.0000000001
40
0
40
0
40
0
40
0
40
0.050568287791025193
40
0.10313607612472081
40
0.10313607612472081
40
0.10313607612472081
40
0.10313607612472081
10
-31.233459538624189
20
72.728091037031476
30
0
10
-31.096120983100022
20
72.623949106087053
30
0
10
-30.816013422884847
20
72.411547409552526
30
0
10
-30.465091721745701
20
72.385370990722947
30
0
10
-30.28622920922512
20
72.372029040010148
30
0
0
SPLINE
5
312
100
AcDbEntity
8
0
100
AcDbSpline
70
0
71
3
72
9
73
5
74
0
42
0.000000001
43
0.0000000001
44
0.0000000001
40
0
40
0
40
0
40
0
40
0.093604152077512839
40
0.19582609905190956
40
0.19582609905190956
40
0.19582609905190956
40
0.19582609905190956
10
-30.28622920922512
20
72.372029040010148
30
0
10
-29.963731839221968
20
72.422392554875387
30
0
10
-29.2890459356531
20
72.527756370814188
30
0
10
-28.910394196484219
20
73.099952038395529
30
0
10
-28.712736590115693
20
73.398640290235619
30
0
0
SPLINE
5
313
100
AcDbEntity
8
0
100
AcDbSpline
70
0
71
3
72
9
73
5
74
0
42
0.000000001
43
0.0000000001
44
0.0000000001
40
0
40
0
40
0
40
0
40
0.12096417326742928
40
0.32202360756185178
40
0.32202360756185178
40
0.32202360756185178
40
0.32202360756185178
10
-28.712736590115693
20
73.398640290235619
30
0
10
-28.582137785652559
20
73.781561242161033
30
0
10
-28.234465437547307
20
74.800950562314753
30
0
10
-28.161476331867643
20
75.878558911521779
30
0
10
-28.115904678259032
20
76.551377052784602
30
0
0
SPLINE
5
314
100
AcDbEntity
8
0
100
AcDbSpline
70
0
71
3
72
9
73
5
74
0
42
0.000000001
43
0.0000000001
44
0.0000000001
40
0
40
0
40
0
40
0
40
0.10035684254913713
40
0.19079381070966411
40
0.19079381070966411
40
0.19079381070966411
40
0.19079381070966411
10
-28.115904678259032
20
76.551377052784602
30
0
10
-28.35851450373875
20
76.318462996963504
30
0
10
-28.81975313922311
20
75.87565751256227
30
0
10
-29.381828738930764
20
75.571719422290286
30
0
10
-29.648254640932024
20
75.42765164938686
30
0
0
SPLINE
5
315
100
AcDbEntity
8
0
100
AcDbSpline
70
0
71
3
72
9
73
5
74
0
42
0.000000001
43
0.0000000001
44
0.0000000001
40
0
40
0
40
0
40
0
40
0.089187220870064948
40
0.18681372971900362
40
0.18681372971900362
40
0.18681372971900362
40
0.18681372971900362
10
-29.648254640932024
20
75.42765164938686
30
0
10
-29.928022436530242
20
75.321159872067398
30
0
10
-30.514030889771675
20
75.098099596039361
30
0
10
-31.141062409292708
20
75.073381277966732
30
0
10
-31.468741206141129
20
75.060463795393716
30
0
0
SPLINE
5
316
100
AcDbEntity
8
0
100
AcDbSpline
70
0
71
3
72
9
73
5
74
0
42
0.000000001
43
0.0000000001
44
0.0000000001
40
0
40
0
40
0
40
0
40
0.18850399365108955
40
0.37637245201688341
40
0.37637245201688341
40
0.37637245201688341
40
0.37637245201688341
10
-31.468741206141129
20
75.060463795393716
30
0
10
-32.111174574555278
20
75.118351296620673
30
0
10
-33.393875367489315
20
75.23393113318501
30
0
10
-34.374329781205176
20
76.068824249765584
30
0
10
-34.863729199828093
20
76.485565915824509
30
0
0
SPLINE
5
317
100
AcDbEntity
8
0
100
AcDbSpline
70
0
71
3
72
9
73
5
74
0
42
0.000000001
43
0.0000000001
44
0.0000000001
40
0
40
0
40
0
40
0
40
0.19286345716160133
40
0.39663447100559279
40
0.39663447100559279
40
0.39663447100559279
40
0.39663447100559279
10
-34.863729199828093
20
76.485565915824509
30
0
10
-35.269144777988686
20
77.00374119708458
30
0
10
-36.102904556786072
20
78.06939760289373
30
0
10
-36.205385895639246
20
79.420666036886857
30
0
10
-36.258035697521684
20
80.114880380062999
30
0
0
SPLINE
5
318
100
AcDbEntity
8
0
100
AcDbSpline
70
0
71
3
72
9
73
5
74
0
42
0.000000001
43
0.0000000001
44
0.0000000001
40
0
40
0
40
0
40
0
40
0.14304520930700901
40
0.28250921101689086
40
0.28250921101689086
40
0.28250921101689086
40
0.28250921101689086
10
-36.258035697521684
20
80.114880380062999
30
0
10
-36.231387617011279
20
80.596160218229883
30
0
10
-36.178758603872168
20
81.546670815666573
30
0
10
-35.766538178172311
20
82.404418908323152
30
0
10
-35.563040706540448
20
82.827856363796968
30
0
0
SPLINE
5
319
100
AcDbEntity
8
0
100
AcDbSpline
70
0
71
3
72
9
73
5
74
0
42
0.000000001
43
0.0000000001
44
0.0000000001
40
0
40
0
40
0
40
0
40
0.13646071223189948
40
0.27186693065206508
40
0.27186693065206508
40
0.27186693065206508
40
0.27186693065206508
10
-35.563040706540448
20
82.827856363796968
30
0
10
-35.308460456996769
20
83.212335826424265
30
0
10
-34.80126721495612
20
83.978323704500184
30
0
10
-34.01474709756998
20
84.452831656266738
30
0
10
-33.623012381798532
20
84.689165392057618
30
0
0
SPLINE
5
320
100
AcDbEntity
8
0
100
AcDbSpline
70
0
71
3
72
9
73
5
74
0
42
0.000000001
43
0.0000000001
44
0.0000000001
40
0
40
0
40
0
40
0
40
0.14778720692232175
40
0.28607724490214381
40
0.28607724490214381
40
0.28607724490214381
40
0.28607724490214381
10
-33.623012381798532
20
84.689165392057618
30
0
10
-33.16206185536403
20
84.873417395071073
30
0
10
-32.269782615606225
20
85.230080914786242
30
0
10
-31.315263564038784
20
85.29533728160942
30
0
10
-30.850981758092402
20
85.313462231223639
30
0
0
LINE
5
321
100
AcDbEntity
8
0
100
AcDbLine
10
-30.850981758092402
20
85.313462231223667
30
0
11
-30.850981758092402
21
82.662112868692589
31
0
0
SPLINE
5
322
100
AcDbEntity
8
0
100
AcDbSpline
70
0
71
3
72
9
73
5
74
0
42
0.000000001
43
0.0000000001
44
0.0000000001
40
0.045675172287586496
40
0.045675172287586496
40
0.045675172287586496
40
0.045675172287586496
40
0.076806509378209625
40
0.15441617910311409
40
0.15441617910311409
40
0.15441617910311409
40
0.15441617910311409
10
-30.850981758092402
20
82.662112868692617
30
0
10
-30.952256112901626
20
82.640182446722179
30
0
10
-31.294115472875347
20
82.537531153931781
30
0
10
-31.566139154752815
20
82.281876092815594
30
0
10
-31.760285491320044
20
82.099412223500963
30
0
0
SPLINE
5
323
100
AcDbEntity
8
0
100
AcDbSpline
70
0
71
3
72
9
73
5
74
0
42
0.000000001
43
0.0000000001
44
0.0000000001
40
0
40
0
40
0
40
0
40
0.088115248272738728
40
0.19744982573152453
40
0.19744982573152453
40
0.19744982573152453
40
0.19744982573152453
10
-31.760285491320044
20
82.099412223500963
30
0
10
-31.920413501495606
20
81.847030204692985
30
0
10
-32.279230486338349
20
81.281489204602252
30
0
10
-32.298243200408848
20
80.608604496815417
30
0
10
-32.308771176574652
20
80.236005711621317
30
0
0
SPLINE
5
324
100
AcDbEntity
8
0
100
AcDbSpline
70
0
71
3
72
9
73
5
74
0
42
0.000000001
43
0.0000000001
44
0.0000000001
40
0
40
0
40
0
40
0
40
0.11269801027418082
40
0.20492163756501852
40
0.20492163756501852
40
0.20492163756501852
40
0.20492163756501852
10
-32.308771176574652
20
80.236005711621317
30
0
10
-32.295191361099157
20
79.852359360056084
30
0
10
-32.270498839746736
20
79.154765512415608
30
0
10
-31.898846701046377
20
78.56764893168797
30
0
10
-31.73158711475466
20
78.303420998704965
30
0
0
SPLINE
5
325
100
AcDbEntity
8
0
100
AcDbSpline
70
0
71
3
72
9
73
5
74
0
42
0.000000001
43
0.0000000001
44
0.0000000001
40
0
40
0
40
0
40
0
40
0.081304246173025965
40
0.16107540750174701
40
0.16107540750174701
40
0.16107540750174701
40
0.16107540750174701
10
-31.73158711475466
20
78.303420998704965
30
0
10
-31.530031803914174
20
78.109882997891802
30
0
10
-31.130721738869322
20
77.726456377322549
30
0
10
-30.580430266481624
20
77.669595733357241
30
0
10
-30.30790331464889
20
77.641436005728053
30
0
0
SPLINE
5
326
100
AcDbEntity
8
0
100
AcDbSpline
70
0
71
3
72
9
73
5
74
0
42
0.000000001
43
0.0000000001
44
0.0000000001
40
0
40
0
40
0
40
0
40
0.081545227385179261
40
0.16325100644039553
40
0.16325100644039553
40
0.16325100644039553
40
0.16325100644039553
10
-30.30790331464889
20
77.641436005728053
30
0
10
-30.029685060845352
20
77.669004596982234
30
0
10
-29.472700778626404
20
77.724196058367596
30
0
10
-29.058544230747376
20
78.100749487089033
30
0
10
-28.851262302549046
20
78.289211365030539
30
0
0
SPLINE
5
327
100
AcDbEntity
8
0
100
AcDbSpline
70
0
71
3
72
9
73
5
74
0
42
0.000000001
43
0.0000000001
44
0.0000000001
40
0
40
0
40
0
40
0
40
0.089855010954409703
40
0.19677197265358148
40
0.19677197265358148
40
0.19677197265358148
40
0.19677197265358148
10
-28.851262302549046
20
78.289211365030539
30
0
10
-28.680551306642279
20
78.542333158583276
30
0
10
-28.306714176565304
20
79.096640304172027
30
0
10
-28.280931133333258
20
79.76764014924052
30
0
10
-28.266921797508857
20
80.132231019413055
30
0
0
SPLINE
5
328
100
AcDbEntity
8
0
100
AcDbSpline
70
0
71
3
72
9
73
5
74
0
42
0.000000001
43
0.0000000001
44
0.0000000001
40
0
40
0
40
0
40
0
40
0.10966568036770441
40
0.20391679321107897
40
0.20391679321107897
40
0.20391679321107897
40
0.20391679321107897
10
-28.266921797508857
20
80.132231019413055
30
0
10
-28.284631859884541
20
80.505707858511158
30
0
10
-28.317562664810083
20
81.200165770158094
30
0
10
-28.705620245811456
20
81.773945173321636
30
0
10
-28.884981927018529
20
82.039148182957007
30
0
0
SPLINE
5
329
100
AcDbEntity
8
0
100
AcDbSpline
70
0
71
3
72
9
73
5
74
0
42
0.000000001
43
0.0000000001
44
0.0000000001
40
0
40
0
40
0
40
0
40
0.085718582944259547
40
0.11596214814529597
40
0.11596214814529597
40
0.11596214814529597
40
0.11596214814529597
10
-28.884981927018529
20
82.039148182957007
30
0
10
-29.099949107436878
20
82.240116130231314
30
0
10
-29.390761847986475
20
82.511990373526217
30
0
10
-29.753307347595307
20
82.62574597775702
30
0
10
-29.850981758092409
20
82.648535511541667
30
0
0
LINE
5
330
100
AcDbEntity
8
0
100
AcDbLine
10
-29.850981758092409
20
82.648535511541667
30
0
11
-29.850981758092402
21
85.304880353987471
31
0
0
SPLINE
5
331
100
AcDbEntity
8
0
100
AcDbSpline
70
0
71
3
72
9
73
5
74
0
42
0.000000001
43
0.0000000001
44
0.0000000001
40
0.065170680489214317
40
0.065170680489214317
40
0.065170680489214317
40
0.065170680489214317
40
0.20375268850795322
40
0.37222795659370911
40
0.37222795659370911
40
0.37222795659370911
40
0.37222795659370911
10
-29.850981758092381
20
85.304880353987471
30
0
10
-29.386165247652073
20
85.284078738177612
30
0
10
-28.366356143534954
20
85.192724052423472
30
0
10
-27.416433724846687
20
84.78780970588798
30
0
10
-26.895233132633045
20
84.565642513011824
30
0
0
SPLINE
5
332
100
AcDbEntity
8
0
100
AcDbSpline
70
0
71
3
72
9
73
5
74
0
42
0.000000001
43
0.0000000001
44
0.0000000001
40
0
40
0
40
0
40
0
40
0.15782386993091529
40
0.3315415497440598
40
0.3315415497440598
40
0.3315415497440598
40
0.3315415497440598
10
-26.895233132633045
20
84.565642513011824
30
0
10
-26.457957980703508
20
84.260252104185383
30
0
10
-25.53937144750833
20
83.618716641497713
30
0
10
-24.998851480395707
20
82.635171861208676
30
0
10
-24.715635471265109
20
82.119824335819956
30
0
0
SPLINE
5
333
100
AcDbEntity
8
0
100
AcDbSpline
70
0
71
3
72
9
73
5
74
0
42
0.000000001
43
0.0000000001
44
0.0000000001
40
0
40
0
40
0
40
0
40
0.20485295783006888
40
0.45572124862555574
40
0.45572124862555574
40
0.45572124862555574
40
0.45572124862555574
10
-24.715635471265109
20
82.119824335819956
30
0
10
-24.477611246233231
20
81.474939391697419
30
0
10
-23.948096328881512
20
80.040311475808892
30
0
10
-23.912255645911848
20
78.508718180085737
30
0
10
-23.892525841991912
20
77.665597097953366
30
0
0
SPLINE
5
334
100
AcDbEntity
8
0
100
AcDbSpline
70
0
71
3
72
9
73
5
74
0
42
0.000000001
43
0.0000000001
44
0.0000000001
40
0
40
0
40
0
40
0
40
0.35443396453616505
40
0.62927726006263141
40
0.62927726006263141
40
0.62927726006263141
40
0.62927726006263141
10
-23.892525841991912
20
77.665597097953366
30
0
10
-23.917253914084196
20
76.456747815380538
30
0
10
-23.961157193707088
20
74.310504959220864
30
0
10
-25.093686393897983
20
72.5019441583987
30
0
10
-25.588330134289059
20
71.712036684849636
30
0
0
SPLINE
5
335
100
AcDbEntity
8
0
100
AcDbSpline
70
0
71
3
72
9
73
5
74
0
42
0.000000001
43
0.0000000001
44
0.0000000001
40
0
40
0
40
0
40
0
40
0.24821315783931727
40
0.5221757725796613
40
0.5221757725796613
40
0.5221757725796613
40
0.5221757725796613
10
-25.588330134289059
20
71.712036684849636
30
0
10
-26.234517052506092
20
71.160391659175744
30
0
10
-27.59392586140283
20
69.999874344225546
30
0
10
-29.382972767261748
20
69.877939186330963
30
0
10
-30.321606832570591
20
69.813965182863612
30
0
0
SPLINE
5
336
100
AcDbEntity
8
0
100
AcDbSpline
70
0
71
3
72
9
73
5
74
0
42
0.000000001
43
0.0000000001
44
0.0000000001
40
0
40
0
40
0
40
0
40
0.16059184538323329
40
0.28712311291375336
40
0.28712311291375336
40
0.28712311291375336
40
0.28712311291375336
10
-30.321606832570591
20
69.813965182863612
30
0
10
-30.860087181122058
20
69.820215269593646
30
0
10
-31.822839390301922
20
69.83138983673075
30
0
10
-32.74516572651212
20
70.102666505716343
30
0
10
-33.15162245238534
20
70.222214460006299
30
0
0
LINE
5
337
100
AcDbEntity
8
0
100
AcDbLine
10
-52.307921191651246
20
73.54181641027219
30
0
11
-44.90002544510844
21
73.557900742074892
31
0
0
LINE
5
338
100
AcDbEntity
8
0
100
AcDbLine
10
-44.90002544510844
20
73.557900742074892
30
0
11
-44.892383166209662
21
70.038127210755604
31
0
0
LINE
5
339
100
AcDbEntity
8
0
100
AcDbLine
10
-44.892383166209662
20
70.038127210755604
30
0
11
-57.058110715443618
21
70.011712476367038
31
0
0
LINE
5
340
100
AcDbEntity
8
0
100
AcDbLine
10
-57.058110715443618
20
70.011712476367038
30
0
11
-57.064220095460001
21
72.825484959581544
31
0
0
SPLINE
5
341
100
AcDbEntity
8
0
100
AcDbSpline
70
0
71
3
72
9
73
5
74
0
42
0.000000001
43
0.0000000001
44
0.0000000001
40
0
40
0
40
0
40
0
40
0.20838502529164907
40
0.40877991326764962
40
0.40877991326764962
40
0.40877991326764962
40
0.40877991326764962
10
-57.064220095460016
20
72.825484959581544
30
0
10
-56.561983942820774
20
73.308229934076536
30
0
10
-55.576768951348114
20
74.255209922337528
30
0
10
-54.801127729489124
20
75.380069047838205
30
0
10
-54.420887578935947
20
75.931505190190677
30
0
0
SPLINE
5
342
100
AcDbEntity
8
0
100
AcDbSpline
70
0
71
3
72
9
73
5
74
0
42
0.000000001
43
0.0000000001
44
0.0000000001
40
0
40
0
40
0
40
0
40
0.24320558641978315
40
0.49622038190927842
40
0.49622038190927842
40
0.49622038190927842
40
0.49622038190927842
10
-54.420887578935947
20
75.931505190190677
30
0
10
-54.012924332275034
20
76.6347730759271
30
0
10
-53.180543460424502
20
78.069673745693422
30
0
10
-52.659969838566774
20
79.644974185468712
30
0
10
-52.394537717530625
20
80.448194555157443
30
0
0
SPLINE
5
343
100
AcDbEntity
8
0
100
AcDbSpline
70
0
71
3
72
9
73
5
74
0
42
0.000000001
43
0.0000000001
44
0.0000000001
40
0
40
0
40
0
40
0
40
0.21678943180356561
40
0.46496550018897131
40
0.46496550018897131
40
0.46496550018897131
40
0.46496550018897131
10
-52.394537717530625
20
80.448194555157443
30
0
10
-52.212571013991976
20
81.148813511047976
30
0
10
-51.822292582867711
20
82.651486591360708
30
0
10
-51.681517272316633
20
84.198086119230666
30
0
10
-51.606378228486278
20
85.023586054252718
30
0
0
LINE
5
344
100
AcDbEntity
8
0
100
AcDbLine
10
-51.606378228486278
20
85.023586054252718
30
0
11
-47.452230381854406
21
85.032605713088216
31
0
0
SPLINE
5
345
100
AcDbEntity
8
0
100
AcDbSpline
70
0
71
3
72
9
73
5
74
0
42
0.000000001
43
0.0000000001
44
0.0000000001
40
0
40
0
40
0
40
0
40
0.34351397006414514
40
0.63642153872090113
40
0.63642153872090113
40
0.63642153872090113
40
0.63642153872090113
10
-47.45223038185442
20
85.032605713088216
30
0
10
-47.620863974996169
20
83.896594615731331
30
0
10
-47.933288097972223
20
81.791929322355116
30
0
10
-48.652747066870567
20
79.790697537750532
30
0
10
-48.983871902387378
20
78.869647729277261
30
0
0
SPLINE
5
346
100
AcDbEntity
8
0
100
AcDbSpline
70
0
71
3
72
9
73
5
74
0
42
0.000000001
43
0.0000000001
44
0.0000000001
40
0
40
0
40
0
40
0
40
0.29110004944062978
40
0.62943711769515276
40
0.62943711769515276
40
0.62943711769515276
40
0.62943711769515276
10
-48.983871902387378
20
78.869647729277261
30
0
10
-49.40951943453225
20
77.994787831995382
30
0
10
-50.329884636469316
20
76.103103879380669
30
0
10
-51.61639304521303
20
74.437251012513443
30
0
10
-52.307921191651246
20
73.54181641027219
30
0
0
LINE
5
347
100
AcDbEntity
8
0
100
AcDbLine
10
-6.8278798915769023
20
78.695148113218551
30
0
11
-3.2762956679170196
21
78.1912620520621
31
0
0
LINE
5
348
100
AcDbEntity
8
0
100
AcDbLine
10
-3.2762956679170196
20
78.1912620520621
30
0
11
-4.5787098044367802
21
70.125657937526341
31
0
0
LINE
5
349
100
AcDbEntity
8
0
100
AcDbLine
10
-4.5787098044367802
20
70.125657937526341
30
0
11
-14.472952610837792
21
70.104175145424563
31
0
0
LINE
5
350
100
AcDbEntity
8
0
100
AcDbLine
10
-14.472952610837792
20
70.104175145424563
30
0
11
-14.480172787220788
21
73.429542625587175
31
0
0
LINE
5
351
100
AcDbEntity
8
0
100
AcDbLine
10
-14.480172787220788
20
73.429542625587175
30
0
11
-7.778280472962912
21
73.444094053330844
31
0
0
LINE
5
352
100
AcDbEntity
8
0
100
AcDbLine
10
-7.778280472962912
20
73.444094053330844
30
0
11
-7.4250545806172239
21
75.695890544301548
31
0
0
SPLINE
5
353
100
AcDbEntity
8
0
100
AcDbSpline
70
0
71
3
72
9
73
5
74
0
42
0.000000001
43
0.0000000001
44
0.0000000001
40
0
40
0
40
0
40
0
40
0.074890442952565389
40
0.14631014023844974
40
0.14631014023844974
40
0.14631014023844974
40
0.14631014023844974
10
-7.4250545806172319
20
75.695890544301534
30
0
10
-7.6532985001434284
20
75.593761781916825
30
0
10
-8.0992085329577179
20
75.394237343847323
30
0
10
-8.5702442266673629
20
75.264903725068137
30
0
10
-8.8001751569553299
20
75.201770931353053
30
0
0
SPLINE
5
354
100
AcDbEntity
8
0
100
AcDbSpline
70
0
71
3
72
9
73
5
74
0
42
0.000000001
43
0.0000000001
44
0.0000000001
40
0
40
0
40
0
40
0
40
0.068763504070809514
40
0.13578026809472316
40
0.13578026809472316
40
0.13578026809472316
40
0.13578026809472316
10
-8.8001751569553299
20
75.201770931353053
30
0
10
-9.0247746304635967
20
75.153536464662182
30
0
10
-9.4682682705707499
20
75.058292789878678
30
0
10
-9.921578270216358
20
75.042790190426757
30
0
10
-10.145317475494249
20
75.035138606998572
30
0
0
SPLINE
5
355
100
AcDbEntity
8
0
100
AcDbSpline
70
0
71
3
72
9
73
5
74
0
42
0.000000001
43
0.0000000001
44
0.0000000001
40
0
40
0
40
0
40
0
40
0.20668995677640861
40
0.39766016554850081
40
0.39766016554850081
40
0.39766016554850081
40
0.39766016554850081
10
-10.145317475494249
20
75.035138606998572
30
0
10
-10.850261944903217
20
75.080791151886174
30
0
10
-12.206536525341249
20
75.168624149874319
30
0
10
-13.283743431313759
20
75.992430628057221
30
0
10
-13.801055562491271
20
76.388051081791602
30
0
0
SPLINE
5
356
100
AcDbEntity
8
0
100
AcDbSpline
70
0
71
3
72
9
73
5
74
0
42
0.000000001
43
0.0000000001
44
0.0000000001
40
0
40
0
40
0
40
0
40
0.18624520398405553
40
0.37850100214133586
40
0.37850100214133586
40
0.37850100214133586
40
0.37850100214133586
10
-13.801055562491271
20
76.388051081791602
30
0
10
-14.210936438602406
20
76.875507797550156
30
0
10
-15.043926062216642
20
77.866152665006339
30
0
10
-15.154239335892559
20
79.157013438004824
30
0
10
-15.210271859869842
20
79.812693256073246
30
0
0
SPLINE
5
357
100
AcDbEntity
8
0
100
AcDbSpline
70
0
71
3
72
9
73
5
74
0
42
0.000000001
43
0.0000000001
44
0.0000000001
40
0
40
0
40
0
40
0
40
0.14361642476508632
40
0.2907741434458937
40
0.2907741434458937
40
0.2907741434458937
40
0.2907741434458937
10
-15.210271859869842
20
79.812693256073246
30
0
10
-15.179823873380158
20
80.295036260690736
30
0
10
-15.118177113925757
20
81.271615884115974
30
0
10
-14.704398019177916
20
82.158650763118501
30
0
10
-14.494988795581598
20
82.607569733826807
30
0
0
SPLINE
5
358
100
AcDbEntity
8
0
100
AcDbSpline
70
0
71
3
72
9
73
5
74
0
42
0.000000001
43
0.0000000001
44
0.0000000001
40
0
40
0
40
0
40
0
40
0.14688331889124828
40
0.29269400352226005
40
0.29269400352226005
40
0.29269400352226005
40
0.29269400352226005
10
-14.494988795581598
20
82.607569733826807
30
0
10
-14.231113494393082
20
83.028069723809068
30
0
10
-13.705289875220252
20
83.865998948707016
30
0
10
-12.869443576533701
20
84.39490609263332
30
0
10
-12.453051988079054
20
84.658390522905449
30
0
0
SPLINE
5
359
100
AcDbEntity
8
0
100
AcDbSpline
70
0
71
3
72
9
73
5
74
0
42
0.000000001
43
0.0000000001
44
0.0000000001
40
0
40
0
40
0
40
0
40
0.16006066194355159
40
0.34902667684911692
40
0.34902667684911692
40
0.34902667684911692
40
0.34902667684911692
10
-12.453051988079054
20
84.658390522905449
30
0
10
-11.956357136386515
20
84.865013969804494
30
0
10
-10.873269315873522
20
85.315574989324176
30
0
10
-9.6986539084245216
20
85.352022931194938
30
0
10
-9.0627071246539614
20
85.371756157288132
30
0
0
SPLINE
5
360
100
AcDbEntity
8
0
100
AcDbSpline
70
0
71
3
72
9
73
5
74
0
42
0.000000001
43
0.0000000001
44
0.0000000001
40
0
40
0
40
0
40
0
40
0.137926303937811
40
0.25633811665375117
40
0.25633811665375117
40
0.25633811665375117
40
0.25633811665375117
10
-9.0627071246539614
20
85.371756157288132
30
0
10
-8.601716216870674
20
85.365045032054553
30
0
10
-7.7449576601493675
20
85.352572304562528
30
0
10
-6.9066961410979211
20
85.177002602868839
30
0
10
-6.519472940363471
20
85.095900631351924
30
0
0
SPLINE
5
361
100
AcDbEntity
8
0
100
AcDbSpline
70
0
71
3
72
9
73
5
74
0
42
0.000000001
43
0.0000000001
44
0.0000000001
40
0
40
0
40
0
40
0
40
0.10405001191615801
40
0.19959763869543196
40
0.19959763869543196
40
0.19959763869543196
40
0.19959763869543196
10
-6.519472940363471
20
85.095900631351924
30
0
10
-6.1852534919859892
20
84.995591052730418
30
0
10
-5.5441251396318414
20
84.803168633331566
30
0
10
-4.9846524881282228
20
84.436377264500351
30
0
10
-4.7168322651612904
20
84.260793800467383
30
0
0
SPLINE
5
362
100
AcDbEntity
8
0
100
AcDbSpline
70
0
71
3
72
9
73
5
74
0
42
0.000000001
43
0.0000000001
44
0.0000000001
40
0
40
0
40
0
40
0
40
0.089698361535237039
40
0.17508965940556476
40
0.17508965940556476
40
0.17508965940556476
40
0.17508965940556476
10
-4.7168322651612904
20
84.260793800467383
30
0
10
-4.4828710340382472
20
84.072272521062672
30
0
10
-4.0261827337135436
20
83.704282225178531
30
0
10
-3.6804539659085656
20
83.230720890796988
30
0
10
-3.5118419056978034
20
82.999764836045742
30
0
0
SPLINE
5
363
100
AcDbEntity
8
0
100
AcDbSpline
70
0
71
3
72
9
73
5
74
0
42
0.000000001
43
0.0000000001
44
0.0000000001
40
0
40
0
40
0
40
0
40
0.089830247645360489
40
0.19250345250316819
40
0.19250345250316819
40
0.19250345250316819
40
0.19250345250316819
10
-3.5118419056978034
20
82.999764836045742
30
0
10
-3.3612601012369048
20
82.739888570379236
30
0
10
-3.0385679345925354
20
82.18298174137955
30
0
10
-2.8442633283447805
20
81.569010935188231
30
0
10
-2.7406294642105244
20
81.241544858392757
30
0
0
LINE
5
364
100
AcDbEntity
8
0
100
AcDbLine
10
-2.7406294642105244
20
81.241544858392757
30
0
11
-6.9551750023979046
21
80.771956632112875
31
0
0
SPLINE
5
365
100
AcDbEntity
8
0
100
AcDbSpline
70
0
71
3
72
9
73
5
74
0
42
0.000000001
43
0.0000000001
44
0.0000000001
40
0
40
0
40
0
40
0
40
0.092742962855253477
40
0.17227178154068346
40
0.17227178154068346
40
0.17227178154068346
40
0.17227178154068346
10
-6.9551750023978975
20
80.771956632112875
30
0
10
-7.0158855614679183
20
81.081114572779654
30
0
10
-7.1286565561324267
20
81.655381207966144
30
0
10
-7.5022683736117379
20
82.10345136197293
30
0
10
-7.674745294819072
20
82.310301780060385
30
0
0
SPLINE
5
366
100
AcDbEntity
8
0
100
AcDbSpline
70
0
71
3
72
9
73
5
74
0
42
0.000000001
43
0.0000000001
44
0.0000000001
40
0
40
0
40
0
40
0
40
0.073227805999127427
40
0.14680819697376768
40
0.14680819697376768
40
0.14680819697376768
40
0.14680819697376768
10
-7.674745294819072
20
82.310301780060385
30
0
10
-7.8719263873796308
20
82.463566523435858
30
0
10
-8.2672379808538032
20
82.770833965462856
30
0
10
-8.7661968889642594
20
82.813134675583655
30
0
10
-9.0162755105660786
20
82.83433582683648
30
0
0
SPLINE
5
367
100
AcDbEntity
8
0
100
AcDbSpline
70
0
71
3
72
9
73
5
74
0
42
0.000000001
43
0.0000000001
44
0.0000000001
40
0
40
0
40
0
40
0
40
0.08112044432147851
40
0.16229107962972111
40
0.16229107962972111
40
0.16229107962972111
40
0.16229107962972111
10
-9.0162755105660786
20
82.83433582683648
30
0
10
-9.2935704339408431
20
82.806201083542987
30
0
10
-9.8483318491025784
20
82.749914189377236
30
0
10
-10.251014034844133
20
82.364182323532873
30
0
10
-10.45241739551269
20
82.171256743885152
30
0
0
SPLINE
5
368
100
AcDbEntity
8
0
100
AcDbSpline
70
0
71
3
72
9
73
5
74
0
42
0.000000001
43
0.0000000001
44
0.0000000001
40
0
40
0
40
0
40
0
40
0.092613602284787933
40
0.20821408345637984
40
0.20821408345637984
40
0.20821408345637984
40
0.20821408345637984
10
-10.45241739551269
20
82.171256743885152
30
0
10
-10.616950346795591
20
81.903939608170163
30
0
10
-10.986853652623214
20
81.302956696028033
30
0
10
-11.005604130356055
20
80.593996793397679
30
0
10
-11.016014397577809
20
80.200382180423603
30
0
0
SPLINE
5
369
100
AcDbEntity
8
0
100
AcDbSpline
70
0
71
3
72
9
73
5
74
0
42
0.000000001
43
0.0000000001
44
0.0000000001
40
0
40
0
40
0
40
0
40
0.11701244259797748
40
0.20810691828698907
40
0.20810691828698907
40
0.20810691828698907
40
0.20810691828698907
10
-11.016014397577809
20
80.200382180423603
30
0
10
-11.005707080490303
20
79.801151417684665
30
0
10
-10.987375491581783
20
79.091118519692657
30
0
10
-10.605793338680591
20
78.497114190148466
30
0
10
-10.438763686629891
20
78.237101147803529
30
0
0
SPLINE
5
370
100
AcDbEntity
8
0
100
AcDbSpline
70
0
71
3
72
9
73
5
74
0
42
0.000000001
43
0.0000000001
44
0.0000000001
40
0
40
0
40
0
40
0
40
0.081538748383210027
40
0.16864017734937864
40
0.16864017734937864
40
0.16864017734937864
40
0.16864017734937864
10
-10.438763686629891
20
78.237101147803529
30
0
10
-10.226670055277243
20
78.055572708500847
30
0
10
-9.7880134862814927
20
77.680131721179251
30
0
10
-9.2109222508641331
20
77.638017838445151
30
0
10
-8.9128588116602714
20
77.616266323337015
30
0
0
SPLINE
5
371
100
AcDbEntity
8
0
100
AcDbSpline
70
0
71
3
72
9
73
5
74
0
42
0.000000001
43
0.0000000001
44
0.0000000001
40
0
40
0
40
0
40
0
40
0.059807083029880782
40
0.12127571296212765
40
0.12127571296212765
40
0.12127571296212765
40
0.12127571296212765
10
-8.9128588116602714
20
77.616266323337015
30
0
10
-8.7121149569296641
20
77.629729722748422
30
0
10
-8.3050502269367676
20
77.657030558699532
30
0
10
-7.9347523501271766
20
77.828575613466128
30
0
10
-7.7470667649563474
20
77.915523273723934
30
0
0
SPLINE
5
372
100
AcDbEntity
8
0
100
AcDbSpline
70
0
71
3
72
9
73
5
74
0
42
0.000000001
43
0.0000000001
44
0.0000000001
40
0
40
0
40
0
40
0
40
0.053356219734381378
40
0.12100506976524711
40
0.12100506976524711
40
0.12100506976524711
40
0.12100506976524711
10
-7.7470667649563474
20
77.915523273723934
30
0
10
-7.5961551949336403
20
78.0110692060058
30
0
10
-7.2539070905910208
20
78.227755138013492
30
0
10
-6.9806477223557373
20
78.527547051341344
30
0
10
-6.8278798915769023
20
78.695148113218551
30
0
0
LWPOLYLINE
5
373
100
AcDbEntity
8
0
100
AcDbPolyline
90
11
70
1
43
0.0
10
7.2475003022328917
20
85.151372046733243
10
10.879827403162551
20
85.15925870663051
10
10.885914567665722
20
82.355717932620536
10
18.477983464070569
20
82.372202148837502
10
18.48542579817391
20
78.944516384539327
10
10.912951351953875
20
69.903495373118716
10
7.2806242510242081
20
69.895608713221463
10
7.260607698323625
20
79.114551559581784
10
5.3779398261643649
20
79.110463832679812
10
5.3709195945768187
20
82.343743545821312
10
7.2535874667360769
20
82.347831272723283
0
LINE
5
374
100
AcDbEntity
8
0
100
AcDbLine
10
54.290919389317509
20
81.856508026649323
30
0
11
47.783430742036131
21
81.842378696244793
31
0
0
LINE
5
375
100
AcDbEntity
8
0
100
AcDbLine
10
47.783430742036131
20
81.842378696244793
30
0
11
47.776055054472408
21
85.239369332929314
31
0
0
LINE
5
376
100
AcDbEntity
8
0
100
AcDbLine
10
47.776055054472408
20
85.239369332929314
30
0
11
60.279437352087058
21
85.266517197371755
31
0
0
SPLINE
5
377
100
AcDbEntity
8
0
100
AcDbSpline
70
0
71
3
72
9
73
5
74
0
42
0.000000001
43
0.0000000001
44
0.0000000001
40
0
40
0
40
0
40
0
40
0.1848549048649985
40
0.37471161773310946
40
0.37471161773310946
40
0.37471161773310946
40
0.37471161773310946
10
60.279437352087051
20
85.266517197371769
30
0
10
60.170318541644278
20
84.65458666186268
30
0
10
59.949128381632079
20
83.414167961215512
30
0
10
59.307521410994838
20
82.32936460125174
30
0
10
58.982435706058915
20
81.779722715908065
30
0
0
SPLINE
5
378
100
AcDbEntity
8
0
100
AcDbSpline
70
0
71
3
72
9
73
5
74
0
42
0.000000001
43
0.0000000001
44
0.0000000001
40
0
40
0
40
0
40
0
40
0.237062532903349
40
0.56345535864689
40
0.56345535864689
40
0.56345535864689
40
0.56345535864689
10
58.982435706058915
20
81.779722715908065
30
0
10
58.480035991422028
20
81.166443914570152
30
0
10
57.285921476876489
20
79.708789587138838
30
0
10
55.777143829522096
20
78.575194511885329
30
0
10
54.90315409425488
20
77.91853681188671
30
0
0
SPLINE
5
379
100
AcDbEntity
8
0
100
AcDbSpline
70
0
71
3
72
9
73
5
74
0
42
0.000000001
43
0.0000000001
44
0.0000000001
40
0
40
0
40
0
40
0
40
0.19203482992607659
40
0.31305765183199952
40
0.31305765183199952
40
0.31305765183199952
40
0.31305765183199952
10
54.90315409425488
20
77.91853681188671
30
0
10
54.386483416115176
20
77.5370674070858
30
0
10
53.544200225450624
20
76.915191072679718
30
0
10
52.837669203364342
20
76.144530406713343
30
0
10
52.564536195573041
20
75.84660595739436
30
0
0
SPLINE
5
380
100
AcDbEntity
8
0
100
AcDbSpline
70
0
71
3
72
9
73
5
74
0
42
0.000000001
43
0.0000000001
44
0.0000000001
40
0
40
0
40
0
40
0
40
0.078784591447438934
40
0.145255106574252
40
0.145255106574252
40
0.145255106574252
40
0.145255106574252
10
52.564536195573041
20
75.84660595739436
30
0
10
52.416137146925607
20
75.624603659825581
30
0
10
52.142533905088854
20
75.215298149691733
30
0
10
52.083066762084343
20
74.728075346381061
30
0
10
52.055853869389196
20
74.505116226516762
30
0
0
SPLINE
5
381
100
AcDbEntity
8
0
100
AcDbSpline
70
0
71
3
72
9
73
5
74
0
42
0.000000001
43
0.0000000001
44
0.0000000001
40
0
40
0
40
0
40
0
40
0.064814719985544861
40
0.1305016840937584
40
0.1305016840937584
40
0.1305016840937584
40
0.1305016840937584
10
52.055853869389196
20
74.505116226516762
30
0
10
52.077995875385277
20
74.284430680157499
30
0
10
52.122577863432859
20
73.840089711601934
30
0
10
52.416787902960102
20
73.503887707743644
30
0
10
52.564876139835413
20
73.33466315624527
30
0
0
SPLINE
5
382
100
AcDbEntity
8
0
100
AcDbSpline
70
0
71
3
72
9
73
5
74
0
42
0.000000001
43
0.0000000001
44
0.0000000001
40
0
40
0
40
0
40
0
40
0.06780265198028794
40
0.13906258214118672
40
0.13906258214118672
40
0.13906258214118672
40
0.13906258214118672
10
52.564876139835413
20
73.33466315624527
30
0
10
52.747920279651943
20
73.19332993480073
30
0
10
53.123342036548706
20
72.903456867267536
30
0
10
53.597055794248277
20
72.869046721296456
30
0
10
53.839801245757698
20
72.851413907631041
30
0
0
SPLINE
5
383
100
AcDbEntity
8
0
100
AcDbSpline
70
0
71
3
72
9
73
5
74
0
42
0.000000001
43
0.0000000001
44
0.0000000001
40
0
40
0
40
0
40
0
40
0.073594053839657725
40
0.14266491820681659
40
0.14266491820681659
40
0.14266491820681659
40
0.14266491820681659
10
53.839801245757698
20
72.851413907631041
30
0
10
54.090764337870979
20
72.870069778849199
30
0
10
54.577265993117159
20
72.906234906363622
30
0
10
54.958639962316596
20
73.20901803319309
30
0
10
55.143281218421016
20
73.355609728956608
30
0
0
SPLINE
5
384
100
AcDbEntity
8
0
100
AcDbSpline
70
0
71
3
72
9
73
5
74
0
42
0.000000001
43
0.0000000001
44
0.0000000001
40
0
40
0
40
0
40
0
40
0.0812259429910136
40
0.19194280457376969
40
0.19194280457376969
40
0.19194280457376969
40
0.19194280457376969
10
55.143281218421016
20
73.355609728956608
30
0
10
55.300465588451587
20
73.580191850255204
30
0
10
55.671903674706499
20
74.110895719386619
30
0
10
55.765735036038429
20
74.755425760994001
30
0
10
55.819859043800939
20
75.12720496658099
30
0
0
LINE
5
385
100
AcDbEntity
8
0
100
AcDbLine
10
55.819859043800939
20
75.12720496658099
30
0
11
59.995208202079482
21
74.798616702595638
31
0
0
SPLINE
5
386
100
AcDbEntity
8
0
100
AcDbSpline
70
0
71
3
72
9
73
5
74
0
42
0.000000001
43
0.0000000001
44
0.0000000001
40
0
40
0
40
0
40
0
40
0.16049208046260832
40
0.29083322043383963
40
0.29083322043383963
40
0.29083322043383963
40
0.29083322043383963
10
59.995208202079482
20
74.798616702595638
30
0
10
59.910979059048223
20
74.265769190290911
30
0
10
59.75834453121638
20
73.300177881629153
30
0
10
59.304267367024543
20
72.436477162074425
30
0
10
59.100766078116123
20
72.049397115947627
30
0
0
SPLINE
5
387
100
AcDbEntity
8
0
100
AcDbSpline
70
0
71
3
72
9
73
5
74
0
42
0.000000001
43
0.0000000001
44
0.0000000001
40
0
40
0
40
0
40
0
40
0.11762642528151442
40
0.24136063714067976
40
0.24136063714067976
40
0.24136063714067976
40
0.24136063714067976
10
59.100766078116123
20
72.049397115947627
30
0
10
58.855972610187386
20
71.736834325705971
30
0
10
58.353674701824062
20
71.095478830810606
30
0
10
57.628802133890659
20
70.722350735588122
30
0
10
57.257194166021023
20
70.531065564435892
30
0
0
SPLINE
5
388
100
AcDbEntity
8
0
100
AcDbSpline
70
0
71
3
72
9
73
5
74
0
42
0.000000001
43
0.0000000001
44
0.0000000001
40
0
40
0
40
0
40
0
40
0.14748935967378943
40
0.33583425011660467
40
0.33583425011660467
40
0.33583425011660467
40
0.33583425011660467
10
57.257194166021023
20
70.531065564435892
30
0
10
56.787558483518964
20
70.376932930128419
30
0
10
55.718194919869916
20
70.02597189961314
30
0
10
54.590816206957733
20
70.007382954743889
30
0
10
53.958551867935483
20
69.996957773918425
30
0
0
SPLINE
5
389
100
AcDbEntity
8
0
100
AcDbSpline
70
0
71
3
72
9
73
5
74
0
42
0.000000001
43
0.0000000001
44
0.0000000001
40
0
40
0
40
0
40
0
40
0.1959588665824897
40
0.34740171230169042
40
0.34740171230169042
40
0.34740171230169042
40
0.34740171230169042
10
53.958551867935483
20
69.996957773918425
30
0
10
53.301286010480325
20
70.003353031035743
30
0
10
52.136065531818062
20
70.014690733237828
30
0
10
51.020987577379735
20
70.34632185850414
30
0
10
50.534891589251039
20
70.490889831432767
30
0
0
SPLINE
5
390
100
AcDbEntity
8
0
100
AcDbSpline
70
0
71
3
72
9
73
5
74
0
42
0.000000001
43
0.0000000001
44
0.0000000001
40
0
40
0
40
0
40
0
40
0.1263759541028367
40
0.24920896739957671
40
0.24920896739957671
40
0.24920896739957671
40
0.24920896739957671
10
50.534891589251039
20
70.490889831432767
30
0
10
50.150375440157909
20
70.67703664578471
30
0
10
49.392123024623359
20
71.044111661903798
30
0
10
48.86685246062158
20
71.70223245205672
30
0
10
48.607950997942808
20
72.026614678792967
30
0
0
SPLINE
5
391
100
AcDbEntity
8
0
100
AcDbSpline
70
0
71
3
72
9
73
5
74
0
42
0.000000001
43
0.0000000001
44
0.0000000001
40
0
40
0
40
0
40
0
40
0.12202408420050494
40
0.24592460776085817
40
0.24592460776085817
40
0.24592460776085817
40
0.24592460776085817
10
48.607950997942808
20
72.026614678792967
30
0
10
48.402751576540069
20
72.38441067829848
30
0
10
47.989197256080629
20
73.105504726357196
30
0
10
47.931221391201326
20
73.934958787909395
30
0
10
47.902012276758434
20
74.352850244284156
30
0
0
SPLINE
5
392
100
AcDbEntity
8
0
100
AcDbSpline
70
0
71
3
72
9
73
5
74
0
42
0.000000001
43
0.0000000001
44
0.0000000001
40
0
40
0
40
0
40
0
40
0.1355339504122991
40
0.27690953309355598
40
0.27690953309355598
40
0.27690953309355598
40
0.27690953309355598
10
47.902012276758434
20
74.352850244284156
30
0
10
47.937225013329517
20
74.809041021426822
30
0
10
48.009168186336595
20
75.741084798767346
30
0
10
48.46619499480498
20
76.55726191537687
30
0
10
48.699529075529249
20
76.973959434392199
30
0
0
SPLINE
5
393
100
AcDbEntity
8
0
100
AcDbSpline
70
0
71
3
72
9
73
5
74
0
42
0.000000001
43
0.0000000001
44
0.0000000001
40
0
40
0
40
0
40
0
40
0.17310378736232374
40
0.40231094707565707
40
0.40231094707565707
40
0.40231094707565707
40
0.40231094707565707
10
48.699529075529249
20
76.973959434392199
30
0
10
49.060111238873333
20
77.427644967380232
30
0
10
49.898141150546572
20
78.482056654334826
30
0
10
50.991733825601344
20
79.272255482000361
30
0
10
51.614782422102685
20
79.722452599962352
30
0
0
SPLINE
5
394
100
AcDbEntity
8
0
100
AcDbSpline
70
0
71
3
72
9
73
5
74
0
42
0.000000001
43
0.0000000001
44
0.0000000001
40
0
40
0
40
0
40
0
40
0.12841768563963196
40
0.20776667750928551
40
0.20776667750928551
40
0.20776667750928551
40
0.20776667750928551
10
51.614782422102685
20
79.722452599962352
30
0
10
51.966893712460063
20
79.966042292788458
30
0
10
52.536573757281587
20
80.360145495177619
30
0
10
53.085604126166785
20
80.782427701390432
30
0
10
53.295286481389113
20
80.943703165527268
30
0
0
SPLINE
5
395
100
AcDbEntity
8
0
100
AcDbSpline
70
0
71
3
72
9
73
5
74
0
42
0.000000001
43
0.0000000001
44
0.0000000001
40
0
40
0
40
0
40
0
40
0.061193468921708315
40
0.13510610384078234
40
0.13510610384078234
40
0.13510610384078234
40
0.13510610384078234
10
53.295286481389113
20
80.943703165527268
30
0
10
53.450264928728011
20
81.076409552907265
30
0
10
53.792434355763433
20
81.369405574699044
30
0
10
54.114646474667325
20
81.684260189384602
30
0
10
54.290919389317509
20
81.856508026649323
30
0
0
LINE
5
396
100
AcDbEntity
8
0
100
AcDbLine
10
-71.471927670917665
20
82.603871809169334
30
0
11
-71.471927670917665
21
85.228245859110814
31
0
0
SPLINE
5
397
100
AcDbEntity
8
0
100
AcDbSpline
70
0
71
3
72
9
73
5
74
0
42
0.000000001
43
0.0000000001
44
0.0000000001
40
0.055421162721186398
40
0.055421162721186398
40
0.055421162721186398
40
0.055421162721186398
40
0.21073625864519158
40
0.37040543795205905
40
0.37040543795205905
40
0.37040543795205905
40
0.37040543795205905
10
-71.47192767091768
20
85.228245859110814
30
0
10
-70.951450783836862
20
85.217873269232172
30
0
10
-69.901621541775512
20
85.162511098510052
30
0
10
-68.895867483838856
20
84.842442397658132
30
0
10
-68.386039096699264
20
84.680195864083146
30
0
0
SPLINE
5
398
100
AcDbEntity
8
0
100
AcDbSpline
70
0
71
3
72
9
73
5
74
0
42
0.000000001
43
0.0000000001
44
0.0000000001
40
0
40
0
40
0
40
0
40
0.13080106772909383
40
0.25627306220322021
40
0.25627306220322021
40
0.25627306220322021
40
0.25627306220322021
10
-68.386039096699264
20
84.680195864083146
30
0
10
-67.993625837890107
20
84.475228226825948
30
0
10
-67.224786949721079
20
84.07364370642091
30
0
10
-66.717458280455361
20
83.370864834364681
30
0
10
-66.469068771860861
20
83.026782370163886
30
0
0
SPLINE
5
399
100
AcDbEntity
8
0
100
AcDbSpline
70
0
71
3
72
9
73
5
74
0
42
0.000000001
43
0.0000000001
44
0.0000000001
40
0
40
0
40
0
40
0
40
0.12585514440880438
40
0.25555882570555777
40
0.25555882570555777
40
0.25555882570555777
40
0.25555882570555777
10
-66.469068771860861
20
83.026782370163886
30
0
10
-66.27726243362045
20
82.648306399270297
30
0
10
-65.8877844921834
20
81.879781003398037
30
0
10
-65.835470924256057
20
81.019431881036184
30
0
10
-65.808920237449541
20
80.582779192314987
30
0
0
SPLINE
5
400
100
AcDbEntity
8
0
100
AcDbSpline
70
0
71
3
72
9
73
5
74
0
42
0.000000001
43
0.0000000001
44
0.0000000001
40
0
40
0
40
0
40
0
40
0.12285036010984915
40
0.23446914076641123
40
0.23446914076641123
40
0.23446914076641123
40
0.23446914076641123
10
-65.808920237449541
20
80.582779192314987
30
0
10
-65.828330277781134
20
80.167731259335383
30
0
10
-65.865375797832698
20
79.375581100918382
30
0
10
-66.239758456480104
20
78.677904725477703
30
0
10
-66.417982915871988
20
78.345776642161354
30
0
0
SPLINE
5
401
100
AcDbEntity
8
0
100
AcDbSpline
70
0
71
3
72
9
73
5
74
0
42
0.000000001
43
0.0000000001
44
0.0000000001
40
0
40
0
40
0
40
0
40
0.11261826122728637
40
0.23927219121895277
40
0.23927219121895277
40
0.23927219121895277
40
0.23927219121895277
10
-66.417982915871988
20
78.345776642161354
30
0
10
-66.66099570569574
20
78.053015706665519
30
0
10
-67.177308087734829
20
77.431006897649837
30
0
10
-67.91651675105237
20
77.099843078674581
30
0
10
-68.307802014149985
20
76.924548160654282
30
0
0
SPLINE
5
402
100
AcDbEntity
8
0
100
AcDbSpline
70
0
71
3
72
9
73
5
74
0
42
0.000000001
43
0.0000000001
44
0.0000000001
40
0
40
0
40
0
40
0
40
0.10131731157172462
40
0.18599465137350019
40
0.18599465137350019
40
0.18599465137350019
40
0.18599465137350019
10
-68.307802014149985
20
76.924548160654282
30
0
10
-68.010604182512324
20
76.757544639992432
30
0
10
-67.465019166221452
20
76.450965624799608
30
0
10
-67.058074838695759
20
75.977002249084535
30
0
10
-66.872806268616841
20
75.76122207732881
30
0
0
SPLINE
5
403
100
AcDbEntity
8
0
100
AcDbSpline
70
0
71
3
72
9
73
5
74
0
42
0.000000001
43
0.0000000001
44
0.0000000001
40
0
40
0
40
0
40
0
40
0.1052507476901177
40
0.21428331974148243
40
0.21428331974148243
40
0.21428331974148243
40
0.21428331974148243
10
-66.872806268616841
20
75.76122207732881
30
0
10
-66.693097197424507
20
75.453951311226518
30
0
10
-66.327221826390286
20
74.828369058701668
30
0
10
-66.279017958720289
20
74.104805321835897
30
0
10
-66.254490656822881
20
73.736638469797427
30
0
0
SPLINE
5
404
100
AcDbEntity
8
0
100
AcDbSpline
70
0
71
3
72
9
73
5
74
0
42
0.000000001
43
0.0000000001
44
0.0000000001
40
0
40
0
40
0
40
0
40
0.17675828000289329
40
0.36742401234961847
40
0.36742401234961847
40
0.36742401234961847
40
0.36742401234961847
10
-66.254490656822881
20
73.736638469797427
30
0
10
-66.337487218656321
20
73.13054020637523
30
0
10
-66.51001056386859
20
71.870655487984237
30
0
10
-67.502760534810164
20
71.068995384148494
30
0
10
-68.01792392610929
20
70.652993420059261
30
0
0
SPLINE
5
405
100
AcDbEntity
8
0
100
AcDbSpline
70
0
71
3
72
9
73
5
74
0
42
0.000000001
43
0.0000000001
44
0.0000000001
40
0
40
0
40
0
40
0
40
0.17462457234393319
40
0.36139814434535222
40
0.36139814434535222
40
0.36139814434535222
40
0.36139814434535222
10
-68.01792392610929
20
70.652993420059261
30
0
10
-68.541913342691146
20
70.383753716850805
30
0
10
-69.626347224288864
20
69.826542736645905
30
0
10
-70.840942171760602
20
69.755823495797216
30
0
10
-71.471927670917651
20
69.731507330756614
30
0
0
LINE
5
406
100
AcDbEntity
8
0
100
AcDbLine
10
-71.471927670917651
20
69.731507330756614
30
0
11
-71.471927670917665
21
72.304774582097124
31
0
0
SPLINE
5
407
100
AcDbEntity
8
0
100
AcDbSpline
70
0
71
3
72
9
73
5
74
0
42
0.000000001
43
0.0000000001
44
0.0000000001
40
0.040266854397166055
40
0.040266854397166055
40
0.040266854397166055
40
0.040266854397166055
40
0.069705023931338414
40
0.13494172059022322
40
0.13494172059022322
40
0.13494172059022322
40
0.13494172059022322
10
-71.471927670917665
20
72.304774582097124
30
0
10
-71.37528049154102
20
72.321739798324018
30
0
10
-71.073346931386837
20
72.398733088137988
30
0
10
-70.820902790397071
20
72.600611731719823
30
0
10
-70.646953541654739
20
72.739718301000835
30
0
0
SPLINE
5
408
100
AcDbEntity
8
0
100
AcDbSpline
70
0
71
3
72
9
73
5
74
0
42
0.000000001
43
0.0000000001
44
0.0000000001
40
0
40
0
40
0
40
0
40
0.06523726481234389
40
0.13494145077118069
40
0.13494145077118069
40
0.13494145077118069
40
0.13494145077118069
10
-70.646953541654739
20
72.739718301000835
30
0
10
-70.508605069065993
20
72.914272987641993
30
0
10
-70.222435137558222
20
73.275334456451617
30
0
10
-70.190394302497054
20
73.735827341769976
30
0
10
-70.173843566510328
20
73.973695554446763
30
0
0
SPLINE
5
409
100
AcDbEntity
8
0
100
AcDbSpline
70
0
71
3
72
9
73
5
74
0
42
0.000000001
43
0.0000000001
44
0.0000000001
40
0
40
0
40
0
40
0
40
0.071260108603796862
40
0.13734651424938044
40
0.13734651424938044
40
0.13734651424938044
40
0.13734651424938044
10
-70.173843566510328
20
73.973695554446763
30
0
10
-70.19139357017562
20
74.217031831181345
30
0
10
-70.22521939328648
20
74.686037422875586
30
0
10
-70.520504097940901
20
75.050622261241358
30
0
10
-70.662584913601719
20
75.22604791111786
30
0
0
SPLINE
5
410
100
AcDbEntity
8
0
100
AcDbSpline
70
0
71
3
72
9
73
5
74
0
42
0.000000001
43
0.0000000001
44
0.0000000001
40
0
40
0
40
0
40
0
40
0.066959330674445816
40
0.092495282336556822
40
0.092495282336556822
40
0.092495282336556822
40
0.092495282336556822
10
-70.662584913601719
20
75.22604791111786
30
0
10
-70.844273450297464
20
75.364336519451697
30
0
10
-71.09525165348019
20
75.555363576367128
30
0
10
-71.388773037803816
20
75.633316021020022
30
0
10
-71.471927670917665
20
75.649203071014952
30
0
0
LINE
5
411
100
AcDbEntity
8
0
100
AcDbLine
10
-71.471927670917665
20
75.649203071014952
30
0
11
-71.471927670917665
21
78.214872843787589
31
0
0
SPLINE
5
412
100
AcDbEntity
8
0
100
AcDbSpline
70
0
71
3
72
9
73
5
74
0
42
0.000000001
43
0.0000000001
44
0.0000000001
40
0.041682129622194038
40
0.041682129622194038
40
0.041682129622194038
40
0.041682129622194038
40
0.074376628056475672
40
0.15224541578496248
40
0.15224541578496248
40
0.15224541578496248
40
0.15224541578496248
10
-71.471927670917665
20
78.21487284378756
30
0
10
-71.365074748717859
20
78.237001576600434
30
0
10
-71.015229761258922
20
78.337420301114079
30
0
10
-70.734781729965221
20
78.592229888149831
30
0
10
-70.537264552468102
20
78.771690126106762
30
0
0
SPLINE
5
413
100
AcDbEntity
8
0
100
AcDbSpline
70
0
71
3
72
9
73
5
74
0
42
0.000000001
43
0.0000000001
44
0.0000000001
40
0
40
0
40
0
40
0
40
0.084162785179454205
40
0.17889389280150206
40
0.17889389280150206
40
0.17889389280150206
40
0.17889389280150206
10
-70.537264552468102
20
78.771690126106762
30
0
10
-70.369313340384224
20
79.003847255556479
30
0
10
-70.012321279506637
20
79.497313489359556
30
0
10
-69.979916580192651
20
80.107432200716715
30
0
10
-69.962757061719969
20
80.430513220435643
30
0
0
SPLINE
5
414
100
AcDbEntity
8
0
100
AcDbSpline
70
0
71
3
72
9
73
5
74
0
42
0.000000001
43
0.0000000001
44
0.0000000001
40
0
40
0
40
0
40
0
40
0.091422986198145692
40
0.17648183736510195
40
0.17648183736510195
40
0.17648183736510195
40
0.17648183736510195
10
-69.962757061719969
20
80.430513220435643
30
0
10
-69.984754021143544
20
80.742057387292775
30
0
10
-70.02721668810463
20
81.343458514884048
30
0
10
-70.393449310508771
20
81.820863150206293
30
0
10
-70.569962240035466
20
82.050957591813244
30
0
0
SPLINE
5
415
100
AcDbEntity
8
0
100
AcDbSpline
70
0
71
3
72
9
73
5
74
0
42
0.000000001
43
0.0000000001
44
0.0000000001
40
0
40
0
40
0
40
0
40
0.080097244543159155
40
0.10722587500224606
40
0.10722587500224606
40
0.10722587500224606
40
0.10722587500224606
10
-70.569962240035466
20
82.050957591813244
30
0
10
-70.774379043957737
20
82.233993588530694
30
0
10
-71.048031037740344
20
82.479023177461926
30
0
10
-71.384292398660662
20
82.583256435663287
30
0
10
-71.471927670917665
20
82.603871809169334
30
0
0
LWPOLYLINE
5
416
100
AcDbEntity
8
0
100
AcDbPolyline
90
3
70
1
43
0.0
10
10.903184327328434
20
74.401854463601978
10
14.904480061487508
20
79.131148253643516
10
10.892934799253275
20
79.122438219479037
0
LWPOLYLINE
5
417
100
AcDbEntity
8
0
100
AcDbPolyline
90
4
70
1
43
0.0
10
10.892934799253275
20
78.122438219479037
10
10.892934799253275
20
79.122438219479037
10
7.2706159746739161
20
79.122438219479037
10
7.2706159746739161
20
78.122438219479037
0
LWPOLYLINE
5
418
100
AcDbEntity
8
0
100
AcDbPolyline
90
7
70
1
43
0.0
10
62.016043656977587
20
43.625306994514105
10
62.016043656977587
20
35.715694741579952
10
85
20
35.715694741579952
10
85
20
30
10
62.016043656977587
20
30
10
62.016043656977587
20
22.090387747065847
10
46.808384911977079
20
31.997858533159047
0
ENDSEC
0
SECTION
2
OBJECTS
0
DICTIONARY
5
C
100
AcDbDictionary
3
ACAD_GROUP
350
D
3
ACAD_MLINESTYLE
350
17
0
DICTIONARY
5
D
100
AcDbDictionary
0
DICTIONARY
5
1A
330
C
100
AcDbDictionary
0
DICTIONARY
5
17
100
AcDbDictionary
0
ENDSEC
0
EOF
