  0
SECTION
  2
HEADER
  9
$ACADVER
  1
AC1014
  9
$ACADMAINTVER
 70
     9
  9
$DWGCODEPAGE
  3
ANSI_1252
  9
$INSBASE
 10
0.0
 20
0.0
 30
0.0
  9
$EXTMIN
 10
1.000000000000000E+20
 20
1.000000000000000E+20
 30
1.000000000000000E+20
  9
$EXTMAX
 10
-1.000000000000000E+20
 20
-1.000000000000000E+20
 30
-1.000000000000000E+20
  9
$LIMMIN
 10
0.0
 20
0.0
  9
$LIMMAX
 10
12.0
 20
9.0
  9
$ORTHOMODE
 70
     0
  9
$REGENMODE
 70
     1
  9
$FILLMODE
 70
     1
  9
$QTEXTMODE
 70
     0
  9
$MIRRTEXT
 70
     1
  9
$DRAGMODE
 70
     2
  9
$LTSCALE
 40
1.0
  9
$OSMODE
 70
    37
  9
$ATTMODE
 70
     1
  9
$TEXTSIZE
 40
0.2
  9
$TRACEWID
 40
0.05
  9
$TEXTSTYLE
  7
STANDARD
  9
$CLAYER
  8
0
  9
$CELTYPE
  6
BYLAYER
  9
$CECOLOR
 62
   256
  9
$CELTSCALE
 40
1.0
  9
$DELOBJ
 70
     1
  9
$DISPSILH
 70
     0
  9
$DIMSCALE
 40
1.0
  9
$DIMASZ
 40
0.18
  9
$DIMEXO
 40
0.0625
  9
$DIMDLI
 40
0.38
  9
$DIMRND
 40
0.0
  9
$DIMDLE
 40
0.0
  9
$DIMEXE
 40
0.18
  9
$DIMTP
 40
0.0
  9
$DIMTM
 40
0.0
  9
$DIMTXT
 40
0.18
  9
$DIMCEN
 40
0.09
  9
$DIMTSZ
 40
0.0
  9
$DIMTOL
 70
     0
  9
$DIMLIM
 70
     0
  9
$DIMTIH
 70
     1
  9
$DIMTOH
 70
     1
  9
$DIMSE1
 70
     0
  9
$DIMSE2
 70
     0
  9
$DIMTAD
 70
     0
  9
$DIMZIN
 70
     0
  9
$DIMBLK
  1

  9
$DIMASO
 70
     1
  9
$DIMSHO
 70
     1
  9
$DIMPOST
  1

  9
$DIMAPOST
  1

  9
$DIMALT
 70
     0
  9
$DIMALTD
 70
     2
  9
$DIMALTF
 40
25.4
  9
$DIMLFAC
 40
1.0
  9
$DIMTOFL
 70
     0
  9
$DIMTVP
 40
0.0
  9
$DIMTIX
 70
     0
  9
$DIMSOXD
 70
     0
  9
$DIMSAH
 70
     0
  9
$DIMBLK1
  1

  9
$DIMBLK2
  1

  9
$DIMSTYLE
  2
STANDARD
  9
$DIMCLRD
 70
     0
  9
$DIMCLRE
 70
     0
  9
$DIMCLRT
 70
     0
  9
$DIMTFAC
 40
1.0
  9
$DIMGAP
 40
0.09
  9
$DIMJUST
 70
     0
  9
$DIMSD1
 70
     0
  9
$DIMSD2
 70
     0
  9
$DIMTOLJ
 70
     1
  9
$DIMTZIN
 70
     0
  9
$DIMALTZ
 70
     0
  9
$DIMALTTZ
 70
     0
  9
$DIMFIT
 70
     3
  9
$DIMUPT
 70
     0
  9
$DIMUNIT
 70
     2
  9
$DIMDEC
 70
     4
  9
$DIMTDEC
 70
     4
  9
$DIMALTU
 70
     2
  9
$DIMALTTD
 70
     2
  9
$DIMTXSTY
  7
STANDARD
  9
$DIMAUNIT
 70
     0
  9
$LUNITS
 70
     2
  9
$LUPREC
 70
     4
  9
$SKETCHINC
 40
0.1
  9
$FILLETRAD
 40
0.5
  9
$AUNITS
 70
     0
  9
$AUPREC
 70
     0
  9
$MENU
  1
.
  9
$ELEVATION
 40
0.0
  9
$PELEVATION
 40
0.0
  9
$THICKNESS
 40
0.0
  9
$LIMCHECK
 70
     0
  9
$CHAMFERA
 40
0.0
  9
$CHAMFERB
 40
0.0
  9
$CHAMFERC
 40
0.0
  9
$CHAMFERD
 40
0.0
  9
$SKPOLY
 70
     0
  9
$TDCREATE
 40
2460257.388396806
  9
$TDUPDATE
 40
2460257.388396806
  9
$TDINDWG
 40
0.0000000116
  9
$TDUSRTIMER
 40
0.0000000116
  9
$USRTIMER
 70
     1
  9
$ANGBASE
 50
0.0
  9
$ANGDIR
 70
     0
  9
$PDMODE
 70
     0
  9
$PDSIZE
 40
0.0
  9
$PLINEWID
 40
0.0
  9
$COORDS
 70
     1
  9
$SPLFRAME
 70
     0
  9
$SPLINETYPE
 70
     6
  9
$SPLINESEGS
 70
     8
  9
$ATTDIA
 70
     0
  9
$ATTREQ
 70
     1
  9
$HANDLING
 70
     1
  9
$HANDSEED
  5
35B
  9
$SURFTAB1
 70
     6
  9
$SURFTAB2
 70
     6
  9
$SURFTYPE
 70
     6
  9
$SURFU
 70
     6
  9
$SURFV
 70
     6
  9
$UCSNAME
  2

  9
$UCSORG
 10
0.0
 20
0.0
 30
0.0
  9
$UCSXDIR
 10
1.0
 20
0.0
 30
0.0
  9
$UCSYDIR
 10
0.0
 20
1.0
 30
0.0
  9
$PUCSNAME
  2

  9
$PUCSORG
 10
0.0
 20
0.0
 30
0.0
  9
$PUCSXDIR
 10
1.0
 20
0.0
 30
0.0
  9
$PUCSYDIR
 10
0.0
 20
1.0
 30
0.0
  9
$USERI1
 70
     0
  9
$USERI2
 70
     0
  9
$USERI3
 70
     0
  9
$USERI4
 70
     0
  9
$USERI5
 70
     0
  9
$USERR1
 40
0.0
  9
$USERR2
 40
0.0
  9
$USERR3
 40
0.0
  9
$USERR4
 40
0.0
  9
$USERR5
 40
0.0
  9
$WORLDVIEW
 70
     1
  9
$SHADEDGE
 70
     3
  9
$SHADEDIF
 70
    70
  9
$TILEMODE
 70
     1
  9
$MAXACTVP
 70
    64
  9
$PINSBASE
 10
0.0
 20
0.0
 30
0.0
  9
$PLIMCHECK
 70
     0
  9
$PEXTMIN
 10
1.000000000000000E+20
 20
1.000000000000000E+20
 30
1.000000000000000E+20
  9
$PEXTMAX
 10
-1.000000000000000E+20
 20
-1.000000000000000E+20
 30
-1.000000000000000E+20
  9
$PLIMMIN
 10
0.0
 20
0.0
  9
$PLIMMAX
 10
12.0
 20
9.0
  9
$UNITMODE
 70
     0
  9
$VISRETAIN
 70
     1
  9
$PLINEGEN
 70
     0
  9
$PSLTSCALE
 70
     1
  9
$TREEDEPTH
 70
  3020
  9
$PICKSTYLE
 70
     1
  9
$CMLSTYLE
  2
STANDARD
  9
$CMLJUST
 70
     0
  9
$CMLSCALE
 40
1.0
  9
$PROXYGRAPHICS
 70
     1
  9
$MEASUREMENT
 70
     1
  0
ENDSEC
  0
SECTION
  2
CLASSES
  0
CLASS
  1
ACDBDICTIONARYWDFLT
  2
AcDbDictionaryWithDefault
  3
ObjectDBX Classes
 90
        0
280
     0
281
     0
  0
CLASS
  1
VISUALSTYLE
  2
AcDbVisualStyle
  3
ObjectDBX Classes
 90
     4095
280
     0
281
     0
  0
CLASS
  1
MATERIAL
  2
AcDbMaterial
  3
ObjectDBX Classes
 90
     1153
280
     0
281
     0
  0
CLASS
  1
SCALE
  2
AcDbScale
  3
ObjectDBX Classes
 90
     1153
280
     0
281
     0
  0
CLASS
  1
TABLESTYLE
  2
AcDbTableStyle
  3
ObjectDBX Classes
 90
     4095
280
     0
281
     0
  0
CLASS
  1
MLEADERSTYLE
  2
AcDbMLeaderStyle
  3
ACDB_MLEADERSTYLE_CLASS
 90
     4095
280
     0
281
     0
  0
CLASS
  1
SUN
  2
AcDbSun
  3
SCENEOE
 90
     1153
280
     0
281
     0
  0
CLASS
  1
DICTIONARYVAR
  2
AcDbDictionaryVar
  3
ObjectDBX Classes
 90
        0
280
     0
281
     0
  0
CLASS
  1
XRECORD
  2
AcDbXrecord
  3
ObjectDBX Classes
 90
        0
280
     0
281
     0
  0
CLASS
  1
LWPOLYLINE
  2
AcDbPolyline
  3
ObjectDBX Classes
 90
        0
280
     0
281
     1
  0
CLASS
  1
HATCH
  2
AcDbHatch
  3
ObjectDBX Classes
 90
        0
280
     0
281
     1
  0
CLASS
  1
ACDBPLACEHOLDER
  2
AcDbPlaceHolder
  3
ObjectDBX Classes
 90
        0
280
     0
281
     0
  0
CLASS
  1
LAYOUT
  2
AcDbLayout
  3
ObjectDBX Classes
 90
        0
280
     0
281
     0
  0
ENDSEC
  0
SECTION
  2
TABLES
  0
TABLE
  2
VPORT
  5
8
102
{ACAD_XDICTIONARY
360
350
102
}
330
0
100
AcDbSymbolTable
 70
     1
  0
VPORT
  5
29
330
8
100
AcDbSymbolTableRecord
100
AcDbViewportTableRecord
  2
*ACTIVE
 70
     0
 10
0.0
 20
0.0
 11
1.0
 21
1.0
 12
0.0
 22
0.0
 13
0.0
 23
0.0
 14
0.5
 24
0.5
 15
0.5
 25
0.5
 16
0.0
 26
0.0
 36
1.0
 17
0.0
 27
0.0
 37
-1000.0
 40
220.1656009745686
 41
2.259433962264151
 42
50.0
 43
392.1988893018072
 44
507.2941980355421
 50
0.0
 51
0.0
 71
     0
 72
   100
 73
     1
 74
     3
 75
     0
 76
     0
 77
     0
 78
     0
  0
ENDTAB
  0
TABLE
  2
LTYPE
  5
5
330
0
100
AcDbSymbolTable
 70
     1
  0
LTYPE
  5
14
330
5
100
AcDbSymbolTableRecord
100
AcDbLinetypeTableRecord
  2
BYBLOCK
 70
     0
  3

 72
    65
 73
     0
 40
0.0
  0
LTYPE
  5
15
330
5
100
AcDbSymbolTableRecord
100
AcDbLinetypeTableRecord
  2
BYLAYER
 70
     0
  3

 72
    65
 73
     0
 40
0.0
  0
LTYPE
  5
16
330
5
100
AcDbSymbolTableRecord
100
AcDbLinetypeTableRecord
  2
CONTINUOUS
 70
     0
  3
Solid line
 72
    65
 73
     0
 40
0.0
  0
ENDTAB
  0
TABLE
  2
LAYER
  5
2
330
0
100
AcDbSymbolTable
 70
     3
  0
LAYER
  5
10
330
2
100
AcDbSymbolTableRecord
100
AcDbLayerTableRecord
  2
0
 70
     0
 62
     7
  6
CONTINUOUS
  0
LAYER
  5
6E
330
2
100
AcDbSymbolTableRecord
100
AcDbLayerTableRecord
  2
PROFILEEDGES
 70
     0
 62
     7
  6
CONTINUOUS
  0
LAYER
  5
6F
330
2
100
AcDbSymbolTableRecord
100
AcDbLayerTableRecord
  2
SECTIONCUTEDGES
 70
     0
 62
     7
  6
CONTINUOUS
  0
ENDTAB
  0
TABLE
  2
STYLE
  5
3
330
0
100
AcDbSymbolTable
 70
     1
  0
STYLE
  5
11
330
3
100
AcDbSymbolTableRecord
100
AcDbTextStyleTableRecord
  2
STANDARD
 70
     0
 40
0.0
 41
1.0
 50
0.0
 71
     0
 42
0.2
  3
txt
  4

  0
ENDTAB
  0
TABLE
  2
VIEW
  5
6
330
0
100
AcDbSymbolTable
 70
     0
  0
ENDTAB
  0
TABLE
  2
UCS
  5
7
330
0
100
AcDbSymbolTable
 70
     0
  0
ENDTAB
  0
TABLE
  2
APPID
  5
9
330
0
100
AcDbSymbolTable
 70
     2
  0
APPID
  5
12
330
9
100
AcDbSymbolTableRecord
100
AcDbRegAppTableRecord
  2
ACAD
 70
     0
  0
APPID
  5
35A
330
9
100
AcDbSymbolTableRecord
100
AcDbRegAppTableRecord
  2
ACAD_MLEADERVER
 70
     0
  0
ENDTAB
  0
TABLE
  2
DIMSTYLE
  5
A
330
0
100
AcDbSymbolTable
 70
     1
  0
DIMSTYLE
105
27
330
A
100
AcDbSymbolTableRecord
100
AcDbDimStyleTableRecord
  2
STANDARD
 70
     0
  3

  4

  5

  6

  7

 40
1.0
 41
0.18
 42
0.0625
 43
0.38
 44
0.18
 45
0.0
 46
0.0
 47
0.0
 48
0.0
140
0.18
141
0.09
142
0.0
143
25.4
144
1.0
145
0.0
146
1.0
147
0.09
 71
     0
 72
     0
 73
     1
 74
     1
 75
     0
 76
     0
 77
     0
 78
     0
170
     0
171
     2
172
     0
173
     0
174
     0
175
     0
176
     0
177
     0
178
     0
270
     2
271
     4
272
     4
273
     2
274
     2
340
11
275
     0
280
     0
281
     0
282
     0
283
     1
284
     0
285
     0
286
     0
287
     3
288
     0
  0
ENDTAB
  0
TABLE
  2
BLOCK_RECORD
  5
1
330
0
100
AcDbSymbolTable
 70
     1
  0
BLOCK_RECORD
  5
1F
330
1
100
AcDbSymbolTableRecord
100
AcDbBlockTableRecord
  2
*MODEL_SPACE
  0
BLOCK_RECORD
  5
1B
330
1
100
AcDbSymbolTableRecord
100
AcDbBlockTableRecord
  2
*PAPER_SPACE
  0
ENDTAB
  0
ENDSEC
  0
SECTION
  2
BLOCKS
  0
BLOCK
  5
20
330
1F
100
AcDbEntity
  8
0
100
AcDbBlockBegin
  2
*MODEL_SPACE
 70
     0
 10
0.0
 20
0.0
 30
0.0
  3
*MODEL_SPACE
  1

  0
ENDBLK
  5
21
330
1F
100
AcDbEntity
  8
0
100
AcDbBlockEnd
  0
BLOCK
  5
1C
330
1B
100
AcDbEntity
 67
     1
  8
0
100
AcDbBlockBegin
  2
*PAPER_SPACE
 70
     0
 10
0.0
 20
0.0
 30
0.0
  3
*PAPER_SPACE
  1

  0
ENDBLK
  5
1D
330
1B
100
AcDbEntity
 67
     1
  8
0
100
AcDbBlockEnd
  0
ENDSEC
  0
SECTION
  2
ENTITIES
  0
LINE
  5
70
330
1F
100
AcDbEntity
  8
0
100
AcDbLine
 10
-67.36259025200528
 20
-31.79186375590008
 30
0.0
 11
-67.28592336115568
 21
-32.37420660738075
 31
0.0
  0
LINE
  5
71
330
1F
100
AcDbEntity
  8
0
100
AcDbLine
 10
-67.28592336115568
 20
-32.37420660738075
 30
0.0
 11
-67.06114741052026
 21
-32.91686375590007
 31
0.0
  0
LINE
  5
72
330
1F
100
AcDbEntity
  8
0
100
AcDbLine
 10
-67.06114741052026
 20
-32.91686375590007
 30
0.0
 11
-66.703580509675
 21
-33.38285401356981
 31
0.0
  0
LINE
  5
73
330
1F
100
AcDbEntity
  8
0
100
AcDbLine
 10
-66.703580509675
 20
-33.38285401356981
 30
0.0
 11
-66.23759025200528
 21
-33.74042091441506
 31
0.0
  0
LINE
  5
74
330
1F
100
AcDbEntity
  8
0
100
AcDbLine
 10
-66.23759025200528
 20
-33.74042091441506
 30
0.0
 11
-65.69493310348595
 21
-33.96519686505048
 31
0.0
  0
LINE
  5
75
330
1F
100
AcDbEntity
  8
0
100
AcDbLine
 10
-65.69493310348595
 20
-33.96519686505048
 30
0.0
 11
-65.11259025200529
 21
-34.04186375590007
 31
0.0
  0
LINE
  5
76
330
1F
100
AcDbEntity
  8
0
100
AcDbLine
 10
-65.11259025200529
 20
-34.04186375590007
 30
0.0
 11
-64.5302474005246
 21
-33.96519686505048
 31
0.0
  0
LINE
  5
77
330
1F
100
AcDbEntity
  8
0
100
AcDbLine
 10
-64.5302474005246
 20
-33.96519686505048
 30
0.0
 11
-63.98759025200528
 21
-33.74042091441506
 31
0.0
  0
LINE
  5
78
330
1F
100
AcDbEntity
  8
0
100
AcDbLine
 10
-63.98759025200528
 20
-33.74042091441506
 30
0.0
 11
-63.52159999433556
 21
-33.38285401356981
 31
0.0
  0
LINE
  5
79
330
1F
100
AcDbEntity
  8
0
100
AcDbLine
 10
-63.52159999433556
 20
-33.38285401356981
 30
0.0
 11
-63.1640330934903
 21
-32.91686375590007
 31
0.0
  0
LINE
  5
7A
330
1F
100
AcDbEntity
  8
0
100
AcDbLine
 10
-63.1640330934903
 20
-32.91686375590007
 30
0.0
 11
-62.93925714285488
 21
-32.37420660738075
 31
0.0
  0
LINE
  5
7B
330
1F
100
AcDbEntity
  8
0
100
AcDbLine
 10
-62.93925714285488
 20
-32.37420660738075
 30
0.0
 11
-62.86259025200529
 21
-31.79186375590008
 31
0.0
  0
LINE
  5
7C
330
1F
100
AcDbEntity
  8
0
100
AcDbLine
 10
-62.86259025200529
 20
-31.79186375590008
 30
0.0
 11
-62.93925714285488
 21
-31.20952090441942
 31
0.0
  0
LINE
  5
7D
330
1F
100
AcDbEntity
  8
0
100
AcDbLine
 10
-62.93925714285488
 20
-31.20952090441942
 30
0.0
 11
-63.1640330934903
 21
-30.66686375590009
 31
0.0
  0
LINE
  5
7E
330
1F
100
AcDbEntity
  8
0
100
AcDbLine
 10
-63.1640330934903
 20
-30.66686375590009
 30
0.0
 11
-63.52159999433556
 21
-30.20087349823036
 31
0.0
  0
LINE
  5
7F
330
1F
100
AcDbEntity
  8
0
100
AcDbLine
 10
-63.52159999433556
 20
-30.20087349823036
 30
0.0
 11
-63.72266005691039
 21
-30.04659468601195
 31
0.0
  0
LINE
  5
80
330
1F
100
AcDbEntity
  8
0
100
AcDbLine
 10
-63.98759025200528
 20
-29.84330659738511
 30
0.0
 11
-64.5302474005246
 21
-29.61853064674969
 31
0.0
  0
LINE
  5
81
330
1F
100
AcDbEntity
  8
0
100
AcDbLine
 10
-64.5302474005246
 20
-29.61853064674969
 30
0.0
 11
-65.11259025200529
 21
-29.5418637559001
 31
0.0
  0
LINE
  5
82
330
1F
100
AcDbEntity
  8
0
100
AcDbLine
 10
-65.11259025200529
 20
-29.5418637559001
 30
0.0
 11
-65.69493310348594
 21
-29.61853064674969
 31
0.0
  0
LINE
  5
83
330
1F
100
AcDbEntity
  8
0
100
AcDbLine
 10
-65.69493310348594
 20
-29.61853064674969
 30
0.0
 11
-66.23759025200528
 21
-29.84330659738511
 31
0.0
  0
LINE
  5
84
330
1F
100
AcDbEntity
  8
0
100
AcDbLine
 10
-66.23759025200528
 20
-29.84330659738511
 30
0.0
 11
-66.703580509675
 21
-30.20087349823036
 31
0.0
  0
LINE
  5
85
330
1F
100
AcDbEntity
  8
0
100
AcDbLine
 10
-66.703580509675
 20
-30.20087349823036
 30
0.0
 11
-67.06114741052025
 21
-30.66686375590009
 31
0.0
  0
LINE
  5
86
330
1F
100
AcDbEntity
  8
0
100
AcDbLine
 10
-67.06114741052025
 20
-30.66686375590009
 30
0.0
 11
-67.28592336115567
 21
-31.20952090441941
 31
0.0
  0
LINE
  5
87
330
1F
100
AcDbEntity
  8
0
100
AcDbLine
 10
-67.28592336115567
 20
-31.20952090441941
 30
0.0
 11
-67.36259025200528
 21
-31.79186375590008
 31
0.0
  0
LINE
  5
88
330
1F
100
AcDbEntity
  8
0
100
AcDbLine
 10
15.88740974799471
 20
-1.541863755900078
 30
0.0
 11
-3.325607269074096
 21
-1.541863755900078
 31
0.0
  0
LINE
  5
89
330
1F
100
AcDbEntity
  8
0
100
AcDbLine
 10
-86.11259025200528
 20
-1.541863755900078
 30
0.0
 11
-86.11259025200528
 21
-14.54186375590048
 31
0.0
  0
LINE
  5
8A
330
1F
100
AcDbEntity
  8
0
100
AcDbLine
 10
-86.11259025200528
 20
-62.04186375590008
 30
0.0
 11
-66.92083205576243
 21
-62.04186375590008
 31
0.0
  0
LINE
  5
8B
330
1F
100
AcDbEntity
  8
0
100
AcDbLine
 10
15.88740974799471
 20
-62.04186375590008
 30
0.0
 11
15.88740974799471
 21
-49.04186375590007
 31
0.0
  0
LINE
  5
8C
330
1F
100
AcDbEntity
  8
0
100
AcDbLine
 10
-63.27688352730488
 20
-29.48685435376492
 30
0.0
 11
-61.09082367076435
 21
-27.5109925603533
 31
0.0
  0
LINE
  5
8D
330
1F
100
AcDbEntity
  8
0
100
AcDbLine
 10
-61.09082367076435
 20
-27.5109925603533
 30
0.0
 11
-60.49517518598232
 21
-27.12784043282069
 31
0.0
  0
LINE
  5
8E
330
1F
100
AcDbEntity
  8
0
100
AcDbLine
 10
-55.90813871744132
 20
-24.74689391858101
 30
0.0
 11
-53.04944505888833
 21
-24.03222050394276
 31
0.0
  0
LINE
  5
8F
330
1F
100
AcDbEntity
  8
0
100
AcDbLine
 10
-53.04944505888833
 20
-24.03222050394276
 30
0.0
 11
-52.33860572684018
 21
-23.97404431156461
 31
0.0
  0
LINE
  5
90
330
1F
100
AcDbEntity
  8
0
100
AcDbLine
 10
-47.17573544512222
 20
-24.03222050394276
 30
0.0
 11
-44.31704178656923
 21
-24.74689391858101
 31
0.0
  0
LINE
  5
91
330
1F
100
AcDbEntity
  8
0
100
AcDbLine
 10
-44.31704178656923
 20
-24.74689391858101
 30
0.0
 11
-43.66021814962252
 21
-25.03104167787512
 31
0.0
  0
LINE
  5
92
330
1F
100
AcDbEntity
  8
0
100
AcDbLine
 10
-39.13435683324619
 20
-27.5109925603533
 30
0.0
 11
-36.94829697670567
 21
-29.48685435376492
 31
0.0
  0
LINE
  5
93
330
1F
100
AcDbEntity
  8
0
100
AcDbLine
 10
-36.94829697670567
 20
-29.48685435376492
 30
0.0
 11
-36.50252044710017
 21
-30.04659468601194
 31
0.0
  0
LINE
  5
94
330
1F
100
AcDbEntity
  8
0
100
AcDbLine
 10
-63.72266005691039
 20
-30.04659468601195
 30
0.0
 11
-63.98759025200528
 21
-29.84330659738511
 31
0.0
  0
LINE
  5
95
330
1F
100
AcDbEntity
  8
0
100
AcDbLine
 10
-63.72266005691039
 20
-30.04659468601195
 30
0.0
 11
-63.27688352730488
 21
-29.48685435376492
 31
0.0
  0
LINE
  5
96
330
1F
100
AcDbEntity
  8
0
100
AcDbLine
 10
-48.52159999433555
 20
-22.20087349823036
 30
0.0
 11
-48.98759025200529
 21
-21.8433065973851
 31
0.0
  0
LINE
  5
97
330
1F
100
AcDbEntity
  8
0
100
AcDbLine
 10
-48.1640330934903
 20
-22.66686375590009
 30
0.0
 11
-48.52159999433555
 21
-22.20087349823036
 31
0.0
  0
LINE
  5
98
330
1F
100
AcDbEntity
  8
0
100
AcDbLine
 10
-49.53024740052462
 20
-21.61853064674969
 30
0.0
 11
-50.11259025200528
 21
-21.54186375590009
 31
0.0
  0
LINE
  5
99
330
1F
100
AcDbEntity
  8
0
100
AcDbLine
 10
-48.98759025200529
 20
-21.8433065973851
 30
0.0
 11
-49.53024740052462
 21
-21.61853064674969
 31
0.0
  0
LINE
  5
9A
330
1F
100
AcDbEntity
  8
0
100
AcDbLine
 10
-47.93925714285488
 20
-23.20952090441941
 30
0.0
 11
-48.1640330934903
 21
-22.66686375590009
 31
0.0
  0
LINE
  5
9B
330
1F
100
AcDbEntity
  8
0
100
AcDbLine
 10
-47.86259025200529
 20
-23.79186375590008
 30
0.0
 11
-47.93925714285488
 21
-23.20952090441941
 31
0.0
  0
LINE
  5
9C
330
1F
100
AcDbEntity
  8
0
100
AcDbLine
 10
-51.70358050967501
 20
-22.20087349823036
 30
0.0
 11
-52.06114741052026
 21
-22.66686375590009
 31
0.0
  0
LINE
  5
9D
330
1F
100
AcDbEntity
  8
0
100
AcDbLine
 10
-51.23759025200528
 20
-25.74042091441506
 30
0.0
 11
-50.69493310348595
 21
-25.96519686505048
 31
0.0
  0
LINE
  5
9E
330
1F
100
AcDbEntity
  8
0
100
AcDbLine
 10
-50.69493310348595
 20
-25.96519686505048
 30
0.0
 11
-50.11259025200528
 21
-26.04186375590007
 31
0.0
  0
LINE
  5
9F
330
1F
100
AcDbEntity
  8
0
100
AcDbLine
 10
-51.70358050967501
 20
-25.38285401356981
 30
0.0
 11
-51.23759025200528
 21
-25.74042091441506
 31
0.0
  0
LINE
  5
A0
330
1F
100
AcDbEntity
  8
0
100
AcDbLine
 10
-52.06114741052026
 20
-24.91686375590007
 30
0.0
 11
-51.70358050967501
 21
-25.38285401356981
 31
0.0
  0
LINE
  5
A1
330
1F
100
AcDbEntity
  8
0
100
AcDbLine
 10
-52.28592336115567
 20
-24.37420660738075
 30
0.0
 11
-52.06114741052026
 21
-24.91686375590007
 31
0.0
  0
LINE
  5
A2
330
1F
100
AcDbEntity
  8
0
100
AcDbLine
 10
-52.36259025200528
 20
-23.79186375590008
 30
0.0
 11
-52.33860572684018
 21
-23.97404431156461
 31
0.0
  0
LINE
  5
A3
330
1F
100
AcDbEntity
  8
0
100
AcDbLine
 10
-48.52159999433555
 20
-25.38285401356981
 30
0.0
 11
-48.1640330934903
 21
-24.91686375590007
 31
0.0
  0
LINE
  5
A4
330
1F
100
AcDbEntity
  8
0
100
AcDbLine
 10
-48.1640330934903
 20
-24.91686375590007
 30
0.0
 11
-47.93925714285488
 21
-24.37420660738075
 31
0.0
  0
LINE
  5
A5
330
1F
100
AcDbEntity
  8
0
100
AcDbLine
 10
-48.98759025200529
 20
-25.74042091441506
 30
0.0
 11
-48.52159999433555
 21
-25.38285401356981
 31
0.0
  0
LINE
  5
A6
330
1F
100
AcDbEntity
  8
0
100
AcDbLine
 10
-50.11259025200528
 20
-21.54186375590009
 30
0.0
 11
-50.69493310348595
 21
-21.61853064674969
 31
0.0
  0
LINE
  5
A7
330
1F
100
AcDbEntity
  8
0
100
AcDbLine
 10
-51.23759025200528
 20
-21.84330659738511
 30
0.0
 11
-51.70358050967501
 21
-22.20087349823036
 31
0.0
  0
LINE
  5
A8
330
1F
100
AcDbEntity
  8
0
100
AcDbLine
 10
-52.28592336115567
 20
-23.20952090441941
 30
0.0
 11
-52.36259025200528
 21
-23.79186375590008
 31
0.0
  0
LINE
  5
A9
330
1F
100
AcDbEntity
  8
0
100
AcDbLine
 10
-52.06114741052026
 20
-22.66686375590009
 30
0.0
 11
-52.28592336115567
 21
-23.20952090441941
 31
0.0
  0
LINE
  5
AA
330
1F
100
AcDbEntity
  8
0
100
AcDbLine
 10
-50.69493310348595
 20
-21.61853064674969
 30
0.0
 11
-51.23759025200528
 21
-21.84330659738511
 31
0.0
  0
LINE
  5
AB
330
1F
100
AcDbEntity
  8
0
100
AcDbLine
 10
-49.53024740052462
 20
-25.96519686505048
 30
0.0
 11
-48.98759025200529
 21
-25.74042091441506
 31
0.0
  0
LINE
  5
AC
330
1F
100
AcDbEntity
  8
0
100
AcDbLine
 10
-50.11259025200528
 20
-26.04186375590007
 30
0.0
 11
-49.53024740052462
 21
-25.96519686505048
 31
0.0
  0
LINE
  5
AD
330
1F
100
AcDbEntity
  8
0
100
AcDbLine
 10
-47.93925714285488
 20
-24.37420660738075
 30
0.0
 11
-47.88657477717039
 21
-23.97404431156461
 31
0.0
  0
LINE
  5
AE
330
1F
100
AcDbEntity
  8
0
100
AcDbLine
 10
-47.88657477717039
 20
-23.97404431156461
 30
0.0
 11
-47.17573544512222
 21
-24.03222050394276
 31
0.0
  0
LINE
  5
AF
330
1F
100
AcDbEntity
  8
0
100
AcDbLine
 10
-52.33860572684018
 20
-23.97404431156461
 30
0.0
 11
-52.28592336115567
 21
-24.37420660738075
 31
0.0
  0
LINE
  5
B0
330
1F
100
AcDbEntity
  8
0
100
AcDbLine
 10
-47.88657477717039
 20
-23.97404431156461
 30
0.0
 11
-47.86259025200529
 21
-23.79186375590008
 31
0.0
  0
LINE
  5
B1
330
1F
100
AcDbEntity
  8
0
100
AcDbLine
 10
-58.03024740052461
 20
-23.74353064674969
 30
0.0
 11
-58.61259025200528
 21
-23.6668637559001
 31
0.0
  0
LINE
  5
B2
330
1F
100
AcDbEntity
  8
0
100
AcDbLine
 10
-56.36259025200529
 20
-25.91686375590008
 30
0.0
 11
-56.43925714285488
 21
-25.33452090441942
 31
0.0
  0
LINE
  5
B3
330
1F
100
AcDbEntity
  8
0
100
AcDbLine
 10
-60.56114741052026
 20
-24.79186375590009
 30
0.0
 11
-60.78592336115567
 21
-25.33452090441942
 31
0.0
  0
LINE
  5
B4
330
1F
100
AcDbEntity
  8
0
100
AcDbLine
 10
-59.73759025200527
 20
-23.96830659738511
 30
0.0
 11
-60.203580509675
 21
-24.32587349823036
 31
0.0
  0
LINE
  5
B5
330
1F
100
AcDbEntity
  8
0
100
AcDbLine
 10
-56.43925714285488
 20
-25.33452090441942
 30
0.0
 11
-56.56496235438803
 21
-25.03104167787512
 31
0.0
  0
LINE
  5
B6
330
1F
100
AcDbEntity
  8
0
100
AcDbLine
 10
-58.61259025200528
 20
-28.16686375590007
 30
0.0
 11
-58.03024740052461
 21
-28.09019686505048
 31
0.0
  0
LINE
  5
B7
330
1F
100
AcDbEntity
  8
0
100
AcDbLine
 10
-56.43925714285488
 20
-26.49920660738075
 30
0.0
 11
-56.36259025200529
 21
-25.91686375590008
 31
0.0
  0
LINE
  5
B8
330
1F
100
AcDbEntity
  8
0
100
AcDbLine
 10
-56.6640330934903
 20
-27.04186375590008
 30
0.0
 11
-56.43925714285488
 21
-26.49920660738075
 31
0.0
  0
LINE
  5
B9
330
1F
100
AcDbEntity
  8
0
100
AcDbLine
 10
-57.02159999433555
 20
-27.50785401356981
 30
0.0
 11
-56.6640330934903
 21
-27.04186375590008
 31
0.0
  0
LINE
  5
BA
330
1F
100
AcDbEntity
  8
0
100
AcDbLine
 10
-57.48759025200528
 20
-27.86542091441506
 30
0.0
 11
-57.02159999433555
 21
-27.50785401356981
 31
0.0
  0
LINE
  5
BB
330
1F
100
AcDbEntity
  8
0
100
AcDbLine
 10
-58.03024740052461
 20
-28.09019686505048
 30
0.0
 11
-57.48759025200528
 21
-27.86542091441506
 31
0.0
  0
LINE
  5
BC
330
1F
100
AcDbEntity
  8
0
100
AcDbLine
 10
-59.19493310348594
 20
-23.74353064674969
 30
0.0
 11
-59.73759025200527
 21
-23.96830659738511
 31
0.0
  0
LINE
  5
BD
330
1F
100
AcDbEntity
  8
0
100
AcDbLine
 10
-58.61259025200528
 20
-23.6668637559001
 30
0.0
 11
-59.19493310348594
 21
-23.74353064674969
 31
0.0
  0
LINE
  5
BE
330
1F
100
AcDbEntity
  8
0
100
AcDbLine
 10
-60.78592336115567
 20
-25.33452090441942
 30
0.0
 11
-60.86259025200526
 21
-25.91686375590008
 31
0.0
  0
LINE
  5
BF
330
1F
100
AcDbEntity
  8
0
100
AcDbLine
 10
-60.203580509675
 20
-24.32587349823036
 30
0.0
 11
-60.56114741052026
 21
-24.79186375590009
 31
0.0
  0
LINE
  5
C0
330
1F
100
AcDbEntity
  8
0
100
AcDbLine
 10
-59.19493310348595
 20
-28.09019686505048
 30
0.0
 11
-58.61259025200528
 21
-28.16686375590007
 31
0.0
  0
LINE
  5
C1
330
1F
100
AcDbEntity
  8
0
100
AcDbLine
 10
-60.203580509675
 20
-27.50785401356981
 30
0.0
 11
-59.73759025200527
 21
-27.86542091441506
 31
0.0
  0
LINE
  5
C2
330
1F
100
AcDbEntity
  8
0
100
AcDbLine
 10
-60.78592336115567
 20
-26.49920660738075
 30
0.0
 11
-60.56114741052026
 21
-27.04186375590008
 31
0.0
  0
LINE
  5
C3
330
1F
100
AcDbEntity
  8
0
100
AcDbLine
 10
-57.48759025200528
 20
-23.9683065973851
 30
0.0
 11
-58.03024740052461
 21
-23.74353064674969
 31
0.0
  0
LINE
  5
C4
330
1F
100
AcDbEntity
  8
0
100
AcDbLine
 10
-57.02159999433555
 20
-24.32587349823036
 30
0.0
 11
-57.48759025200528
 21
-23.9683065973851
 31
0.0
  0
LINE
  5
C5
330
1F
100
AcDbEntity
  8
0
100
AcDbLine
 10
-56.6640330934903
 20
-24.79186375590009
 30
0.0
 11
-57.02159999433555
 21
-24.32587349823036
 31
0.0
  0
LINE
  5
C6
330
1F
100
AcDbEntity
  8
0
100
AcDbLine
 10
-60.56114741052026
 20
-27.04186375590008
 30
0.0
 11
-60.49517518598232
 21
-27.12784043282069
 31
0.0
  0
LINE
  5
C7
330
1F
100
AcDbEntity
  8
0
100
AcDbLine
 10
-59.73759025200527
 20
-27.86542091441506
 30
0.0
 11
-59.19493310348595
 21
-28.09019686505048
 31
0.0
  0
LINE
  5
C8
330
1F
100
AcDbEntity
  8
0
100
AcDbLine
 10
-60.86259025200526
 20
-25.91686375590008
 30
0.0
 11
-60.78592336115567
 21
-26.49920660738075
 31
0.0
  0
LINE
  5
C9
330
1F
100
AcDbEntity
  8
0
100
AcDbLine
 10
-56.56496235438803
 20
-25.03104167787512
 30
0.0
 11
-55.90813871744132
 21
-24.74689391858101
 31
0.0
  0
LINE
  5
CA
330
1F
100
AcDbEntity
  8
0
100
AcDbLine
 10
-56.56496235438803
 20
-25.03104167787512
 30
0.0
 11
-56.6640330934903
 21
-24.79186375590009
 31
0.0
  0
LINE
  5
CB
330
1F
100
AcDbEntity
  8
0
100
AcDbLine
 10
-60.49517518598232
 20
-27.12784043282069
 30
0.0
 11
-60.203580509675
 21
-27.50785401356981
 31
0.0
  0
LINE
  5
CC
330
1F
100
AcDbEntity
  8
0
100
AcDbLine
 10
-39.6640330934903
 20
-24.79186375590009
 30
0.0
 11
-40.02159999433555
 21
-24.32587349823036
 31
0.0
  0
LINE
  5
CD
330
1F
100
AcDbEntity
  8
0
100
AcDbLine
 10
-43.78592336115567
 20
-25.33452090441942
 30
0.0
 11
-43.86259025200526
 21
-25.91686375590008
 31
0.0
  0
LINE
  5
CE
330
1F
100
AcDbEntity
  8
0
100
AcDbLine
 10
-42.73759025200527
 20
-23.96830659738511
 30
0.0
 11
-43.203580509675
 21
-24.32587349823036
 31
0.0
  0
LINE
  5
CF
330
1F
100
AcDbEntity
  8
0
100
AcDbLine
 10
-43.203580509675
 20
-27.50785401356981
 30
0.0
 11
-42.73759025200527
 21
-27.86542091441506
 31
0.0
  0
LINE
  5
D0
330
1F
100
AcDbEntity
  8
0
100
AcDbLine
 10
-42.19493310348594
 20
-28.09019686505048
 30
0.0
 11
-41.61259025200528
 21
-28.16686375590007
 31
0.0
  0
LINE
  5
D1
330
1F
100
AcDbEntity
  8
0
100
AcDbLine
 10
-42.73759025200527
 20
-27.86542091441506
 30
0.0
 11
-42.19493310348594
 21
-28.09019686505048
 31
0.0
  0
LINE
  5
D2
330
1F
100
AcDbEntity
  8
0
100
AcDbLine
 10
-43.78592336115567
 20
-26.49920660738075
 30
0.0
 11
-43.56114741052026
 21
-27.04186375590008
 31
0.0
  0
LINE
  5
D3
330
1F
100
AcDbEntity
  8
0
100
AcDbLine
 10
-43.86259025200526
 20
-25.91686375590008
 30
0.0
 11
-43.78592336115567
 21
-26.49920660738075
 31
0.0
  0
LINE
  5
D4
330
1F
100
AcDbEntity
  8
0
100
AcDbLine
 10
-41.61259025200528
 20
-28.16686375590007
 30
0.0
 11
-41.03024740052461
 21
-28.09019686505048
 31
0.0
  0
LINE
  5
D5
330
1F
100
AcDbEntity
  8
0
100
AcDbLine
 10
-39.43925714285488
 20
-26.49920660738075
 30
0.0
 11
-39.36259025200528
 21
-25.91686375590008
 31
0.0
  0
LINE
  5
D6
330
1F
100
AcDbEntity
  8
0
100
AcDbLine
 10
-39.6640330934903
 20
-27.04186375590008
 30
0.0
 11
-39.43925714285488
 21
-26.49920660738075
 31
0.0
  0
LINE
  5
D7
330
1F
100
AcDbEntity
  8
0
100
AcDbLine
 10
-40.02159999433555
 20
-27.50785401356981
 30
0.0
 11
-39.73000531802823
 21
-27.12784043282069
 31
0.0
  0
LINE
  5
D8
330
1F
100
AcDbEntity
  8
0
100
AcDbLine
 10
-40.48759025200528
 20
-27.86542091441506
 30
0.0
 11
-40.02159999433555
 21
-27.50785401356981
 31
0.0
  0
LINE
  5
D9
330
1F
100
AcDbEntity
  8
0
100
AcDbLine
 10
-41.03024740052461
 20
-28.09019686505048
 30
0.0
 11
-40.48759025200528
 21
-27.86542091441506
 31
0.0
  0
LINE
  5
DA
330
1F
100
AcDbEntity
  8
0
100
AcDbLine
 10
-43.56114741052026
 20
-24.79186375590009
 30
0.0
 11
-43.66021814962252
 21
-25.03104167787512
 31
0.0
  0
LINE
  5
DB
330
1F
100
AcDbEntity
  8
0
100
AcDbLine
 10
-43.203580509675
 20
-24.32587349823036
 30
0.0
 11
-43.56114741052026
 21
-24.79186375590009
 31
0.0
  0
LINE
  5
DC
330
1F
100
AcDbEntity
  8
0
100
AcDbLine
 10
-40.02159999433555
 20
-24.32587349823036
 30
0.0
 11
-40.48759025200528
 21
-23.9683065973851
 31
0.0
  0
LINE
  5
DD
330
1F
100
AcDbEntity
  8
0
100
AcDbLine
 10
-40.48759025200528
 20
-23.9683065973851
 30
0.0
 11
-41.03024740052461
 21
-23.74353064674969
 31
0.0
  0
LINE
  5
DE
330
1F
100
AcDbEntity
  8
0
100
AcDbLine
 10
-41.03024740052461
 20
-23.74353064674969
 30
0.0
 11
-41.61259025200528
 21
-23.6668637559001
 31
0.0
  0
LINE
  5
DF
330
1F
100
AcDbEntity
  8
0
100
AcDbLine
 10
-39.36259025200528
 20
-25.91686375590008
 30
0.0
 11
-39.43925714285488
 21
-25.33452090441942
 31
0.0
  0
LINE
  5
E0
330
1F
100
AcDbEntity
  8
0
100
AcDbLine
 10
-41.61259025200528
 20
-23.6668637559001
 30
0.0
 11
-42.19493310348594
 21
-23.74353064674969
 31
0.0
  0
LINE
  5
E1
330
1F
100
AcDbEntity
  8
0
100
AcDbLine
 10
-42.19493310348594
 20
-23.74353064674969
 30
0.0
 11
-42.73759025200527
 21
-23.96830659738511
 31
0.0
  0
LINE
  5
E2
330
1F
100
AcDbEntity
  8
0
100
AcDbLine
 10
-39.73000531802823
 20
-27.12784043282069
 30
0.0
 11
-39.13435683324619
 21
-27.5109925603533
 31
0.0
  0
LINE
  5
E3
330
1F
100
AcDbEntity
  8
0
100
AcDbLine
 10
-39.73000531802823
 20
-27.12784043282069
 30
0.0
 11
-39.6640330934903
 21
-27.04186375590008
 31
0.0
  0
LINE
  5
E4
330
1F
100
AcDbEntity
  8
0
100
AcDbLine
 10
-43.66021814962252
 20
-25.03104167787512
 30
0.0
 11
-43.78592336115567
 21
-25.33452090441942
 31
0.0
  0
LINE
  5
E5
330
1F
100
AcDbEntity
  8
0
100
AcDbLine
 10
-22.36259025200526
 20
-39.79186375590009
 30
0.0
 11
-22.28592336115567
 21
-40.37420660738076
 31
0.0
  0
LINE
  5
E6
330
1F
100
AcDbEntity
  8
0
100
AcDbLine
 10
-36.50252044710017
 20
-30.04659468601194
 30
0.0
 11
-36.70358050967501
 21
-30.20087349823036
 31
0.0
  0
LINE
  5
E7
330
1F
100
AcDbEntity
  8
0
100
AcDbLine
 10
-19.53024740052461
 20
-37.61853064674972
 30
0.0
 11
-20.11259025200528
 21
-37.54186375590012
 31
0.0
  0
LINE
  5
E8
330
1F
100
AcDbEntity
  8
0
100
AcDbLine
 10
-20.11259025200528
 20
-37.54186375590012
 30
0.0
 11
-20.69493310348595
 21
-37.61853064674972
 31
0.0
  0
LINE
  5
E9
330
1F
100
AcDbEntity
  8
0
100
AcDbLine
 10
-18.98759025200529
 20
-37.84330659738512
 30
0.0
 11
-19.53024740052461
 21
-37.61853064674972
 31
0.0
  0
LINE
  5
EA
330
1F
100
AcDbEntity
  8
0
100
AcDbLine
 10
-18.52159999433555
 20
-38.20087349823037
 30
0.0
 11
-18.98759025200529
 21
-37.84330659738512
 31
0.0
  0
LINE
  5
EB
330
1F
100
AcDbEntity
  8
0
100
AcDbLine
 10
-18.1640330934903
 20
-38.6668637559001
 30
0.0
 11
-18.52159999433555
 21
-38.20087349823037
 31
0.0
  0
LINE
  5
EC
330
1F
100
AcDbEntity
  8
0
100
AcDbLine
 10
-17.93925714285488
 20
-39.20952090441942
 30
0.0
 11
-18.1640330934903
 21
-38.6668637559001
 31
0.0
  0
LINE
  5
ED
330
1F
100
AcDbEntity
  8
0
100
AcDbLine
 10
-17.88657477717039
 20
-39.60968320023556
 30
0.0
 11
-17.93925714285488
 21
-39.20952090441942
 31
0.0
  0
LINE
  5
EE
330
1F
100
AcDbEntity
  8
0
100
AcDbLine
 10
-17.86259025200529
 20
-39.79186375590009
 30
0.0
 11
-17.88657477717039
 21
-39.60968320023556
 31
0.0
  0
LINE
  5
EF
330
1F
100
AcDbEntity
  8
0
100
AcDbLine
 10
-17.93925714285488
 20
-40.37420660738076
 30
0.0
 11
-17.86259025200529
 21
-39.79186375590009
 31
0.0
  0
LINE
  5
F0
330
1F
100
AcDbEntity
  8
0
100
AcDbLine
 10
-18.1640330934903
 20
-40.91686375590008
 30
0.0
 11
-17.93925714285488
 21
-40.37420660738076
 31
0.0
  0
LINE
  5
F1
330
1F
100
AcDbEntity
  8
0
100
AcDbLine
 10
-18.52159999433555
 20
-41.3828540135698
 30
0.0
 11
-18.1640330934903
 21
-40.91686375590008
 31
0.0
  0
LINE
  5
F2
330
1F
100
AcDbEntity
  8
0
100
AcDbLine
 10
-18.98759025200529
 20
-41.74042091441505
 30
0.0
 11
-18.52159999433555
 21
-41.3828540135698
 31
0.0
  0
LINE
  5
F3
330
1F
100
AcDbEntity
  8
0
100
AcDbLine
 10
-19.53024740052461
 20
-41.96519686505047
 30
0.0
 11
-18.98759025200529
 21
-41.74042091441505
 31
0.0
  0
LINE
  5
F4
330
1F
100
AcDbEntity
  8
0
100
AcDbLine
 10
-20.11259025200528
 20
-42.04186375590007
 30
0.0
 11
-19.53024740052461
 21
-41.96519686505047
 31
0.0
  0
LINE
  5
F5
330
1F
100
AcDbEntity
  8
0
100
AcDbLine
 10
-20.69493310348595
 20
-41.96519686505047
 30
0.0
 11
-20.11259025200528
 21
-42.04186375590007
 31
0.0
  0
LINE
  5
F6
330
1F
100
AcDbEntity
  8
0
100
AcDbLine
 10
-21.23759025200527
 20
-41.74042091441505
 30
0.0
 11
-20.69493310348595
 21
-41.96519686505047
 31
0.0
  0
LINE
  5
F7
330
1F
100
AcDbEntity
  8
0
100
AcDbLine
 10
-21.703580509675
 20
-41.3828540135698
 30
0.0
 11
-21.23759025200527
 21
-41.74042091441505
 31
0.0
  0
LINE
  5
F8
330
1F
100
AcDbEntity
  8
0
100
AcDbLine
 10
-22.06114741052025
 20
-40.91686375590008
 30
0.0
 11
-21.703580509675
 21
-41.3828540135698
 31
0.0
  0
LINE
  5
F9
330
1F
100
AcDbEntity
  8
0
100
AcDbLine
 10
-22.28592336115567
 20
-40.37420660738076
 30
0.0
 11
-22.06114741052025
 21
-40.91686375590008
 31
0.0
  0
LINE
  5
FA
330
1F
100
AcDbEntity
  8
0
100
AcDbLine
 10
-22.33860572684016
 20
-39.60968320023556
 30
0.0
 11
-22.36259025200526
 21
-39.79186375590009
 31
0.0
  0
LINE
  5
FB
330
1F
100
AcDbEntity
  8
0
100
AcDbLine
 10
-22.28592336115567
 20
-39.20952090441942
 30
0.0
 11
-22.33860572684016
 21
-39.60968320023556
 31
0.0
  0
LINE
  5
FC
330
1F
100
AcDbEntity
  8
0
100
AcDbLine
 10
-22.06114741052025
 20
-38.6668637559001
 30
0.0
 11
-22.28592336115567
 21
-39.20952090441942
 31
0.0
  0
LINE
  5
FD
330
1F
100
AcDbEntity
  8
0
100
AcDbLine
 10
-21.703580509675
 20
-38.20087349823037
 30
0.0
 11
-22.06114741052025
 21
-38.6668637559001
 31
0.0
  0
LINE
  5
FE
330
1F
100
AcDbEntity
  8
0
100
AcDbLine
 10
-21.23759025200527
 20
-37.84330659738512
 30
0.0
 11
-21.703580509675
 21
-38.20087349823037
 31
0.0
  0
LINE
  5
FF
330
1F
100
AcDbEntity
  8
0
100
AcDbLine
 10
-20.69493310348595
 20
-37.61853064674972
 30
0.0
 11
-21.23759025200527
 21
-37.84330659738512
 31
0.0
  0
LINE
  5
100
330
1F
100
AcDbEntity
  8
0
100
AcDbLine
 10
-17.17573544512222
 20
-39.55150700785741
 30
0.0
 11
-17.88657477717039
 21
-39.60968320023556
 31
0.0
  0
LINE
  5
101
330
1F
100
AcDbEntity
  8
0
100
AcDbLine
 10
-25.90813871744132
 20
-38.83683359321917
 30
0.0
 11
-26.56496235438803
 21
-38.55268583392506
 31
0.0
  0
LINE
  5
102
330
1F
100
AcDbEntity
  8
0
100
AcDbLine
 10
-33.16403309349031
 20
-30.66686375590009
 30
0.0
 11
-33.52159999433556
 21
-30.20087349823036
 31
0.0
  0
LINE
  5
103
330
1F
100
AcDbEntity
  8
0
100
AcDbLine
 10
-32.93925714285489
 20
-31.20952090441942
 30
0.0
 11
-33.16403309349031
 21
-30.66686375590009
 31
0.0
  0
LINE
  5
104
330
1F
100
AcDbEntity
  8
0
100
AcDbLine
 10
-33.98759025200529
 20
-29.84330659738511
 30
0.0
 11
-34.53024740052462
 21
-29.61853064674969
 31
0.0
  0
LINE
  5
105
330
1F
100
AcDbEntity
  8
0
100
AcDbLine
 10
-33.27688352730489
 20
-34.09687315803525
 30
0.0
 11
-33.72266005691041
 21
-33.53713282578823
 31
0.0
  0
LINE
  5
106
330
1F
100
AcDbEntity
  8
0
100
AcDbLine
 10
-34.53024740052462
 20
-29.61853064674969
 30
0.0
 11
-35.11259025200528
 21
-29.5418637559001
 31
0.0
  0
LINE
  5
107
330
1F
100
AcDbEntity
  8
0
100
AcDbLine
 10
-35.11259025200528
 20
-29.5418637559001
 30
0.0
 11
-35.69493310348595
 21
-29.61853064674969
 31
0.0
  0
LINE
  5
108
330
1F
100
AcDbEntity
  8
0
100
AcDbLine
 10
-6.948296976705667
 20
-34.09687315803525
 30
0.0
 11
-9.134356833246192
 21
-36.07273495144688
 31
0.0
  0
LINE
  5
109
330
1F
100
AcDbEntity
  8
0
100
AcDbLine
 10
-32.8625902520053
 20
-31.79186375590008
 30
0.0
 11
-32.93925714285489
 21
-31.20952090441942
 31
0.0
  0
LINE
  5
10A
330
1F
100
AcDbEntity
  8
0
100
AcDbLine
 10
-14.31704178656923
 20
-38.83683359321916
 30
0.0
 11
-17.17573544512222
 21
-39.55150700785741
 31
0.0
  0
LINE
  5
10B
330
1F
100
AcDbEntity
  8
0
100
AcDbLine
 10
-33.52159999433556
 20
-30.20087349823036
 30
0.0
 11
-33.98759025200529
 21
-29.84330659738511
 31
0.0
  0
LINE
  5
10C
330
1F
100
AcDbEntity
  8
0
100
AcDbLine
 10
-9.134356833246192
 20
-36.07273495144688
 30
0.0
 11
-9.730005318028226
 21
-36.45588707897949
 31
0.0
  0
LINE
  5
10D
330
1F
100
AcDbEntity
  8
0
100
AcDbLine
 10
-31.09082367076435
 20
-36.07273495144688
 30
0.0
 11
-33.27688352730489
 21
-34.09687315803525
 31
0.0
  0
LINE
  5
10E
330
1F
100
AcDbEntity
  8
0
100
AcDbLine
 10
-33.72266005691041
 20
-33.53713282578823
 30
0.0
 11
-33.52159999433556
 21
-33.38285401356981
 31
0.0
  0
LINE
  5
10F
330
1F
100
AcDbEntity
  8
0
100
AcDbLine
 10
-23.04944505888833
 20
-39.55150700785741
 30
0.0
 11
-25.90813871744132
 21
-38.83683359321917
 31
0.0
  0
LINE
  5
110
330
1F
100
AcDbEntity
  8
0
100
AcDbLine
 10
-6.502520447100146
 20
-33.53713282578822
 30
0.0
 11
-6.237590252005265
 21
-33.74042091441506
 31
0.0
  0
LINE
  5
111
330
1F
100
AcDbEntity
  8
0
100
AcDbLine
 10
-6.502520447100146
 20
-33.53713282578822
 30
0.0
 11
-6.948296976705667
 21
-34.09687315803525
 31
0.0
  0
LINE
  5
112
330
1F
100
AcDbEntity
  8
0
100
AcDbLine
 10
-12.19493310348596
 20
-35.49353064674966
 30
0.0
 11
-12.7375902520053
 21
-35.71830659738508
 31
0.0
  0
LINE
  5
113
330
1F
100
AcDbEntity
  8
0
100
AcDbLine
 10
-10.4875902520053
 20
-35.71830659738507
 30
0.0
 11
-11.03024740052463
 21
-35.49353064674966
 31
0.0
  0
LINE
  5
114
330
1F
100
AcDbEntity
  8
0
100
AcDbLine
 10
-9.66403309349032
 20
-36.54186375590006
 30
0.0
 11
-9.730005318028226
 21
-36.45588707897949
 31
0.0
  0
LINE
  5
115
330
1F
100
AcDbEntity
  8
0
100
AcDbLine
 10
-10.4875902520053
 20
-39.61542091441503
 30
0.0
 11
-10.02159999433557
 21
-39.25785401356978
 31
0.0
  0
LINE
  5
116
330
1F
100
AcDbEntity
  8
0
100
AcDbLine
 10
-30.49517518598232
 20
-36.45588707897949
 30
0.0
 11
-30.56114741052028
 21
-36.54186375590008
 31
0.0
  0
LINE
  5
117
330
1F
100
AcDbEntity
  8
0
100
AcDbLine
 10
-26.56496235438803
 20
-38.55268583392506
 30
0.0
 11
-26.4392571428549
 21
-38.24920660738074
 31
0.0
  0
LINE
  5
118
330
1F
100
AcDbEntity
  8
0
100
AcDbLine
 10
-30.49517518598232
 20
-36.45588707897949
 30
0.0
 11
-31.09082367076435
 21
-36.07273495144688
 31
0.0
  0
LINE
  5
119
330
1F
100
AcDbEntity
  8
0
100
AcDbLine
 10
-13.86259025200529
 20
-37.66686375590006
 30
0.0
 11
-13.78592336115569
 21
-38.24920660738073
 31
0.0
  0
LINE
  5
11A
330
1F
100
AcDbEntity
  8
0
100
AcDbLine
 10
-9.36259025200531
 20
-37.66686375590005
 30
0.0
 11
-9.4392571428549
 21
-37.08452090441939
 31
0.0
  0
LINE
  5
11B
330
1F
100
AcDbEntity
  8
0
100
AcDbLine
 10
-9.4392571428549
 20
-38.24920660738072
 30
0.0
 11
-9.36259025200531
 21
-37.66686375590005
 31
0.0
  0
LINE
  5
11C
330
1F
100
AcDbEntity
  8
0
100
AcDbLine
 10
-9.66403309349032
 20
-38.79186375590005
 30
0.0
 11
-9.4392571428549
 21
-38.24920660738072
 31
0.0
  0
LINE
  5
11D
330
1F
100
AcDbEntity
  8
0
100
AcDbLine
 10
-10.02159999433557
 20
-39.25785401356978
 30
0.0
 11
-9.66403309349032
 21
-38.79186375590005
 31
0.0
  0
LINE
  5
11E
330
1F
100
AcDbEntity
  8
0
100
AcDbLine
 10
-11.03024740052463
 20
-39.84019686505044
 30
0.0
 11
-10.4875902520053
 21
-39.61542091441503
 31
0.0
  0
LINE
  5
11F
330
1F
100
AcDbEntity
  8
0
100
AcDbLine
 10
-11.61259025200529
 20
-39.91686375590005
 30
0.0
 11
-11.03024740052463
 21
-39.84019686505044
 31
0.0
  0
LINE
  5
120
330
1F
100
AcDbEntity
  8
0
100
AcDbLine
 10
-12.19493310348596
 20
-39.84019686505045
 30
0.0
 11
-11.61259025200529
 21
-39.91686375590005
 31
0.0
  0
LINE
  5
121
330
1F
100
AcDbEntity
  8
0
100
AcDbLine
 10
-12.73759025200529
 20
-39.61542091441504
 30
0.0
 11
-12.19493310348596
 21
-39.84019686505045
 31
0.0
  0
LINE
  5
122
330
1F
100
AcDbEntity
  8
0
100
AcDbLine
 10
-13.20358050967502
 20
-39.25785401356978
 30
0.0
 11
-12.73759025200529
 21
-39.61542091441504
 31
0.0
  0
LINE
  5
123
330
1F
100
AcDbEntity
  8
0
100
AcDbLine
 10
-13.56114741052027
 20
-38.79186375590005
 30
0.0
 11
-13.20358050967502
 21
-39.25785401356978
 31
0.0
  0
LINE
  5
124
330
1F
100
AcDbEntity
  8
0
100
AcDbLine
 10
-13.66021814962252
 20
-38.55268583392505
 30
0.0
 11
-13.56114741052027
 21
-38.79186375590005
 31
0.0
  0
LINE
  5
125
330
1F
100
AcDbEntity
  8
0
100
AcDbLine
 10
-13.78592336115569
 20
-38.24920660738073
 30
0.0
 11
-13.66021814962252
 21
-38.55268583392505
 31
0.0
  0
LINE
  5
126
330
1F
100
AcDbEntity
  8
0
100
AcDbLine
 10
-13.78592336115569
 20
-37.08452090441939
 30
0.0
 11
-13.86259025200529
 21
-37.66686375590006
 31
0.0
  0
LINE
  5
127
330
1F
100
AcDbEntity
  8
0
100
AcDbLine
 10
-13.56114741052027
 20
-36.54186375590007
 30
0.0
 11
-13.78592336115569
 21
-37.08452090441939
 31
0.0
  0
LINE
  5
128
330
1F
100
AcDbEntity
  8
0
100
AcDbLine
 10
-13.20358050967502
 20
-36.07587349823033
 30
0.0
 11
-13.56114741052027
 21
-36.54186375590007
 31
0.0
  0
LINE
  5
129
330
1F
100
AcDbEntity
  8
0
100
AcDbLine
 10
-12.7375902520053
 20
-35.71830659738508
 30
0.0
 11
-13.20358050967502
 21
-36.07587349823033
 31
0.0
  0
LINE
  5
12A
330
1F
100
AcDbEntity
  8
0
100
AcDbLine
 10
-11.6125902520053
 20
-35.41686375590007
 30
0.0
 11
-12.19493310348596
 21
-35.49353064674966
 31
0.0
  0
LINE
  5
12B
330
1F
100
AcDbEntity
  8
0
100
AcDbLine
 10
-11.03024740052463
 20
-35.49353064674966
 30
0.0
 11
-11.6125902520053
 21
-35.41686375590007
 31
0.0
  0
LINE
  5
12C
330
1F
100
AcDbEntity
  8
0
100
AcDbLine
 10
-10.02159999433557
 20
-36.07587349823033
 30
0.0
 11
-10.4875902520053
 21
-35.71830659738507
 31
0.0
  0
LINE
  5
12D
330
1F
100
AcDbEntity
  8
0
100
AcDbLine
 10
-9.730005318028226
 20
-36.45588707897949
 30
0.0
 11
-10.02159999433557
 21
-36.07587349823033
 31
0.0
  0
LINE
  5
12E
330
1F
100
AcDbEntity
  8
0
100
AcDbLine
 10
-9.4392571428549
 20
-37.08452090441939
 30
0.0
 11
-9.66403309349032
 21
-36.54186375590006
 31
0.0
  0
LINE
  5
12F
330
1F
100
AcDbEntity
  8
0
100
AcDbLine
 10
-35.69493310348595
 20
-33.96519686505048
 30
0.0
 11
-35.11259025200528
 21
-34.04186375590007
 31
0.0
  0
LINE
  5
130
330
1F
100
AcDbEntity
  8
0
100
AcDbLine
 10
-35.11259025200528
 20
-34.04186375590007
 30
0.0
 11
-34.53024740052462
 21
-33.96519686505048
 31
0.0
  0
LINE
  5
131
330
1F
100
AcDbEntity
  8
0
100
AcDbLine
 10
-37.06114741052026
 20
-30.66686375590009
 30
0.0
 11
-37.28592336115567
 21
-31.20952090441941
 31
0.0
  0
LINE
  5
132
330
1F
100
AcDbEntity
  8
0
100
AcDbLine
 10
-35.69493310348595
 20
-29.61853064674969
 30
0.0
 11
-36.23759025200528
 21
-29.84330659738511
 31
0.0
  0
LINE
  5
133
330
1F
100
AcDbEntity
  8
0
100
AcDbLine
 10
-37.28592336115567
 20
-32.37420660738075
 30
0.0
 11
-37.06114741052026
 21
-32.91686375590007
 31
0.0
  0
LINE
  5
134
330
1F
100
AcDbEntity
  8
0
100
AcDbLine
 10
-30.56114741052027
 20
-38.79186375590007
 30
0.0
 11
-30.20358050967502
 21
-39.2578540135698
 31
0.0
  0
LINE
  5
135
330
1F
100
AcDbEntity
  8
0
100
AcDbLine
 10
-34.53024740052462
 20
-33.96519686505048
 30
0.0
 11
-33.98759025200529
 21
-33.74042091441506
 31
0.0
  0
LINE
  5
136
330
1F
100
AcDbEntity
  8
0
100
AcDbLine
 10
-36.23759025200528
 20
-33.74042091441506
 30
0.0
 11
-35.69493310348595
 21
-33.96519686505048
 31
0.0
  0
LINE
  5
137
330
1F
100
AcDbEntity
  8
0
100
AcDbLine
 10
-26.4392571428549
 20
-38.24920660738074
 30
0.0
 11
-26.36259025200531
 21
-37.66686375590007
 31
0.0
  0
LINE
  5
138
330
1F
100
AcDbEntity
  8
0
100
AcDbLine
 10
-37.36259025200528
 20
-31.79186375590008
 30
0.0
 11
-37.28592336115567
 21
-32.37420660738075
 31
0.0
  0
LINE
  5
139
330
1F
100
AcDbEntity
  8
0
100
AcDbLine
 10
-22.33860572684016
 20
-39.60968320023556
 30
0.0
 11
-23.04944505888833
 21
-39.55150700785741
 31
0.0
  0
LINE
  5
13A
330
1F
100
AcDbEntity
  8
0
100
AcDbLine
 10
-27.4875902520053
 20
-39.61542091441505
 30
0.0
 11
-27.02159999433557
 21
-39.25785401356979
 31
0.0
  0
LINE
  5
13B
330
1F
100
AcDbEntity
  8
0
100
AcDbLine
 10
-27.02159999433557
 20
-36.07587349823034
 30
0.0
 11
-27.4875902520053
 21
-35.7183065973851
 31
0.0
  0
LINE
  5
13C
330
1F
100
AcDbEntity
  8
0
100
AcDbLine
 10
-26.66403309349032
 20
-38.79186375590006
 30
0.0
 11
-26.56496235438803
 21
-38.55268583392506
 31
0.0
  0
LINE
  5
13D
330
1F
100
AcDbEntity
  8
0
100
AcDbLine
 10
-27.02159999433557
 20
-39.25785401356979
 30
0.0
 11
-26.66403309349032
 21
-38.79186375590006
 31
0.0
  0
LINE
  5
13E
330
1F
100
AcDbEntity
  8
0
100
AcDbLine
 10
-28.03024740052463
 20
-39.84019686505047
 30
0.0
 11
-27.4875902520053
 21
-39.61542091441505
 31
0.0
  0
LINE
  5
13F
330
1F
100
AcDbEntity
  8
0
100
AcDbLine
 10
-28.6125902520053
 20
-39.91686375590006
 30
0.0
 11
-28.03024740052463
 21
-39.84019686505047
 31
0.0
  0
LINE
  5
140
330
1F
100
AcDbEntity
  8
0
100
AcDbLine
 10
-29.19493310348597
 20
-39.84019686505047
 30
0.0
 11
-28.6125902520053
 21
-39.91686375590006
 31
0.0
  0
LINE
  5
141
330
1F
100
AcDbEntity
  8
0
100
AcDbLine
 10
-29.73759025200529
 20
-39.61542091441505
 30
0.0
 11
-29.19493310348597
 21
-39.84019686505047
 31
0.0
  0
LINE
  5
142
330
1F
100
AcDbEntity
  8
0
100
AcDbLine
 10
-30.20358050967502
 20
-39.2578540135698
 30
0.0
 11
-29.73759025200529
 21
-39.61542091441505
 31
0.0
  0
LINE
  5
143
330
1F
100
AcDbEntity
  8
0
100
AcDbLine
 10
-30.86259025200529
 20
-37.66686375590007
 30
0.0
 11
-30.78592336115569
 21
-38.24920660738074
 31
0.0
  0
LINE
  5
144
330
1F
100
AcDbEntity
  8
0
100
AcDbLine
 10
-30.7859233611557
 20
-37.08452090441941
 30
0.0
 11
-30.86259025200529
 21
-37.66686375590007
 31
0.0
  0
LINE
  5
145
330
1F
100
AcDbEntity
  8
0
100
AcDbLine
 10
-30.56114741052028
 20
-36.54186375590008
 30
0.0
 11
-30.7859233611557
 21
-37.08452090441941
 31
0.0
  0
LINE
  5
146
330
1F
100
AcDbEntity
  8
0
100
AcDbLine
 10
-30.20358050967502
 20
-36.07587349823035
 30
0.0
 11
-30.49517518598232
 21
-36.45588707897949
 31
0.0
  0
LINE
  5
147
330
1F
100
AcDbEntity
  8
0
100
AcDbLine
 10
-29.73759025200529
 20
-35.7183065973851
 30
0.0
 11
-30.20358050967502
 21
-36.07587349823035
 31
0.0
  0
LINE
  5
148
330
1F
100
AcDbEntity
  8
0
100
AcDbLine
 10
-29.19493310348598
 20
-35.49353064674968
 30
0.0
 11
-29.73759025200529
 21
-35.7183065973851
 31
0.0
  0
LINE
  5
149
330
1F
100
AcDbEntity
  8
0
100
AcDbLine
 10
-28.6125902520053
 20
-35.41686375590008
 30
0.0
 11
-29.19493310348598
 21
-35.49353064674968
 31
0.0
  0
LINE
  5
14A
330
1F
100
AcDbEntity
  8
0
100
AcDbLine
 10
-28.03024740052463
 20
-35.49353064674968
 30
0.0
 11
-28.6125902520053
 21
-35.41686375590008
 31
0.0
  0
LINE
  5
14B
330
1F
100
AcDbEntity
  8
0
100
AcDbLine
 10
-27.4875902520053
 20
-35.7183065973851
 30
0.0
 11
-28.03024740052463
 21
-35.49353064674968
 31
0.0
  0
LINE
  5
14C
330
1F
100
AcDbEntity
  8
0
100
AcDbLine
 10
-26.4392571428549
 20
-37.0845209044194
 30
0.0
 11
-26.66403309349032
 21
-36.54186375590007
 31
0.0
  0
LINE
  5
14D
330
1F
100
AcDbEntity
  8
0
100
AcDbLine
 10
-26.36259025200531
 20
-37.66686375590007
 30
0.0
 11
-26.4392571428549
 21
-37.0845209044194
 31
0.0
  0
LINE
  5
14E
330
1F
100
AcDbEntity
  8
0
100
AcDbLine
 10
-33.16403309349031
 20
-32.91686375590007
 30
0.0
 11
-32.93925714285489
 21
-32.37420660738075
 31
0.0
  0
LINE
  5
14F
330
1F
100
AcDbEntity
  8
0
100
AcDbLine
 10
-36.23759025200528
 20
-29.84330659738511
 30
0.0
 11
-36.50252044710017
 21
-30.04659468601194
 31
0.0
  0
LINE
  5
150
330
1F
100
AcDbEntity
  8
0
100
AcDbLine
 10
-37.28592336115567
 20
-31.20952090441941
 30
0.0
 11
-37.36259025200528
 21
-31.79186375590008
 31
0.0
  0
LINE
  5
151
330
1F
100
AcDbEntity
  8
0
100
AcDbLine
 10
-32.93925714285489
 20
-32.37420660738075
 30
0.0
 11
-32.8625902520053
 21
-31.79186375590008
 31
0.0
  0
LINE
  5
152
330
1F
100
AcDbEntity
  8
0
100
AcDbLine
 10
-33.52159999433556
 20
-33.38285401356981
 30
0.0
 11
-33.16403309349031
 21
-32.91686375590007
 31
0.0
  0
LINE
  5
153
330
1F
100
AcDbEntity
  8
0
100
AcDbLine
 10
-36.70358050967501
 20
-33.38285401356981
 30
0.0
 11
-36.23759025200528
 21
-33.74042091441506
 31
0.0
  0
LINE
  5
154
330
1F
100
AcDbEntity
  8
0
100
AcDbLine
 10
-33.98759025200529
 20
-33.74042091441506
 30
0.0
 11
-33.72266005691041
 21
-33.53713282578823
 31
0.0
  0
LINE
  5
155
330
1F
100
AcDbEntity
  8
0
100
AcDbLine
 10
-36.70358050967501
 20
-30.20087349823036
 30
0.0
 11
-37.06114741052026
 21
-30.66686375590009
 31
0.0
  0
LINE
  5
156
330
1F
100
AcDbEntity
  8
0
100
AcDbLine
 10
-37.06114741052026
 20
-32.91686375590007
 30
0.0
 11
-36.70358050967501
 21
-33.38285401356981
 31
0.0
  0
LINE
  5
157
330
1F
100
AcDbEntity
  8
0
100
AcDbLine
 10
-7.285923361155665
 20
-32.37420660738075
 30
0.0
 11
-7.061147410520247
 21
-32.91686375590007
 31
0.0
  0
LINE
  5
158
330
1F
100
AcDbEntity
  8
0
100
AcDbLine
 10
-3.521599994335547
 20
-30.20087349823037
 30
0.0
 11
-3.98759025200528
 21
-29.84330659738511
 31
0.0
  0
LINE
  5
159
330
1F
100
AcDbEntity
  8
0
100
AcDbLine
 10
-6.237590252005265
 20
-33.74042091441506
 30
0.0
 11
-5.69493310348594
 21
-33.96519686505047
 31
0.0
  0
LINE
  5
15A
330
1F
100
AcDbEntity
  8
0
100
AcDbLine
 10
-6.703580509674997
 20
-30.20087349823037
 30
0.0
 11
-7.061147410520247
 21
-30.66686375590009
 31
0.0
  0
LINE
  5
15B
330
1F
100
AcDbEntity
  8
0
100
AcDbLine
 10
-3.98759025200528
 20
-29.84330659738511
 30
0.0
 11
-4.530247400524605
 21
-29.6185306467497
 31
0.0
  0
LINE
  5
15C
330
1F
100
AcDbEntity
  8
0
100
AcDbLine
 10
-5.69493310348594
 20
-33.96519686505047
 30
0.0
 11
-5.112590252005272
 21
-34.04186375590007
 31
0.0
  0
LINE
  5
15D
330
1F
100
AcDbEntity
  8
0
100
AcDbLine
 10
-3.521599994335547
 20
-33.3828540135698
 30
0.0
 11
-3.164033093490297
 21
-32.91686375590007
 31
0.0
  0
LINE
  5
15E
330
1F
100
AcDbEntity
  8
0
100
AcDbLine
 10
-3.98759025200528
 20
-33.74042091441506
 30
0.0
 11
-3.521599994335547
 21
-33.3828540135698
 31
0.0
  0
LINE
  5
15F
330
1F
100
AcDbEntity
  8
0
100
AcDbLine
 10
-7.362590252005257
 20
-31.79186375590008
 30
0.0
 11
-7.285923361155665
 21
-32.37420660738075
 31
0.0
  0
LINE
  5
160
330
1F
100
AcDbEntity
  8
0
100
AcDbLine
 10
-6.237590252005265
 20
-29.84330659738511
 30
0.0
 11
-6.703580509674997
 21
-30.20087349823037
 31
0.0
  0
LINE
  5
161
330
1F
100
AcDbEntity
  8
0
100
AcDbLine
 10
-5.112590252005272
 20
-29.5418637559001
 30
0.0
 11
-5.69493310348594
 21
-29.6185306467497
 31
0.0
  0
LINE
  5
162
330
1F
100
AcDbEntity
  8
0
100
AcDbLine
 10
-3.164033093490297
 20
-32.91686375590007
 30
0.0
 11
-2.939257142854879
 21
-32.37420660738075
 31
0.0
  0
LINE
  5
163
330
1F
100
AcDbEntity
  8
0
100
AcDbLine
 10
-4.530247400524605
 20
-33.96519686505047
 30
0.0
 11
-3.98759025200528
 21
-33.74042091441506
 31
0.0
  0
LINE
  5
164
330
1F
100
AcDbEntity
  8
0
100
AcDbLine
 10
-5.112590252005272
 20
-34.04186375590007
 30
0.0
 11
-4.530247400524605
 21
-33.96519686505047
 31
0.0
  0
LINE
  5
165
330
1F
100
AcDbEntity
  8
0
100
AcDbLine
 10
-6.703580509674997
 20
-33.3828540135698
 30
0.0
 11
-6.502520447100146
 21
-33.53713282578822
 31
0.0
  0
LINE
  5
166
330
1F
100
AcDbEntity
  8
0
100
AcDbLine
 10
-7.061147410520247
 20
-32.91686375590007
 30
0.0
 11
-6.703580509674997
 21
-33.3828540135698
 31
0.0
  0
LINE
  5
167
330
1F
100
AcDbEntity
  8
0
100
AcDbLine
 10
-7.285923361155665
 20
-31.20952090441942
 30
0.0
 11
-7.362590252005257
 21
-31.79186375590008
 31
0.0
  0
LINE
  5
168
330
1F
100
AcDbEntity
  8
0
100
AcDbLine
 10
-7.061147410520247
 20
-30.66686375590009
 30
0.0
 11
-7.285923361155665
 21
-31.20952090441942
 31
0.0
  0
LINE
  5
169
330
1F
100
AcDbEntity
  8
0
100
AcDbLine
 10
-5.69493310348594
 20
-29.6185306467497
 30
0.0
 11
-6.237590252005265
 21
-29.84330659738511
 31
0.0
  0
LINE
  5
16A
330
1F
100
AcDbEntity
  8
0
100
AcDbLine
 10
-4.530247400524605
 20
-29.6185306467497
 30
0.0
 11
-5.112590252005272
 21
-29.5418637559001
 31
0.0
  0
LINE
  5
16B
330
1F
100
AcDbEntity
  8
0
100
AcDbLine
 10
-3.164033093490297
 20
-30.66686375590009
 30
0.0
 11
-3.521599994335547
 21
-30.20087349823037
 31
0.0
  0
LINE
  5
16C
330
1F
100
AcDbEntity
  8
0
100
AcDbLine
 10
-2.939257142854879
 20
-31.20952090441942
 30
0.0
 11
-3.164033093490297
 21
-30.66686375590009
 31
0.0
  0
LINE
  5
16D
330
1F
100
AcDbEntity
  8
0
100
AcDbLine
 10
-13.66021814962252
 20
-38.55268583392505
 30
0.0
 11
-14.31704178656923
 21
-38.83683359321916
 31
0.0
  0
LINE
  5
16E
330
1F
100
AcDbEntity
  8
0
100
AcDbLine
 10
-2.862590252005287
 20
-31.79186375590008
 30
0.0
 11
-2.939257142854879
 21
-31.20952090441942
 31
0.0
  0
LINE
  5
16F
330
1F
100
AcDbEntity
  8
0
100
AcDbLine
 10
-17.76311394375439
 20
-1.541863755900078
 30
0.0
 11
-52.50458420190812
 21
-1.541863755900078
 31
0.0
  0
LINE
  5
170
330
1F
100
AcDbEntity
  8
0
100
AcDbLine
 10
-52.50458420190814
 20
-62.04186375590008
 30
0.0
 11
-17.76311394375439
 21
-62.04186375590008
 31
0.0
  0
LINE
  5
171
330
1F
100
AcDbEntity
  8
0
100
AcDbLine
 10
-2.939257142854879
 20
-32.37420660738075
 30
0.0
 11
-2.862590252005287
 21
-31.79186375590008
 31
0.0
  0
LINE
  5
172
330
1F
100
AcDbEntity
  8
0
100
AcDbLine
 10
-17.76311394375439
 20
-5.041863755900072
 30
0.0
 11
-3.325607269074096
 21
-5.041863755900072
 31
0.0
  0
LINE
  5
173
330
1F
100
AcDbEntity
  8
0
100
AcDbLine
 10
-20.67367428265996
 20
-29.96519686505047
 30
0.0
 11
-20.0913314311793
 21
-30.04186375590008
 31
0.0
  0
LINE
  5
174
330
1F
100
AcDbEntity
  8
0
100
AcDbLine
 10
-18.50034117350958
 20
-26.20087349823036
 30
0.0
 11
-18.96633143117931
 21
-25.84330659738511
 31
0.0
  0
LINE
  5
175
330
1F
100
AcDbEntity
  8
0
100
AcDbLine
 10
-22.26466454032968
 20
-28.37420660738075
 30
0.0
 11
-22.03988858969428
 21
-28.91686375590007
 31
0.0
  0
LINE
  5
176
330
1F
100
AcDbEntity
  8
0
100
AcDbLine
 10
-18.96633143117931
 20
-25.84330659738511
 30
0.0
 11
-19.50898857969862
 21
-25.61853064674969
 31
0.0
  0
LINE
  5
177
330
1F
100
AcDbEntity
  8
0
100
AcDbLine
 10
-21.68232168884903
 20
-26.20087349823036
 30
0.0
 11
-22.03988858969427
 21
-26.66686375590009
 31
0.0
  0
LINE
  5
178
330
1F
100
AcDbEntity
  8
0
100
AcDbLine
 10
-18.14277427266432
 20
-28.91686375590007
 30
0.0
 11
-17.9179983220289
 21
-28.37420660738075
 31
0.0
  0
LINE
  5
179
330
1F
100
AcDbEntity
  8
0
100
AcDbLine
 10
-19.50898857969862
 20
-25.61853064674969
 30
0.0
 11
-20.0913314311793
 21
-25.5418637559001
 31
0.0
  0
LINE
  5
17A
330
1F
100
AcDbEntity
  8
0
100
AcDbLine
 10
-22.34133143117929
 20
-27.79186375590008
 30
0.0
 11
-22.26466454032968
 21
-28.37420660738075
 31
0.0
  0
LINE
  5
17B
330
1F
100
AcDbEntity
  8
0
100
AcDbLine
 10
-17.84133143117932
 20
-27.79186375590008
 30
0.0
 11
-17.9179983220289
 21
-27.20952090441941
 31
0.0
  0
LINE
  5
17C
330
1F
100
AcDbEntity
  8
0
100
AcDbLine
 10
-18.14277427266432
 20
-26.66686375590009
 30
0.0
 11
-18.50034117350958
 21
-26.20087349823036
 31
0.0
  0
LINE
  5
17D
330
1F
100
AcDbEntity
  8
0
100
AcDbLine
 10
-17.9179983220289
 20
-27.20952090441941
 30
0.0
 11
-18.14277427266432
 21
-26.66686375590009
 31
0.0
  0
LINE
  5
17E
330
1F
100
AcDbEntity
  8
0
100
AcDbLine
 10
-20.0913314311793
 20
-30.04186375590008
 30
0.0
 11
-19.50898857969862
 21
-29.96519686505047
 31
0.0
  0
LINE
  5
17F
330
1F
100
AcDbEntity
  8
0
100
AcDbLine
 10
-22.03988858969427
 20
-26.66686375590009
 30
0.0
 11
-22.26466454032968
 21
-27.20952090441941
 31
0.0
  0
LINE
  5
180
330
1F
100
AcDbEntity
  8
0
100
AcDbLine
 10
-17.9179983220289
 20
-28.37420660738075
 30
0.0
 11
-17.84133143117932
 21
-27.79186375590008
 31
0.0
  0
LINE
  5
181
330
1F
100
AcDbEntity
  8
0
100
AcDbLine
 10
-20.67367428265996
 20
-25.61853064674969
 30
0.0
 11
-21.2163314311793
 21
-25.84330659738511
 31
0.0
  0
LINE
  5
182
330
1F
100
AcDbEntity
  8
0
100
AcDbLine
 10
-22.26466454032968
 20
-27.20952090441941
 30
0.0
 11
-22.34133143117929
 21
-27.79186375590008
 31
0.0
  0
LINE
  5
183
330
1F
100
AcDbEntity
  8
0
100
AcDbLine
 10
-22.03988858969428
 20
-28.91686375590007
 30
0.0
 11
-21.68232168884903
 21
-29.3828540135698
 31
0.0
  0
LINE
  5
184
330
1F
100
AcDbEntity
  8
0
100
AcDbLine
 10
-18.50034117350958
 20
-29.3828540135698
 30
0.0
 11
-18.14277427266432
 21
-28.91686375590007
 31
0.0
  0
LINE
  5
185
330
1F
100
AcDbEntity
  8
0
100
AcDbLine
 10
-21.68232168884903
 20
-29.3828540135698
 30
0.0
 11
-21.2163314311793
 21
-29.74042091441506
 31
0.0
  0
LINE
  5
186
330
1F
100
AcDbEntity
  8
0
100
AcDbLine
 10
-21.2163314311793
 20
-29.74042091441506
 30
0.0
 11
-20.67367428265996
 21
-29.96519686505047
 31
0.0
  0
LINE
  5
187
330
1F
100
AcDbEntity
  8
0
100
AcDbLine
 10
-20.0913314311793
 20
-25.5418637559001
 30
0.0
 11
-20.67367428265996
 21
-25.61853064674969
 31
0.0
  0
LINE
  5
188
330
1F
100
AcDbEntity
  8
0
100
AcDbLine
 10
-19.50898857969862
 20
-29.96519686505047
 30
0.0
 11
-18.96633143117931
 21
-29.74042091441506
 31
0.0
  0
LINE
  5
189
330
1F
100
AcDbEntity
  8
0
100
AcDbLine
 10
-65.79448963688228
 20
-48.00228957903001
 30
0.0
 11
-34.79009003084619
 21
-52.50562700354109
 31
0.0
  0
LINE
  5
18A
330
1F
100
AcDbEntity
  8
0
100
AcDbLine
 10
-25.60406150661386
 20
-51.61562838567129
 30
0.0
 11
-36.4683339455822
 21
-50.3949118300987
 31
0.0
  0
LINE
  5
18B
330
1F
100
AcDbEntity
  8
0
100
AcDbLine
 10
-27.29470366909504
 20
-48.95088893552571
 30
0.0
 11
-25.60406150661386
 21
-51.61562838567129
 31
0.0
  0
LINE
  5
18C
330
1F
100
AcDbEntity
  8
0
100
AcDbLine
 10
-27.29470366909504
 20
-48.95088893552571
 30
0.0
 11
-4.413376189095353
 21
-48.95088893552571
 31
0.0
  0
LINE
  5
18D
330
1F
100
AcDbEntity
  8
0
100
AcDbLine
 10
-4.413376189095353
 20
-48.95088893552571
 30
0.0
 11
-33.66607542173445
 21
-45.54351238552329
 31
0.0
  0
LINE
  5
18E
330
1F
100
AcDbEntity
  8
0
100
AcDbLine
 10
-43.86776500953575
 20
-46.52939463513566
 30
0.0
 11
-31.94591782646973
 21
-47.81546570876593
 31
0.0
  0
LINE
  5
18F
330
1F
100
AcDbEntity
  8
0
100
AcDbLine
 10
-43.86776500953575
 20
-46.52939463513566
 30
0.0
 11
-42.00901763764165
 21
-48.98439485155104
 31
0.0
  0
LINE
  5
190
330
1F
100
AcDbEntity
  8
0
100
AcDbLine
 10
-65.79448963688228
 20
-48.00228957903001
 30
0.0
 11
-42.00901763764165
 21
-48.98439485155104
 31
0.0
  0
LINE
  5
191
330
1F
100
AcDbEntity
  8
0
100
AcDbLine
 10
-65.79448963688228
 20
-15.00896442805244
 30
0.0
 11
-42.00901763764165
 21
-14.02685915553144
 31
0.0
  0
LINE
  5
192
330
1F
100
AcDbEntity
  8
0
100
AcDbLine
 10
-4.413376189095353
 20
-14.06036507155687
 30
0.0
 11
-33.66607542173445
 21
-17.46774162155918
 31
0.0
  0
LINE
  5
193
330
1F
100
AcDbEntity
  8
0
100
AcDbLine
 10
-65.79448963688228
 20
-15.00896442805244
 30
0.0
 11
-34.79009003084619
 21
-10.50562700354136
 31
0.0
  0
LINE
  5
194
330
1F
100
AcDbEntity
  8
0
100
AcDbLine
 10
-25.60406150661386
 20
-11.39562562141131
 30
0.0
 11
-36.4683339455822
 21
-12.6163421769839
 31
0.0
  0
LINE
  5
195
330
1F
100
AcDbEntity
  8
0
100
AcDbLine
 10
-27.29470366909504
 20
-14.06036507155687
 30
0.0
 11
-4.413376189095353
 21
-14.06036507155687
 31
0.0
  0
LINE
  5
196
330
1F
100
AcDbEntity
  8
0
100
AcDbLine
 10
-27.29470366909504
 20
-14.06036507155687
 30
0.0
 11
-25.60406150661386
 21
-11.39562562141131
 31
0.0
  0
LINE
  5
197
330
1F
100
AcDbEntity
  8
0
100
AcDbLine
 10
-43.86776500953575
 20
-16.48185937194693
 30
0.0
 11
-42.00901763764165
 21
-14.02685915553144
 31
0.0
  0
LINE
  5
198
330
1F
100
AcDbEntity
  8
0
100
AcDbLine
 10
-3.325607269074096
 20
-1.541863755900078
 30
0.0
 11
-3.325607269074096
 21
-5.041863755900072
 31
0.0
  0
LINE
  5
199
330
1F
100
AcDbEntity
  8
0
100
AcDbLine
 10
-66.92083205576243
 20
-1.541863755900078
 30
0.0
 11
-86.11259025200528
 21
-1.541863755900078
 31
0.0
  0
LINE
  5
19A
330
1F
100
AcDbEntity
  8
0
100
AcDbLine
 10
-66.92083205576243
 20
-1.541863755900078
 30
0.0
 11
-66.92083205576243
 21
-5.041863755900072
 31
0.0
  0
LINE
  5
19B
330
1F
100
AcDbEntity
  8
0
100
AcDbLine
 10
-17.76311394375439
 20
-5.041863755900072
 30
0.0
 11
-17.76311394375439
 21
-1.541863755900078
 31
0.0
  0
LINE
  5
19C
330
1F
100
AcDbEntity
  8
0
100
AcDbLine
 10
-52.50458420190812
 20
-5.041863755900072
 30
0.0
 11
-52.50458420190812
 21
-1.541863755900078
 31
0.0
  0
LINE
  5
19D
330
1F
100
AcDbEntity
  8
0
100
AcDbLine
 10
-17.76311394375439
 20
-58.54186375590009
 30
0.0
 11
-17.76311394375439
 21
-62.04186375590008
 31
0.0
  0
LINE
  5
19E
330
1F
100
AcDbEntity
  8
0
100
AcDbLine
 10
-3.325607269074096
 20
-62.04186375590008
 30
0.0
 11
15.88740974799471
 21
-62.04186375590008
 31
0.0
  0
LINE
  5
19F
330
1F
100
AcDbEntity
  8
0
100
AcDbLine
 10
-66.92083205576243
 20
-58.54186375590009
 30
0.0
 11
-66.92083205576243
 21
-62.04186375590008
 31
0.0
  0
LINE
  5
1A0
330
1F
100
AcDbEntity
  8
0
100
AcDbLine
 10
15.88740974799471
 20
-14.54186375590008
 30
0.0
 11
15.88740974799471
 21
-1.541863755900078
 31
0.0
  0
LINE
  5
1A1
330
1F
100
AcDbEntity
  8
0
100
AcDbLine
 10
19.38740974799468
 20
-14.54186375590008
 30
0.0
 11
19.38740974799473
 21
-49.04186375590007
 31
0.0
  0
LINE
  5
1A2
330
1F
100
AcDbEntity
  8
0
100
AcDbLine
 10
15.88740974799471
 20
-14.54186375590008
 30
0.0
 11
19.38740974799468
 21
-14.54186375590008
 31
0.0
  0
LINE
  5
1A3
330
1F
100
AcDbEntity
  8
0
100
AcDbLine
 10
15.88740974799471
 20
-49.04186375590007
 30
0.0
 11
19.38740974799473
 21
-49.04186375590007
 31
0.0
  0
LINE
  5
1A4
330
1F
100
AcDbEntity
  8
0
100
AcDbLine
 10
-89.61259025200529
 20
-49.04186375590047
 30
0.0
 11
-89.61259025200529
 21
-14.54186375590048
 31
0.0
  0
LINE
  5
1A5
330
1F
100
AcDbEntity
  8
0
100
AcDbLine
 10
-86.11259025200528
 20
-49.04186375590048
 30
0.0
 11
-86.11259025200528
 21
-62.04186375590008
 31
0.0
  0
LINE
  5
1A6
330
1F
100
AcDbEntity
  8
0
100
AcDbLine
 10
-86.11259025200528
 20
-49.04186375590048
 30
0.0
 11
-89.61259025200529
 21
-49.04186375590047
 31
0.0
  0
LINE
  5
1A7
330
1F
100
AcDbEntity
  8
0
100
AcDbLine
 10
-86.11259025200528
 20
-14.54186375590048
 30
0.0
 11
-89.61259025200529
 21
-14.54186375590048
 31
0.0
  0
LINE
  5
1A8
330
1F
100
AcDbEntity
  8
0
100
AcDbLine
 10
86.8295611581492
 20
0.7867305020419431
 30
0.0
 11
73.92956115814869
 21
0.7867305020419204
 31
0.0
  0
LINE
  5
1A9
330
1F
100
AcDbEntity
  8
0
100
AcDbLine
 10
27.52956115814923
 20
37.78673050204201
 30
0.0
 11
40.42956115814918
 21
37.78673050204205
 31
0.0
  0
LINE
  5
1AA
330
1F
100
AcDbEntity
  8
0
100
AcDbLine
 10
40.42956115814896
 20
0.7867305020419995
 30
0.0
 11
27.52956115814925
 21
0.7867305020417287
 31
0.0
  0
LINE
  5
1AB
330
1F
100
AcDbEntity
  8
0
100
AcDbLine
 10
40.42956115814918
 20
37.78673050204205
 30
0.0
 11
40.42956115814923
 21
34.28673050204216
 31
0.0
  0
LINE
  5
1AC
330
1F
100
AcDbEntity
  8
0
100
AcDbLine
 10
40.42956115814896
 20
0.7867305020419995
 30
0.0
 11
40.42956115814869
 21
4.286730502041948
 31
0.0
  0
LINE
  5
1AD
330
1F
100
AcDbEntity
  8
0
100
AcDbLine
 10
86.82439273092594
 20
37.7867305020418
 30
0.0
 11
86.8295611581493
 21
23.43673050204201
 31
0.0
  0
LINE
  5
1AE
330
1F
100
AcDbEntity
  8
0
100
AcDbLine
 10
27.52956115814923
 20
37.78673050204201
 30
0.0
 11
27.52956115814921
 21
23.38673050204198
 31
0.0
  0
LINE
  5
1AF
330
1F
100
AcDbEntity
  8
0
100
AcDbLine
 10
86.8295611581492
 20
15.03673050204199
 30
0.0
 11
86.8295611581492
 21
0.7867305020419431
 31
0.0
  0
LINE
  5
1B0
330
1F
100
AcDbEntity
  8
0
100
AcDbLine
 10
86.8295611581492
 20
15.03673050204199
 30
0.0
 11
83.92956115814933
 21
15.03673050204215
 31
0.0
  0
LINE
  5
1B1
330
1F
100
AcDbEntity
  8
0
100
AcDbLine
 10
27.52956115814923
 20
15.18673050204212
 30
0.0
 11
27.52956115814925
 21
0.7867305020417287
 31
0.0
  0
LINE
  5
1B2
330
1F
100
AcDbEntity
  8
0
100
AcDbLine
 10
30.4295611581492
 20
15.18673050204198
 30
0.0
 11
27.52956115814923
 21
15.18673050204212
 31
0.0
  0
LINE
  5
1B3
330
1F
100
AcDbEntity
  8
0
100
AcDbLine
 10
-52.50458420190812
 20
-5.041863755900072
 30
0.0
 11
-66.92083205576243
 21
-5.041863755900072
 31
0.0
  0
LINE
  5
1B4
330
1F
100
AcDbEntity
  8
0
100
AcDbLine
 10
-3.325607269074096
 20
-62.04186375590008
 30
0.0
 11
-3.325607269074096
 21
-58.54186375590009
 31
0.0
  0
LINE
  5
1B5
330
1F
100
AcDbEntity
  8
0
100
AcDbLine
 10
-3.325607269074096
 20
-58.54186375590009
 30
0.0
 11
-17.76311394375439
 21
-58.54186375590009
 31
0.0
  0
LINE
  5
1B6
330
1F
100
AcDbEntity
  8
0
100
AcDbLine
 10
-52.50458420190814
 20
-62.04186375590008
 30
0.0
 11
-52.50458420190814
 21
-58.54186375590009
 31
0.0
  0
LINE
  5
1B7
330
1F
100
AcDbEntity
  8
0
100
AcDbLine
 10
-52.50458420190814
 20
-58.54186375590009
 30
0.0
 11
-66.92083205576243
 21
-58.54186375590009
 31
0.0
  0
LINE
  5
1B8
330
1F
100
AcDbEntity
  8
0
100
AcDbLine
 10
73.92956115814869
 20
0.7867305020419204
 30
0.0
 11
73.92956115814869
 21
4.286730502041948
 31
0.0
  0
LINE
  5
1B9
330
1F
100
AcDbEntity
  8
0
100
AcDbLine
 10
73.92956115814869
 20
4.286730502041948
 30
0.0
 11
40.42956115814869
 21
4.286730502041948
 31
0.0
  0
LINE
  5
1BA
330
1F
100
AcDbEntity
  8
0
100
AcDbLine
 10
86.8295611581493
 20
23.43673050204201
 30
0.0
 11
83.92956115814933
 21
23.43673050204201
 31
0.0
  0
LINE
  5
1BB
330
1F
100
AcDbEntity
  8
0
100
AcDbLine
 10
83.92956115814933
 20
23.43673050204201
 30
0.0
 11
83.92956115814933
 21
15.03673050204215
 31
0.0
  0
LINE
  5
1BC
330
1F
100
AcDbEntity
  8
0
100
AcDbLine
 10
73.92439273092596
 20
37.78673050204198
 30
0.0
 11
73.92956115814933
 21
34.28673050204216
 31
0.0
  0
LINE
  5
1BD
330
1F
100
AcDbEntity
  8
0
100
AcDbLine
 10
73.92956115814933
 20
34.28673050204216
 30
0.0
 11
40.42956115814923
 21
34.28673050204216
 31
0.0
  0
LINE
  5
1BE
330
1F
100
AcDbEntity
  8
0
100
AcDbLine
 10
27.52956115814921
 20
23.38673050204198
 30
0.0
 11
30.4295611581492
 21
23.38673050204198
 31
0.0
  0
LINE
  5
1BF
330
1F
100
AcDbEntity
  8
0
100
AcDbLine
 10
30.4295611581492
 20
23.38673050204198
 30
0.0
 11
30.4295611581492
 21
15.18673050204198
 31
0.0
  0
LINE
  5
1C0
330
1F
100
AcDbEntity
  8
0
100
AcDbLine
 10
52.1795611581493
 20
19.25171616369929
 30
0.0
 11
52.17956115814949
 21
7.25171616369927
 31
0.0
  0
LINE
  5
1C1
330
1F
100
AcDbEntity
  8
0
100
AcDbLine
 10
52.17956115814949
 20
7.25171616369927
 30
0.0
 11
39.67956115814945
 21
7.251716163699225
 31
0.0
  0
LINE
  5
1C2
330
1F
100
AcDbEntity
  8
0
100
AcDbLine
 10
39.67956115814945
 20
7.251716163699225
 30
0.0
 11
39.67956115814917
 21
19.2517161636992
 31
0.0
  0
LINE
  5
1C3
330
1F
100
AcDbEntity
  8
0
100
AcDbLine
 10
52.1795611581493
 20
19.25171616369929
 30
0.0
 11
39.67956115814917
 21
19.2517161636992
 31
0.0
  0
LINE
  5
1C4
330
1F
100
AcDbEntity
  8
0
100
AcDbLine
 10
-18.23074461566306
 20
0.7867305020419317
 30
0.0
 11
-18.23074461566306
 21
4.286730502041948
 31
0.0
  0
LINE
  5
1C5
330
1F
100
AcDbEntity
  8
0
100
AcDbLine
 10
-2.825607269074131
 20
34.28673050204188
 30
0.0
 11
-2.825607269074063
 21
37.78673050204188
 31
0.0
  0
LINE
  5
1C6
330
1F
100
AcDbEntity
  8
0
100
AcDbLine
 10
-2.825607269074131
 20
34.28673050204188
 30
0.0
 11
15.9197790760861
 21
34.28673050204193
 31
0.0
  0
LINE
  5
1C7
330
1F
100
AcDbEntity
  8
0
100
AcDbLine
 10
19.41977907608608
 20
14.78673050204191
 30
0.0
 11
15.91977907608608
 21
14.78673050204191
 31
0.0
  0
LINE
  5
1C8
330
1F
100
AcDbEntity
  8
0
100
AcDbLine
 10
-51.97221487381678
 20
0.7867305020419317
 30
0.0
 11
-51.97221487381678
 21
4.286730502041948
 31
0.0
  0
LINE
  5
1C9
330
1F
100
AcDbEntity
  8
0
100
AcDbLine
 10
19.41977907608608
 20
23.78673050204198
 30
0.0
 11
15.91977907608608
 21
23.78673050204198
 31
0.0
  0
LINE
  5
1CA
330
1F
100
AcDbEntity
  8
0
100
AcDbLine
 10
-86.08022092391396
 20
23.78673050204198
 30
0.0
 11
-89.58022092391396
 21
23.78673050204198
 31
0.0
  0
LINE
  5
1CB
330
1F
100
AcDbEntity
  8
0
100
AcDbLine
 10
-86.08022092391396
 20
34.28673050204193
 30
0.0
 11
-67.36720390684519
 21
34.28673050204202
 31
0.0
  0
LINE
  5
1CC
330
1F
100
AcDbEntity
  8
0
100
AcDbLine
 10
-89.58022092391396
 20
23.78673050204198
 30
0.0
 11
-89.58022092391394
 21
14.78673050204191
 31
0.0
  0
LINE
  5
1CD
330
1F
100
AcDbEntity
  8
0
100
AcDbLine
 10
-86.08022092391396
 20
4.286730502041948
 30
0.0
 11
-86.08022092391394
 21
14.78673050204191
 31
0.0
  0
LINE
  5
1CE
330
1F
100
AcDbEntity
  8
0
100
AcDbLine
 10
-67.3884627276711
 20
4.286730502041948
 30
0.0
 11
-67.3884627276711
 21
0.7867305020419317
 31
0.0
  0
LINE
  5
1CF
330
1F
100
AcDbEntity
  8
0
100
AcDbLine
 10
15.91977907608608
 20
23.78673050204198
 30
0.0
 11
15.9197790760861
 21
34.28673050204193
 31
0.0
  0
LINE
  5
1D0
330
1F
100
AcDbEntity
  8
0
100
AcDbLine
 10
-67.3884627276711
 20
4.286730502041948
 30
0.0
 11
-86.08022092391396
 21
4.286730502041948
 31
0.0
  0
LINE
  5
1D1
330
1F
100
AcDbEntity
  8
0
100
AcDbLine
 10
-18.23074461566306
 20
4.286730502041948
 30
0.0
 11
-51.97221487381678
 21
4.286730502041948
 31
0.0
  0
LINE
  5
1D2
330
1F
100
AcDbEntity
  8
0
100
AcDbLine
 10
-67.3884627276711
 20
0.7867305020419317
 30
0.0
 11
-51.97221487381678
 21
0.7867305020419317
 31
0.0
  0
LINE
  5
1D3
330
1F
100
AcDbEntity
  8
0
100
AcDbLine
 10
-86.08022092391396
 20
23.78673050204198
 30
0.0
 11
-86.08022092391396
 21
34.28673050204193
 31
0.0
  0
LINE
  5
1D4
330
1F
100
AcDbEntity
  8
0
100
AcDbLine
 10
-86.08022092391394
 20
14.78673050204191
 30
0.0
 11
-89.58022092391394
 21
14.78673050204191
 31
0.0
  0
LINE
  5
1D5
330
1F
100
AcDbEntity
  8
0
100
AcDbLine
 10
-51.97221487381677
 20
37.78673050204198
 30
0.0
 11
-67.36720390684505
 21
37.78673050204198
 31
0.0
  0
LINE
  5
1D6
330
1F
100
AcDbEntity
  8
0
100
AcDbLine
 10
19.41977907608608
 20
23.78673050204198
 30
0.0
 11
19.41977907608608
 21
14.78673050204191
 31
0.0
  0
LINE
  5
1D7
330
1F
100
AcDbEntity
  8
0
100
AcDbLine
 10
-18.18822697401103
 20
37.78673050204202
 30
0.0
 11
-18.18822697401102
 21
34.28673050204188
 31
0.0
  0
LINE
  5
1D8
330
1F
100
AcDbEntity
  8
0
100
AcDbLine
 10
-2.825607269074063
 20
37.78673050204188
 30
0.0
 11
-18.18822697401103
 21
37.78673050204202
 31
0.0
  0
LINE
  5
1D9
330
1F
100
AcDbEntity
  8
0
100
AcDbLine
 10
15.91977907608606
 20
4.286730502041948
 30
0.0
 11
15.91977907608608
 21
14.78673050204191
 31
0.0
  0
LINE
  5
1DA
330
1F
100
AcDbEntity
  8
0
100
AcDbLine
 10
-18.23074461566306
 20
0.7867305020419317
 30
0.0
 11
-2.825607269074097
 21
0.7867305020419317
 31
0.0
  0
LINE
  5
1DB
330
1F
100
AcDbEntity
  8
0
100
AcDbLine
 10
-67.36720390684519
 20
34.28673050204202
 30
0.0
 11
-67.36720390684505
 21
37.78673050204198
 31
0.0
  0
LINE
  5
1DC
330
1F
100
AcDbEntity
  8
0
100
AcDbLine
 10
94.19411576678208
 20
-1.322313474529258
 30
0.0
 11
59.45264550862836
 21
-1.322313474529258
 31
0.0
  0
LINE
  5
1DD
330
1F
100
AcDbEntity
  8
0
100
AcDbLine
 10
94.19411576678208
 20
-4.822313474529252
 30
0.0
 11
108.6316224414624
 21
-4.822313474529252
 31
0.0
  0
LINE
  5
1DE
330
1F
100
AcDbEntity
  8
0
100
AcDbLine
 10
108.6316224414624
 20
-1.322313474529258
 30
0.0
 11
108.6316224414624
 21
-4.822313474529252
 31
0.0
  0
LINE
  5
1DF
330
1F
100
AcDbEntity
  8
0
100
AcDbLine
 10
127.8446394585312
 20
-1.322313474529258
 30
0.0
 11
108.6316224414624
 21
-1.322313474529258
 31
0.0
  0
LINE
  5
1E0
330
1F
100
AcDbEntity
  8
0
100
AcDbLine
 10
127.8446394585312
 20
-14.57231347452927
 30
0.0
 11
127.8446394585312
 21
-1.322313474529258
 31
0.0
  0
LINE
  5
1E1
330
1F
100
AcDbEntity
  8
0
100
AcDbLine
 10
127.8446394585312
 20
-14.57231347452927
 30
0.0
 11
131.3446394585311
 21
-14.57231347452927
 31
0.0
  0
LINE
  5
1E2
330
1F
100
AcDbEntity
  8
0
100
AcDbLine
 10
131.3446394585311
 20
-14.57231347452927
 30
0.0
 11
131.3446394585312
 21
-49.07231347452925
 31
0.0
  0
LINE
  5
1E3
330
1F
100
AcDbEntity
  8
0
100
AcDbLine
 10
127.8446394585312
 20
-49.07231347452925
 30
0.0
 11
131.3446394585312
 21
-49.07231347452925
 31
0.0
  0
LINE
  5
1E4
330
1F
100
AcDbEntity
  8
0
100
AcDbLine
 10
127.8446394585312
 20
-62.32231347452926
 30
0.0
 11
127.8446394585312
 21
-49.07231347452925
 31
0.0
  0
LINE
  5
1E5
330
1F
100
AcDbEntity
  8
0
100
AcDbLine
 10
108.6316224414624
 20
-62.32231347452926
 30
0.0
 11
127.8446394585312
 21
-62.32231347452926
 31
0.0
  0
LINE
  5
1E6
330
1F
100
AcDbEntity
  8
0
100
AcDbLine
 10
108.6316224414624
 20
-62.32231347452926
 30
0.0
 11
108.6316224414624
 21
-58.82231347452927
 31
0.0
  0
LINE
  5
1E7
330
1F
100
AcDbEntity
  8
0
100
AcDbLine
 10
108.6316224414624
 20
-58.82231347452927
 30
0.0
 11
94.19411576678208
 21
-58.82231347452927
 31
0.0
  0
LINE
  5
1E8
330
1F
100
AcDbEntity
  8
0
100
AcDbLine
 10
94.19411576678208
 20
-58.82231347452927
 30
0.0
 11
94.19411576678208
 21
-62.32231347452926
 31
0.0
  0
LINE
  5
1E9
330
1F
100
AcDbEntity
  8
0
100
AcDbLine
 10
59.45264550862834
 20
-62.32231347452926
 30
0.0
 11
94.19411576678208
 21
-62.32231347452926
 31
0.0
  0
LINE
  5
1EA
330
1F
100
AcDbEntity
  8
0
100
AcDbLine
 10
59.45264550862834
 20
-62.32231347452926
 30
0.0
 11
59.45264550862834
 21
-58.82231347452927
 31
0.0
  0
LINE
  5
1EB
330
1F
100
AcDbEntity
  8
0
100
AcDbLine
 10
59.45264550862834
 20
-58.82231347452927
 30
0.0
 11
45.03639765477404
 21
-58.82231347452927
 31
0.0
  0
LINE
  5
1EC
330
1F
100
AcDbEntity
  8
0
100
AcDbLine
 10
45.03639765477404
 20
-58.82231347452927
 30
0.0
 11
45.03639765477404
 21
-62.32231347452926
 31
0.0
  0
LINE
  5
1ED
330
1F
100
AcDbEntity
  8
0
100
AcDbLine
 10
25.84463945853119
 20
-62.32231347452926
 30
0.0
 11
45.03639765477404
 21
-62.32231347452926
 31
0.0
  0
LINE
  5
1EE
330
1F
100
AcDbEntity
  8
0
100
AcDbLine
 10
25.84463945853119
 20
-49.07231347452966
 30
0.0
 11
25.84463945853119
 21
-62.32231347452926
 31
0.0
  0
LINE
  5
1EF
330
1F
100
AcDbEntity
  8
0
100
AcDbLine
 10
25.84463945853119
 20
-49.07231347452966
 30
0.0
 11
22.34463945853119
 21
-49.07231347452965
 31
0.0
  0
LINE
  5
1F0
330
1F
100
AcDbEntity
  8
0
100
AcDbLine
 10
22.34463945853119
 20
-49.07231347452965
 30
0.0
 11
22.34463945853119
 21
-14.57231347452966
 31
0.0
  0
LINE
  5
1F1
330
1F
100
AcDbEntity
  8
0
100
AcDbLine
 10
25.84463945853119
 20
-14.57231347452966
 30
0.0
 11
22.34463945853119
 21
-14.57231347452966
 31
0.0
  0
LINE
  5
1F2
330
1F
100
AcDbEntity
  8
0
100
AcDbLine
 10
25.84463945853119
 20
-1.322313474529258
 30
0.0
 11
25.84463945853119
 21
-14.57231347452966
 31
0.0
  0
LINE
  5
1F3
330
1F
100
AcDbEntity
  8
0
100
AcDbLine
 10
45.03639765477404
 20
-1.322313474529258
 30
0.0
 11
25.84463945853119
 21
-1.322313474529258
 31
0.0
  0
LINE
  5
1F4
330
1F
100
AcDbEntity
  8
0
100
AcDbLine
 10
45.03639765477404
 20
-1.322313474529258
 30
0.0
 11
45.03639765477404
 21
-4.822313474529252
 31
0.0
  0
LINE
  5
1F5
330
1F
100
AcDbEntity
  8
0
100
AcDbLine
 10
59.45264550862836
 20
-4.822313474529252
 30
0.0
 11
45.03639765477404
 21
-4.822313474529252
 31
0.0
  0
LINE
  5
1F6
330
1F
100
AcDbEntity
  8
0
100
AcDbLine
 10
59.45264550862836
 20
-4.822313474529252
 30
0.0
 11
59.45264550862836
 21
-1.322313474529258
 31
0.0
  0
LINE
  5
1F7
330
1F
100
AcDbEntity
  8
0
100
AcDbLine
 10
94.19411576678208
 20
-4.822313474529252
 30
0.0
 11
94.19411576678208
 21
-1.322313474529258
 31
0.0
  0
LINE
  5
1F8
330
1F
100
AcDbEntity
  8
0
100
AcDbLine
 10
73.92439273092596
 20
37.78673050204198
 30
0.0
 11
86.82439273092594
 21
37.7867305020418
 31
0.0
  0
LINE
  5
1F9
330
1F
100
AcDbEntity
  8
0
100
AcDbLine
 10
-2.825607269074097
 20
4.286730502041948
 30
0.0
 11
-2.825607269074097
 21
0.7867305020419317
 31
0.0
  0
LINE
  5
1FA
330
1F
100
AcDbEntity
  8
0
100
AcDbLine
 10
-51.9722148738168
 20
34.28673050204188
 30
0.0
 11
-18.18822697401102
 21
34.28673050204188
 31
0.0
  0
LINE
  5
1FB
330
1F
100
AcDbEntity
  8
0
100
AcDbLine
 10
-51.9722148738168
 20
34.28673050204188
 30
0.0
 11
-51.97221487381677
 21
37.78673050204198
 31
0.0
  0
LINE
  5
1FC
330
1F
100
AcDbEntity
  8
0
100
AcDbLine
 10
7.581589289319094
 20
26.98858194691606
 30
0.0
 11
7.401627818140447
 21
27.40848453427494
 31
0.0
  0
LINE
  5
1FD
330
1F
100
AcDbEntity
  8
0
100
AcDbLine
 10
7.401627818140447
 20
27.40848453427494
 30
0.0
 11
7.119119598695712
 21
27.76750183180476
 31
0.0
  0
LINE
  5
1FE
330
1F
100
AcDbEntity
  8
0
100
AcDbLine
 10
7.119119598695712
 20
27.76750183180476
 30
0.0
 11
6.753317099273144
 21
28.04116740398303
 31
0.0
  0
LINE
  5
1FF
330
1F
100
AcDbEntity
  8
0
100
AcDbLine
 10
6.753317099273144
 20
28.04116740398303
 30
0.0
 11
6.329149155691187
 21
28.21083139431954
 31
0.0
  0
LINE
  5
200
330
1F
100
AcDbEntity
  8
0
100
AcDbLine
 10
6.329149155691187
 20
28.21083139431954
 30
0.0
 11
5.875522112334258
 21
28.26493148225584
 31
0.0
  0
LINE
  5
201
330
1F
100
AcDbEntity
  8
0
100
AcDbLine
 10
5.875522112334258
 20
28.26493148225584
 30
0.0
 11
5.423349902553026
 21
28.1997808362037
 31
0.0
  0
LINE
  5
202
330
1F
100
AcDbEntity
  8
0
100
AcDbLine
 10
5.423349902553026
 20
28.1997808362037
 30
0.0
 11
5.003447315194153
 21
28.01981936502506
 31
0.0
  0
LINE
  5
203
330
1F
100
AcDbEntity
  8
0
100
AcDbLine
 10
5.003447315194153
 20
28.01981936502506
 30
0.0
 11
4.644430017664332
 21
27.73731114558032
 31
0.0
  0
LINE
  5
204
330
1F
100
AcDbEntity
  8
0
100
AcDbLine
 10
4.644430017664332
 20
27.73731114558032
 30
0.0
 11
4.370764445486062
 21
27.37150864615775
 31
0.0
  0
LINE
  5
205
330
1F
100
AcDbEntity
  8
0
100
AcDbLine
 10
4.370764445486062
 20
27.37150864615775
 30
0.0
 11
4.201100455149553
 21
26.9473407025758
 31
0.0
  0
LINE
  5
206
330
1F
100
AcDbEntity
  8
0
100
AcDbLine
 10
4.201100455149553
 20
26.9473407025758
 30
0.0
 11
4.147000367213248
 21
26.49371365921887
 31
0.0
  0
LINE
  5
207
330
1F
100
AcDbEntity
  8
0
100
AcDbLine
 10
4.147000367213248
 20
26.49371365921887
 30
0.0
 11
4.212151013265385
 21
26.04154144943764
 31
0.0
  0
LINE
  5
208
330
1F
100
AcDbEntity
  8
0
100
AcDbLine
 10
4.212151013265385
 20
26.04154144943764
 30
0.0
 11
4.392112484444031
 21
25.62163886207876
 31
0.0
  0
LINE
  5
209
330
1F
100
AcDbEntity
  8
0
100
AcDbLine
 10
4.392112484444031
 20
25.62163886207876
 30
0.0
 11
4.674620703888766
 21
25.26262156454894
 31
0.0
  0
LINE
  5
20A
330
1F
100
AcDbEntity
  8
0
100
AcDbLine
 10
4.674620703888766
 20
25.26262156454894
 30
0.0
 11
5.040423203311335
 21
24.98895599237067
 31
0.0
  0
LINE
  5
20B
330
1F
100
AcDbEntity
  8
0
100
AcDbLine
 10
5.040423203311335
 20
24.98895599237067
 30
0.0
 11
5.464591146893292
 21
24.81929200203416
 31
0.0
  0
LINE
  5
20C
330
1F
100
AcDbEntity
  8
0
100
AcDbLine
 10
5.464591146893292
 20
24.81929200203416
 30
0.0
 11
5.91821819025022
 21
24.76519191409786
 31
0.0
  0
LINE
  5
20D
330
1F
100
AcDbEntity
  8
0
100
AcDbLine
 10
5.91821819025022
 20
24.76519191409786
 30
0.0
 11
6.370390400031452
 21
24.83034256015
 31
0.0
  0
LINE
  5
20E
330
1F
100
AcDbEntity
  8
0
100
AcDbLine
 10
6.370390400031452
 20
24.83034256015
 30
0.0
 11
6.790292987390325
 21
25.01030403132864
 31
0.0
  0
LINE
  5
20F
330
1F
100
AcDbEntity
  8
0
100
AcDbLine
 10
6.790292987390325
 20
25.01030403132864
 30
0.0
 11
7.149310284920146
 21
25.29281225077338
 31
0.0
  0
LINE
  5
210
330
1F
100
AcDbEntity
  8
0
100
AcDbLine
 10
7.149310284920146
 20
25.29281225077338
 30
0.0
 11
7.422975857098416
 21
25.65861475019594
 31
0.0
  0
LINE
  5
211
330
1F
100
AcDbEntity
  8
0
100
AcDbLine
 10
7.422975857098416
 20
25.65861475019594
 30
0.0
 11
7.592639847434925
 21
26.0827826937779
 31
0.0
  0
LINE
  5
212
330
1F
100
AcDbEntity
  8
0
100
AcDbLine
 10
7.592639847434925
 20
26.0827826937779
 30
0.0
 11
7.64673993537123
 21
26.53640973713483
 31
0.0
  0
LINE
  5
213
330
1F
100
AcDbEntity
  8
0
100
AcDbLine
 10
7.64673993537123
 20
26.53640973713483
 30
0.0
 11
7.581589289319094
 21
26.98858194691606
 31
0.0
  0
LINE
  5
214
330
1F
100
AcDbEntity
  8
0
100
AcDbLine
 10
-76.95629059266217
 20
28.01981936502509
 30
0.0
 11
-77.315307890192
 21
27.73731114558036
 31
0.0
  0
LINE
  5
215
330
1F
100
AcDbEntity
  8
0
100
AcDbLine
 10
-74.37814861853724
 20
26.9885819469161
 30
0.0
 11
-74.55811008971588
 21
27.40848453427497
 31
0.0
  0
LINE
  5
216
330
1F
100
AcDbEntity
  8
0
100
AcDbLine
 10
-74.55811008971588
 20
27.40848453427497
 30
0.0
 11
-74.84061830916062
 21
27.76750183180479
 31
0.0
  0
LINE
  5
217
330
1F
100
AcDbEntity
  8
0
100
AcDbLine
 10
-74.84061830916062
 20
27.76750183180479
 30
0.0
 11
-75.20642080858319
 21
28.04116740398306
 31
0.0
  0
LINE
  5
218
330
1F
100
AcDbEntity
  8
0
100
AcDbLine
 10
-75.58934750782488
 20
24.83034256015003
 30
0.0
 11
-75.169444920466
 21
25.01030403132868
 31
0.0
  0
LINE
  5
219
330
1F
100
AcDbEntity
  8
0
100
AcDbLine
 10
-77.75863745270678
 20
26.94734070257583
 30
0.0
 11
-77.81273754064308
 21
26.4937136592189
 31
0.0
  0
LINE
  5
21A
330
1F
100
AcDbEntity
  8
0
100
AcDbLine
 10
-75.20642080858319
 20
28.04116740398306
 30
0.0
 11
-75.63058875216514
 21
28.21083139431957
 31
0.0
  0
LINE
  5
21B
330
1F
100
AcDbEntity
  8
0
100
AcDbLine
 10
-74.53676205075791
 20
25.65861475019598
 30
0.0
 11
-74.3670980604214
 21
26.08278269377794
 31
0.0
  0
LINE
  5
21C
330
1F
100
AcDbEntity
  8
0
100
AcDbLine
 10
-77.74758689459094
 20
26.04154144943767
 30
0.0
 11
-77.5676254234123
 21
25.6216388620788
 31
0.0
  0
LINE
  5
21D
330
1F
100
AcDbEntity
  8
0
100
AcDbLine
 10
-77.81273754064308
 20
26.4937136592189
 30
0.0
 11
-77.74758689459094
 21
26.04154144943767
 31
0.0
  0
LINE
  5
21E
330
1F
100
AcDbEntity
  8
0
100
AcDbLine
 10
-76.0415197176061
 20
24.76519191409789
 30
0.0
 11
-75.58934750782488
 21
24.83034256015003
 31
0.0
  0
LINE
  5
21F
330
1F
100
AcDbEntity
  8
0
100
AcDbLine
 10
-76.49514676096304
 20
24.8192920020342
 30
0.0
 11
-76.0415197176061
 21
24.76519191409789
 31
0.0
  0
LINE
  5
220
330
1F
100
AcDbEntity
  8
0
100
AcDbLine
 10
-76.53638800530331
 20
28.19978083620374
 30
0.0
 11
-76.95629059266217
 21
28.01981936502509
 31
0.0
  0
LINE
  5
221
330
1F
100
AcDbEntity
  8
0
100
AcDbLine
 10
-74.3670980604214
 20
26.08278269377794
 30
0.0
 11
-74.31299797248509
 21
26.53640973713486
 31
0.0
  0
LINE
  5
222
330
1F
100
AcDbEntity
  8
0
100
AcDbLine
 10
-75.169444920466
 20
25.01030403132868
 30
0.0
 11
-74.81042762293619
 21
25.29281225077341
 31
0.0
  0
LINE
  5
223
330
1F
100
AcDbEntity
  8
0
100
AcDbLine
 10
-74.31299797248509
 20
26.53640973713486
 30
0.0
 11
-74.37814861853724
 21
26.9885819469161
 31
0.0
  0
LINE
  5
224
330
1F
100
AcDbEntity
  8
0
100
AcDbLine
 10
-76.08421579552207
 20
28.26493148225588
 30
0.0
 11
-76.53638800530331
 21
28.19978083620374
 31
0.0
  0
LINE
  5
225
330
1F
100
AcDbEntity
  8
0
100
AcDbLine
 10
-77.58897346237026
 20
27.37150864615779
 30
0.0
 11
-77.75863745270678
 21
26.94734070257583
 31
0.0
  0
LINE
  5
226
330
1F
100
AcDbEntity
  8
0
100
AcDbLine
 10
-77.315307890192
 20
27.73731114558036
 30
0.0
 11
-77.58897346237026
 21
27.37150864615779
 31
0.0
  0
LINE
  5
227
330
1F
100
AcDbEntity
  8
0
100
AcDbLine
 10
-76.91931470454499
 20
24.98895599237071
 30
0.0
 11
-76.49514676096304
 21
24.8192920020342
 31
0.0
  0
LINE
  5
228
330
1F
100
AcDbEntity
  8
0
100
AcDbLine
 10
-77.28511720396756
 20
25.26262156454898
 30
0.0
 11
-76.91931470454499
 21
24.98895599237071
 31
0.0
  0
LINE
  5
229
330
1F
100
AcDbEntity
  8
0
100
AcDbLine
 10
-77.5676254234123
 20
25.6216388620788
 30
0.0
 11
-77.28511720396756
 21
25.26262156454898
 31
0.0
  0
LINE
  5
22A
330
1F
100
AcDbEntity
  8
0
100
AcDbLine
 10
-74.81042762293619
 20
25.29281225077341
 30
0.0
 11
-74.53676205075791
 21
25.65861475019598
 31
0.0
  0
LINE
  5
22B
330
1F
100
AcDbEntity
  8
0
100
AcDbLine
 10
-75.63058875216514
 20
28.21083139431957
 30
0.0
 11
-76.08421579552207
 21
28.26493148225588
 31
0.0
  0
LINE
  5
22C
330
1F
100
AcDbEntity
  8
0
100
AcDbLine
 10
4.402497356299206
 20
65.77124308272913
 30
0.0
 11
4.685005575743942
 21
65.41222578519931
 31
0.0
  0
LINE
  5
22D
330
1F
100
AcDbEntity
  8
0
100
AcDbLine
 10
5.01383218704934
 20
68.16942358567543
 30
0.0
 11
4.654814889519519
 21
67.88691536623068
 31
0.0
  0
LINE
  5
22E
330
1F
100
AcDbEntity
  8
0
100
AcDbLine
 10
-18.22035974380788
 20
40.9363347226923
 30
0.0
 11
-18.22035974380788
 21
44.43633472269232
 31
0.0
  0
LINE
  5
22F
330
1F
100
AcDbEntity
  8
0
100
AcDbLine
 10
4.211485327004729
 20
67.09694492322616
 30
0.0
 11
4.157385239068424
 21
66.64331787986923
 31
0.0
  0
LINE
  5
230
330
1F
100
AcDbEntity
  8
0
100
AcDbLine
 10
-2.815222397218955
 20
74.43633472269227
 30
0.0
 11
15.93016394794129
 21
74.43633472269231
 31
0.0
  0
LINE
  5
231
330
1F
100
AcDbEntity
  8
0
100
AcDbLine
 10
19.43016394794128
 20
54.93633472269227
 30
0.0
 11
15.93016394794127
 21
54.93633472269227
 31
0.0
  0
LINE
  5
232
330
1F
100
AcDbEntity
  8
0
100
AcDbLine
 10
19.43016394794128
 20
63.93633472269235
 30
0.0
 11
15.93016394794127
 21
63.93633472269235
 31
0.0
  0
LINE
  5
233
330
1F
100
AcDbEntity
  8
0
100
AcDbLine
 10
-76.90892983268981
 20
65.13856021302107
 30
0.0
 11
-76.48476188910784
 21
64.96889622268456
 31
0.0
  0
LINE
  5
234
330
1F
100
AcDbEntity
  8
0
100
AcDbLine
 10
6.339534027546363
 20
68.36043561496992
 30
0.0
 11
5.885906984189434
 21
68.41453570290619
 31
0.0
  0
LINE
  5
235
330
1F
100
AcDbEntity
  8
0
100
AcDbLine
 10
-51.96183000196161
 20
40.9363347226923
 30
0.0
 11
-51.96183000196161
 21
44.43633472269232
 31
0.0
  0
LINE
  5
236
330
1F
100
AcDbEntity
  8
0
100
AcDbLine
 10
-86.06983605205878
 20
63.93633472269235
 30
0.0
 11
-89.56983605205878
 21
63.93633472269235
 31
0.0
  0
LINE
  5
237
330
1F
100
AcDbEntity
  8
0
100
AcDbLine
 10
-86.06983605205878
 20
74.43633472269231
 30
0.0
 11
-67.35681903499
 21
74.4363347226924
 31
0.0
  0
LINE
  5
238
330
1F
100
AcDbEntity
  8
0
100
AcDbLine
 10
-74.30261310062991
 20
66.68601395778524
 30
0.0
 11
-74.36776374668204
 21
67.13818616756646
 31
0.0
  0
LINE
  5
239
330
1F
100
AcDbEntity
  8
0
100
AcDbLine
 10
-2.815222397218955
 20
74.43633472269227
 30
0.0
 11
-2.815222397218887
 21
77.93633472269225
 31
0.0
  0
LINE
  5
23A
330
1F
100
AcDbEntity
  8
0
100
AcDbLine
 10
-75.196035936728
 20
68.19077162463344
 30
0.0
 11
-75.62020388030996
 21
68.36043561496994
 31
0.0
  0
LINE
  5
23B
330
1F
100
AcDbEntity
  8
0
100
AcDbLine
 10
-74.52637717890272
 20
65.80821897084635
 30
0.0
 11
-74.35671318856622
 21
66.2323869144283
 31
0.0
  0
LINE
  5
23C
330
1F
100
AcDbEntity
  8
0
100
AcDbLine
 10
-77.73720202273576
 20
66.19114567008803
 30
0.0
 11
-77.55724055155711
 21
65.77124308272917
 31
0.0
  0
LINE
  5
23D
330
1F
100
AcDbEntity
  8
0
100
AcDbLine
 10
7.129504470550888
 20
67.91710605245513
 30
0.0
 11
6.763701971128331
 21
68.1907716246334
 31
0.0
  0
LINE
  5
23E
330
1F
100
AcDbEntity
  8
0
100
AcDbLine
 10
-74.83023343730542
 20
67.91710605245515
 30
0.0
 11
-75.196035936728
 21
68.19077162463344
 31
0.0
  0
LINE
  5
23F
330
1F
100
AcDbEntity
  8
0
100
AcDbLine
 10
-77.27473233211238
 20
65.41222578519935
 30
0.0
 11
-76.90892983268981
 21
65.13856021302107
 31
0.0
  0
LINE
  5
240
330
1F
100
AcDbEntity
  8
0
100
AcDbLine
 10
4.157385239068424
 20
66.64331787986923
 30
0.0
 11
4.222535885120572
 21
66.19114567008799
 31
0.0
  0
LINE
  5
241
330
1F
100
AcDbEntity
  8
0
100
AcDbLine
 10
-76.94590572080699
 20
68.16942358567546
 30
0.0
 11
-77.30492301833681
 21
67.88691536623072
 31
0.0
  0
LINE
  5
242
330
1F
100
AcDbEntity
  8
0
100
AcDbLine
 10
-77.74825258085158
 20
67.0969449232262
 30
0.0
 11
-77.80235266878789
 21
66.64331787986927
 31
0.0
  0
LINE
  5
243
330
1F
100
AcDbEntity
  8
0
100
AcDbLine
 10
-76.48476188910784
 20
64.96889622268456
 30
0.0
 11
-76.03113484575093
 21
64.91479613474826
 31
0.0
  0
LINE
  5
244
330
1F
100
AcDbEntity
  8
0
100
AcDbLine
 10
-74.35671318856622
 20
66.2323869144283
 30
0.0
 11
-74.30261310062991
 21
66.68601395778524
 31
0.0
  0
LINE
  5
245
330
1F
100
AcDbEntity
  8
0
100
AcDbLine
 10
-74.800042751081
 20
65.44241647142378
 30
0.0
 11
-74.52637717890272
 21
65.80821897084635
 31
0.0
  0
LINE
  5
246
330
1F
100
AcDbEntity
  8
0
100
AcDbLine
 10
5.050808075166522
 20
65.13856021302104
 30
0.0
 11
5.474976018748468
 21
64.96889622268455
 31
0.0
  0
LINE
  5
247
330
1F
100
AcDbEntity
  8
0
100
AcDbLine
 10
6.380775271886628
 20
64.97994678080036
 30
0.0
 11
6.800677859245512
 21
65.15990825197902
 31
0.0
  0
LINE
  5
248
330
1F
100
AcDbEntity
  8
0
100
AcDbLine
 10
-76.07383092366689
 20
68.41453570290625
 30
0.0
 11
-76.52600313344811
 21
68.34938505685412
 31
0.0
  0
LINE
  5
249
330
1F
100
AcDbEntity
  8
0
100
AcDbLine
 10
-74.54772521786069
 20
67.55808875492532
 30
0.0
 11
-74.83023343730542
 21
67.91710605245515
 31
0.0
  0
LINE
  5
24A
330
1F
100
AcDbEntity
  8
0
100
AcDbLine
 10
-77.57858859051508
 20
67.52111286680814
 30
0.0
 11
-77.74825258085158
 21
67.0969449232262
 31
0.0
  0
LINE
  5
24B
330
1F
100
AcDbEntity
  8
0
100
AcDbLine
 10
-77.30492301833681
 20
67.88691536623072
 30
0.0
 11
-77.57858859051508
 21
67.52111286680814
 31
0.0
  0
LINE
  5
24C
330
1F
100
AcDbEntity
  8
0
100
AcDbLine
 10
-74.36776374668204
 20
67.13818616756646
 30
0.0
 11
-74.54772521786069
 21
67.55808875492532
 31
0.0
  0
LINE
  5
24D
330
1F
100
AcDbEntity
  8
0
100
AcDbLine
 10
4.654814889519519
 20
67.88691536623068
 30
0.0
 11
4.381149317341249
 21
67.52111286680812
 31
0.0
  0
LINE
  5
24E
330
1F
100
AcDbEntity
  8
0
100
AcDbLine
 10
5.433734774408202
 20
68.34938505685408
 30
0.0
 11
5.01383218704934
 21
68.16942358567543
 31
0.0
  0
LINE
  5
24F
330
1F
100
AcDbEntity
  8
0
100
AcDbLine
 10
4.222535885120572
 20
66.19114567008799
 30
0.0
 11
4.402497356299206
 21
65.77124308272913
 31
0.0
  0
LINE
  5
250
330
1F
100
AcDbEntity
  8
0
100
AcDbLine
 10
5.928603062105395
 20
64.91479613474822
 30
0.0
 11
6.380775271886628
 21
64.97994678080036
 31
0.0
  0
LINE
  5
251
330
1F
100
AcDbEntity
  8
0
100
AcDbLine
 10
-51.96183000196161
 20
74.43633472269227
 30
0.0
 11
-51.96183000196159
 21
77.93633472269235
 31
0.0
  0
LINE
  5
252
330
1F
100
AcDbEntity
  8
0
100
AcDbLine
 10
-75.57896263596969
 20
64.97994678080039
 30
0.0
 11
-75.15906004861081
 21
65.15990825197905
 31
0.0
  0
LINE
  5
253
330
1F
100
AcDbEntity
  8
0
100
AcDbLine
 10
7.159695156775333
 20
65.44241647142374
 30
0.0
 11
7.433360728953604
 21
65.80821897084631
 31
0.0
  0
LINE
  5
254
330
1F
100
AcDbEntity
  8
0
100
AcDbLine
 10
5.474976018748468
 20
64.96889622268455
 30
0.0
 11
5.928603062105395
 21
64.91479613474822
 31
0.0
  0
LINE
  5
255
330
1F
100
AcDbEntity
  8
0
100
AcDbLine
 10
7.657124807226406
 20
66.68601395778519
 30
0.0
 11
7.591974161174281
 21
67.13818616756642
 31
0.0
  0
LINE
  5
256
330
1F
100
AcDbEntity
  8
0
100
AcDbLine
 10
-51.96183000196161
 20
74.43633472269227
 30
0.0
 11
-18.17784210215584
 21
74.43633472269227
 31
0.0
  0
LINE
  5
257
330
1F
100
AcDbEntity
  8
0
100
AcDbLine
 10
5.885906984189434
 20
68.41453570290619
 30
0.0
 11
5.433734774408202
 21
68.34938505685408
 31
0.0
  0
LINE
  5
258
330
1F
100
AcDbEntity
  8
0
100
AcDbLine
 10
4.381149317341249
 20
67.52111286680812
 30
0.0
 11
4.211485327004729
 21
67.09694492322616
 31
0.0
  0
LINE
  5
259
330
1F
100
AcDbEntity
  8
0
100
AcDbLine
 10
-77.80235266878789
 20
66.64331787986927
 30
0.0
 11
-77.73720202273576
 21
66.19114567008803
 31
0.0
  0
LINE
  5
25A
330
1F
100
AcDbEntity
  8
0
100
AcDbLine
 10
-75.62020388030996
 20
68.36043561496994
 30
0.0
 11
-76.07383092366689
 21
68.41453570290625
 31
0.0
  0
LINE
  5
25B
330
1F
100
AcDbEntity
  8
0
100
AcDbLine
 10
7.412012689995623
 20
67.55808875492531
 30
0.0
 11
7.129504470550888
 21
67.91710605245513
 31
0.0
  0
LINE
  5
25C
330
1F
100
AcDbEntity
  8
0
100
AcDbLine
 10
7.591974161174281
 20
67.13818616756642
 30
0.0
 11
7.412012689995623
 21
67.55808875492531
 31
0.0
  0
LINE
  5
25D
330
1F
100
AcDbEntity
  8
0
100
AcDbLine
 10
-77.55724055155711
 20
65.77124308272917
 30
0.0
 11
-77.27473233211238
 21
65.41222578519935
 31
0.0
  0
LINE
  5
25E
330
1F
100
AcDbEntity
  8
0
100
AcDbLine
 10
-76.03113484575093
 20
64.91479613474826
 30
0.0
 11
-75.57896263596969
 21
64.97994678080039
 31
0.0
  0
LINE
  5
25F
330
1F
100
AcDbEntity
  8
0
100
AcDbLine
 10
6.763701971128331
 20
68.1907716246334
 30
0.0
 11
6.339534027546363
 21
68.36043561496992
 31
0.0
  0
LINE
  5
260
330
1F
100
AcDbEntity
  8
0
100
AcDbLine
 10
7.603024719290101
 20
66.23238691442826
 30
0.0
 11
7.657124807226406
 21
66.68601395778519
 31
0.0
  0
LINE
  5
261
330
1F
100
AcDbEntity
  8
0
100
AcDbLine
 10
6.800677859245512
 20
65.15990825197902
 30
0.0
 11
7.159695156775333
 21
65.44241647142374
 31
0.0
  0
LINE
  5
262
330
1F
100
AcDbEntity
  8
0
100
AcDbLine
 10
4.685005575743942
 20
65.41222578519931
 30
0.0
 11
5.050808075166522
 21
65.13856021302104
 31
0.0
  0
LINE
  5
263
330
1F
100
AcDbEntity
  8
0
100
AcDbLine
 10
-75.15906004861081
 20
65.15990825197905
 30
0.0
 11
-74.800042751081
 21
65.44241647142378
 31
0.0
  0
LINE
  5
264
330
1F
100
AcDbEntity
  8
0
100
AcDbLine
 10
7.433360728953604
 20
65.80821897084631
 30
0.0
 11
7.603024719290101
 21
66.23238691442826
 31
0.0
  0
LINE
  5
265
330
1F
100
AcDbEntity
  8
0
100
AcDbLine
 10
-76.52600313344811
 20
68.34938505685412
 30
0.0
 11
-76.94590572080699
 21
68.16942358567546
 31
0.0
  0
LINE
  5
266
330
1F
100
AcDbEntity
  8
0
100
AcDbLine
 10
-18.22035974380788
 20
40.9363347226923
 30
0.0
 11
-2.81522239721891
 21
40.9363347226923
 31
0.0
  0
LINE
  5
267
330
1F
100
AcDbEntity
  8
0
100
AcDbLine
 10
-67.37807785581593
 20
40.9363347226923
 30
0.0
 11
-51.96183000196161
 21
40.9363347226923
 31
0.0
  0
LINE
  5
268
330
1F
100
AcDbEntity
  8
0
100
AcDbLine
 10
-18.22035974380788
 20
44.43633472269232
 30
0.0
 11
-51.96183000196161
 21
44.43633472269232
 31
0.0
  0
LINE
  5
269
330
1F
100
AcDbEntity
  8
0
100
AcDbLine
 10
-67.37807785581593
 20
44.43633472269232
 30
0.0
 11
-67.37807785581593
 21
40.9363347226923
 31
0.0
  0
LINE
  5
26A
330
1F
100
AcDbEntity
  8
0
100
AcDbLine
 10
-67.37807785581593
 20
44.43633472269232
 30
0.0
 11
-86.06983605205878
 21
44.43633472269232
 31
0.0
  0
LINE
  5
26B
330
1F
100
AcDbEntity
  8
0
100
AcDbLine
 10
-86.06983605205878
 20
44.43633472269232
 30
0.0
 11
-86.06983605205876
 21
54.93633472269227
 31
0.0
  0
LINE
  5
26C
330
1F
100
AcDbEntity
  8
0
100
AcDbLine
 10
-86.06983605205876
 20
54.93633472269227
 30
0.0
 11
-89.56983605205876
 21
54.93633472269227
 31
0.0
  0
LINE
  5
26D
330
1F
100
AcDbEntity
  8
0
100
AcDbLine
 10
-89.56983605205878
 20
63.93633472269235
 30
0.0
 11
-89.56983605205876
 21
54.93633472269227
 31
0.0
  0
LINE
  5
26E
330
1F
100
AcDbEntity
  8
0
100
AcDbLine
 10
-86.06983605205878
 20
63.93633472269235
 30
0.0
 11
-86.06983605205878
 21
74.43633472269231
 31
0.0
  0
LINE
  5
26F
330
1F
100
AcDbEntity
  8
0
100
AcDbLine
 10
-67.35681903499
 20
74.4363347226924
 30
0.0
 11
-67.35681903498987
 21
77.93633472269235
 31
0.0
  0
LINE
  5
270
330
1F
100
AcDbEntity
  8
0
100
AcDbLine
 10
-51.96183000196159
 20
77.93633472269235
 30
0.0
 11
-67.35681903498987
 21
77.93633472269235
 31
0.0
  0
LINE
  5
271
330
1F
100
AcDbEntity
  8
0
100
AcDbLine
 10
-18.17784210215584
 20
77.9363347226924
 30
0.0
 11
-18.17784210215584
 21
74.43633472269227
 31
0.0
  0
LINE
  5
272
330
1F
100
AcDbEntity
  8
0
100
AcDbLine
 10
-2.815222397218887
 20
77.93633472269225
 30
0.0
 11
-18.17784210215584
 21
77.9363347226924
 31
0.0
  0
LINE
  5
273
330
1F
100
AcDbEntity
  8
0
100
AcDbLine
 10
15.93016394794127
 20
63.93633472269235
 30
0.0
 11
15.93016394794129
 21
74.43633472269231
 31
0.0
  0
LINE
  5
274
330
1F
100
AcDbEntity
  8
0
100
AcDbLine
 10
19.43016394794128
 20
63.93633472269235
 30
0.0
 11
19.43016394794128
 21
54.93633472269227
 31
0.0
  0
LINE
  5
275
330
1F
100
AcDbEntity
  8
0
100
AcDbLine
 10
15.93016394794124
 20
44.43633472269232
 30
0.0
 11
15.93016394794127
 21
54.93633472269227
 31
0.0
  0
LINE
  5
276
330
1F
100
AcDbEntity
  8
0
100
AcDbLine
 10
15.93016394794124
 20
44.43633472269232
 30
0.0
 11
-2.81522239721891
 21
44.43633472269232
 31
0.0
  0
LINE
  5
277
330
1F
100
AcDbEntity
  8
0
100
AcDbLine
 10
-2.81522239721891
 20
44.43633472269232
 30
0.0
 11
-2.81522239721891
 21
40.9363347226923
 31
0.0
  0
LINE
  5
278
330
1F
100
AcDbEntity
  8
0
100
AcDbLine
 10
69.74213685064446
 20
7.215527046016402
 30
0.0
 11
57.74213685064453
 21
7.215527046016109
 31
0.0
  0
LINE
  5
279
330
1F
100
AcDbEntity
  8
0
100
AcDbLine
 10
57.74213685064446
 20
26.21552704601622
 30
0.0
 11
57.74213685064453
 21
7.215527046016109
 31
0.0
  0
LINE
  5
27A
330
1F
100
AcDbEntity
  8
0
100
AcDbLine
 10
69.74213685064437
 20
26.21552704601645
 30
0.0
 11
69.74213685064446
 21
7.215527046016402
 31
0.0
  0
LINE
  5
27B
330
1F
100
AcDbEntity
  8
0
100
AcDbLine
 10
57.74213685064446
 20
26.21552704601622
 30
0.0
 11
69.74213685064437
 21
26.21552704601645
 31
0.0
  0
LINE
  5
27C
330
1F
100
AcDbEntity
  8
0
100
AcDbLine
 10
15.91977907608606
 20
4.286730502041948
 30
0.0
 11
-2.825607269074097
 21
4.286730502041948
 31
0.0
  0
LINE
  5
27D
330
1F
100
AcDbEntity
  8
0
100
AcDbLine
 10
73.98034401474543
 20
78.87056406268378
 30
0.0
 11
73.98551244196878
 21
75.37056406268397
 31
0.0
  0
LINE
  5
27E
330
1F
100
AcDbEntity
  8
0
100
AcDbLine
 10
86.88551244196867
 20
56.12056406268379
 30
0.0
 11
83.98551244196878
 21
56.12056406268395
 31
0.0
  0
LINE
  5
27F
330
1F
100
AcDbEntity
  8
0
100
AcDbLine
 10
27.58551244196869
 20
56.27056406268391
 30
0.0
 11
27.58551244196871
 21
41.87056406268353
 31
0.0
  0
LINE
  5
280
330
1F
100
AcDbEntity
  8
0
100
AcDbLine
 10
27.58551244196869
 20
78.87056406268383
 30
0.0
 11
40.48551244196864
 21
78.87056406268387
 31
0.0
  0
LINE
  5
281
330
1F
100
AcDbEntity
  8
0
100
AcDbLine
 10
86.88551244196867
 20
56.12056406268379
 30
0.0
 11
86.88551244196867
 21
41.87056406268376
 31
0.0
  0
LINE
  5
282
330
1F
100
AcDbEntity
  8
0
100
AcDbLine
 10
73.98551244196815
 20
45.37056406268375
 30
0.0
 11
40.48551244196814
 21
45.37056406268375
 31
0.0
  0
LINE
  5
283
330
1F
100
AcDbEntity
  8
0
100
AcDbLine
 10
86.88551244196867
 20
41.87056406268376
 30
0.0
 11
73.98551244196815
 21
41.87056406268371
 31
0.0
  0
LINE
  5
284
330
1F
100
AcDbEntity
  8
0
100
AcDbLine
 10
73.98551244196815
 20
41.87056406268371
 30
0.0
 11
73.98551244196815
 21
45.37056406268375
 31
0.0
  0
LINE
  5
285
330
1F
100
AcDbEntity
  8
0
100
AcDbLine
 10
40.48551244196864
 20
78.87056406268387
 30
0.0
 11
40.48551244196869
 21
75.37056406268397
 31
0.0
  0
LINE
  5
286
330
1F
100
AcDbEntity
  8
0
100
AcDbLine
 10
40.48551244196842
 20
41.8705640626838
 30
0.0
 11
40.48551244196814
 21
45.37056406268375
 31
0.0
  0
LINE
  5
287
330
1F
100
AcDbEntity
  8
0
100
AcDbLine
 10
30.48551244196866
 20
56.27056406268377
 30
0.0
 11
27.58551244196869
 21
56.27056406268391
 31
0.0
  0
LINE
  5
288
330
1F
100
AcDbEntity
  8
0
100
AcDbLine
 10
30.48551244196866
 20
64.47056406268379
 30
0.0
 11
30.48551244196866
 21
56.27056406268377
 31
0.0
  0
LINE
  5
289
330
1F
100
AcDbEntity
  8
0
100
AcDbLine
 10
27.58551244196869
 20
78.87056406268383
 30
0.0
 11
27.58551244196866
 21
64.47056406268379
 31
0.0
  0
LINE
  5
28A
330
1F
100
AcDbEntity
  8
0
100
AcDbLine
 10
73.98551244196878
 20
75.37056406268397
 30
0.0
 11
40.48551244196869
 21
75.37056406268397
 31
0.0
  0
LINE
  5
28B
330
1F
100
AcDbEntity
  8
0
100
AcDbLine
 10
40.48551244196842
 20
41.8705640626838
 30
0.0
 11
27.58551244196871
 21
41.87056406268353
 31
0.0
  0
LINE
  5
28C
330
1F
100
AcDbEntity
  8
0
100
AcDbLine
 10
27.58551244196866
 20
64.47056406268379
 30
0.0
 11
30.48551244196866
 21
64.47056406268379
 31
0.0
  0
LINE
  5
28D
330
1F
100
AcDbEntity
  8
0
100
AcDbLine
 10
86.88551244196876
 20
64.52056406268382
 30
0.0
 11
83.98551244196878
 21
64.52056406268382
 31
0.0
  0
LINE
  5
28E
330
1F
100
AcDbEntity
  8
0
100
AcDbLine
 10
83.98551244196878
 20
64.52056406268382
 30
0.0
 11
83.98551244196878
 21
56.12056406268395
 31
0.0
  0
LINE
  5
28F
330
1F
100
AcDbEntity
  8
0
100
AcDbLine
 10
73.98034401474543
 20
78.87056406268378
 30
0.0
 11
86.8803440147454
 21
78.8705640626836
 31
0.0
  0
LINE
  5
290
330
1F
100
AcDbEntity
  8
0
100
AcDbLine
 10
86.8803440147454
 20
78.8705640626836
 30
0.0
 11
86.88551244196876
 21
64.52056406268382
 31
0.0
  0
LINE
  5
291
330
1F
100
AcDbEntity
  8
0
100
AcDbLine
 10
-43.86776500953575
 20
-16.48185937194693
 30
0.0
 11
-31.60861097136037
 21
-15.15940127014623
 31
0.0
  0
LINE
  5
292
330
1F
100
AcDbEntity
  8
0
100
AcDbLine
 10
-31.60861097136037
 20
-15.15940127014623
 30
0.0
 11
-33.66607542173445
 21
-17.46774162155918
 31
0.0
  0
LINE
  5
293
330
1F
100
AcDbEntity
  8
0
100
AcDbLine
 10
-43.56114741052026
 20
-27.04186375590008
 30
0.0
 11
-43.203580509675
 21
-27.50785401356981
 31
0.0
  0
LINE
  5
294
330
1F
100
AcDbEntity
  8
0
100
AcDbLine
 10
-39.6640330934903
 20
-24.79186375590009
 30
0.0
 11
-39.43925714285488
 21
-25.33452090441942
 31
0.0
  0
LINE
  5
295
330
1F
100
AcDbEntity
  8
0
100
AcDbLine
 10
-26.66403309349032
 20
-36.54186375590007
 30
0.0
 11
-27.02159999433557
 21
-36.07587349823034
 31
0.0
  0
LINE
  5
296
330
1F
100
AcDbEntity
  8
0
100
AcDbLine
 10
-30.56114741052027
 20
-38.79186375590007
 30
0.0
 11
-30.78592336115569
 21
-38.24920660738074
 31
0.0
  0
LINE
  5
297
330
1F
100
AcDbEntity
  8
0
100
AcDbLine
 10
-21.68232168884903
 20
-26.20087349823036
 30
0.0
 11
-21.2163314311793
 21
-25.84330659738511
 31
0.0
  0
LINE
  5
298
330
1F
100
AcDbEntity
  8
0
100
AcDbLine
 10
-18.96633143117931
 20
-29.74042091441506
 30
0.0
 11
-18.50034117350958
 21
-29.3828540135698
 31
0.0
  0
LINE
  5
299
330
1F
100
AcDbEntity
  8
0
100
AcDbLine
 10
-34.79009003084619
 20
-52.50562700354109
 30
0.0
 11
-36.4683339455822
 21
-50.3949118300987
 31
0.0
  0
LINE
  5
29A
330
1F
100
AcDbEntity
  8
0
100
AcDbLine
 10
-33.66607542173445
 20
-45.54351238552329
 30
0.0
 11
-31.94591782646973
 21
-47.81546570876593
 31
0.0
  0
LINE
  5
29B
330
1F
100
AcDbEntity
  8
0
100
AcDbLine
 10
-34.79009003084619
 20
-10.50562700354136
 30
0.0
 11
-36.4683339455822
 21
-12.6163421769839
 31
0.0
  0
LINE
  5
29C
330
1F
100
AcDbEntity
  8
0
100
AcDbLine
 10
-51.68232168884903
 20
-37.3828540135698
 30
0.0
 11
-51.2163314311793
 21
-37.74042091441506
 31
0.0
  0
LINE
  5
29D
330
1F
100
AcDbEntity
  8
0
100
AcDbLine
 10
-47.9179983220289
 20
-36.37420660738075
 30
0.0
 11
-47.84133143117932
 21
-35.79186375590008
 31
0.0
  0
LINE
  5
29E
330
1F
100
AcDbEntity
  8
0
100
AcDbLine
 10
-48.14277427266432
 20
-36.91686375590007
 30
0.0
 11
-47.9179983220289
 21
-36.37420660738075
 31
0.0
  0
LINE
  5
29F
330
1F
100
AcDbEntity
  8
0
100
AcDbLine
 10
-48.50034117350958
 20
-37.3828540135698
 30
0.0
 11
-48.14277427266432
 21
-36.91686375590007
 31
0.0
  0
LINE
  5
2A0
330
1F
100
AcDbEntity
  8
0
100
AcDbLine
 10
-51.2163314311793
 20
-37.74042091441506
 30
0.0
 11
-50.67367428265996
 21
-37.96519686505047
 31
0.0
  0
LINE
  5
2A1
330
1F
100
AcDbEntity
  8
0
100
AcDbLine
 10
-52.26466454032968
 20
-35.20952090441941
 30
0.0
 11
-52.34133143117929
 21
-35.79186375590008
 31
0.0
  0
LINE
  5
2A2
330
1F
100
AcDbEntity
  8
0
100
AcDbLine
 10
-52.03988858969426
 20
-34.66686375590009
 30
0.0
 11
-52.26466454032968
 21
-35.20952090441941
 31
0.0
  0
LINE
  5
2A3
330
1F
100
AcDbEntity
  8
0
100
AcDbLine
 10
-50.67367428265996
 20
-37.96519686505047
 30
0.0
 11
-50.09133143117931
 21
-38.04186375590007
 31
0.0
  0
LINE
  5
2A4
330
1F
100
AcDbEntity
  8
0
100
AcDbLine
 10
-51.68232168884903
 20
-34.20087349823036
 30
0.0
 11
-52.03988858969426
 21
-34.66686375590009
 31
0.0
  0
LINE
  5
2A5
330
1F
100
AcDbEntity
  8
0
100
AcDbLine
 10
-48.96633143117931
 20
-33.8433065973851
 30
0.0
 11
-49.50898857969862
 21
-33.61853064674969
 31
0.0
  0
LINE
  5
2A6
330
1F
100
AcDbEntity
  8
0
100
AcDbLine
 10
-48.50034117350958
 20
-34.20087349823036
 30
0.0
 11
-48.96633143117931
 21
-33.8433065973851
 31
0.0
  0
LINE
  5
2A7
330
1F
100
AcDbEntity
  8
0
100
AcDbLine
 10
-49.50898857969862
 20
-33.61853064674969
 30
0.0
 11
-50.09133143117931
 21
-33.5418637559001
 31
0.0
  0
LINE
  5
2A8
330
1F
100
AcDbEntity
  8
0
100
AcDbLine
 10
-20.0913314311793
 20
-25.5418637559001
 30
0.0
 11
-20.0913314311793
 21
-23.54186375590009
 31
0.0
  0
LINE
  5
2A9
330
1F
100
AcDbEntity
  8
0
100
AcDbLine
 10
-17.84133143117932
 20
-27.79186375590008
 30
0.0
 11
-15.84133143117932
 21
-27.79186375590008
 31
0.0
  0
LINE
  5
2AA
330
1F
100
AcDbEntity
  8
0
100
AcDbLine
 10
-20.0913314311793
 20
-30.04186375590008
 30
0.0
 11
-20.0913314311793
 21
-32.04186375590007
 31
0.0
  0
LINE
  5
2AB
330
1F
100
AcDbEntity
  8
0
100
AcDbLine
 10
-22.34133143117929
 20
-27.79186375590008
 30
0.0
 11
-24.34133143117928
 21
-27.79186375590008
 31
0.0
  0
LINE
  5
2AC
330
1F
100
AcDbEntity
  8
0
100
AcDbLine
 10
-21.68232168884903
 20
-29.3828540135698
 30
0.0
 11
-23.01668208821647
 21
-30.87264672552674
 31
0.0
  0
LINE
  5
2AD
330
1F
100
AcDbEntity
  8
0
100
AcDbLine
 10
-18.50034117350958
 20
-26.20087349823036
 30
0.0
 11
-17.16598077414214
 21
-24.71108078627343
 31
0.0
  0
LINE
  5
2AE
330
1F
100
AcDbEntity
  8
0
100
AcDbLine
 10
-18.50034117350958
 20
-29.3828540135698
 30
0.0
 11
-17.16598077414214
 21
-30.57799858711335
 31
0.0
  0
LINE
  5
2AF
330
1F
100
AcDbEntity
  8
0
100
AcDbLine
 10
-21.68232168884903
 20
-26.20087349823036
 30
0.0
 11
-23.34565216961879
 21
-24.71108078627343
 31
0.0
  0
LINE
  5
2B0
330
1F
100
AcDbEntity
  8
0
100
AcDbLine
 10
-50.09133143117931
 20
-33.5418637559001
 30
0.0
 11
-50.09133143117931
 21
-31.54186375590009
 31
0.0
  0
LINE
  5
2B1
330
1F
100
AcDbEntity
  8
0
100
AcDbLine
 10
-47.84133143117932
 20
-35.79186375590008
 30
0.0
 11
-45.84133143117932
 21
-35.79186375590008
 31
0.0
  0
LINE
  5
2B2
330
1F
100
AcDbEntity
  8
0
100
AcDbLine
 10
-50.09133143117931
 20
-38.04186375590007
 30
0.0
 11
-50.09133143117931
 21
-40.04186375590007
 31
0.0
  0
LINE
  5
2B3
330
1F
100
AcDbEntity
  8
0
100
AcDbLine
 10
-52.34133143117929
 20
-35.79186375590008
 30
0.0
 11
-54.34133143117928
 21
-35.79186375590008
 31
0.0
  0
LINE
  5
2B4
330
1F
100
AcDbEntity
  8
0
100
AcDbLine
 10
-48.50034117350958
 20
-34.20087349823036
 30
0.0
 11
-47.12043317090744
 21
-32.75316706930405
 31
0.0
  0
LINE
  5
2B5
330
1F
100
AcDbEntity
  8
0
100
AcDbLine
 10
-48.50034117350958
 20
-37.3828540135698
 30
0.0
 11
-47.12043317090744
 21
-38.69813869946958
 31
0.0
  0
LINE
  5
2B6
330
1F
100
AcDbEntity
  8
0
100
AcDbLine
 10
-51.68232168884903
 20
-37.3828540135698
 30
0.0
 11
-52.93600947216515
 21
-38.69813869946958
 31
0.0
  0
LINE
  5
2B7
330
1F
100
AcDbEntity
  8
0
100
AcDbLine
 10
-51.68232168884903
 20
-34.20087349823036
 30
0.0
 11
-52.93600947216515
 21
-33.00589793523206
 31
0.0
  0
LINE
  5
2B8
330
1F
100
AcDbEntity
  8
0
100
AcDbLine
 10
1.137409747994705
 20
-21.79186375590008
 30
0.0
 11
1.375928963971222
 21
-19.98013044018244
 31
0.0
  0
LINE
  5
2B9
330
1F
100
AcDbEntity
  8
0
100
AcDbLine
 10
1.375928963971222
 20
-19.98013044018244
 30
0.0
 11
2.075231921503635
 21
-18.29186375590009
 31
0.0
  0
LINE
  5
2BA
330
1F
100
AcDbEntity
  8
0
100
AcDbLine
 10
2.075231921503635
 20
-18.29186375590009
 30
0.0
 11
3.18766227968887
 21
-16.84211628759425
 31
0.0
  0
LINE
  5
2BB
330
1F
100
AcDbEntity
  8
0
100
AcDbLine
 10
3.18766227968887
 20
-16.84211628759425
 30
0.0
 11
4.637409747994699
 21
-15.72968592940902
 31
0.0
  0
LINE
  5
2BC
330
1F
100
AcDbEntity
  8
0
100
AcDbLine
 10
4.637409747994699
 20
-15.72968592940902
 30
0.0
 11
6.325676432277056
 21
-15.03038297187661
 31
0.0
  0
LINE
  5
2BD
330
1F
100
AcDbEntity
  8
0
100
AcDbLine
 10
6.325676432277056
 20
-15.03038297187661
 30
0.0
 11
7.137409747994705
 21
-14.92351625348748
 31
0.0
  0
LINE
  5
2BE
330
1F
100
AcDbEntity
  8
0
100
AcDbLine
 10
8.137409747994704
 20
-14.79186375590009
 30
0.0
 11
9.94914306371234
 21
-15.03038297187661
 31
0.0
  0
LINE
  5
2BF
330
1F
100
AcDbEntity
  8
0
100
AcDbLine
 10
9.94914306371234
 20
-15.03038297187661
 30
0.0
 11
11.6374097479947
 21
-15.72968592940902
 31
0.0
  0
LINE
  5
2C0
330
1F
100
AcDbEntity
  8
0
100
AcDbLine
 10
11.6374097479947
 20
-15.72968592940902
 30
0.0
 11
13.08715721630054
 21
-16.84211628759425
 31
0.0
  0
LINE
  5
2C1
330
1F
100
AcDbEntity
  8
0
100
AcDbLine
 10
13.08715721630054
 20
-16.84211628759425
 30
0.0
 11
14.19958757448577
 21
-18.29186375590009
 31
0.0
  0
LINE
  5
2C2
330
1F
100
AcDbEntity
  8
0
100
AcDbLine
 10
14.19958757448577
 20
-18.29186375590009
 30
0.0
 11
14.89889053201819
 21
-19.98013044018244
 31
0.0
  0
LINE
  5
2C3
330
1F
100
AcDbEntity
  8
0
100
AcDbLine
 10
14.89889053201819
 20
-19.98013044018244
 30
0.0
 11
15.1374097479947
 21
-21.79186375590008
 31
0.0
  0
LINE
  5
2C4
330
1F
100
AcDbEntity
  8
0
100
AcDbLine
 10
1.137409747994705
 20
-41.79186375590008
 30
0.0
 11
1.375928963971222
 21
-43.60359707161773
 31
0.0
  0
LINE
  5
2C5
330
1F
100
AcDbEntity
  8
0
100
AcDbLine
 10
1.375928963971222
 20
-43.60359707161773
 30
0.0
 11
2.075231921503635
 21
-45.29186375590008
 31
0.0
  0
LINE
  5
2C6
330
1F
100
AcDbEntity
  8
0
100
AcDbLine
 10
2.075231921503635
 20
-45.29186375590008
 30
0.0
 11
3.18766227968887
 21
-46.74161122420592
 31
0.0
  0
LINE
  5
2C7
330
1F
100
AcDbEntity
  8
0
100
AcDbLine
 10
3.18766227968887
 20
-46.74161122420592
 30
0.0
 11
4.637409747994699
 21
-47.85404158239115
 31
0.0
  0
LINE
  5
2C8
330
1F
100
AcDbEntity
  8
0
100
AcDbLine
 10
4.637409747994699
 20
-47.85404158239115
 30
0.0
 11
6.325676432277056
 21
-48.55334453992356
 31
0.0
  0
LINE
  5
2C9
330
1F
100
AcDbEntity
  8
0
100
AcDbLine
 10
6.325676432277056
 20
-48.55334453992356
 30
0.0
 11
8.137409747994704
 21
-48.79186375590008
 31
0.0
  0
LINE
  5
2CA
330
1F
100
AcDbEntity
  8
0
100
AcDbLine
 10
8.137409747994704
 20
-48.79186375590008
 30
0.0
 11
9.94914306371234
 21
-48.55334453992356
 31
0.0
  0
LINE
  5
2CB
330
1F
100
AcDbEntity
  8
0
100
AcDbLine
 10
9.94914306371234
 20
-48.55334453992356
 30
0.0
 11
11.6374097479947
 21
-47.85404158239115
 31
0.0
  0
LINE
  5
2CC
330
1F
100
AcDbEntity
  8
0
100
AcDbLine
 10
11.6374097479947
 20
-47.85404158239115
 30
0.0
 11
13.08715721630054
 21
-46.74161122420592
 31
0.0
  0
LINE
  5
2CD
330
1F
100
AcDbEntity
  8
0
100
AcDbLine
 10
13.08715721630054
 20
-46.74161122420592
 30
0.0
 11
14.19958757448577
 21
-45.29186375590008
 31
0.0
  0
LINE
  5
2CE
330
1F
100
AcDbEntity
  8
0
100
AcDbLine
 10
14.19958757448577
 20
-45.29186375590008
 30
0.0
 11
14.89889053201819
 21
-43.60359707161773
 31
0.0
  0
LINE
  5
2CF
330
1F
100
AcDbEntity
  8
0
100
AcDbLine
 10
14.89889053201819
 20
-43.60359707161773
 30
0.0
 11
15.1374097479947
 21
-41.79186375590008
 31
0.0
  0
LINE
  5
2D0
330
1F
100
AcDbEntity
  8
0
100
AcDbLine
 10
1.137409747994705
 20
-41.79186375590008
 30
0.0
 11
1.137409747994705
 21
-21.79186375590009
 31
0.0
  0
LINE
  5
2D1
330
1F
100
AcDbEntity
  8
0
100
AcDbLine
 10
-76.55085693628672
 20
-48.55334453992391
 30
0.0
 11
-78.36259025200437
 21
-48.7918637559005
 31
0.0
  0
LINE
  5
2D2
330
1F
100
AcDbEntity
  8
0
100
AcDbLine
 10
-71.362590252006
 20
-21.79186375590011
 30
0.0
 11
-71.36259025200454
 21
-41.79186375590007
 31
0.0
  0
LINE
  5
2D3
330
1F
100
AcDbEntity
  8
0
100
AcDbLine
 10
-73.4128427836986
 20
-46.74161122420593
 30
0.0
 11
-74.86259025200428
 21
-47.85404158239132
 31
0.0
  0
LINE
  5
2D4
330
1F
100
AcDbEntity
  8
0
100
AcDbLine
 10
-74.86259025200428
 20
-47.85404158239132
 30
0.0
 11
-76.55085693628672
 21
-48.55334453992391
 31
0.0
  0
LINE
  5
2D5
330
1F
100
AcDbEntity
  8
0
100
AcDbLine
 10
-78.36259025200665
 20
-14.79186375590051
 30
0.0
 11
-80.17432356772423
 21
-15.03038297187718
 31
0.0
  0
LINE
  5
2D6
330
1F
100
AcDbEntity
  8
0
100
AcDbLine
 10
-85.12407103602823
 20
-43.60359707161873
 30
0.0
 11
-85.36259025200462
 21
-41.79186375590096
 31
0.0
  0
LINE
  5
2D7
330
1F
100
AcDbEntity
  8
0
100
AcDbLine
 10
-84.42476807849735
 20
-18.29186375590085
 30
0.0
 11
-85.12407103602956
 21
-19.98013044018338
 31
0.0
  0
LINE
  5
2D8
330
1F
100
AcDbEntity
  8
0
100
AcDbLine
 10
-71.60110946798261
 20
-19.98013044018235
 30
0.0
 11
-72.30041242551512
 21
-18.2918637559
 31
0.0
  0
LINE
  5
2D9
330
1F
100
AcDbEntity
  8
0
100
AcDbLine
 10
-85.12407103602956
 20
-19.98013044018338
 30
0.0
 11
-85.36259025200592
 21
-21.79186375590097
 31
0.0
  0
LINE
  5
2DA
330
1F
100
AcDbEntity
  8
0
100
AcDbLine
 10
-83.31233772031216
 20
-16.84211628759492
 30
0.0
 11
-84.42476807849735
 21
-18.29186375590085
 31
0.0
  0
LINE
  5
2DB
330
1F
100
AcDbEntity
  8
0
100
AcDbLine
 10
-71.362590252006
 20
-21.79186375590011
 30
0.0
 11
-71.60110946798261
 21
-19.98013044018235
 31
0.0
  0
LINE
  5
2DC
330
1F
100
AcDbEntity
  8
0
100
AcDbLine
 10
-76.55085693628905
 20
-15.03038297187678
 30
0.0
 11
-77.36259025200528
 21
-14.92351625348795
 31
0.0
  0
LINE
  5
2DD
330
1F
100
AcDbEntity
  8
0
100
AcDbLine
 10
-80.17432356772423
 20
-15.03038297187718
 30
0.0
 11
-81.86259025200648
 21
-15.72968592940971
 31
0.0
  0
LINE
  5
2DE
330
1F
100
AcDbEntity
  8
0
100
AcDbLine
 10
-80.17432356772201
 20
-48.5533445399242
 30
0.0
 11
-81.8625902520043
 21
-47.85404158239199
 31
0.0
  0
LINE
  5
2DF
330
1F
100
AcDbEntity
  8
0
100
AcDbLine
 10
-84.42476807849575
 20
-45.29186375590096
 30
0.0
 11
-85.12407103602823
 21
-43.60359707161873
 31
0.0
  0
LINE
  5
2E0
330
1F
100
AcDbEntity
  8
0
100
AcDbLine
 10
-83.31233772031035
 20
-46.74161122420658
 30
0.0
 11
-84.42476807849575
 21
-45.29186375590096
 31
0.0
  0
LINE
  5
2E1
330
1F
100
AcDbEntity
  8
0
100
AcDbLine
 10
-78.36259025200437
 20
-48.7918637559005
 30
0.0
 11
-80.17432356772201
 21
-48.5533445399242
 31
0.0
  0
LINE
  5
2E2
330
1F
100
AcDbEntity
  8
0
100
AcDbLine
 10
-81.86259025200648
 20
-15.72968592940971
 30
0.0
 11
-83.31233772031216
 21
-16.84211628759492
 31
0.0
  0
LINE
  5
2E3
330
1F
100
AcDbEntity
  8
0
100
AcDbLine
 10
-71.36259025200454
 20
-41.79186375590007
 30
0.0
 11
-71.60110946798108
 21
-43.60359707161771
 31
0.0
  0
LINE
  5
2E4
330
1F
100
AcDbEntity
  8
0
100
AcDbLine
 10
-71.60110946798108
 20
-43.60359707161771
 30
0.0
 11
-72.30041242551344
 21
-45.29186375590009
 31
0.0
  0
LINE
  5
2E5
330
1F
100
AcDbEntity
  8
0
100
AcDbLine
 10
-72.30041242551512
 20
-18.2918637559
 30
0.0
 11
-73.41284278370078
 21
-16.84211628759422
 31
0.0
  0
LINE
  5
2E6
330
1F
100
AcDbEntity
  8
0
100
AcDbLine
 10
-73.41284278370078
 20
-16.84211628759422
 30
0.0
 11
-74.86259025200665
 21
-15.72968592940914
 31
0.0
  0
LINE
  5
2E7
330
1F
100
AcDbEntity
  8
0
100
AcDbLine
 10
-74.86259025200665
 20
-15.72968592940914
 30
0.0
 11
-76.55085693628905
 21
-15.03038297187678
 31
0.0
  0
LINE
  5
2E8
330
1F
100
AcDbEntity
  8
0
100
AcDbLine
 10
-81.8625902520043
 20
-47.85404158239199
 30
0.0
 11
-83.31233772031035
 21
-46.74161122420658
 31
0.0
  0
LINE
  5
2E9
330
1F
100
AcDbEntity
  8
0
100
AcDbLine
 10
-72.30041242551344
 20
-45.29186375590009
 30
0.0
 11
-73.4128427836986
 21
-46.74161122420593
 31
0.0
  0
LINE
  5
2EA
330
1F
100
AcDbEntity
  8
0
100
AcDbLine
 10
3.137409747994702
 20
-41.79186375590008
 30
0.0
 11
3.307780616549366
 21
-43.08595898141269
 31
0.0
  0
LINE
  5
2EB
330
1F
100
AcDbEntity
  8
0
100
AcDbLine
 10
3.307780616549366
 20
-43.08595898141269
 30
0.0
 11
3.807282729072513
 21
-44.29186375590008
 31
0.0
  0
LINE
  5
2EC
330
1F
100
AcDbEntity
  8
0
100
AcDbLine
 10
3.807282729072513
 20
-44.29186375590008
 30
0.0
 11
4.601875842061968
 21
-45.32739766183283
 31
0.0
  0
LINE
  5
2ED
330
1F
100
AcDbEntity
  8
0
100
AcDbLine
 10
4.601875842061968
 20
-45.32739766183283
 30
0.0
 11
5.637409747994697
 21
-46.12199077482228
 31
0.0
  0
LINE
  5
2EE
330
1F
100
AcDbEntity
  8
0
100
AcDbLine
 10
5.637409747994697
 20
-46.12199077482228
 30
0.0
 11
6.843314522482101
 21
-46.62149288734543
 31
0.0
  0
LINE
  5
2EF
330
1F
100
AcDbEntity
  8
0
100
AcDbLine
 10
6.843314522482101
 20
-46.62149288734543
 30
0.0
 11
8.137409747994704
 21
-46.79186375590009
 31
0.0
  0
LINE
  5
2F0
330
1F
100
AcDbEntity
  8
0
100
AcDbLine
 10
8.137409747994704
 20
-46.79186375590009
 30
0.0
 11
9.431504973507307
 21
-46.62149288734543
 31
0.0
  0
LINE
  5
2F1
330
1F
100
AcDbEntity
  8
0
100
AcDbLine
 10
9.431504973507307
 20
-46.62149288734543
 30
0.0
 11
10.6374097479947
 21
-46.12199077482228
 31
0.0
  0
LINE
  5
2F2
330
1F
100
AcDbEntity
  8
0
100
AcDbLine
 10
10.6374097479947
 20
-46.12199077482228
 30
0.0
 11
11.67294365392744
 21
-45.32739766183283
 31
0.0
  0
LINE
  5
2F3
330
1F
100
AcDbEntity
  8
0
100
AcDbLine
 10
11.67294365392744
 20
-45.32739766183283
 30
0.0
 11
12.46753676691689
 21
-44.29186375590008
 31
0.0
  0
LINE
  5
2F4
330
1F
100
AcDbEntity
  8
0
100
AcDbLine
 10
12.46753676691689
 20
-44.29186375590008
 30
0.0
 11
12.96703887944004
 21
-43.08595898141269
 31
0.0
  0
LINE
  5
2F5
330
1F
100
AcDbEntity
  8
0
100
AcDbLine
 10
12.96703887944004
 20
-43.08595898141269
 30
0.0
 11
13.13740974799471
 21
-41.79186375590008
 31
0.0
  0
LINE
  5
2F6
330
1F
100
AcDbEntity
  8
0
100
AcDbLine
 10
13.13740974799471
 20
-21.79186375590008
 30
0.0
 11
12.96703887944004
 21
-20.49776853038748
 31
0.0
  0
LINE
  5
2F7
330
1F
100
AcDbEntity
  8
0
100
AcDbLine
 10
12.96703887944004
 20
-20.49776853038748
 30
0.0
 11
12.46753676691689
 21
-19.29186375590008
 31
0.0
  0
LINE
  5
2F8
330
1F
100
AcDbEntity
  8
0
100
AcDbLine
 10
12.46753676691689
 20
-19.29186375590008
 30
0.0
 11
11.67294365392744
 21
-18.25632984996734
 31
0.0
  0
LINE
  5
2F9
330
1F
100
AcDbEntity
  8
0
100
AcDbLine
 10
11.67294365392744
 20
-18.25632984996734
 30
0.0
 11
10.63740974799471
 21
-17.46173673697789
 31
0.0
  0
LINE
  5
2FA
330
1F
100
AcDbEntity
  8
0
100
AcDbLine
 10
10.63740974799471
 20
-17.46173673697789
 30
0.0
 11
9.431504973507307
 21
-16.96223462445474
 31
0.0
  0
LINE
  5
2FB
330
1F
100
AcDbEntity
  8
0
100
AcDbLine
 10
9.431504973507307
 20
-16.96223462445474
 30
0.0
 11
8.137409747994704
 21
-16.79186375590008
 31
0.0
  0
LINE
  5
2FC
330
1F
100
AcDbEntity
  8
0
100
AcDbLine
 10
8.137409747994704
 20
-16.79186375590008
 30
0.0
 11
7.137409747994705
 21
-16.92351625348748
 31
0.0
  0
LINE
  5
2FD
330
1F
100
AcDbEntity
  8
0
100
AcDbLine
 10
6.843314522482101
 20
-16.96223462445474
 30
0.0
 11
5.637409747994708
 21
-17.46173673697789
 31
0.0
  0
LINE
  5
2FE
330
1F
100
AcDbEntity
  8
0
100
AcDbLine
 10
5.637409747994708
 20
-17.46173673697789
 30
0.0
 11
4.601875842061968
 21
-18.25632984996734
 31
0.0
  0
LINE
  5
2FF
330
1F
100
AcDbEntity
  8
0
100
AcDbLine
 10
4.601875842061968
 20
-18.25632984996734
 30
0.0
 11
3.807282729072513
 21
-19.29186375590008
 31
0.0
  0
LINE
  5
300
330
1F
100
AcDbEntity
  8
0
100
AcDbLine
 10
3.807282729072513
 20
-19.29186375590008
 30
0.0
 11
3.307780616549366
 21
-20.49776853038748
 31
0.0
  0
LINE
  5
301
330
1F
100
AcDbEntity
  8
0
100
AcDbLine
 10
3.307780616549366
 20
-20.49776853038748
 30
0.0
 11
3.137409747994702
 21
-21.79186375590008
 31
0.0
  0
LINE
  5
302
330
1F
100
AcDbEntity
  8
0
100
AcDbLine
 10
13.13740974799471
 20
-21.79186375590008
 30
0.0
 11
13.13740974799471
 21
-41.79186375590008
 31
0.0
  0
LINE
  5
303
330
1F
100
AcDbEntity
  8
0
100
AcDbLine
 10
-83.36259025200602
 20
-21.79186375590083
 30
0.0
 11
-83.36259025200457
 21
-41.79186375590085
 31
0.0
  0
LINE
  5
304
330
1F
100
AcDbEntity
  8
0
100
AcDbLine
 10
-83.36259025200457
 20
-41.79186375590085
 30
0.0
 11
-83.19221938344984
 21
-43.08595898141346
 31
0.0
  0
LINE
  5
305
330
1F
100
AcDbEntity
  8
0
100
AcDbLine
 10
-83.19221938344984
 20
-43.08595898141346
 30
0.0
 11
-82.69271727092661
 21
-44.29186375590083
 31
0.0
  0
LINE
  5
306
330
1F
100
AcDbEntity
  8
0
100
AcDbLine
 10
-82.69271727092661
 20
-44.29186375590083
 30
0.0
 11
-81.89812415793709
 21
-45.32739766183354
 31
0.0
  0
LINE
  5
307
330
1F
100
AcDbEntity
  8
0
100
AcDbLine
 10
-81.89812415793709
 20
-45.32739766183354
 30
0.0
 11
-80.8625902520043
 21
-46.12199077482294
 31
0.0
  0
LINE
  5
308
330
1F
100
AcDbEntity
  8
0
100
AcDbLine
 10
-80.8625902520043
 20
-46.12199077482294
 30
0.0
 11
-79.65668547751686
 21
-46.62149288734602
 31
0.0
  0
LINE
  5
309
330
1F
100
AcDbEntity
  8
0
100
AcDbLine
 10
-79.65668547751686
 20
-46.62149288734602
 30
0.0
 11
-78.36259025200424
 21
-46.7918637559006
 31
0.0
  0
LINE
  5
30A
330
1F
100
AcDbEntity
  8
0
100
AcDbLine
 10
-78.36259025200424
 20
-46.7918637559006
 30
0.0
 11
-77.06849502649163
 21
-46.62149288734586
 31
0.0
  0
LINE
  5
30B
330
1F
100
AcDbEntity
  8
0
100
AcDbLine
 10
-77.06849502649163
 20
-46.62149288734586
 30
0.0
 11
-75.86259025200425
 21
-46.12199077482262
 31
0.0
  0
LINE
  5
30C
330
1F
100
AcDbEntity
  8
0
100
AcDbLine
 10
-75.86259025200425
 20
-46.12199077482262
 30
0.0
 11
-74.82705634607156
 21
-45.32739766183309
 31
0.0
  0
LINE
  5
30D
330
1F
100
AcDbEntity
  8
0
100
AcDbLine
 10
-74.82705634607156
 20
-45.32739766183309
 30
0.0
 11
-74.03246323308217
 21
-44.29186375590029
 31
0.0
  0
LINE
  5
30E
330
1F
100
AcDbEntity
  8
0
100
AcDbLine
 10
-74.03246323308217
 20
-44.29186375590029
 30
0.0
 11
-73.53296112055911
 21
-43.08595898141284
 31
0.0
  0
LINE
  5
30F
330
1F
100
AcDbEntity
  8
0
100
AcDbLine
 10
-73.53296112055911
 20
-43.08595898141284
 30
0.0
 11
-73.36259025200454
 21
-41.79186375590022
 31
0.0
  0
LINE
  5
310
330
1F
100
AcDbEntity
  8
0
100
AcDbLine
 10
-73.362590252006
 20
-21.79186375590022
 30
0.0
 11
-73.53296112056074
 21
-20.49776853038762
 31
0.0
  0
LINE
  5
311
330
1F
100
AcDbEntity
  8
0
100
AcDbLine
 10
-73.53296112056074
 20
-20.49776853038762
 30
0.0
 11
-74.03246323308396
 21
-19.29186375590025
 31
0.0
  0
LINE
  5
312
330
1F
100
AcDbEntity
  8
0
100
AcDbLine
 10
-74.03246323308396
 20
-19.29186375590025
 30
0.0
 11
-74.82705634607348
 21
-18.25632984996755
 31
0.0
  0
LINE
  5
313
330
1F
100
AcDbEntity
  8
0
100
AcDbLine
 10
-74.82705634607348
 20
-18.25632984996755
 30
0.0
 11
-75.86259025200627
 21
-17.46173673697815
 31
0.0
  0
LINE
  5
314
330
1F
100
AcDbEntity
  8
0
100
AcDbLine
 10
-75.86259025200627
 20
-17.46173673697815
 30
0.0
 11
-77.0684950264937
 21
-16.96223462445507
 31
0.0
  0
LINE
  5
315
330
1F
100
AcDbEntity
  8
0
100
AcDbLine
 10
-77.0684950264937
 20
-16.96223462445507
 30
0.0
 11
-77.36259025200528
 21
-16.92351625348796
 31
0.0
  0
LINE
  5
316
330
1F
100
AcDbEntity
  8
0
100
AcDbLine
 10
-78.36259025200633
 20
-16.79186375590049
 30
0.0
 11
-79.65668547751892
 21
-16.96223462445523
 31
0.0
  0
LINE
  5
317
330
1F
100
AcDbEntity
  8
0
100
AcDbLine
 10
-79.65668547751892
 20
-16.96223462445523
 30
0.0
 11
-80.8625902520063
 21
-17.46173673697846
 31
0.0
  0
LINE
  5
318
330
1F
100
AcDbEntity
  8
0
100
AcDbLine
 10
-80.8625902520063
 20
-17.46173673697846
 30
0.0
 11
-81.898124157939
 21
-18.25632984996798
 31
0.0
  0
LINE
  5
319
330
1F
100
AcDbEntity
  8
0
100
AcDbLine
 10
-81.898124157939
 20
-18.25632984996798
 30
0.0
 11
-82.69271727092838
 21
-19.29186375590077
 31
0.0
  0
LINE
  5
31A
330
1F
100
AcDbEntity
  8
0
100
AcDbLine
 10
-82.69271727092838
 20
-19.29186375590077
 30
0.0
 11
-83.19221938345146
 21
-20.49776853038821
 31
0.0
  0
LINE
  5
31B
330
1F
100
AcDbEntity
  8
0
100
AcDbLine
 10
-83.19221938345146
 20
-20.49776853038821
 30
0.0
 11
-83.36259025200602
 21
-21.79186375590083
 31
0.0
  0
LINE
  5
31C
330
1F
100
AcDbEntity
  8
0
100
AcDbLine
 10
-51.48126162627418
 20
-34.04659468601194
 30
0.0
 11
-51.68232168884903
 21
-34.20087349823036
 31
0.0
  0
LINE
  5
31D
330
1F
100
AcDbEntity
  8
0
100
AcDbLine
 10
-50.09133143117931
 20
-33.5418637559001
 30
0.0
 11
-50.67367428265996
 21
-33.61853064674969
 31
0.0
  0
LINE
  5
31E
330
1F
100
AcDbEntity
  8
0
100
AcDbLine
 10
-51.2163314311793
 20
-33.8433065973851
 30
0.0
 11
-51.48126162627418
 21
-34.04659468601194
 31
0.0
  0
LINE
  5
31F
330
1F
100
AcDbEntity
  8
0
100
AcDbLine
 10
-50.67367428265996
 20
-33.61853064674969
 30
0.0
 11
-51.2163314311793
 21
-33.8433065973851
 31
0.0
  0
LINE
  5
320
330
1F
100
AcDbEntity
  8
0
100
AcDbLine
 10
-50.09133143117931
 20
-38.04186375590007
 30
0.0
 11
-49.50898857969862
 21
-37.96519686505047
 31
0.0
  0
LINE
  5
321
330
1F
100
AcDbEntity
  8
0
100
AcDbLine
 10
-48.70140123608443
 20
-37.53713282578823
 30
0.0
 11
-48.50034117350958
 21
-37.3828540135698
 31
0.0
  0
LINE
  5
322
330
1F
100
AcDbEntity
  8
0
100
AcDbLine
 10
-48.96633143117931
 20
-37.74042091441506
 30
0.0
 11
-48.70140123608443
 21
-37.53713282578823
 31
0.0
  0
LINE
  5
323
330
1F
100
AcDbEntity
  8
0
100
AcDbLine
 10
-49.50898857969862
 20
-37.96519686505047
 30
0.0
 11
-48.96633143117931
 21
-37.74042091441506
 31
0.0
  0
LINE
  5
324
330
1F
100
AcDbEntity
  8
0
100
AcDbLine
 10
7.137409747994705
 20
-14.92351625348748
 30
0.0
 11
8.137409747994704
 21
-14.79186375590009
 31
0.0
  0
LINE
  5
325
330
1F
100
AcDbEntity
  8
0
100
AcDbLine
 10
7.137409747994705
 20
-16.92351625348748
 30
0.0
 11
6.843314522482101
 21
-16.96223462445474
 31
0.0
  0
LINE
  5
326
330
1F
100
AcDbEntity
  8
0
100
AcDbLine
 10
-77.36259025200528
 20
-14.92351625348795
 30
0.0
 11
-78.36259025200665
 21
-14.79186375590051
 31
0.0
  0
LINE
  5
327
330
1F
100
AcDbEntity
  8
0
100
AcDbLine
 10
-77.36259025200528
 20
-16.92351625348796
 30
0.0
 11
-78.36259025200633
 21
-16.79186375590049
 31
0.0
  0
ENDSEC
  0
SECTION
  2
OBJECTS
  0
DICTIONARY
  5
C
330
0
100
AcDbDictionary
  3
ACAD_GROUP
350
D
  3
ACAD_LAYOUT
350
1A
  3
ACAD_MATERIAL
350
43
  3
ACAD_MLEADERSTYLE
350
6B
  3
ACAD_MLINESTYLE
350
17
  3
ACAD_PLOTSETTINGS
350
19
  3
ACAD_SCALELIST
350
47
  3
ACAD_VISUALSTYLE
350
2A
  3
ACDBHEADERROUNDTRIPXREC
350
328
  3
ACDBVARIABLEDICTIONARY
350
349
  0
DICTIONARY
  5
350
330
8
100
AcDbDictionary
280
     1
  3
ACAD_XREC_ROUNDTRIP
360
351
  0
DICTIONARY
  5
D
102
{ACAD_REACTORS
330
C
102
}
330
C
100
AcDbDictionary
  0
DICTIONARY
  5
1A
102
{ACAD_REACTORS
330
C
102
}
330
C
100
AcDbDictionary
  0
DICTIONARY
  5
43
102
{ACAD_REACTORS
330
C
102
}
330
C
100
AcDbDictionary
  3
BYBLOCK
350
45
  3
BYLAYER
350
44
  3
GLOBAL
350
46
  0
DICTIONARY
  5
6B
102
{ACAD_REACTORS
330
C
102
}
330
C
100
AcDbDictionary
  3
STANDARD
350
6C
  0
DICTIONARY
  5
17
102
{ACAD_REACTORS
330
C
102
}
330
C
100
AcDbDictionary
  3
STANDARD
350
18
  0
DICTIONARY
  5
19
102
{ACAD_REACTORS
330
C
102
}
330
C
100
AcDbDictionary
  0
DICTIONARY
  5
47
102
{ACAD_REACTORS
330
C
102
}
330
C
100
AcDbDictionary
  3
A0
350
48
  3
A1
350
49
  3
A2
350
4A
  3
A3
350
4B
  3
A4
350
4C
  3
A5
350
4D
  3
A6
350
4E
  3
A7
350
4F
  3
A8
350
50
  3
A9
350
51
  3
B0
350
52
  3
B1
350
53
  3
B2
350
54
  3
B3
350
55
  3
B4
350
56
  3
B5
350
57
  3
B6
350
58
  3
B7
350
59
  3
B8
350
5A
  3
B9
350
5B
  3
C0
350
5C
  3
C1
350
5D
  3
C2
350
5E
  3
C3
350
5F
  3
C4
350
60
  3
C5
350
61
  3
C6
350
62
  3
C7
350
63
  3
C8
350
64
  3
C9
350
65
  3
D0
350
66
  3
D1
350
67
  3
D2
350
68
  0
DICTIONARY
  5
2A
102
{ACAD_REACTORS
330
C
102
}
330
C
100
AcDbDictionary
  3
2DWIREFRAME
350
2F
  3
BASIC
350
32
  3
BRIGHTEN
350
36
  3
COLORCHANGE
350
3A
  3
CONCEPTUAL
350
34
  3
DIM
350
35
  3
EDGECOLOROFF
350
3D
  3
FACEPATTERN
350
39
  3
FLAT
350
2B
  3
FLATWITHEDGES
350
2C
  3
GOURAUD
350
2D
  3
GOURAUDWITHEDGES
350
2E
  3
HIDDEN
350
31
  3
JITTEROFF
350
3B
  3
LINEPATTERN
350
38
  3
OVERHANGOFF
350
3C
  3
REALISTIC
350
33
  3
SHADED
350
42
  3
SHADED_WITH_EDGES
350
41
  3
SHADES_OF_GRAY
350
3E
  3
SKETCHY
350
3F
  3
THICKEN
350
37
  3
WIREFRAME
350
30
  3
X-RAY
350
40
  0
DICTIONARY
  5
328
102
{ACAD_REACTORS
330
C
102
}
330
C
100
AcDbDictionary
  3
CEPSNID
350
332
  3
CEPSNTYPE
350
331
  3
DIMSTYLEDATA
350
348
  3
FINGERPRINTGUID
350
333
  3
HYPERLINKBASE
350
32B
  3
INSUNITS
350
330
  3
LAYOUTDICT
350
32D
  3
LWETCUNION
350
32F
  3
PLOTSETDICT
350
32E
  3
PSVPSCALE
350
335
  3
PUCSBASE
350
338
  3
PUCSORGBACK
350
33E
  3
PUCSORGBOTTOM
350
33A
  3
PUCSORGFRONT
350
33D
  3
PUCSORGLEFT
350
33B
  3
PUCSORGRIGHT
350
33C
  3
PUCSORGTOP
350
339
  3
PUCSORTHOREF
350
336
  3
PUCSORTHOVIEW
350
337
  3
STYLESHEET
350
32C
  3
TSTACKALIGN
350
329
  3
TSTACKSIZE
350
32A
  3
UCSBASE
350
341
  3
UCSORGBACK
350
347
  3
UCSORGBOTTOM
350
343
  3
UCSORGFRONT
350
346
  3
UCSORGLEFT
350
344
  3
UCSORGRIGHT
350
345
  3
UCSORGTOP
350
342
  3
UCSORTHOREF
350
33F
  3
UCSORTHOVIEW
350
340
  3
VERSIONGUID
350
334
  0
DICTIONARY
  5
349
102
{ACAD_REACTORS
330
C
102
}
330
C
100
AcDbDictionary
  3
CANNOSCALE
350
352
  3
CMLEADERSTYLE
350
34B
  3
CTABLESTYLE
350
34A
  3
DIMASSOC
350
34E
  3
HIDETEXT
350
34F
  3
MSLTSCALE
350
353
  0
XRECORD
  5
351
102
{ACAD_REACTORS
330
350
102
}
330
350
100
AcDbXrecord
102
VTR_0.000_0.000_1.000_1.000_VISUALSTYLE
340
2F
102
VTR_0.000_0.000_1.000_1.000_GRIDDISPLAY
 70
     3
102
VTR_0.000_0.000_1.000_1.000_GRIDMAJOR
 70
     5
102
VTR_0.000_0.000_1.000_1.000_DEFAULTLIGHTING
280
     1
102
VTR_0.000_0.000_1.000_1.000_DEFAULTLIGHTINGTYPE
 70
     1
102
VTR_0.000_0.000_1.000_1.000_BRIGHTNESS
141
0.0
102
VTR_0.000_0.000_1.000_1.000_CONTRAST
142
0.0
  0
MATERIAL
  5
45
102
{ACAD_REACTORS
330
43
102
}
102
{ACAD_XDICTIONARY
360
356
102
}
330
43
100
AcDbMaterial
  1
BYBLOCK
  0
MATERIAL
  5
44
102
{ACAD_REACTORS
330
43
102
}
102
{ACAD_XDICTIONARY
360
354
102
}
330
43
100
AcDbMaterial
  1
BYLAYER
  0
MATERIAL
  5
46
102
{ACAD_REACTORS
330
43
102
}
102
{ACAD_XDICTIONARY
360
358
102
}
330
43
100
AcDbMaterial
  1
GLOBAL
  0
ACAD_PROXY_OBJECT
  5
6C
102
{ACAD_REACTORS
330
6B
102
}
330
6B
100
AcDbProxyObject
 90
      499
 91
      505
 93
      610
310
40901902A4063FBFFFFFE056BD1B81E855B9FC0AD7A3703D0AD73F4214DD185B99185C9900AD7A3703D0AC73F90141901A02B5E8DC0F42B1CFC02B5E8DC0F42B1CFE5764000000000000300FC0
340
14
340
0
340
11
340
0
 94
        0
1001
ACAD_MLEADERVER
1070
     2
  0
MLINESTYLE
  5
18
102
{ACAD_REACTORS
330
17
102
}
330
17
100
AcDbMlineStyle
  2
Standard
 70
     0
  3

 62
   256
 51
90.0
 52
90.0
 71
     2
 49
0.5
 62
   256
  6
BYLAYER
 49
-0.5
 62
   256
  6
BYLAYER
  0
ACAD_PROXY_OBJECT
  5
48
102
{ACAD_REACTORS
330
47
102
}
330
47
100
AcDbProxyObject
 90
      499
 91
      503
 93
       41
310
903313A31580
  0
ACAD_PROXY_OBJECT
  5
49
102
{ACAD_REACTORS
330
47
102
}
330
47
100
AcDbProxyObject
 90
      499
 91
      503
 93
      105
310
903313A324000000000000004000
  0
ACAD_PROXY_OBJECT
  5
4A
102
{ACAD_REACTORS
330
47
102
}
330
47
100
AcDbProxyObject
 90
      499
 91
      503
 93
      105
310
903313A344000000000000104000
  0
ACAD_PROXY_OBJECT
  5
4B
102
{ACAD_REACTORS
330
47
102
}
330
47
100
AcDbProxyObject
 90
      499
 91
      503
 93
      105
310
903313A354000000000000144000
  0
ACAD_PROXY_OBJECT
  5
4C
102
{ACAD_REACTORS
330
47
102
}
330
47
100
AcDbProxyObject
 90
      499
 91
      503
 93
      105
310
903313A384000000000000204000
  0
ACAD_PROXY_OBJECT
  5
4D
102
{ACAD_REACTORS
330
47
102
}
330
47
100
AcDbProxyObject
 90
      499
 91
      503
 93
      113
310
904313A31304000000000000244000
  0
ACAD_PROXY_OBJECT
  5
4E
102
{ACAD_REACTORS
330
47
102
}
330
47
100
AcDbProxyObject
 90
      499
 91
      503
 93
      113
310
904313A31364000000000000304000
  0
ACAD_PROXY_OBJECT
  5
4F
102
{ACAD_REACTORS
330
47
102
}
330
47
100
AcDbProxyObject
 90
      499
 91
      503
 93
      113
310
904313A32304000000000000344000
  0
ACAD_PROXY_OBJECT
  5
50
102
{ACAD_REACTORS
330
47
102
}
330
47
100
AcDbProxyObject
 90
      499
 91
      503
 93
      113
310
904313A333040000000000003E4000
  0
ACAD_PROXY_OBJECT
  5
51
102
{ACAD_REACTORS
330
47
102
}
330
47
100
AcDbProxyObject
 90
      499
 91
      503
 93
      113
310
904313A34304000000000000444000
  0
ACAD_PROXY_OBJECT
  5
52
102
{ACAD_REACTORS
330
47
102
}
330
47
100
AcDbProxyObject
 90
      499
 91
      503
 93
      113
310
904313A35304000000000000494000
  0
ACAD_PROXY_OBJECT
  5
53
102
{ACAD_REACTORS
330
47
102
}
330
47
100
AcDbProxyObject
 90
      499
 91
      503
 93
      121
310
905313A3130304000000000000594000
  0
ACAD_PROXY_OBJECT
  5
54
102
{ACAD_REACTORS
330
47
102
}
330
47
100
AcDbProxyObject
 90
      499
 91
      503
 93
      105
310
903323A310000000000000010100
  0
ACAD_PROXY_OBJECT
  5
55
102
{ACAD_REACTORS
330
47
102
}
330
47
100
AcDbProxyObject
 90
      499
 91
      503
 93
      105
310
903343A310000000000000410100
  0
ACAD_PROXY_OBJECT
  5
56
102
{ACAD_REACTORS
330
47
102
}
330
47
100
AcDbProxyObject
 90
      499
 91
      503
 93
      105
310
903383A310000000000000810100
  0
ACAD_PROXY_OBJECT
  5
57
102
{ACAD_REACTORS
330
47
102
}
330
47
100
AcDbProxyObject
 90
      499
 91
      503
 93
      113
310
90431303A310000000000000910100
  0
ACAD_PROXY_OBJECT
  5
58
102
{ACAD_REACTORS
330
47
102
}
330
47
100
AcDbProxyObject
 90
      499
 91
      503
 93
      121
310
9053130303A310000000000001650100
  0
ACAD_PROXY_OBJECT
  5
59
102
{ACAD_REACTORS
330
47
102
}
330
47
100
AcDbProxyObject
 90
      499
 91
      503
 93
      257
310
90E312F31323822203D2031272D3022000000000000200FC000000000000284000
  0
ACAD_PROXY_OBJECT
  5
5A
102
{ACAD_REACTORS
330
47
102
}
330
47
100
AcDbProxyObject
 90
      499
 91
      503
 93
      249
310
90D312F363422203D2031272D3022000000000000240FC000000000000284000
  0
ACAD_PROXY_OBJECT
  5
5B
102
{ACAD_REACTORS
330
47
102
}
330
47
100
AcDbProxyObject
 90
      499
 91
      503
 93
      249
310
90D312F333222203D2031272D3022000000000000280FC000000000000284000
  0
ACAD_PROXY_OBJECT
  5
5C
102
{ACAD_REACTORS
330
47
102
}
330
47
100
AcDbProxyObject
 90
      499
 91
      503
 93
      249
310
90D312F313622203D2031272D30220000000000002C0FC000000000000284000
  0
ACAD_PROXY_OBJECT
  5
5D
102
{ACAD_REACTORS
330
47
102
}
330
47
100
AcDbProxyObject
 90
      499
 91
      503
 93
      249
310
90D332F333222203D2031272D30220000000000002E0FC000000000000284000
  0
ACAD_PROXY_OBJECT
  5
5E
102
{ACAD_REACTORS
330
47
102
}
330
47
100
AcDbProxyObject
 90
      499
 91
      503
 93
      241
310
90C312F3822203D2031272D3022000000000000300FC000000000000284000
  0
ACAD_PROXY_OBJECT
  5
5F
102
{ACAD_REACTORS
330
47
102
}
330
47
100
AcDbProxyObject
 90
      499
 91
      503
 93
      249
310
90D332F313622203D2031272D3022000000000000320FC000000000000284000
  0
ACAD_PROXY_OBJECT
  5
60
102
{ACAD_REACTORS
330
47
102
}
330
47
100
AcDbProxyObject
 90
      499
 91
      503
 93
      241
310
90C312F3422203D2031272D3022000000000000340FC000000000000284000
  0
ACAD_PROXY_OBJECT
  5
61
102
{ACAD_REACTORS
330
47
102
}
330
47
100
AcDbProxyObject
 90
      499
 91
      503
 93
      241
310
90C332F3822203D2031272D3022000000000000360FC000000000000284000
  0
ACAD_PROXY_OBJECT
  5
62
102
{ACAD_REACTORS
330
47
102
}
330
47
100
AcDbProxyObject
 90
      499
 91
      503
 93
      241
310
90C312F3222203D2031272D3022000000000000380FC000000000000284000
  0
ACAD_PROXY_OBJECT
  5
63
102
{ACAD_REACTORS
330
47
102
}
330
47
100
AcDbProxyObject
 90
      499
 91
      503
 93
      241
310
90C332F3422203D2031272D30220000000000003A0FC000000000000284000
  0
ACAD_PROXY_OBJECT
  5
64
102
{ACAD_REACTORS
330
47
102
}
330
47
100
AcDbProxyObject
 90
      499
 91
      503
 93
      161
310
90A3122203D2031272D30224000000000000284000
  0
ACAD_PROXY_OBJECT
  5
65
102
{ACAD_REACTORS
330
47
102
}
330
47
100
AcDbProxyObject
 90
      499
 91
      503
 93
      257
310
90E312D312F3222203D2031272D30220000000000003E0FC000000000000284000
  0
ACAD_PROXY_OBJECT
  5
66
102
{ACAD_REACTORS
330
47
102
}
330
47
100
AcDbProxyObject
 90
      499
 91
      503
 93
      225
310
90A3322203D2031272D302200000000000002100000000000000284000
  0
ACAD_PROXY_OBJECT
  5
67
102
{ACAD_REACTORS
330
47
102
}
330
47
100
AcDbProxyObject
 90
      499
 91
      503
 93
      225
310
90A3622203D2031272D302200000000000006100000000000000284000
  0
ACAD_PROXY_OBJECT
  5
68
102
{ACAD_REACTORS
330
47
102
}
330
47
100
AcDbProxyObject
 90
      499
 91
      503
 93
      249
310
90D31272D3022203D2031272D30220000000000000A100000000000000284000
  0
ACAD_PROXY_OBJECT
  5
2F
102
{ACAD_REACTORS
330
2A
102
}
330
2A
100
AcDbProxyObject
 90
      499
 91
      501
 93
      436
310
42CC9915DA5C99599C985B595049028333333333333E33F0000000000000F90107901411070040501600405405064090741402480A0340
1001
ACAD
1000
AcDbSavedByObjectVersion
1070
     0
  0
ACAD_PROXY_OBJECT
  5
32
102
{ACAD_REACTORS
330
2A
102
}
330
2A
100
AcDbProxyObject
 90
      499
 91
      501
 93
      388
310
4150985CDA58D07406404333333333333E33F0000000000000F90107A41107004050150841D405064090741402480A0350
1001
ACAD
1000
AcDbSavedByObjectVersion
1070
     0
  0
ACAD_PROXY_OBJECT
  5
36
102
{ACAD_REACTORS
330
2A
102
}
330
2A
100
AcDbProxyObject
 90
      499
 91
      501
 93
      428
310
42109C9A59DA1D195B90C409028333333333333E33F0000000000000F9010790141107004050150841D405064090741402480A029950
1001
ACAD
1000
AcDbSavedByObjectVersion
1070
     0
  0
ACAD_PROXY_OBJECT
  5
3A
102
{ACAD_REACTORS
330
2A
102
}
330
2A
100
AcDbProxyObject
 90
      499
 91
      501
 93
      452
310
42D0DBDB1BDC90DA185B99D95104090240C333333333333E33F0000000000000F90108901411070040501508421405064090741402480A0350
1001
ACAD
1000
AcDbSavedByObjectVersion
1070
     0
  0
ACAD_PROXY_OBJECT
  5
34
102
{ACAD_REACTORS
330
2A
102
}
330
2A
100
AcDbProxyObject
 90
      499
 91
      501
 93
      500
310
4290DBDB98D95C1D1D585B10940D028333333333333E33F0000000000000F90107902409070040501000000000018199010841D405064090740C02480A0340
1001
ACAD
1000
AcDbSavedByObjectVersion
1070
     0
  0
ACAD_PROXY_OBJECT
  5
35
102
{ACAD_REACTORS
330
2A
102
}
330
2A
100
AcDbProxyObject
 90
      499
 91
      501
 93
      412
310
40D11A5B50B409028333333333333E33F0000000000000F9010790141107004050150841D405064090741402480A02677FFFFFD0
1001
ACAD
1000
AcDbSavedByObjectVersion
1070
     0
  0
ACAD_PROXY_OBJECT
  5
3D
102
{ACAD_REACTORS
330
2A
102
}
330
2A
100
AcDbProxyObject
 90
      499
 91
      501
 93
      452
310
43115919D950DBDB1BDC93D999916409028333333333333E33F0000000000000F9010790141107004050150841D405064090741402480A0350
1001
ACAD
1000
AcDbSavedByObjectVersion
1070
     0
  0
ACAD_PROXY_OBJECT
  5
39
102
{ACAD_REACTORS
330
2A
102
}
330
2A
100
AcDbProxyObject
 90
      499
 91
      501
 93
      444
310
42D19858D95C185D1D195C9B90F409028333333333333E33F0000000000000F9010790141107004050150841D405064090741402480A0350
1001
ACAD
1000
AcDbSavedByObjectVersion
1070
     0
  0
ACAD_PROXY_OBJECT
  5
2B
102
{ACAD_REACTORS
330
2A
102
}
330
2A
100
AcDbProxyObject
 90
      499
 91
      501
 93
      380
310
41119B185D240901404333333333333E33F0000000000000F9010740A907004050150841D405064090741402480A1B50
1001
ACAD
1000
AcDbSavedByObjectVersion
1070
     0
  0
ACAD_PROXY_OBJECT
  5
2C
102
{ACAD_REACTORS
330
2A
102
}
330
2A
100
AcDbProxyObject
 90
      499
 91
      501
 93
      468
310
43519B185D15DA5D1A115919D95CD0140901404333333333333E33F0000000000000F90107409019070040501600405405064090741402480A1B50
1001
ACAD
1000
AcDbSavedByObjectVersion
1070
     0
  0
ACAD_PROXY_OBJECT
  5
2D
102
{ACAD_REACTORS
330
2A
102
}
330
2A
100
AcDbProxyObject
 90
      499
 91
      501
 93
      404
310
41D1DBDD5C985D5910240902404333333333333E33F0000000000000F9010740A9070040501641D405064090741402480A1B50
1001
ACAD
1000
AcDbSavedByObjectVersion
1070
     0
  0
ACAD_PROXY_OBJECT
  5
2E
102
{ACAD_REACTORS
330
2A
102
}
330
2A
100
AcDbProxyObject
 90
      499
 91
      501
 93
      492
310
4411DBDD5C985D5915DA5D1A115919D95CD0340902404333333333333E33F0000000000000F90107409019070040501600405405064090741402480A1B50
1001
ACAD
1000
AcDbSavedByObjectVersion
1070
     0
  0
ACAD_PROXY_OBJECT
  5
31
102
{ACAD_REACTORS
330
2A
102
}
330
2A
100
AcDbProxyObject
 90
      499
 91
      501
 93
      476
310
41921A5919195B90640502408333333333333E33F0000000000000F901079024090700405020000000000001110200405405064090740C02480A0340
1001
ACAD
1000
AcDbSavedByObjectVersion
1070
     0
  0
ACAD_PROXY_OBJECT
  5
3B
102
{ACAD_REACTORS
330
2A
102
}
330
2A
100
AcDbProxyObject
 90
      499
 91
      501
 93
      428
310
42529A5D1D195C93D999914409028333333333333E33F0000000000000F9010790141107004050150A41D405064090741402480A0350
1001
ACAD
1000
AcDbSavedByObjectVersion
1070
     0
  0
ACAD_PROXY_OBJECT
  5
38
102
{ACAD_REACTORS
330
2A
102
}
330
2A
100
AcDbProxyObject
 90
      499
 91
      501
 93
      444
310
42D31A5B995C185D1D195C9B90E409028333333333333E33F0000000000000F9010790141107004050750841D405064090741402483A0350
1001
ACAD
1000
AcDbSavedByObjectVersion
1070
     0
  0
ACAD_PROXY_OBJECT
  5
3C
102
{ACAD_REACTORS
330
2A
102
}
330
2A
100
AcDbProxyObject
 90
      499
 91
      501
 93
      444
310
42D3DD995C9A185B99D3D999915409028333333333333E33F0000000000000F9010790141107004050150941D405064090741402480A0350
1001
ACAD
1000
AcDbSavedByObjectVersion
1070
     0
  0
ACAD_PROXY_OBJECT
  5
33
102
{ACAD_REACTORS
330
2A
102
}
330
2A
100
AcDbProxyObject
 90
      499
 91
      501
 93
      428
310
425499585B1A5CDD1A58D08409038333333333333E33F0000000000000F9010740A907004050150800405405064090740C02480A1B40
1001
ACAD
1000
AcDbSavedByObjectVersion
1070
     0
  0
ACAD_PROXY_OBJECT
  5
42
102
{ACAD_REACTORS
330
2A
102
}
330
2A
100
AcDbProxyObject
 90
      499
 91
      501
 93
      420
310
4194DA1859195911B40902404333333333333E33F0000000000000F9010740A41107004050150800405405064090840C02480A0B40
1001
ACAD
1000
AcDbSavedByObjectVersion
1070
     0
  0
ACAD_PROXY_OBJECT
  5
41
102
{ACAD_REACTORS
330
2A
102
}
330
2A
100
AcDbProxyObject
 90
      499
 91
      501
 93
      516
310
4454DA18591959081DDA5D1A08195919D95CD1A40902404333333333333E33F0000000000000F901074090142907004050250800405405064090740C02480A0B40
1001
ACAD
1000
AcDbSavedByObjectVersion
1070
     0
  0
ACAD_PROXY_OBJECT
  5
3E
102
{ACAD_REACTORS
330
2A
102
}
330
2A
100
AcDbProxyObject
 90
      499
 91
      501
 93
      532
310
4394DA1859195CC81BD98811DC985E5174090240C333333333333E33F0000000000000F901079024090741D01000000000000111010841D405064090740C02480A0340
1001
ACAD
1000
AcDbSavedByObjectVersion
1070
     0
  0
ACAD_PROXY_OBJECT
  5
3F
102
{ACAD_REACTORS
330
2A
102
}
330
2A
100
AcDbProxyObject
 90
      499
 91
      501
 93
      476
310
41D4DAD95D18DA1E51840502408333333333333E33F0000000000000F901079024090741D01000000000000111010B41D405064090741802480A0340
1001
ACAD
1000
AcDbSavedByObjectVersion
1070
     0
  0
ACAD_PROXY_OBJECT
  5
37
102
{ACAD_REACTORS
330
2A
102
}
330
2A
100
AcDbProxyObject
 90
      499
 91
      501
 93
      412
310
41D51A1A58DAD95B90D409028333333333333E33F0000000000000F9010790141107004050150C41D405064090741402480A0350
1001
ACAD
1000
AcDbSavedByObjectVersion
1070
     0
  0
ACAD_PROXY_OBJECT
  5
30
102
{ACAD_REACTORS
330
2A
102
}
330
2A
100
AcDbProxyObject
 90
      499
 91
      501
 93
      420
310
4255DA5C99599C985B595059028333333333333E33F0000000000000F90107901411070040501600405405064090740C02480A0340
1001
ACAD
1000
AcDbSavedByObjectVersion
1070
     0
  0
ACAD_PROXY_OBJECT
  5
40
102
{ACAD_REACTORS
330
2A
102
}
330
2A
100
AcDbProxyObject
 90
      499
 91
      501
 93
      404
310
41560B54985E51940902404000000000000E03F0000000000000F9010740501907004050150841D405064090740C02480A1B40
1001
ACAD
1000
AcDbSavedByObjectVersion
1070
     0
  0
XRECORD
  5
332
102
{ACAD_REACTORS
330
328
102
}
330
328
100
AcDbXrecord
340
0
  0
XRECORD
  5
331
102
{ACAD_REACTORS
330
328
102
}
330
328
100
AcDbXrecord
 90
        0
  0
XRECORD
  5
348
102
{ACAD_REACTORS
330
328
102
}
330
328
100
AcDbXrecord
1000
DSTYLE
1002
{
1070
   171
 70
     2
1070
   143
 40
25.4
1070
   274
 70
     2
1070
    41
 40
0.18
1070
   141
 40
0.09
1070
   271
 70
     4
1070
    43
 40
0.38
1070
   278
 70
    46
1070
    44
 40
0.18
1070
    42
 40
0.0625
1070
   147
 40
0.09
1070
    77
 70
     0
1070
   272
 70
     4
1070
    73
 70
     1
1070
   172
 70
     0
1070
    74
 70
     1
1070
   283
 70
     1
1070
   340
340
11
1070
   140
 40
0.18
1070
   284
 70
     0
1070
    78
 70
     0
1002
}
  0
XRECORD
  5
333
102
{ACAD_REACTORS
330
328
102
}
330
328
100
AcDbXrecord
  1
{676E5370-316B-4A3D-BA6D-C745691BD041}
  0
XRECORD
  5
32B
102
{ACAD_REACTORS
330
328
102
}
330
328
100
AcDbXrecord
  1

  0
XRECORD
  5
330
102
{ACAD_REACTORS
330
328
102
}
330
328
100
AcDbXrecord
 90
        4
  0
XRECORD
  5
32D
102
{ACAD_REACTORS
330
328
102
}
330
328
100
AcDbXrecord
340
1A
  0
XRECORD
  5
32F
102
{ACAD_REACTORS
330
328
102
}
330
328
100
AcDbXrecord
 90
    10781
  0
XRECORD
  5
32E
102
{ACAD_REACTORS
330
328
102
}
330
328
100
AcDbXrecord
340
19
  0
XRECORD
  5
335
102
{ACAD_REACTORS
330
328
102
}
330
328
100
AcDbXrecord
 40
0.0
  0
XRECORD
  5
338
102
{ACAD_REACTORS
330
328
102
}
330
328
100
AcDbXrecord
340
0
  0
XRECORD
  5
33E
102
{ACAD_REACTORS
330
328
102
}
330
328
100
AcDbXrecord
 10
0.0
 20
0.0
 30
0.0
  0
XRECORD
  5
33A
102
{ACAD_REACTORS
330
328
102
}
330
328
100
AcDbXrecord
 10
0.0
 20
0.0
 30
0.0
  0
XRECORD
  5
33D
102
{ACAD_REACTORS
330
328
102
}
330
328
100
AcDbXrecord
 10
0.0
 20
0.0
 30
0.0
  0
XRECORD
  5
33B
102
{ACAD_REACTORS
330
328
102
}
330
328
100
AcDbXrecord
 10
0.0
 20
0.0
 30
0.0
  0
XRECORD
  5
33C
102
{ACAD_REACTORS
330
328
102
}
330
328
100
AcDbXrecord
 10
0.0
 20
0.0
 30
0.0
  0
XRECORD
  5
339
102
{ACAD_REACTORS
330
328
102
}
330
328
100
AcDbXrecord
 10
0.0
 20
0.0
 30
0.0
  0
XRECORD
  5
336
102
{ACAD_REACTORS
330
328
102
}
330
328
100
AcDbXrecord
340
0
  0
XRECORD
  5
337
102
{ACAD_REACTORS
330
328
102
}
330
328
100
AcDbXrecord
 70
     0
  0
XRECORD
  5
32C
102
{ACAD_REACTORS
330
328
102
}
330
328
100
AcDbXrecord
  1

  0
XRECORD
  5
329
102
{ACAD_REACTORS
330
328
102
}
330
328
100
AcDbXrecord
 90
        1
  0
XRECORD
  5
32A
102
{ACAD_REACTORS
330
328
102
}
330
328
100
AcDbXrecord
 90
       70
  0
XRECORD
  5
341
102
{ACAD_REACTORS
330
328
102
}
330
328
100
AcDbXrecord
340
0
  0
XRECORD
  5
347
102
{ACAD_REACTORS
330
328
102
}
330
328
100
AcDbXrecord
 10
0.0
 20
0.0
 30
0.0
  0
XRECORD
  5
343
102
{ACAD_REACTORS
330
328
102
}
330
328
100
AcDbXrecord
 10
0.0
 20
0.0
 30
0.0
  0
XRECORD
  5
346
102
{ACAD_REACTORS
330
328
102
}
330
328
100
AcDbXrecord
 10
0.0
 20
0.0
 30
0.0
  0
XRECORD
  5
344
102
{ACAD_REACTORS
330
328
102
}
330
328
100
AcDbXrecord
 10
0.0
 20
0.0
 30
0.0
  0
XRECORD
  5
345
102
{ACAD_REACTORS
330
328
102
}
330
328
100
AcDbXrecord
 10
0.0
 20
0.0
 30
0.0
  0
XRECORD
  5
342
102
{ACAD_REACTORS
330
328
102
}
330
328
100
AcDbXrecord
 10
0.0
 20
0.0
 30
0.0
  0
XRECORD
  5
33F
102
{ACAD_REACTORS
330
328
102
}
330
328
100
AcDbXrecord
340
0
  0
XRECORD
  5
340
102
{ACAD_REACTORS
330
328
102
}
330
328
100
AcDbXrecord
 70
     0
  0
XRECORD
  5
334
102
{ACAD_REACTORS
330
328
102
}
330
328
100
AcDbXrecord
  1
{FAEB1C32-E019-11D5-929B-00C0DF256EC4}
  0
DICTIONARYVAR
  5
352
102
{ACAD_REACTORS
330
349
102
}
330
349
100
DictionaryVariables
280
     0
  1
1:1
  0
DICTIONARYVAR
  5
34B
102
{ACAD_REACTORS
330
349
102
}
330
349
100
DictionaryVariables
280
     0
  1
Standard
  0
DICTIONARYVAR
  5
34A
102
{ACAD_REACTORS
330
349
102
}
330
349
100
DictionaryVariables
280
     0
  1
Standard
  0
DICTIONARYVAR
  5
34E
102
{ACAD_REACTORS
330
349
102
}
330
349
100
DictionaryVariables
280
     0
  1
2
  0
DICTIONARYVAR
  5
34F
102
{ACAD_REACTORS
330
349
102
}
330
349
100
DictionaryVariables
280
     0
  1
1
  0
DICTIONARYVAR
  5
353
102
{ACAD_REACTORS
330
349
102
}
330
349
100
DictionaryVariables
280
     0
  1
1
  0
DICTIONARY
  5
356
330
45
100
AcDbDictionary
280
     1
  3
ACAD_XREC_ROUNDTRIP
360
357
  0
DICTIONARY
  5
354
330
44
100
AcDbDictionary
280
     1
  3
ACAD_XREC_ROUNDTRIP
360
355
  0
DICTIONARY
  5
358
330
46
100
AcDbDictionary
280
     1
  3
ACAD_XREC_ROUNDTRIP
360
359
  0
XRECORD
  5
357
102
{ACAD_REACTORS
330
356
102
}
330
356
100
AcDbXrecord
102
MATERIAL
148
0.0
149
0.0
149
0.0
 93
        0
 94
      127
282
     0
 72
     1
 77
     1
171
     1
175
     1
179
     1
273
     0
  0
XRECORD
  5
355
102
{ACAD_REACTORS
330
354
102
}
330
354
100
AcDbXrecord
102
MATERIAL
148
0.0
149
0.0
149
0.0
 93
        0
 94
      127
282
     0
 72
     1
 77
     1
171
     1
175
     1
179
     1
273
     0
  0
XRECORD
  5
359
102
{ACAD_REACTORS
330
358
102
}
330
358
100
AcDbXrecord
102
MATERIAL
148
0.0
149
0.0
149
0.0
 93
        0
 94
      127
282
     0
 72
     1
 77
     1
171
     1
175
     1
179
     1
273
     0
  0
ENDSEC
  0
EOF
