0
SECTION
2
HEADER
999
BYSOFT PART FILE V6.1
9
$EXTMIN
10
0
20
0
9
$EXTMAX
10
153.108
20
100.062
0
ENDSEC
0
SECTION
2
TABLES
0
ENDSEC
0
SECTION
2
BLOCKS
0
ENDSEC
0
SECTION
2
ENTITIES
0
POLYLINE
5
879
8
BY_13
70
0
66
1
0
VERTEX
8
BY_13
10
35.469
20
93.087
0
VERTEX
8
BY_13
10
33.2474
20
93.0875
42
0.86744
0
VERTEX
8
BY_13
10
27.441
20
91.899
0
VERTEX
8
BY_13
10
27.8388
20
82.9081
42
0.351982
0
VERTEX
8
BY_13
10
30.312
20
80.082
0
VERTEX
8
BY_13
10
29.916
20
86.229
0
VERTEX
8
BY_13
10
31.077
20
86.301
0
VERTEX
8
BY_13
10
31.464
20
80.181
0
VERTEX
8
BY_13
10
33.66
20
80.181
0
VERTEX
8
BY_13
10
34.83
20
67.365
42
0.91565
0
VERTEX
8
BY_13
10
37.89
20
67.365
0
VERTEX
8
BY_13
10
39.06
20
80.181
0
VERTEX
8
BY_13
10
41.256
20
80.181
0
VERTEX
8
BY_13
10
41.643
20
86.301
0
VERTEX
8
BY_13
10
42.804
20
86.229
0
VERTEX
8
BY_13
10
42.4088
20
80.077
42
0.356505
0
VERTEX
8
BY_13
10
44.883
20
82.908
0
VERTEX
8
BY_13
10
45.2785
20
91.899
42
0.853857
0
VERTEX
8
BY_13
10
39.492
20
93.087
0
VERTEX
8
BY_13
10
36.945
20
93.087
0
VERTEX
8
BY_13
10
36.945
20
85.635
0
VERTEX
8
BY_13
10
35.784
20
85.635
0
VERTEX
8
BY_13
10
35.784
20
93.006
0
VERTEX
8
BY_13
10
35.784
20
96.111
0
SEQEND
0
POLYLINE
5
87A
8
BY_13
70
0
66
1
0
VERTEX
8
BY_13
10
54.297
20
94.977
0
VERTEX
8
BY_13
10
52.605
20
94.9835
42
0.396632
0
VERTEX
8
BY_13
10
48.744
20
91.332
0
VERTEX
8
BY_13
10
48.308
20
84.1323
42
0.0318425
0
VERTEX
8
BY_13
10
48.339
20
74.52
0
VERTEX
8
BY_13
10
48.4708
20
72.6033
42
0.551457
0
VERTEX
8
BY_13
10
50.724
20
71.343
0
VERTEX
8
BY_13
10
53.1344
20
72.615
42
-0.113898
0
VERTEX
8
BY_13
10
55.53
20
73.251
0
VERTEX
8
BY_13
10
57.5371
20
73.3117
42
0.604386
0
VERTEX
8
BY_13
10
58.707
20
75.78
0
VERTEX
8
BY_13
10
57.9885
20
76.7261
42
-0.621006
0
VERTEX
8
BY_13
10
59.319
20
79.416
0
VERTEX
8
BY_13
10
60.777
20
79.416
42
0.414214
0
VERTEX
8
BY_13
10
62.316
20
80.955
0
VERTEX
8
BY_13
10
62.316
20
81.945
42
0.414208
0
VERTEX
8
BY_13
10
61.947
20
82.314
0
VERTEX
8
BY_13
10
58.887
20
82.314
0
VERTEX
8
BY_13
10
58.887
20
83.511
0
VERTEX
8
BY_13
10
61.947
20
83.511
42
0.414208
0
VERTEX
8
BY_13
10
62.316
20
83.88
0
VERTEX
8
BY_13
10
62.3167
20
85.23
42
0.228321
0
VERTEX
8
BY_13
10
61.74
20
86.427
0
VERTEX
8
BY_13
10
58.9032
20
88.7197
42
-0.227836
0
VERTEX
8
BY_13
10
58.383
20
89.802
0
VERTEX
8
BY_13
10
58.383
20
93.438
42
0.412501
0
VERTEX
8
BY_13
10
56.844
20
94.968
0
VERTEX
8
BY_13
10
55.809
20
94.968
0
VERTEX
8
BY_13
10
55.809
20
85.707
0
VERTEX
8
BY_13
10
54.612
20
85.707
0
VERTEX
8
BY_13
10
54.612
20
94.896
0
VERTEX
8
BY_13
10
54.612
20
98.001
0
SEQEND
0
POLYLINE
5
87B
8
BY_13
70
0
66
1
0
VERTEX
8
BY_13
10
13.887
20
96.876
0
VERTEX
8
BY_13
10
17.5406
20
96.1749
42
-0.651168
0
VERTEX
8
BY_13
10
25.011
20
89.379
0
VERTEX
8
BY_13
10
22.1179
20
80.7133
42
0.124435
0
VERTEX
8
BY_13
10
21.906
20
77.823
0
VERTEX
8
BY_13
10
22.6253
20
73.7279
42
-0.374838
0
VERTEX
8
BY_13
10
20.5922
20
70.3525
42
0.183637
0
VERTEX
8
BY_13
10
18.2956
20
68.4547
42
-0.492137
0
VERTEX
8
BY_13
10
16.812
20
68.211
42
0.146938
0
VERTEX
8
BY_13
10
15.309
20
68.9488
42
-0.487941
0
VERTEX
8
BY_13
10
14.5713
20
70.2629
42
0.26057
0
VERTEX
8
BY_13
10
14.3554
20
72.3063
42
-0.272302
0
VERTEX
8
BY_13
10
14.2923
20
73.2959
42
0.280328
0
VERTEX
8
BY_13
10
14.139
20
75.492
42
-0.303483
0
VERTEX
8
BY_13
10
14.121
20
76.563
0
VERTEX
8
BY_13
10
14.764
20
77.5776
42
0.280519
0
VERTEX
8
BY_13
10
14.76
20
78.435
0
VERTEX
8
BY_13
10
14.0243
20
79.5524
42
-0.569056
0
VERTEX
8
BY_13
10
14.769
20
81.0153
42
0.571863
0
VERTEX
8
BY_13
10
14.8528
20
81.1541
42
0.395008
0
VERTEX
8
BY_13
10
11.9791
20
82.5287
42
0.632722
0
VERTEX
8
BY_13
10
11.9278
20
82.3795
42
-0.305939
0
VERTEX
8
BY_13
10
12.051
20
81.369
0
VERTEX
8
BY_13
10
11.4281
20
80.0829
42
0.199592
0
VERTEX
8
BY_13
10
11.394
20
79.461
0
VERTEX
8
BY_13
10
11.9399
20
78.0109
42
-0.312639
0
VERTEX
8
BY_13
10
11.646
20
76.959
0
VERTEX
8
BY_13
10
11.286
20
76.662
42
0.456974
0
VERTEX
8
BY_13
10
11.286
20
75.456
0
VERTEX
8
BY_13
10
11.8022
20
75.0008
42
-0.420253
0
VERTEX
8
BY_13
10
11.898
20
73.647
0
VERTEX
8
BY_13
10
11.377
20
73.0521
42
0.314911
0
VERTEX
8
BY_13
10
11.277
20
72.153
0
VERTEX
8
BY_13
10
11.8083
20
71.1272
42
-0.439135
0
VERTEX
8
BY_13
10
11.3586
20
69.7937
42
0.174738
0
VERTEX
8
BY_13
10
10.8262
20
69.2914
42
-0.853848
0
VERTEX
8
BY_13
10
9.29866
20
69.7501
42
0.252203
0
VERTEX
8
BY_13
10
8.64997
20
70.8682
42
-0.280795
0
VERTEX
8
BY_13
10
8.163
20
71.559
0
VERTEX
8
BY_13
10
7.91559
20
75.3388
42
0.0879412
0
VERTEX
8
BY_13
10
7.58189
20
77.8395
42
-0.168993
0
VERTEX
8
BY_13
10
8.14497
20
88.137
42
0.105505
0
VERTEX
8
BY_13
10
8.748
20
91.035
0
VERTEX
8
BY_13
10
8.74514
20
93.915
42
-0.481413
0
VERTEX
8
BY_13
10
12.411
20
96.84
0
VERTEX
8
BY_13
10
12.411
20
89.244
0
VERTEX
8
BY_13
10
13.572
20
89.244
0
VERTEX
8
BY_13
10
13.572
20
96.831
0
VERTEX
8
BY_13
10
13.572
20
99.027
0
SEQEND
0
POLYLINE
5
87C
8
BY_13
70
0
66
1
0
VERTEX
8
BY_13
10
20.6188
20
92.3859
42
-0.201146
0
VERTEX
8
BY_13
10
17.7937
20
92.953
42
0.699905
0
VERTEX
8
BY_13
10
16.804
20
92.2143
42
-0.212273
0
VERTEX
8
BY_13
10
16.491
20
89.2873
42
0.89246
0
VERTEX
8
BY_13
10
17.5355
20
88.5208
42
-0.252556
0
VERTEX
8
BY_13
10
20.8271
20
89.7029
42
1.17997
0
VERTEX
8
BY_13
10
20.7178
20
92.4037
42
0.127392
0
VERTEX
8
BY_13
10
20.079
20
92.061
0
VERTEX
8
BY_13
10
18.342
20
90.423
0
SEQEND
0
POLYLINE
5
87D
8
BY_13
70
1
66
1
0
VERTEX
8
BY_13
10
20.5357
20
87.2216
42
-0.211474
0
VERTEX
8
BY_13
10
17.6403
20
86.3484
42
1.02648
0
VERTEX
8
BY_13
10
17.388
20
83.5826
42
-0.149487
0
VERTEX
8
BY_13
10
19.3847
20
82.8433
42
0.652074
0
VERTEX
8
BY_13
10
20.4315
20
83.4121
42
-0.218594
0
VERTEX
8
BY_13
10
21.5108
20
86.3362
42
0.971591
0
SEQEND
0
POLYLINE
5
87E
8
BY_13
70
0
66
1
0
VERTEX
8
BY_13
10
17.946
20
72.387
0
VERTEX
8
BY_13
10
17.955
20
73.494
42
0.35976
0
VERTEX
8
BY_13
10
17.6851
20
73.8815
42
0.120841
0
VERTEX
8
BY_13
10
19.0766
20
74.0328
42
-1.03655
0
VERTEX
8
BY_13
10
19.6102
20
72.6858
42
0.218242
0
VERTEX
8
BY_13
10
18.0117
20
70.9191
42
-1.00981
0
VERTEX
8
BY_13
10
17.1814
20
71.1989
42
0.172718
0
VERTEX
8
BY_13
10
17.1291
20
73.3149
42
-0.595031
0
VERTEX
8
BY_13
10
17.595
20
73.908
0
SEQEND
0
POLYLINE
5
87F
8
BY_13
70
0
66
1
0
VERTEX
8
BY_13
10
29.547
20
69.3818
42
0.401631
0
VERTEX
8
BY_13
10
30.753
20
70.623
0
VERTEX
8
BY_13
10
30.753
20
75.375
42
0.42279
0
VERTEX
8
BY_13
10
29.502
20
76.626
0
VERTEX
8
BY_13
10
27.621
20
76.626
42
0.414214
0
VERTEX
8
BY_13
10
26.082
20
75.087
0
VERTEX
8
BY_13
10
26.0868
20
72.0089
42
-0.083502
0
VERTEX
8
BY_13
10
24.723
20
62.586
0
VERTEX
8
BY_13
10
24.2369
20
61.02
42
-0.576018
0
VERTEX
8
BY_13
10
22.887
20
60.741
0
VERTEX
8
BY_13
10
20.1526
20
63.8204
42
0.641703
0
VERTEX
8
BY_13
10
12.1927
20
61.3869
42
0.858138
0
VERTEX
8
BY_13
10
13.4342
20
61.0213
42
-0.153518
0
VERTEX
8
BY_13
10
14.544
20
62.208
0
VERTEX
8
BY_13
10
15.4893
20
62.7474
42
-0.73337
0
VERTEX
8
BY_13
10
16.173
20
62.118
0
VERTEX
8
BY_13
10
15.4846
20
60.5989
42
0.529247
0
VERTEX
8
BY_13
10
16.4612
20
59.0309
42
-0.557296
0
VERTEX
8
BY_13
10
19.764
20
59.598
0
VERTEX
8
BY_13
10
23.0988
20
55.8495
42
0.523469
0
VERTEX
8
BY_13
10
25.182
20
56.142
0
VERTEX
8
BY_13
10
25.6127
20
57.0786
42
0.109263
0
VERTEX
8
BY_13
10
28.035
20
67.833
0
VERTEX
8
BY_13
10
28.035
20
72.225
0
VERTEX
8
BY_13
10
29.232
20
72.225
0
VERTEX
8
BY_13
10
29.232
20
69.462
0
VERTEX
8
BY_13
10
29.232
20
66.357
0
SEQEND
0
POLYLINE
5
880
8
BY_13
70
0
66
1
0
VERTEX
8
BY_13
10
26.658
20
45.576
0
VERTEX
8
BY_13
10
23.553
20
45.576
0
VERTEX
8
BY_13
10
20.187
20
45.576
0
VERTEX
8
BY_13
10
20.187
20
44.379
0
VERTEX
8
BY_13
10
23.247
20
44.379
42
-0.414214
0
VERTEX
8
BY_13
10
23.616
20
44.01
0
VERTEX
8
BY_13
10
23.616
20
43.02
42
-0.414213
0
VERTEX
8
BY_13
10
22.077
20
41.481
0
VERTEX
8
BY_13
10
20.628
20
41.481
42
0.621007
0
VERTEX
8
BY_13
10
19.296
20
38.79
0
VERTEX
8
BY_13
10
20.016
20
37.836
42
-0.610748
0
VERTEX
8
BY_13
10
18.846
20
35.379
0
VERTEX
8
BY_13
10
16.848
20
35.307
42
0.113705
0
VERTEX
8
BY_13
10
14.454
20
34.677
0
VERTEX
8
BY_13
10
12.033
20
33.399
42
-0.541725
0
VERTEX
8
BY_13
10
9.783
20
34.668
0
VERTEX
8
BY_13
10
9.648
20
36.585
42
-0.0318425
0
VERTEX
8
BY_13
10
9.621
20
46.197
0
VERTEX
8
BY_13
10
10.053
20
53.397
42
-0.396634
0
VERTEX
8
BY_13
10
13.923
20
57.042
0
VERTEX
8
BY_13
10
15.912
20
57.042
0
VERTEX
8
BY_13
10
15.912
20
47.781
0
VERTEX
8
BY_13
10
17.127
20
47.781
0
VERTEX
8
BY_13
10
17.127
20
57.042
0
VERTEX
8
BY_13
10
18.162
20
57.042
42
-0.333138
0
VERTEX
8
BY_13
10
19.701
20
55.512
0
VERTEX
8
BY_13
10
19.701
20
51.876
42
0.225431
0
VERTEX
8
BY_13
10
20.214
20
50.805
0
VERTEX
8
BY_13
10
23.049
20
48.501
42
-0.223006
0
VERTEX
8
BY_13
10
23.616
20
47.304
0
VERTEX
8
BY_13
10
23.616
20
45.891
0
SEQEND
0
POLYLINE
5
881
8
BY_13
70
0
66
1
0
VERTEX
8
BY_13
10
33.408
20
54.936
0
VERTEX
8
BY_13
10
33.246
20
51.84
0
VERTEX
8
BY_13
10
33.084
20
48.672
0
VERTEX
8
BY_13
10
34.281
20
48.609
0
VERTEX
8
BY_13
10
34.461
20
51.849
0
VERTEX
8
BY_13
10
34.857
20
51.831
42
0.466052
0
VERTEX
8
BY_13
10
38.214
20
55.44
42
0.0229042
0
VERTEX
8
BY_13
10
38.124
20
55.926
0
VERTEX
8
BY_13
10
36.603
20
62.829
42
-0.0672448
0
VERTEX
8
BY_13
10
36.576
20
63.144
0
VERTEX
8
BY_13
10
36.594
20
63.486
42
-0.382453
0
VERTEX
8
BY_13
10
37.296
20
64.179
42
-0.272994
0
VERTEX
8
BY_13
10
37.872
20
63.747
0
VERTEX
8
BY_13
10
40.077
20
58.572
42
-0.389402
0
VERTEX
8
BY_13
10
36.621
20
48.708
0
VERTEX
8
BY_13
10
35.172
20
42.633
42
-0.833249
0
VERTEX
8
BY_13
10
31.59
20
42.822
0
VERTEX
8
BY_13
10
30.789
20
49.014
42
-0.388179
0
VERTEX
8
BY_13
10
28.377
20
59.184
0
VERTEX
8
BY_13
10
31.122
20
64.098
42
-0.260865
0
VERTEX
8
BY_13
10
31.734
20
64.467
42
-0.389349
0
VERTEX
8
BY_13
10
32.364
20
63.702
0
VERTEX
8
BY_13
10
32.355
20
63.369
42
-0.0633817
0
VERTEX
8
BY_13
10
32.292
20
63.054
0
VERTEX
8
BY_13
10
30.042
20
56.349
42
0.0229673
0
VERTEX
8
BY_13
10
29.907
20
55.872
42
0.442058
0
VERTEX
8
BY_13
10
32.589
20
51.957
0
VERTEX
8
BY_13
10
32.931
20
51.903
0
SEQEND
0
POLYLINE
5
882
8
BY_13
70
0
66
1
0
VERTEX
8
BY_13
10
58.122
20
59.724
0
VERTEX
8
BY_13
10
58.122
20
63.063
0
VERTEX
8
BY_13
10
57.411
20
63.054
42
-0.414214
0
VERTEX
8
BY_13
10
55.737
20
64.728
0
VERTEX
8
BY_13
10
55.7376
20
65.745
42
0.532985
0
VERTEX
8
BY_13
10
54.6118
20
66.4834
42
-0.341633
0
VERTEX
8
BY_13
10
42.5583
20
69.4958
42
0.662513
0
VERTEX
8
BY_13
10
40.6029
20
68.9586
42
0.0786275
0
VERTEX
8
BY_13
10
40.816
20
61.4972
42
0.543759
0
VERTEX
8
BY_13
10
42.5273
20
60.8007
42
-0.221545
0
VERTEX
8
BY_13
10
48.573
20
61.8479
42
-0.465867
0
VERTEX
8
BY_13
10
49.1901
20
60.5537
42
0.276015
0
VERTEX
8
BY_13
10
49.7476
20
56.0105
42
-0.482865
0
VERTEX
8
BY_13
10
49.446
20
54.792
0
VERTEX
8
BY_13
10
47.888
20
54.0832
42
0.268007
0
VERTEX
8
BY_13
10
47.0015
20
52.8296
42
-0.0570078
0
VERTEX
8
BY_13
10
44.6106
20
42.1388
42
0.885763
0
VERTEX
8
BY_13
10
46.6003
20
41.1581
42
0.0433711
0
VERTEX
8
BY_13
10
51.4964
20
50.7696
42
-0.361431
0
VERTEX
8
BY_13
10
53.046
20
51.624
0
VERTEX
8
BY_13
10
54.784
20
51.2962
42
0.463871
0
VERTEX
8
BY_13
10
55.746
20
52.074
0
VERTEX
8
BY_13
10
55.746
20
52.893
42
-0.414214
0
VERTEX
8
BY_13
10
57.42
20
54.567
0
VERTEX
8
BY_13
10
58.131
20
54.567
0
VERTEX
8
BY_13
10
58.131
20
58.23
0
VERTEX
8
BY_13
10
52.308
20
58.23
0
VERTEX
8
BY_13
10
52.308
20
59.409
0
VERTEX
8
BY_13
10
58.059
20
59.409
0
VERTEX
8
BY_13
10
61.164
20
59.409
0
SEQEND
0
POLYLINE
5
883
8
BY_13
70
0
66
1
0
VERTEX
8
BY_13
10
37.368
20
26.838
0
VERTEX
8
BY_13
10
39.798
20
24.903
0
VERTEX
8
BY_13
10
42.21
20
22.977
0
VERTEX
8
BY_13
10
42.957
20
23.922
0
VERTEX
8
BY_13
10
40.887
20
25.569
42
-0.40306
0
VERTEX
8
BY_13
10
40.797
20
26.28
42
0.399832
0
VERTEX
8
BY_13
10
39.969
20
32.157
42
0.121205
0
VERTEX
8
BY_13
10
31.365
20
37.548
42
-0.525548
0
VERTEX
8
BY_13
10
31.185
20
38.124
0
VERTEX
8
BY_13
10
31.455
20
38.457
42
-0.218072
0
VERTEX
8
BY_13
10
32.157
20
38.817
0
VERTEX
8
BY_13
10
33.372
20
38.862
42
-0.127079
0
VERTEX
8
BY_13
10
38.457
20
37.773
42
0.206061
0
VERTEX
8
BY_13
10
41.157
20
37.62
42
-0.303845
0
VERTEX
8
BY_13
10
43.146
20
37.098
0
VERTEX
8
BY_13
10
45.657
20
34.263
42
-0.366747
0
VERTEX
8
BY_13
10
45.711
20
32.661
0
VERTEX
8
BY_13
10
45.45
20
32.337
0
VERTEX
8
BY_13
10
42.966
20
35.154
0
VERTEX
8
BY_13
10
42.066
20
34.353
0
VERTEX
8
BY_13
10
43.956
20
32.22
42
-0.265901
0
VERTEX
8
BY_13
10
45.144
20
26.442
42
0.275884
0
VERTEX
8
BY_13
10
45.648
20
24.183
0
VERTEX
8
BY_13
10
49.032
20
20.61
42
-0.877831
0
VERTEX
8
BY_13
10
46.773
20
17.775
0
VERTEX
8
BY_13
10
42.543
20
20.268
42
0.276432
0
VERTEX
8
BY_13
10
40.221
20
20.259
42
-0.266272
0
VERTEX
8
BY_13
10
34.335
20
20.124
0
VERTEX
8
BY_13
10
31.824
20
21.492
0
VERTEX
8
BY_13
10
31.257
20
20.439
0
VERTEX
8
BY_13
10
34.497
20
18.666
42
-0.456502
0
VERTEX
8
BY_13
10
32.733
20
18
0
VERTEX
8
BY_13
10
29.394
20
19.791
42
-0.30923
0
VERTEX
8
BY_13
10
28.449
20
21.645
42
0.206577
0
VERTEX
8
BY_13
10
27.684
20
24.228
42
-0.126524
0
VERTEX
8
BY_13
10
25.479
20
28.944
0
VERTEX
8
BY_13
10
25.263
20
30.132
42
-0.204662
0
VERTEX
8
BY_13
10
25.452
20
30.897
0
VERTEX
8
BY_13
10
25.722
20
31.23
42
-0.532642
0
VERTEX
8
BY_13
10
26.325
20
31.203
42
0.121171
0
VERTEX
8
BY_13
10
33.516
20
24.039
42
0.387918
0
VERTEX
8
BY_13
10
39.303
20
24.417
0
VERTEX
8
BY_13
10
39.546
20
24.705
0
SEQEND
0
POLYLINE
5
884
8
BY_13
70
0
66
1
0
VERTEX
8
BY_13
10
13.905
20
3.258
0
VERTEX
8
BY_13
10
17.5628
20
3.96867
42
0.649554
0
VERTEX
8
BY_13
10
25.047
20
10.773
0
VERTEX
8
BY_13
10
22.1359
20
19.4297
42
-0.124435
0
VERTEX
8
BY_13
10
21.924
20
22.32
0
VERTEX
8
BY_13
10
22.652
20
26.4152
42
0.37495
0
VERTEX
8
BY_13
10
20.6099
20
29.7986
42
-0.193125
0
VERTEX
8
BY_13
10
18.3231
20
31.6975
42
0.491093
0
VERTEX
8
BY_13
10
16.8201
20
31.9419
42
-0.161907
0
VERTEX
8
BY_13
10
15.327
20
31.1942
42
0.487942
0
VERTEX
8
BY_13
10
14.5922
20
29.8814
42
-0.265664
0
VERTEX
8
BY_13
10
14.3843
20
27.8353
42
0.282652
0
VERTEX
8
BY_13
10
14.3185
20
26.8467
42
-0.287424
0
VERTEX
8
BY_13
10
14.166
20
24.642
42
0.30206
0
VERTEX
8
BY_13
10
14.148
20
23.589
0
VERTEX
8
BY_13
10
14.7821
20
22.5656
42
-0.290021
0
VERTEX
8
BY_13
10
14.778
20
21.708
0
VERTEX
8
BY_13
10
14.0567
20
20.5785
42
0.538472
0
VERTEX
8
BY_13
10
14.7873
20
19.1192
42
-0.466629
0
VERTEX
8
BY_13
10
14.872
20
18.9919
42
-0.395413
0
VERTEX
8
BY_13
10
11.9962
20
17.6092
42
-0.576627
0
VERTEX
8
BY_13
10
11.9466
20
17.7631
42
0.280571
0
VERTEX
8
BY_13
10
12.069
20
18.774
0
VERTEX
8
BY_13
10
11.4554
20
20.0602
42
-0.201831
0
VERTEX
8
BY_13
10
11.421
20
20.682
0
VERTEX
8
BY_13
10
11.9493
20
22.1319
42
0.30516
0
VERTEX
8
BY_13
10
11.664
20
23.184
0
VERTEX
8
BY_13
10
11.304
20
23.472
42
-0.461406
0
VERTEX
8
BY_13
10
11.304
20
24.696
0
VERTEX
8
BY_13
10
11.8288
20
25.1337
42
0.424195
0
VERTEX
8
BY_13
10
11.916
20
26.496
0
VERTEX
8
BY_13
10
11.3864
20
27.0822
42
-0.316423
0
VERTEX
8
BY_13
10
11.286
20
27.999
0
VERTEX
8
BY_13
10
11.8364
20
29.0152
42
0.452722
0
VERTEX
8
BY_13
10
11.3767
20
30.3405
42
-0.176551
0
VERTEX
8
BY_13
10
10.8325
20
30.8502
42
0.832093
0
VERTEX
8
BY_13
10
9.33009
20
30.3927
42
-0.323317
0
VERTEX
8
BY_13
10
8.66797
20
29.2748
42
0.280795
0
VERTEX
8
BY_13
10
8.181
20
28.584
0
VERTEX
8
BY_13
10
7.93361
20
24.8038
42
-0.0879268
0
VERTEX
8
BY_13
10
7.60858
20
22.3009
42
0.181487
0
VERTEX
8
BY_13
10
8.16007
20
12.0047
42
-0.10347
0
VERTEX
8
BY_13
10
8.766
20
9.108
0
VERTEX
8
BY_13
10
8.76314
20
6.228
42
0.481413
0
VERTEX
8
BY_13
10
12.429
20
3.303
0
VERTEX
8
BY_13
10
12.429
20
10.899
0
VERTEX
8
BY_13
10
13.59
20
10.899
0
VERTEX
8
BY_13
10
13.59
20
3.312
0
VERTEX
8
BY_13
10
13.59
20
1.116
0
SEQEND
0
POLYLINE
5
885
8
BY_13
70
1
66
1
0
VERTEX
8
BY_13
10
17.6215
20
26.2911
42
-0.161348
0
VERTEX
8
BY_13
10
19.1335
20
26.1704
42
0.942975
0
VERTEX
8
BY_13
10
19.6202
20
27.3875
42
-0.213572
0
VERTEX
8
BY_13
10
17.9757
20
29.1968
42
1.01195
0
VERTEX
8
BY_13
10
17.2903
20
28.9714
42
0.10241
0
VERTEX
8
BY_13
10
17.3253
20
28.8631
42
-0.178158
0
VERTEX
8
BY_13
10
17.2236
20
26.7941
42
0.59678
0
SEQEND
0
POLYLINE
5
886
8
BY_13
70
0
66
1
0
VERTEX
8
BY_13
10
20.304
20
14.148
0
VERTEX
8
BY_13
10
18.522
20
16.119
42
0.226144
0
VERTEX
8
BY_13
10
17.5047
20
16.5721
42
0.139502
0
VERTEX
8
BY_13
10
19.4063
20
17.3039
42
-0.640956
0
VERTEX
8
BY_13
10
20.4559
20
16.7311
42
0.219089
0
VERTEX
8
BY_13
10
21.5329
20
13.8018
42
-0.985365
0
VERTEX
8
BY_13
10
20.6371
20
12.8611
42
0.217431
0
VERTEX
8
BY_13
10
17.6671
20
13.8052
42
-1.03313
0
VERTEX
8
BY_13
10
17.415
20
16.569
0
SEQEND
0
POLYLINE
5
887
8
BY_13
70
1
66
1
0
VERTEX
8
BY_13
10
20.735
20
7.73585
42
0.20817
0
VERTEX
8
BY_13
10
17.8049
20
7.19992
42
-0.715098
0
VERTEX
8
BY_13
10
16.8637
20
8.01064
42
0.202584
0
VERTEX
8
BY_13
10
16.509
20
10.8557
42
-0.89246
0
VERTEX
8
BY_13
10
17.5489
20
11.618
42
0.249476
0
VERTEX
8
BY_13
10
20.8447
20
10.4451
42
-1.23505
0
SEQEND
0
POLYLINE
5
888
8
BY_13
70
0
66
1
0
VERTEX
8
BY_13
10
40.986
20
3.807
0
VERTEX
8
BY_13
10
43.695
20
3.807
0
VERTEX
8
BY_13
10
43.695
20
6.723
0
VERTEX
8
BY_13
10
44.892
20
6.723
0
VERTEX
8
BY_13
10
44.892
20
3.807
0
VERTEX
8
BY_13
10
52.425
20
3.807
0
VERTEX
8
BY_13
10
52.6395
20
9.19806
42
0.42413
0
VERTEX
8
BY_13
10
50.517
20
11.412
0
VERTEX
8
BY_13
10
50.373
20
7.758
0
VERTEX
8
BY_13
10
49.176
20
7.758
0
VERTEX
8
BY_13
10
49.3199
20
11.4216
42
-0.350347
0
VERTEX
8
BY_13
10
48.429
20
11.889
0
VERTEX
8
BY_13
10
48.0443
20
12.79
42
0.419667
0
VERTEX
8
BY_13
10
46.017
20
13.59
0
VERTEX
8
BY_13
10
45.279
20
13.266
0
VERTEX
8
BY_13
10
46.44
20
10.584
0
VERTEX
8
BY_13
10
45.36
20
10.116
0
VERTEX
8
BY_13
10
43.2237
20
15.0286
42
0.656059
0
VERTEX
8
BY_13
10
36.945
20
15.021
0
VERTEX
8
BY_13
10
34.803
20
10.116
0
VERTEX
8
BY_13
10
33.723
20
10.584
0
VERTEX
8
BY_13
10
34.884
20
13.266
0
VERTEX
8
BY_13
10
34.1375
20
13.591
42
0.418081
0
VERTEX
8
BY_13
10
32.121
20
12.789
0
VERTEX
8
BY_13
10
31.7208
20
11.8908
42
-0.353836
0
VERTEX
8
BY_13
10
30.834
20
11.421
0
VERTEX
8
BY_13
10
30.978
20
7.758
0
VERTEX
8
BY_13
10
29.781
20
7.758
0
VERTEX
8
BY_13
10
29.637
20
11.4135
42
0.42413
0
VERTEX
8
BY_13
10
27.513
20
9.198
0
VERTEX
8
BY_13
10
27.729
20
3.807
0
VERTEX
8
BY_13
10
35.262
20
3.807
0
VERTEX
8
BY_13
10
35.262
20
6.723
0
VERTEX
8
BY_13
10
36.459
20
6.723
0
VERTEX
8
BY_13
10
36.459
20
3.807
0
VERTEX
8
BY_13
10
39.474
20
3.807
0
VERTEX
8
BY_13
10
39.474
20
6.723
0
VERTEX
8
BY_13
10
40.671
20
6.723
0
VERTEX
8
BY_13
10
40.671
20
3.888
0
VERTEX
8
BY_13
10
40.671
20
1.134
0
SEQEND
0
POLYLINE
5
889
8
BY_13
70
0
66
1
0
VERTEX
8
BY_13
10
62.478
20
6.849
0
VERTEX
8
BY_13
10
65.0654
20
4.24349
42
0.41835
0
VERTEX
8
BY_13
10
68.283
20
4.248
0
VERTEX
8
BY_13
10
68.5307
20
4.50434
42
-0.331728
0
VERTEX
8
BY_13
10
69.482
20
4.63874
42
0.742471
0
VERTEX
8
BY_13
10
72.5668
20
7.71288
42
-0.333951
0
VERTEX
8
BY_13
10
72.702
20
8.667
0
VERTEX
8
BY_13
10
73.2465
20
9.22054
42
0.416687
0
VERTEX
8
BY_13
10
73.251
20
12.429
0
VERTEX
8
BY_13
10
73.098
20
12.582
42
-0.414213
0
VERTEX
8
BY_13
10
73.098
20
15.57
0
VERTEX
8
BY_13
10
74.3426
20
16.8095
42
0.839089
0
VERTEX
8
BY_13
10
71.7019
20
20.4501
42
-0.248204
0
VERTEX
8
BY_13
10
69.732
20
20.484
0
VERTEX
8
BY_13
10
66.024
20
16.776
0
VERTEX
8
BY_13
10
65.205
20
17.595
0
VERTEX
8
BY_13
10
68.9057
20
21.304
42
-0.249196
0
VERTEX
8
BY_13
10
68.8682
20
23.2829
42
0.852328
0
VERTEX
8
BY_13
10
65.223
20
25.92
0
VERTEX
8
BY_13
10
63.999
20
24.678
42
-0.414213
0
VERTEX
8
BY_13
10
61.011
20
24.678
0
VERTEX
8
BY_13
10
60.8534
20
24.8265
42
0.41835
0
VERTEX
8
BY_13
10
57.645
20
24.831
0
VERTEX
8
BY_13
10
57.0913
20
24.2687
42
-0.331729
0
VERTEX
8
BY_13
10
56.142
20
24.138
42
0.745282
0
VERTEX
8
BY_13
10
53.0642
20
21.0601
42
-0.333951
0
VERTEX
8
BY_13
10
52.929
20
20.106
0
VERTEX
8
BY_13
10
52.6725
20
19.8765
42
0.415034
0
VERTEX
8
BY_13
10
52.668
20
16.65
0
VERTEX
8
BY_13
10
55.494
20
13.842
0
VERTEX
8
BY_13
10
61.686
20
20.043
0
VERTEX
8
BY_13
10
62.541
20
19.188
0
VERTEX
8
BY_13
10
54.234
20
10.881
42
0.414214
0
VERTEX
8
BY_13
10
54.234
20
8.289
0
VERTEX
8
BY_13
10
55.062
20
7.461
0
VERTEX
8
BY_13
10
57.843
20
10.26
0
VERTEX
8
BY_13
10
58.662
20
9.432
0
VERTEX
8
BY_13
10
55.881
20
6.651
0
VERTEX
8
BY_13
10
56.709
20
5.823
42
0.414214
0
VERTEX
8
BY_13
10
59.301
20
5.823
0
VERTEX
8
BY_13
10
67.608
20
14.13
0
VERTEX
8
BY_13
10
68.454
20
13.284
0
VERTEX
8
BY_13
10
62.316
20
7.137
0
VERTEX
8
BY_13
10
60.12
20
4.941
0
SEQEND
0
POLYLINE
5
88A
8
BY_13
70
0
66
1
0
VERTEX
8
BY_13
10
57.915
20
26.37
0
VERTEX
8
BY_13
10
57.249
20
28.845
0
VERTEX
8
BY_13
10
56.511
20
31.59
0
VERTEX
8
BY_13
10
55.35
20
31.275
0
VERTEX
8
BY_13
10
56.097
20
28.476
0
VERTEX
8
BY_13
10
51.597
20
24.354
42
-0.560265
0
VERTEX
8
BY_13
10
49.554
20
24.957
0
VERTEX
8
BY_13
10
48.438
20
29.142
42
-0.456106
0
VERTEX
8
BY_13
10
49.482
20
30.699
0
VERTEX
8
BY_13
10
53.055
20
31.14
0
VERTEX
8
BY_13
10
52.533
20
35.487
42
-0.868507
0
VERTEX
8
BY_13
10
56.853
20
36.657
0
VERTEX
8
BY_13
10
58.572
20
32.616
0
VERTEX
8
BY_13
10
61.875
20
34.02
42
-0.454583
0
VERTEX
8
BY_13
10
63.576
20
33.183
0
VERTEX
8
BY_13
10
64.701
20
29.016
42
-0.565604
0
VERTEX
8
BY_13
10
63.216
20
27.477
0
VERTEX
8
BY_13
10
57.609
20
28.719
0
SEQEND
0
POLYLINE
5
88B
8
BY_13
70
0
66
1
0
VERTEX
8
BY_13
10
77.679
20
38.763
0
VERTEX
8
BY_13
10
76.14
20
40.302
0
VERTEX
8
BY_13
10
70.992
20
45.45
0
VERTEX
8
BY_13
10
70.146
20
44.604
0
VERTEX
8
BY_13
10
75.348
20
39.402
0
VERTEX
8
BY_13
10
71.253
20
35.334
42
-0.413377
0
VERTEX
8
BY_13
10
64.962
20
35.325
0
VERTEX
8
BY_13
10
63.468
20
36.801
42
0.411873
0
VERTEX
8
BY_13
10
62.343
20
36.801
42
-0.397072
0
VERTEX
8
BY_13
10
61.011
20
36.774
42
-0.257387
0
VERTEX
8
BY_13
10
58.365
20
44.694
42
-0.608797
0
VERTEX
8
BY_13
10
59.967
20
45.216
42
0.835761
0
VERTEX
8
BY_13
10
61.263
20
46.116
0
VERTEX
8
BY_13
10
60.624
20
47.556
42
-0.695048
0
VERTEX
8
BY_13
10
61.866
20
48.807
0
VERTEX
8
BY_13
10
63.297
20
48.159
42
0.690582
0
VERTEX
8
BY_13
10
64.359
20
49.212
0
VERTEX
8
BY_13
10
63.711
20
50.661
42
-0.695048
0
VERTEX
8
BY_13
10
64.953
20
51.912
0
VERTEX
8
BY_13
10
66.393
20
51.246
42
0.694377
0
VERTEX
8
BY_13
10
67.455
20
52.308
0
VERTEX
8
BY_13
10
66.789
20
53.739
42
-0.59955
0
VERTEX
8
BY_13
10
67.797
20
55.089
42
0.475641
0
VERTEX
8
BY_13
10
68.706
20
55.917
0
VERTEX
8
BY_13
10
71.523
20
57.06
0
VERTEX
8
BY_13
10
71.064
20
58.176
0
VERTEX
8
BY_13
10
68.229
20
57.015
42
-0.0189919
0
VERTEX
8
BY_13
10
66.726
20
61.29
0
VERTEX
8
BY_13
10
69.669
20
62.163
0
VERTEX
8
BY_13
10
69.327
20
63.324
0
VERTEX
8
BY_13
10
66.384
20
62.4421
42
-0.0189919
0
VERTEX
8
BY_13
10
65.304
20
66.843
0
VERTEX
8
BY_13
10
68.31
20
67.437
0
VERTEX
8
BY_13
10
68.085
20
68.616
0
VERTEX
8
BY_13
10
65.07
20
68.022
42
-0.0189461
0
VERTEX
8
BY_13
10
64.413
20
72.495
0
VERTEX
8
BY_13
10
67.464
20
72.792
0
VERTEX
8
BY_13
10
67.347
20
73.989
0
VERTEX
8
BY_13
10
64.305
20
73.692
42
-0.0189269
0
VERTEX
8
BY_13
10
64.08
20
78.201
0
VERTEX
8
BY_13
10
67.14
20
78.21
0
VERTEX
8
BY_13
10
67.14
20
79.407
0
VERTEX
8
BY_13
10
64.08
20
79.4071
42
-0.0189164
0
VERTEX
8
BY_13
10
64.287
20
83.916
0
VERTEX
8
BY_13
10
67.338
20
83.628
0
VERTEX
8
BY_13
10
67.455
20
84.825
0
VERTEX
8
BY_13
10
64.413
20
85.113
42
-0.0106059
0
VERTEX
8
BY_13
10
64.728
20
87.624
0
VERTEX
8
BY_13
10
61.263
20
88.929
42
-0.997409
0
VERTEX
8
BY_13
10
62.46
20
91.917
0
VERTEX
8
BY_13
10
65.376
20
90.828
42
1.02665
0
VERTEX
8
BY_13
10
65.583
20
91.881
0
VERTEX
8
BY_13
10
63.513
20
92.7
42
-1.02255
0
VERTEX
8
BY_13
10
64.728
20
95.688
0
VERTEX
8
BY_13
10
66.654
20
94.914
42
0.411181
0
VERTEX
8
BY_13
10
67.698
20
95.355
0
VERTEX
8
BY_13
10
68.445
20
97.02
0
VERTEX
8
BY_13
10
71.469
20
96.048
0
VERTEX
8
BY_13
10
70.902
20
94.311
0
VERTEX
8
BY_13
10
69.777
20
90.603
0
VERTEX
8
BY_13
10
70.929
20
90.252
0
VERTEX
8
BY_13
10
72.054
20
93.96
0
VERTEX
8
BY_13
10
72.621
20
95.697
0
VERTEX
8
BY_13
10
75.681
20
94.707
0
VERTEX
8
BY_13
10
73.044
20
87.822
42
0.431959
0
VERTEX
8
BY_13
10
73.539
20
86.76
0
VERTEX
8
BY_13
10
75.411
20
86.148
42
-0.869802
0
VERTEX
8
BY_13
10
75.078
20
84.285
0
VERTEX
8
BY_13
10
73.107
20
84.348
42
0.903099
0
VERTEX
8
BY_13
10
72.909
20
82.764
0
VERTEX
8
BY_13
10
74.835
20
82.341
42
-0.862075
0
VERTEX
8
BY_13
10
74.7
20
80.469
0
VERTEX
8
BY_13
10
72.729
20
80.325
42
0.914156
0
VERTEX
8
BY_13
10
72.711
20
78.723
0
VERTEX
8
BY_13
10
74.664
20
78.516
42
-0.862619
0
VERTEX
8
BY_13
10
74.727
20
76.635
0
VERTEX
8
BY_13
10
72.792
20
76.284
42
0.907764
0
VERTEX
8
BY_13
10
72.927
20
74.709
0
VERTEX
8
BY_13
10
74.907
20
74.682
42
-0.869134
0
VERTEX
8
BY_13
10
75.168
20
72.828
0
VERTEX
8
BY_13
10
73.278
20
72.27
42
0.917081
0
VERTEX
8
BY_13
10
73.593
20
70.713
0
VERTEX
8
BY_13
10
75.546
20
70.911
42
-0.859276
0
VERTEX
8
BY_13
10
76.005
20
69.075
0
VERTEX
8
BY_13
10
74.187
20
68.319
42
0.920644
0
VERTEX
8
BY_13
10
74.655
20
66.807
0
VERTEX
8
BY_13
10
76.59
20
67.194
42
-0.871382
0
VERTEX
8
BY_13
10
77.229
20
65.43
0
VERTEX
8
BY_13
10
75.492
20
64.485
42
0.901517
0
VERTEX
8
BY_13
10
76.113
20
63.018
0
VERTEX
8
BY_13
10
77.994
20
63.639
42
-0.862654
0
VERTEX
8
BY_13
10
78.822
20
61.929
0
VERTEX
8
BY_13
10
77.184
20
60.822
42
0.738916
0
VERTEX
8
BY_13
10
77.616
20
59.355
42
0.133523
0
VERTEX
8
BY_13
10
81.891
20
60.39
42
-0.979153
0
VERTEX
8
BY_13
10
82.809
20
58.716
42
-0.101032
0
VERTEX
8
BY_13
10
78.813
20
57.411
42
0.893934
0
VERTEX
8
BY_13
10
78.813
20
55.809
42
0.096759
0
VERTEX
8
BY_13
10
82.143
20
56.043
42
-0.839581
0
VERTEX
8
BY_13
10
82.962
20
54.378
42
-0.121536
0
VERTEX
8
BY_13
10
76.473
20
51.66
42
0.721393
0
VERTEX
8
BY_13
10
75.843
20
47.979
42
-0.502564
0
VERTEX
8
BY_13
10
76.86
20
40.923
0
VERTEX
8
BY_13
10
76.41
20
40.473
0
SEQEND
0
POLYLINE
5
88C
8
BY_13
70
0
66
1
0
VERTEX
8
BY_13
10
86.274
20
85.032
0
VERTEX
8
BY_13
10
85.059
20
87.885
0
VERTEX
8
BY_13
10
83.673
20
91.152
0
VERTEX
8
BY_13
10
82.566
20
90.675
0
VERTEX
8
BY_13
10
83.988
20
87.345
0
VERTEX
8
BY_13
10
83.313
20
87.066
42
0.469721
0
VERTEX
8
BY_13
10
81.405
20
80.73
42
0.0223365
0
VERTEX
8
BY_13
10
81.783
20
80.208
0
VERTEX
8
BY_13
10
87.651
20
72.819
42
-0.0608306
0
VERTEX
8
BY_13
10
87.858
20
72.468
0
VERTEX
8
BY_13
10
88.047
20
72.054
42
-0.389831
0
VERTEX
8
BY_13
10
87.615
20
70.83
42
-0.262186
0
VERTEX
8
BY_13
10
86.697
20
71.019
0
VERTEX
8
BY_13
10
81.027
20
75.924
42
-0.422932
0
VERTEX
8
BY_13
10
80.181
20
90.684
0
VERTEX
8
BY_13
10
78.957
20
96.147
42
-0.83659
0
VERTEX
8
BY_13
10
82.269
20
97.551
0
VERTEX
8
BY_13
10
85.347
20
92.871
42
-0.425301
0
VERTEX
8
BY_13
10
95.373
20
81.999
0
VERTEX
8
BY_13
10
94.959
20
74.52
42
-0.257571
0
VERTEX
8
BY_13
10
94.455
20
73.737
42
-0.394036
0
VERTEX
8
BY_13
10
93.285
20
74.268
0
VERTEX
8
BY_13
10
93.105
20
74.682
42
-0.0897218
0
VERTEX
8
BY_13
10
92.988
20
75.087
0
VERTEX
8
BY_13
10
91.755
20
84.447
42
0.022119
0
VERTEX
8
BY_13
10
91.647
20
85.077
42
0.467246
0
VERTEX
8
BY_13
10
85.761
20
88.11
42
0.0242631
0
VERTEX
8
BY_13
10
85.3835
20
87.9291
0
SEQEND
0
POLYLINE
5
88D
8
BY_13
70
0
66
1
0
VERTEX
8
BY_13
10
117.081
20
86.526
0
VERTEX
8
BY_13
10
113.976
20
86.526
0
VERTEX
8
BY_13
10
108.225
20
86.526
0
VERTEX
8
BY_13
10
108.225
20
85.338
0
VERTEX
8
BY_13
10
114.048
20
85.338
0
VERTEX
8
BY_13
10
114.048
20
81.684
0
VERTEX
8
BY_13
10
113.337
20
81.684
42
0.414214
0
VERTEX
8
BY_13
10
111.663
20
80.01
0
VERTEX
8
BY_13
10
111.663
20
79.191
42
-0.471317
0
VERTEX
8
BY_13
10
110.709
20
78.39
0
VERTEX
8
BY_13
10
108.963
20
78.732
42
0.361432
0
VERTEX
8
BY_13
10
107.415
20
77.877
42
-0.052098
0
VERTEX
8
BY_13
10
102.501
20
68.274
42
-0.883789
0
VERTEX
8
BY_13
10
100.548
20
69.237
42
0.070111
0
VERTEX
8
BY_13
10
102.906
20
79.929
42
-0.268806
0
VERTEX
8
BY_13
10
103.806
20
81.189
0
VERTEX
8
BY_13
10
105.363
20
81.891
42
0.480755
0
VERTEX
8
BY_13
10
105.669
20
83.106
42
-0.278517
0
VERTEX
8
BY_13
10
105.111
20
87.66
42
0.463052
0
VERTEX
8
BY_13
10
104.499
20
88.956
42
0.228487
0
VERTEX
8
BY_13
10
98.46
20
87.894
42
-0.551624
0
VERTEX
8
BY_13
10
96.732
20
88.605
42
-0.0788014
0
VERTEX
8
BY_13
10
96.525
20
96.057
42
-0.662512
0
VERTEX
8
BY_13
10
98.478
20
96.597
42
0.342591
0
VERTEX
8
BY_13
10
110.529
20
93.582
42
-0.546387
0
VERTEX
8
BY_13
10
111.654
20
92.844
0
VERTEX
8
BY_13
10
111.654
20
91.836
42
0.414214
0
VERTEX
8
BY_13
10
113.328
20
90.162
0
VERTEX
8
BY_13
10
114.039
20
90.162
0
VERTEX
8
BY_13
10
114.039
20
86.841
0
SEQEND
0
POLYLINE
5
88E
8
BY_13
70
0
66
1
0
VERTEX
8
BY_13
10
122.193
20
91.368
0
VERTEX
8
BY_13
10
122.445
20
88.272
0
VERTEX
8
BY_13
10
122.796
20
83.799
0
VERTEX
8
BY_13
10
123.993
20
83.907
0
VERTEX
8
BY_13
10
123.633
20
88.443
0
VERTEX
8
BY_13
10
126.819
20
88.866
0
VERTEX
8
BY_13
10
127.008
20
87.48
42
0.240438
0
VERTEX
8
BY_13
10
132.111
20
76.752
0
VERTEX
8
BY_13
10
134.316
20
75.06
42
-1.01427
0
VERTEX
8
BY_13
10
132.588
20
72.882
42
0.0165378
0
VERTEX
8
BY_13
10
131.211
20
73.935
42
0.995484
0
VERTEX
8
BY_13
10
130.266
20
72.639
42
-0.0469344
0
VERTEX
8
BY_13
10
134.289
20
68.976
42
-0.938541
0
VERTEX
8
BY_13
10
132.966
20
67.608
42
0.0206461
0
VERTEX
8
BY_13
10
131.247
20
68.922
42
0.905639
0
VERTEX
8
BY_13
10
130.779
20
68.391
42
-0.0529816
0
VERTEX
8
BY_13
10
134.19
20
63.441
42
-0.748505
0
VERTEX
8
BY_13
10
132.921
20
62.136
42
0.0198285
0
VERTEX
8
BY_13
10
131.031
20
63
42
0.716617
0
VERTEX
8
BY_13
10
130.581
20
62.469
42
-0.0541751
0
VERTEX
8
BY_13
10
132.795
20
57.789
42
-0.717649
0
VERTEX
8
BY_13
10
131.301
20
56.727
0
VERTEX
8
BY_13
10
130.617
20
57.258
42
0.858446
0
VERTEX
8
BY_13
10
130.113
20
56.763
0
VERTEX
8
BY_13
10
132.093
20
53.451
42
-0.628942
0
VERTEX
8
BY_13
10
131.076
20
52.074
0
VERTEX
8
BY_13
10
129.861
20
52.254
42
0.580324
0
VERTEX
8
BY_13
10
129.483
20
51.75
0
VERTEX
8
BY_13
10
130.608
20
48.375
42
-0.855504
0
VERTEX
8
BY_13
10
128.889
20
47.619
42
0.878486
0
VERTEX
8
BY_13
10
128.25
20
47.304
0
VERTEX
8
BY_13
10
129.006
20
44.01
42
-0.798124
0
VERTEX
8
BY_13
10
127.269
20
43.326
42
0.892813
0
VERTEX
8
BY_13
10
126.639
20
43.002
42
-0.0349354
0
VERTEX
8
BY_13
10
127.728
20
39.528
42
-0.696625
0
VERTEX
8
BY_13
10
126.216
20
38.556
42
1.01591
0
VERTEX
8
BY_13
10
125.262
20
37.278
0
VERTEX
8
BY_13
10
125.946
20
36.738
42
-0.672906
0
VERTEX
8
BY_13
10
125.469
20
35.037
42
0.39473
0
VERTEX
8
BY_13
10
124.758
20
34.2
0
VERTEX
8
BY_13
10
124.92
20
31.464
42
-0.362392
0
VERTEX
8
BY_13
10
124.173
20
30.483
42
0.537074
0
VERTEX
8
BY_13
10
123.687
20
29.259
42
-0.548377
0
VERTEX
8
BY_13
10
123.03
20
27.774
42
0.465971
0
VERTEX
8
BY_13
10
122.391
20
26.739
42
-0.473015
0
VERTEX
8
BY_13
10
121.545
20
25.497
42
0.489763
0
VERTEX
8
BY_13
10
120.834
20
24.444
42
-0.547249
0
VERTEX
8
BY_13
10
119.835
20
23.193
42
0.591041
0
VERTEX
8
BY_13
10
119.034
20
22.032
42
-0.277852
0
VERTEX
8
BY_13
10
118.953
20
21.051
42
-0.0911136
0
VERTEX
8
BY_13
10
101.547
20
4.176
42
-0.913607
0
VERTEX
8
BY_13
10
100.404
20
5.706
42
0.0997908
0
VERTEX
8
BY_13
10
105.993
20
12.51
42
-0.330291
0
VERTEX
8
BY_13
10
106.542
20
12.78
42
0.944723
0
VERTEX
8
BY_13
10
107.163
20
15.156
42
-1.3765
0
VERTEX
8
BY_13
10
108.756
20
17.298
42
1.46201
0
VERTEX
8
BY_13
10
110.043
20
19.224
42
-1.37472
0
VERTEX
8
BY_13
10
111.411
20
21.501
42
1.44592
0
VERTEX
8
BY_13
10
112.509
20
23.553
42
-1.37948
0
VERTEX
8
BY_13
10
113.652
20
25.938
42
1.44336
0
VERTEX
8
BY_13
10
114.543
20
28.071
42
-1.38374
0
VERTEX
8
BY_13
10
115.452
20
30.555
42
1.43438
0
VERTEX
8
BY_13
10
116.136
20
32.76
42
-1.37236
0
VERTEX
8
BY_13
10
116.802
20
35.334
42
1.44571
0
VERTEX
8
BY_13
10
117.279
20
37.602
42
-1.36595
0
VERTEX
8
BY_13
10
117.693
20
40.212
42
0.502636
0
VERTEX
8
BY_13
10
119.475
20
41.103
0
VERTEX
8
BY_13
10
121.977
20
40.572
0
VERTEX
8
BY_13
10
122.229
20
41.742
0
VERTEX
8
BY_13
10
120.087
20
42.201
0
VERTEX
8
BY_13
10
120.645
20
45.153
0
VERTEX
8
BY_13
10
122.805
20
44.793
0
VERTEX
8
BY_13
10
123.003
20
45.981
0
VERTEX
8
BY_13
10
120.843
20
46.341
0
VERTEX
8
BY_13
10
121.275
20
49.302
0
VERTEX
8
BY_13
10
123.453
20
49.041
0
VERTEX
8
BY_13
10
123.597
20
50.229
0
VERTEX
8
BY_13
10
121.419
20
50.499
0
VERTEX
8
BY_13
10
121.716
20
53.478
0
VERTEX
8
BY_13
10
123.903
20
53.316
0
VERTEX
8
BY_13
10
123.993
20
54.504
0
VERTEX
8
BY_13
10
121.806
20
54.684
0
VERTEX
8
BY_13
10
121.986
20
57.672
0
VERTEX
8
BY_13
10
124.173
20
57.6
0
VERTEX
8
BY_13
10
124.218
20
58.797
0
VERTEX
8
BY_13
10
122.031
20
58.869
0
VERTEX
8
BY_13
10
122.076
20
61.875
0
VERTEX
8
BY_13
10
124.263
20
61.893
0
VERTEX
8
BY_13
10
124.254
20
63.09
0
VERTEX
8
BY_13
10
122.058
20
63.072
0
VERTEX
8
BY_13
10
121.977
20
66.078
0
VERTEX
8
BY_13
10
124.164
20
66.195
0
VERTEX
8
BY_13
10
124.101
20
67.392
0
VERTEX
8
BY_13
10
121.914
20
67.275
0
VERTEX
8
BY_13
10
121.689
20
70.263
0
VERTEX
8
BY_13
10
123.876
20
70.479
0
VERTEX
8
BY_13
10
123.75
20
71.667
0
VERTEX
8
BY_13
10
120.438
20
71.343
0
VERTEX
8
BY_13
10
120.438
20
72.36
0
VERTEX
8
BY_13
10
117.468
20
72.306
42
-0.992616
0
VERTEX
8
BY_13
10
117.405
20
75.969
0
VERTEX
8
BY_13
10
120.375
20
76.023
42
0.0024887
0
VERTEX
8
BY_13
10
120.33
20
77.103
0
VERTEX
8
BY_13
10
117.36
20
76.932
42
-1.00495
0
VERTEX
8
BY_13
10
117.144
20
80.568
0
VERTEX
8
BY_13
10
120.105
20
80.757
42
0.00249523
0
VERTEX
8
BY_13
10
120.015
20
81.837
0
VERTEX
8
BY_13
10
117.063
20
81.513
42
-0.987614
0
VERTEX
8
BY_13
10
116.64
20
85.158
0
VERTEX
8
BY_13
10
118.764
20
85.437
0
VERTEX
8
BY_13
10
118.467
20
87.741
0
VERTEX
8
BY_13
10
122.13
20
88.209
0
SEQEND
0
POLYLINE
5
88F
8
BY_13
70
0
66
1
0
VERTEX
8
BY_13
10
134.542
20
95.2299
42
0.0671575
0
VERTEX
8
BY_13
10
134.322
20
95.4872
42
0.313011
0
VERTEX
8
BY_13
10
132.894
20
95.679
0
VERTEX
8
BY_13
10
128.702
20
93.4437
42
0.417117
0
VERTEX
8
BY_13
10
128.196
20
91.773
0
VERTEX
8
BY_13
10
129.066
20
90.0975
42
0.408131
0
VERTEX
8
BY_13
10
131.148
20
89.469
0
VERTEX
8
BY_13
10
133.857
20
90.9097
42
-0.0835097
0
VERTEX
8
BY_13
10
142.821
20
94.131
0
VERTEX
8
BY_13
10
144.423
20
94.4308
42
-0.578877
0
VERTEX
8
BY_13
10
145.305
20
93.366
0
VERTEX
8
BY_13
10
143.865
20
89.514
42
0.641475
0
VERTEX
8
BY_13
10
149.752
20
83.6253
42
0.851631
0
VERTEX
8
BY_13
10
149.49
20
84.9104
42
-0.151717
0
VERTEX
8
BY_13
10
147.915
20
85.338
0
VERTEX
8
BY_13
10
147.005
20
85.9122
42
-0.736534
0
VERTEX
8
BY_13
10
147.231
20
86.814
0
VERTEX
8
BY_13
10
148.896
20
86.9171
42
0.542888
0
VERTEX
8
BY_13
10
149.832
20
88.4995
42
-0.55711
0
VERTEX
8
BY_13
10
147.771
20
91.161
0
VERTEX
8
BY_13
10
149.532
20
95.8692
42
0.549329
0
VERTEX
8
BY_13
10
148.284
20
97.578
0
VERTEX
8
BY_13
10
147.258
20
97.5262
42
0.109595
0
VERTEX
8
BY_13
10
136.629
20
94.617
0
VERTEX
8
BY_13
10
132.759
20
92.547
0
VERTEX
8
BY_13
10
132.192
20
93.609
0
VERTEX
8
BY_13
10
134.613
20
94.914
0
VERTEX
8
BY_13
10
137.367
20
96.363
0
SEQEND
0
POLYLINE
5
890
8
BY_13
70
0
66
1
0
VERTEX
8
BY_13
10
145.485
20
42.174
0
VERTEX
8
BY_13
10
142.767
20
43.677
0
VERTEX
8
BY_13
10
139.392
20
45.549
0
VERTEX
8
BY_13
10
138.798
20
44.505
0
VERTEX
8
BY_13
10
142.254
20
42.588
0
VERTEX
8
BY_13
10
140.418
20
39.285
0
VERTEX
8
BY_13
10
138.366
20
40.428
0
VERTEX
8
BY_13
10
138.996
20
41.58
0
VERTEX
8
BY_13
10
134.091
20
44.289
42
-0.414214
0
VERTEX
8
BY_13
10
132.687
20
49.167
42
0.0767343
0
VERTEX
8
BY_13
10
134.388
20
54.09
42
-0.116116
0
VERTEX
8
BY_13
10
137.07
20
60.624
42
0.319633
0
VERTEX
8
BY_13
10
137.07
20
61.047
42
-0.599367
0
VERTEX
8
BY_13
10
138.096
20
63.27
42
0.834323
0
VERTEX
8
BY_13
10
138.222
20
64.557
42
-0.520203
0
VERTEX
8
BY_13
10
137.421
20
66.699
42
0.220907
0
VERTEX
8
BY_13
10
139.284
20
77.589
42
-0.200918
0
VERTEX
8
BY_13
10
139.509
20
79.326
42
0.430344
0
VERTEX
8
BY_13
10
139.365
20
79.839
42
-0.236068
0
VERTEX
8
BY_13
10
136.791
20
83.349
42
0.445918
0
VERTEX
8
BY_13
10
133.695
20
85.527
42
-0.242208
0
VERTEX
8
BY_13
10
128.187
20
86.958
42
-0.977391
0
VERTEX
8
BY_13
10
129.402
20
88.434
42
0.376417
0
VERTEX
8
BY_13
10
133.893
20
88.767
42
-0.410114
0
VERTEX
8
BY_13
10
137.088
20
88.803
0
VERTEX
8
BY_13
10
138.87
20
87.075
42
0.715315
0
VERTEX
8
BY_13
10
140.22
20
87.75
42
-0.990663
0
VERTEX
8
BY_13
10
142.11
20
87.984
42
-0.170047
0
VERTEX
8
BY_13
10
141.336
20
84.132
42
0.618036
0
VERTEX
8
BY_13
10
141.696
20
83.592
42
-0.870685
0
VERTEX
8
BY_13
10
142.2
20
81.774
42
0.768236
0
VERTEX
8
BY_13
10
142.353
20
80.793
42
-0.679951
0
VERTEX
8
BY_13
10
143.055
20
78.327
42
0.338837
0
VERTEX
8
BY_13
10
142.947
20
77.913
42
-0.108057
0
VERTEX
8
BY_13
10
143.298
20
66.465
42
0.328051
0
VERTEX
8
BY_13
10
143.433
20
66.06
42
-0.817064
0
VERTEX
8
BY_13
10
142.326
20
63.558
42
0.801628
0
VERTEX
8
BY_13
10
141.768
20
62.424
42
-0.365428
0
VERTEX
8
BY_13
10
142.047
20
60.579
42
0.187514
0
VERTEX
8
BY_13
10
140.121
20
51.309
42
0.228419
0
VERTEX
8
BY_13
10
142.281
20
48.258
0
VERTEX
8
BY_13
10
144.648
20
46.944
0
VERTEX
8
BY_13
10
142.974
20
43.92
0
SEQEND
0
POLYLINE
5
891
8
BY_13
70
0
66
1
0
VERTEX
8
BY_13
10
140.751
20
26.622
0
VERTEX
8
BY_13
10
141.075
20
23.526
0
VERTEX
8
BY_13
10
141.444
20
20.007
0
VERTEX
8
BY_13
10
142.641
20
20.133
0
VERTEX
8
BY_13
10
142.254
20
23.733
0
VERTEX
8
BY_13
10
142.983
20
23.805
42
0.469031
0
VERTEX
8
BY_13
10
146.673
20
29.304
42
0.0226161
0
VERTEX
8
BY_13
10
146.466
20
29.925
0
VERTEX
8
BY_13
10
143.001
20
38.691
42
-0.0685287
0
VERTEX
8
BY_13
10
142.902
20
39.096
0
VERTEX
8
BY_13
10
142.848
20
39.537
42
-0.381166
0
VERTEX
8
BY_13
10
143.613
20
40.581
42
-0.265107
0
VERTEX
8
BY_13
10
144.441
20
40.122
0
VERTEX
8
BY_13
10
148.428
20
33.777
42
-0.448196
0
VERTEX
8
BY_13
10
144.927
20
19.413
0
VERTEX
8
BY_13
10
144.522
20
13.833
42
-0.833984
0
VERTEX
8
BY_13
10
140.922
20
13.446
0
VERTEX
8
BY_13
10
139.347
20
18.837
42
-0.422905
0
VERTEX
8
BY_13
10
132.939
20
32.148
0
VERTEX
8
BY_13
10
135.513
20
39.186
42
-0.260412
0
VERTEX
8
BY_13
10
136.224
20
39.798
42
-0.392152
0
VERTEX
8
BY_13
10
137.187
20
38.943
0
VERTEX
8
BY_13
10
137.241
20
38.502
42
-0.0675222
0
VERTEX
8
BY_13
10
137.232
20
38.088
0
VERTEX
8
BY_13
10
135.666
20
28.782
42
0.0222889
0
VERTEX
8
BY_13
10
135.585
20
28.143
42
0.467921
0
VERTEX
8
BY_13
10
140.337
20
23.535
0
VERTEX
8
BY_13
10
140.751
20
23.58
0
SEQEND
0
POLYLINE
5
892
8
BY_13
70
0
66
1
0
VERTEX
8
BY_13
10
121.401
20
10.935
0
VERTEX
8
BY_13
10
121.283
20
11.3307
42
-0.467742
0
VERTEX
8
BY_13
10
124.947
20
16.8355
42
-0.0221412
0
VERTEX
8
BY_13
10
125.586
20
16.875
0
VERTEX
8
BY_13
10
135.018
20
17.0378
42
0.0687623
0
VERTEX
8
BY_13
10
135.432
20
17.1
0
VERTEX
8
BY_13
10
135.863
20
17.2371
42
0.388781
0
VERTEX
8
BY_13
10
136.529
20
18.3327
42
0.263352
0
VERTEX
8
BY_13
10
135.801
20
18.927
0
VERTEX
8
BY_13
10
128.403
20
20.1875
42
0.422515
0
VERTEX
8
BY_13
10
116.469
20
11.448
0
VERTEX
8
BY_13
10
111.482
20
8.92107
42
0.834418
0
VERTEX
8
BY_13
10
112.509
20
5.454
0
VERTEX
8
BY_13
10
118.083
20
6.07792
42
0.422932
0
VERTEX
8
BY_13
10
132.84
20
5.247
0
VERTEX
8
BY_13
10
138.357
20
10.3323
42
0.261912
0
VERTEX
8
BY_13
10
138.644
20
11.2227
42
0.388317
0
VERTEX
8
BY_13
10
137.484
20
11.781
0
VERTEX
8
BY_13
10
137.052
20
11.6564
42
0.0671133
0
VERTEX
8
BY_13
10
136.683
20
11.475
0
VERTEX
8
BY_13
10
128.691
20
6.48049
42
-0.0228661
0
VERTEX
8
BY_13
10
128.114
20
6.15795
42
-0.467199
0
VERTEX
8
BY_13
10
122.049
20
8.784
0
VERTEX
8
BY_13
10
121.842
20
9.477
0
VERTEX
8
BY_13
10
118.368
20
8.451
0
VERTEX
8
BY_13
10
118.026
20
9.603
0
VERTEX
8
BY_13
10
121.419
20
10.611
0
VERTEX
8
BY_13
10
124.398
20
11.493
0
SEQEND
0
POLYLINE
5
893
8
BY_13
70
0
66
1
0
VERTEX
8
BY_13
10
114.822
20
44.811
0
VERTEX
8
BY_13
10
118.232
20
47.4313
42
0.561171
0
VERTEX
8
BY_13
10
118.044
20
49.131
0
VERTEX
8
BY_13
10
114.949
20
50.5729
42
0.457705
0
VERTEX
8
BY_13
10
113.571
20
49.959
0
VERTEX
8
BY_13
10
112.743
20
47.259
0
VERTEX
8
BY_13
10
109.449
20
48.2745
42
0.868819
0
VERTEX
8
BY_13
10
107.928
20
45.018
0
VERTEX
8
BY_13
10
110.826
20
43.155
0
VERTEX
8
BY_13
10
109.295
20
40.7979
42
0.457344
0
VERTEX
8
BY_13
10
109.71
20
39.339
0
VERTEX
8
BY_13
10
112.805
20
37.9065
42
0.567043
0
VERTEX
8
BY_13
10
114.237
20
38.853
0
VERTEX
8
BY_13
10
114.03
20
43.515
0
VERTEX
8
BY_13
10
111.897
20
44.505
0
VERTEX
8
BY_13
10
112.401
20
45.594
0
VERTEX
8
BY_13
10
114.489
20
44.622
0
VERTEX
8
BY_13
10
117.306
20
43.317
0
SEQEND
0
POLYLINE
5
894
8
BY_13
70
0
66
1
0
VERTEX
8
BY_13
10
111.402
20
61.884
0
VERTEX
8
BY_13
10
108.153
20
58.014
0
VERTEX
8
BY_13
10
109.071
20
57.24
0
VERTEX
8
BY_13
10
111.609
20
60.264
0
VERTEX
8
BY_13
10
114.57
20
57.789
0
VERTEX
8
BY_13
10
111.033
20
53.577
0
VERTEX
8
BY_13
10
110.592
20
53.937
42
0.362974
0
VERTEX
8
BY_13
10
110.133
20
53.928
42
0.215503
0
VERTEX
8
BY_13
10
104.49
20
42.3
42
0.284665
0
VERTEX
8
BY_13
10
104.922
20
41.58
42
-0.690189
0
VERTEX
8
BY_13
10
104.544
20
38.97
0
VERTEX
8
BY_13
10
103.284
20
38.709
42
0.846153
0
VERTEX
8
BY_13
10
103.338
20
37.422
0
VERTEX
8
BY_13
10
103.797
20
37.359
42
-0.737035
0
VERTEX
8
BY_13
10
104.283
20
34.749
42
0.288392
0
VERTEX
8
BY_13
10
103.869
20
34.002
42
-0.0711116
0
VERTEX
8
BY_13
10
102.915
20
21.672
42
0.346426
0
VERTEX
8
BY_13
10
103.104
20
21.267
42
-0.73587
0
VERTEX
8
BY_13
10
102.618
20
18.666
42
0.553057
0
VERTEX
8
BY_13
10
102.357
20
18.108
42
-0.0864306
0
VERTEX
8
BY_13
10
104.103
20
14.121
42
-0.967361
0
VERTEX
8
BY_13
10
102.258
20
13.644
42
0.69952
0
VERTEX
8
BY_13
10
100.755
20
13.779
0
VERTEX
8
BY_13
10
99.423
20
10.926
42
-0.380695
0
VERTEX
8
BY_13
10
96.651
20
9.738
42
0.315498
0
VERTEX
8
BY_13
10
89.991
20
7.758
42
-0.966348
0
VERTEX
8
BY_13
10
88.461
20
8.874
42
-0.246623
0
VERTEX
8
BY_13
10
94.608
20
12.24
42
0.28745
0
VERTEX
8
BY_13
10
97.65
20
14.211
42
-0.0374343
0
VERTEX
8
BY_13
10
99.909
20
18.216
42
0.352572
0
VERTEX
8
BY_13
10
99.873
20
18.666
42
-0.487004
0
VERTEX
8
BY_13
10
100.332
20
22.194
42
0.23125
0
VERTEX
8
BY_13
10
100.512
20
22.464
42
0.0668138
0
VERTEX
8
BY_13
10
100.395
20
34.101
42
0.259964
0
VERTEX
8
BY_13
10
99.153
20
35.739
42
-0.837068
0
VERTEX
8
BY_13
10
99.774
20
38.403
42
0.461301
0
VERTEX
8
BY_13
10
100.593
20
39.303
42
-0.200541
0
VERTEX
8
BY_13
10
106.272
20
60.075
42
0.403955
0
VERTEX
8
BY_13
10
106.209
20
60.57
0
VERTEX
8
BY_13
10
105.669
20
61.029
0
VERTEX
8
BY_13
10
107.739
20
63.504
0
VERTEX
8
BY_13
10
110.439
20
61.227
0
SEQEND
0
POLYLINE
5
895
8
BY_13
70
0
66
1
0
VERTEX
8
BY_13
10
112.491
20
62.253
0
VERTEX
8
BY_13
10
113.787
20
63.882
0
VERTEX
8
BY_13
10
115.218
20
65.682
0
VERTEX
8
BY_13
10
114.273
20
66.429
0
VERTEX
8
BY_13
10
112.815
20
64.584
0
VERTEX
8
BY_13
10
108.252
20
65.484
42
-0.55882
0
VERTEX
8
BY_13
10
107.649
20
67.077
0
VERTEX
8
BY_13
10
109.782
20
69.75
42
-0.454021
0
VERTEX
8
BY_13
10
111.285
20
69.822
0
VERTEX
8
BY_13
10
113.229
20
67.77
0
VERTEX
8
BY_13
10
115.722
20
70.137
42
-0.866713
0
VERTEX
8
BY_13
10
118.521
20
67.914
0
VERTEX
8
BY_13
10
116.775
20
64.953
0
VERTEX
8
BY_13
10
119.205
20
63.513
42
-0.456901
0
VERTEX
8
BY_13
10
119.475
20
62.037
0
VERTEX
8
BY_13
10
117.351
20
59.364
42
-0.556417
0
VERTEX
8
BY_13
10
115.668
20
59.58
0
VERTEX
8
BY_13
10
113.904
20
63.522
0
SEQEND
0
POLYLINE
5
896
8
BY_13
70
0
66
1
0
VERTEX
8
BY_13
10
93.0521
20
59.3263
42
-0.0231786
0
VERTEX
8
BY_13
10
92.7568
20
59.1428
42
-0.45899
0
VERTEX
8
BY_13
10
87.4476
20
61.1923
42
-0.02233
0
VERTEX
8
BY_13
10
87.282
20
61.731
0
VERTEX
8
BY_13
10
85.2073
20
69.7218
42
0.0688782
0
VERTEX
8
BY_13
10
85.068
20
70.065
0
VERTEX
8
BY_13
10
84.8691
20
70.4065
42
0.393261
0
VERTEX
8
BY_13
10
83.7803
20
70.7501
42
0.261459
0
VERTEX
8
BY_13
10
83.421
20
70.002
0
VERTEX
8
BY_13
10
83.8572
20
63.4497
42
0.411853
0
VERTEX
8
BY_13
10
93.303
20
55.044
0
VERTEX
8
BY_13
10
97.1075
20
50.5419
42
0.841496
0
VERTEX
8
BY_13
10
100.233
20
52.344
0
VERTEX
8
BY_13
10
98.2487
20
57.903
42
0.406003
0
VERTEX
8
BY_13
10
95.679
20
70.272
0
VERTEX
8
BY_13
10
90.2346
20
73.9359
42
0.261364
0
VERTEX
8
BY_13
10
89.4048
20
74.0087
42
0.381622
0
VERTEX
8
BY_13
10
89.154
20
72.882
0
VERTEX
8
BY_13
10
89.3479
20
72.5376
42
0.0668025
0
VERTEX
8
BY_13
10
89.568
20
72.252
0
VERTEX
8
BY_13
10
95.4552
20
66.4663
42
-0.0224495
0
VERTEX
8
BY_13
10
95.8426
20
66.0524
42
-0.46882
0
VERTEX
8
BY_13
10
94.86
20
60.372
0
VERTEX
8
BY_13
10
94.374
20
60.093
0
VERTEX
8
BY_13
10
95.967
20
57.348
0
VERTEX
8
BY_13
10
94.923
20
56.736
0
VERTEX
8
BY_13
10
93.366
20
59.418
0
VERTEX
8
BY_13
10
91.809
20
62.109
0
SEQEND
0
POLYLINE
5
897
8
BY_13
70
0
66
1
0
VERTEX
8
BY_13
10
90.693
20
43.155
0
VERTEX
8
BY_13
10
88.497
20
45.351
0
VERTEX
8
BY_13
10
86.625
20
47.223
0
VERTEX
8
BY_13
10
85.779
20
46.377
0
VERTEX
8
BY_13
10
87.687
20
44.469
0
VERTEX
8
BY_13
10
86.013
20
39.159
42
-0.562366
0
VERTEX
8
BY_13
10
84.087
20
38.691
0
VERTEX
8
BY_13
10
81.27
20
41.508
42
-0.453591
0
VERTEX
8
BY_13
10
81.387
20
43.245
0
VERTEX
8
BY_13
10
84.033
20
45.243
0
VERTEX
8
BY_13
10
81.594
20
48.456
42
-0.869542
0
VERTEX
8
BY_13
10
84.546
20
51.408
0
VERTEX
8
BY_13
10
87.768
20
48.978
0
VERTEX
8
BY_13
10
89.766
20
51.624
42
-0.457136
0
VERTEX
8
BY_13
10
91.503
20
51.741
0
VERTEX
8
BY_13
10
94.32
20
48.924
42
-0.562366
0
VERTEX
8
BY_13
10
93.852
20
46.998
0
VERTEX
8
BY_13
10
88.866
20
45.432
0
SEQEND
0
POLYLINE
5
898
8
BY_13
70
0
66
1
0
VERTEX
8
BY_13
10
84.474
20
37.206
0
VERTEX
8
BY_13
10
86.67
20
35.01
0
VERTEX
8
BY_13
10
88.398
20
33.282
0
VERTEX
8
BY_13
10
89.244
20
34.128
0
VERTEX
8
BY_13
10
87.48
20
35.892
0
VERTEX
8
BY_13
10
88.992
20
40.707
42
-0.559282
0
VERTEX
8
BY_13
10
90.765
20
41.13
0
VERTEX
8
BY_13
10
93.357
20
38.556
42
-0.44755
0
VERTEX
8
BY_13
10
93.24
20
36.954
0
VERTEX
8
BY_13
10
90.828
20
35.136
0
VERTEX
8
BY_13
10
93.051
20
32.184
42
-0.869753
0
VERTEX
8
BY_13
10
90.351
20
29.484
0
VERTEX
8
BY_13
10
87.399
20
31.707
0
VERTEX
8
BY_13
10
85.59
20
29.286
42
-0.454892
0
VERTEX
8
BY_13
10
83.979
20
29.178
0
VERTEX
8
BY_13
10
81.387
20
31.752
42
-0.561916
0
VERTEX
8
BY_13
10
81.819
20
33.525
0
VERTEX
8
BY_13
10
86.292
20
34.938
0
SEQEND
0
POLYLINE
5
899
8
BY_13
70
0
66
1
0
VERTEX
8
BY_13
10
87.741
20
20.484
0
VERTEX
8
BY_13
10
87.5442
20
15.8219
42
0.564212
0
VERTEX
8
BY_13
10
89.064
20
14.796
0
VERTEX
8
BY_13
10
92.3677
20
16.3425
42
0.45637
0
VERTEX
8
BY_13
10
92.826
20
17.91
0
VERTEX
8
BY_13
10
91.161
20
20.439
0
VERTEX
8
BY_13
10
94.258
20
22.4444
42
0.870949
0
VERTEX
8
BY_13
10
92.646
20
25.893
0
VERTEX
8
BY_13
10
89.118
20
24.822
0
VERTEX
8
BY_13
10
88.2249
20
27.7104
42
0.463346
0
VERTEX
8
BY_13
10
86.76
20
28.377
0
VERTEX
8
BY_13
10
83.4488
20
26.8184
42
0.562248
0
VERTEX
8
BY_13
10
83.259
20
25.029
0
VERTEX
8
BY_13
10
87.246
20
21.942
0
VERTEX
8
BY_13
10
89.514
20
22.995
0
VERTEX
8
BY_13
10
90.018
20
21.897
0
VERTEX
8
BY_13
10
87.804
20
20.862
0
VERTEX
8
BY_13
10
84.987
20
19.557
0
SEQEND
0
POLYLINE
5
89A
8
BY_13
70
0
66
1
0
VERTEX
8
BY_13
10
81.207
20
30.573
0
VERTEX
8
BY_13
10
78.462
20
30.573
0
VERTEX
8
BY_13
10
75.618
20
30.573
0
VERTEX
8
BY_13
10
75.618
20
29.376
0
VERTEX
8
BY_13
10
78.516
20
29.376
0
VERTEX
8
BY_13
10
81.324
20
23.967
42
-0.551786
0
VERTEX
8
BY_13
10
80.217
20
22.158
0
VERTEX
8
BY_13
10
75.897
20
22.149
42
-0.457025
0
VERTEX
8
BY_13
10
74.655
20
23.58
0
VERTEX
8
BY_13
10
75.159
20
27.126
0
VERTEX
8
BY_13
10
70.812
20
27.747
42
-0.869269
0
VERTEX
8
BY_13
10
70.812
20
32.229
0
VERTEX
8
BY_13
10
75.159
20
32.841
0
VERTEX
8
BY_13
10
74.655
20
36.405
42
-0.459531
0
VERTEX
8
BY_13
10
75.897
20
37.827
0
VERTEX
8
BY_13
10
80.217
20
37.836
42
-0.562834
0
VERTEX
8
BY_13
10
81.324
20
36.009
0
VERTEX
8
BY_13
10
78.669
20
30.888
0
SEQEND
0
POLYLINE
5
89B
8
BY_13
70
0
66
1
0
VERTEX
8
BY_13
10
75.609
20
11.169
0
VERTEX
8
BY_13
10
78.714
20
11.169
0
VERTEX
8
BY_13
10
81.351
20
11.169
0
VERTEX
8
BY_13
10
81.351
20
12.384
0
VERTEX
8
BY_13
10
78.66
20
12.384
0
VERTEX
8
BY_13
10
76.095
20
17.325
42
-0.562112
0
VERTEX
8
BY_13
10
77.121
20
19.008
0
VERTEX
8
BY_13
10
81.108
20
19.008
42
-0.453438
0
VERTEX
8
BY_13
10
82.26
20
17.694
0
VERTEX
8
BY_13
10
81.792
20
14.409
0
VERTEX
8
BY_13
10
85.797
20
13.851
42
-0.85594
0
VERTEX
8
BY_13
10
85.797
20
9.702
0
VERTEX
8
BY_13
10
81.792
20
9.135
0
VERTEX
8
BY_13
10
82.26
20
5.868
42
-0.448524
0
VERTEX
8
BY_13
10
81.108
20
4.554
0
VERTEX
8
BY_13
10
77.121
20
4.554
42
-0.556135
0
VERTEX
8
BY_13
10
76.095
20
6.237
0
VERTEX
8
BY_13
10
78.498
20
10.854
0
SEQEND
0
POLYLINE
5
89C
8
BY_13
70
0
66
1
0
VERTEX
8
BY_13
10
0
20
73.08
0
VERTEX
8
BY_13
10
0
20
68.94
42
0.414214
0
VERTEX
8
BY_13
10
1.035
20
67.905
0
VERTEX
8
BY_13
10
2.07
20
67.905
42
-0.414212
0
VERTEX
8
BY_13
10
3.105
20
66.87
0
VERTEX
8
BY_13
10
3.105
20
2.673
42
0.413228
0
VERTEX
8
BY_13
10
5.769
20
0
0
VERTEX
8
BY_13
10
78.102
20
0.0089982
0
VERTEX
8
BY_13
10
150.435
20
0.0089991
42
0.413228
0
VERTEX
8
BY_13
10
153.108
20
2.673
0
VERTEX
8
BY_13
10
153.108
20
97.398
42
0.415203
0
VERTEX
8
BY_13
10
150.435
20
100.062
0
VERTEX
8
BY_13
10
5.76
20
100.062
42
0.413227
0
VERTEX
8
BY_13
10
3.087
20
97.398
0
VERTEX
8
BY_13
10
3.096
20
68.31
0
SEQEND
0
ENDSEC
0
EOF
