  0
SECTION
  2
HEADER
  9
$ACADVER
  1
AC1032
  9
$ACADMAINTVER
 90
      228
  9
$DWGCODEPAGE
  3
ANSI_1252
  9
$REQUIREDVERSIONS
160
                 0
  9
$INSBASE
 10
0.0
 20
0.0
 30
0.0
  9
$EXTMIN
 10
1.000000000000000E+20
 20
1.000000000000000E+20
 30
1.000000000000000E+20
  9
$EXTMAX
 10
-1.000000000000000E+20
 20
-1.000000000000000E+20
 30
-1.000000000000000E+20
  9
$LIMMIN
 10
0.0
 20
0.0
  9
$LIMMAX
 10
12.0
 20
9.0
  9
$ORTHOMODE
 70
     0
  9
$REGENMODE
 70
     1
  9
$FILLMODE
 70
     1
  9
$QTEXTMODE
 70
     0
  9
$MIRRTEXT
 70
     0
  9
$LTSCALE
 40
1.0
  9
$ATTMODE
 70
     1
  9
$TEXTSIZE
 40
0.2
  9
$TRACEWID
 40
0.05
  9
$TEXTSTYLE
  7
Standard
  9
$CLAYER
  8
0
  9
$CELTYPE
  6
ByLayer
  9
$CECOLOR
 62
   256
  9
$CELTSCALE
 40
1.0
  9
$DISPSILH
 70
     0
  9
$DIMSCALE
 40
1.0
  9
$DIMASZ
 40
0.18
  9
$DIMEXO
 40
0.0625
  9
$DIMDLI
 40
0.38
  9
$DIMRND
 40
0.0
  9
$DIMDLE
 40
0.0
  9
$DIMEXE
 40
0.18
  9
$DIMTP
 40
0.0
  9
$DIMTM
 40
0.0
  9
$DIMTXT
 40
0.18
  9
$DIMCEN
 40
0.09
  9
$DIMTSZ
 40
0.0
  9
$DIMTOL
 70
     0
  9
$DIMLIM
 70
     0
  9
$DIMTIH
 70
     1
  9
$DIMTOH
 70
     1
  9
$DIMSE1
 70
     0
  9
$DIMSE2
 70
     0
  9
$DIMTAD
 70
     0
  9
$DIMZIN
 70
     0
  9
$DIMBLK
  1

  9
$DIMASO
 70
     1
  9
$DIMSHO
 70
     1
  9
$DIMPOST
  1

  9
$DIMAPOST
  1

  9
$DIMALT
 70
     0
  9
$DIMALTD
 70
     2
  9
$DIMALTF
 40
25.4
  9
$DIMLFAC
 40
1.0
  9
$DIMTOFL
 70
     0
  9
$DIMTVP
 40
0.0
  9
$DIMTIX
 70
     0
  9
$DIMSOXD
 70
     0
  9
$DIMSAH
 70
     0
  9
$DIMBLK1
  1

  9
$DIMBLK2
  1

  9
$DIMSTYLE
  2
Standard
  9
$DIMCLRD
 70
     0
  9
$DIMCLRE
 70
     0
  9
$DIMCLRT
 70
     0
  9
$DIMTFAC
 40
1.0
  9
$DIMGAP
 40
0.09
  9
$DIMJUST
 70
     0
  9
$DIMSD1
 70
     0
  9
$DIMSD2
 70
     0
  9
$DIMTOLJ
 70
     1
  9
$DIMTZIN
 70
     0
  9
$DIMALTZ
 70
     0
  9
$DIMALTTZ
 70
     0
  9
$DIMUPT
 70
     0
  9
$DIMDEC
 70
     4
  9
$DIMTDEC
 70
     4
  9
$DIMALTU
 70
     2
  9
$DIMALTTD
 70
     2
  9
$DIMTXSTY
  7
Standard
  9
$DIMAUNIT
 70
     0
  9
$DIMADEC
 70
     0
  9
$DIMALTRND
 40
0.0
  9
$DIMAZIN
 70
     0
  9
$DIMDSEP
 70
    46
  9
$DIMATFIT
 70
     3
  9
$DIMFRAC
 70
     0
  9
$DIMLDRBLK
  1

  9
$DIMLUNIT
 70
     2
  9
$DIMLWD
 70
    -2
  9
$DIMLWE
 70
    -2
  9
$DIMTMOVE
 70
     0
  9
$DIMFXL
 40
1.0
  9
$DIMFXLON
 70
     0
  9
$DIMJOGANG
 40
0.7853981633974483
  9
$DIMTFILL
 70
     0
  9
$DIMTFILLCLR
 70
     0
  9
$DIMARCSYM
 70
     0
  9
$DIMLTYPE
  6

  9
$DIMLTEX1
  6

  9
$DIMLTEX2
  6

  9
$DIMTXTDIRECTION
 70
     0
  9
$LUNITS
 70
     2
  9
$LUPREC
 70
     4
  9
$SKETCHINC
 40
0.1
  9
$FILLETRAD
 40
0.0
  9
$AUNITS
 70
     0
  9
$AUPREC
 70
     0
  9
$MENU
  1
.
  9
$ELEVATION
 40
0.0
  9
$PELEVATION
 40
0.0
  9
$THICKNESS
 40
0.0
  9
$LIMCHECK
 70
     0
  9
$CHAMFERA
 40
0.0
  9
$CHAMFERB
 40
0.0
  9
$CHAMFERC
 40
0.0
  9
$CHAMFERD
 40
0.0
  9
$SKPOLY
 70
     0
  9
$TDCREATE
 40
2460388.552534722
  9
$TDUCREATE
 40
2460388.510868056
  9
$TDUPDATE
 40
2460388.552534722
  9
$TDUUPDATE
 40
2460388.510868056
  9
$TDINDWG
 40
0.0000000000
  9
$TDUSRTIMER
 40
0.0000000000
  9
$USRTIMER
 70
     1
  9
$ANGBASE
 50
0.0
  9
$ANGDIR
 70
     0
  9
$PDMODE
 70
     0
  9
$PDSIZE
 40
0.0
  9
$PLINEWID
 40
0.0
  9
$SPLFRAME
 70
     0
  9
$SPLINETYPE
 70
     6
  9
$SPLINESEGS
 70
     8
  9
$HANDSEED
  5
99
  9
$SURFTAB1
 70
     6
  9
$SURFTAB2
 70
     6
  9
$SURFTYPE
 70
     6
  9
$SURFU
 70
     6
  9
$SURFV
 70
     6
  9
$UCSBASE
  2

  9
$UCSNAME
  2

  9
$UCSORG
 10
0.0
 20
0.0
 30
0.0
  9
$UCSXDIR
 10
1.0
 20
0.0
 30
0.0
  9
$UCSYDIR
 10
0.0
 20
1.0
 30
0.0
  9
$UCSORTHOREF
  2

  9
$UCSORTHOVIEW
 70
     0
  9
$UCSORGTOP
 10
0.0
 20
0.0
 30
0.0
  9
$UCSORGBOTTOM
 10
0.0
 20
0.0
 30
0.0
  9
$UCSORGLEFT
 10
0.0
 20
0.0
 30
0.0
  9
$UCSORGRIGHT
 10
0.0
 20
0.0
 30
0.0
  9
$UCSORGFRONT
 10
0.0
 20
0.0
 30
0.0
  9
$UCSORGBACK
 10
0.0
 20
0.0
 30
0.0
  9
$PUCSBASE
  2

  9
$PUCSNAME
  2

  9
$PUCSORG
 10
0.0
 20
0.0
 30
0.0
  9
$PUCSXDIR
 10
1.0
 20
0.0
 30
0.0
  9
$PUCSYDIR
 10
0.0
 20
1.0
 30
0.0
  9
$PUCSORTHOREF
  2

  9
$PUCSORTHOVIEW
 70
     0
  9
$PUCSORGTOP
 10
0.0
 20
0.0
 30
0.0
  9
$PUCSORGBOTTOM
 10
0.0
 20
0.0
 30
0.0
  9
$PUCSORGLEFT
 10
0.0
 20
0.0
 30
0.0
  9
$PUCSORGRIGHT
 10
0.0
 20
0.0
 30
0.0
  9
$PUCSORGFRONT
 10
0.0
 20
0.0
 30
0.0
  9
$PUCSORGBACK
 10
0.0
 20
0.0
 30
0.0
  9
$USERI1
 70
     0
  9
$USERI2
 70
     0
  9
$USERI3
 70
     0
  9
$USERI4
 70
     0
  9
$USERI5
 70
     0
  9
$USERR1
 40
0.0
  9
$USERR2
 40
0.0
  9
$USERR3
 40
0.0
  9
$USERR4
 40
0.0
  9
$USERR5
 40
0.0
  9
$WORLDVIEW
 70
     1
  9
$SHADEDGE
 70
     3
  9
$SHADEDIF
 70
    70
  9
$TILEMODE
 70
     1
  9
$MAXACTVP
 70
    64
  9
$PINSBASE
 10
0.0
 20
0.0
 30
0.0
  9
$PLIMCHECK
 70
     0
  9
$PEXTMIN
 10
1.000000000000000E+20
 20
1.000000000000000E+20
 30
1.000000000000000E+20
  9
$PEXTMAX
 10
-1.000000000000000E+20
 20
-1.000000000000000E+20
 30
-1.000000000000000E+20
  9
$PLIMMIN
 10
0.0
 20
0.0
  9
$PLIMMAX
 10
12.0
 20
9.0
  9
$UNITMODE
 70
     0
  9
$VISRETAIN
 70
     1
  9
$PLINEGEN
 70
     0
  9
$PSLTSCALE
 70
     1
  9
$TREEDEPTH
 70
  3020
  9
$CMLSTYLE
  2
Standard
  9
$CMLJUST
 70
     0
  9
$CMLSCALE
 40
1.0
  9
$PROXYGRAPHICS
 70
     1
  9
$MEASUREMENT
 70
     0
  9
$CELWEIGHT
370
    -1
  9
$ENDCAPS
280
     0
  9
$JOINSTYLE
280
     0
  9
$LWDISPLAY
290
     1
  9
$INSUNITS
 70
     4
  9
$HYPERLINKBASE
  1

  9
$STYLESHEET
  1

  9
$XEDIT
290
     1
  9
$CEPSNTYPE
380
     0
  9
$PSTYLEMODE
290
     1
  9
$FINGERPRINTGUID
  2
{702C5879-A01C-BD4B-B6E4-7B4FD33AF66D}
  9
$VERSIONGUID
  2
{9036196D-E4FB-0048-8663-6D6F3D8FBD40}
  9
$EXTNAMES
290
     1
  9
$PSVPSCALE
 40
0.0
  9
$OLESTARTUP
290
     0
  9
$SORTENTS
280
   127
  9
$INDEXCTL
280
     0
  9
$HIDETEXT
280
     1
  9
$XCLIPFRAME
280
     2
  9
$HALOGAP
280
     0
  9
$OBSCOLOR
 70
   257
  9
$OBSLTYPE
280
     0
  9
$INTERSECTIONDISPLAY
280
     0
  9
$INTERSECTIONCOLOR
 70
   257
  9
$DIMASSOC
280
     2
  9
$PROJECTNAME
  1

  9
$CAMERADISPLAY
290
     0
  9
$LENSLENGTH
 40
50.0
  9
$CAMERAHEIGHT
 40
0.0
  9
$STEPSPERSEC
 40
2.0
  9
$STEPSIZE
 40
6.0
  9
$3DDWFPREC
 40
2.0
  9
$PSOLWIDTH
 40
0.25
  9
$PSOLHEIGHT
 40
4.0
  9
$LOFTANG1
 40
1.570796326794896
  9
$LOFTANG2
 40
1.570796326794896
  9
$LOFTMAG1
 40
0.0
  9
$LOFTMAG2
 40
0.0
  9
$LOFTPARAM
 70
     7
  9
$LOFTNORMALS
280
     1
  9
$LATITUDE
 40
37.795
  9
$LONGITUDE
 40
-122.394
  9
$NORTHDIRECTION
 40
0.0
  9
$TIMEZONE
 70
 -8000
  9
$LIGHTGLYPHDISPLAY
280
     1
  9
$TILEMODELIGHTSYNCH
280
     1
  9
$CMATERIAL
347
11
  9
$SOLIDHIST
280
     0
  9
$SHOWHIST
280
     1
  9
$DWFFRAME
280
     2
  9
$DGNFRAME
280
     0
  9
$REALWORLDSCALE
290
     1
  9
$INTERFERECOLOR
 62
     1
  9
$INTERFEREOBJVS
345
33
  9
$INTERFEREVPVS
346
30
  9
$CSHADOW
280
     0
  9
$SHADOWPLANELOCATION
 40
0.0
  0
ENDSEC
  0
SECTION
  2
CLASSES
  0
CLASS
  1
ACDBDICTIONARYWDFLT
  2
AcDbDictionaryWithDefault
  3
ObjectDBX Classes
 90
        0
 91
        1
280
     0
281
     0
  0
CLASS
  1
MATERIAL
  2
AcDbMaterial
  3
ObjectDBX Classes
 90
     1153
 91
        3
280
     0
281
     0
  0
CLASS
  1
VISUALSTYLE
  2
AcDbVisualStyle
  3
ObjectDBX Classes
 90
     4095
 91
       24
280
     0
281
     0
  0
CLASS
  1
SCALE
  2
AcDbScale
  3
ObjectDBX Classes
 90
     1153
 91
       17
280
     0
281
     0
  0
CLASS
  1
TABLESTYLE
  2
AcDbTableStyle
  3
ObjectDBX Classes
 90
     4095
 91
        1
280
     0
281
     0
  0
CLASS
  1
MLEADERSTYLE
  2
AcDbMLeaderStyle
  3
ACDB_MLEADERSTYLE_CLASS
 90
     4095
 91
        1
280
     0
281
     0
  0
CLASS
  1
ACDBSECTIONVIEWSTYLE
  2
AcDbSectionViewStyle
  3
ObjectDBX Classes
 90
     1025
 91
        1
280
     0
281
     0
  0
CLASS
  1
ACDBDETAILVIEWSTYLE
  2
AcDbDetailViewStyle
  3
ObjectDBX Classes
 90
     1025
 91
        1
280
     0
281
     0
  0
CLASS
  1
DICTIONARYVAR
  2
AcDbDictionaryVar
  3
ObjectDBX Classes
 90
        0
 91
        5
280
     0
281
     0
  0
CLASS
  1
CELLSTYLEMAP
  2
AcDbCellStyleMap
  3
ObjectDBX Classes
 90
     1152
 91
        1
280
     0
281
     0
  0
ENDSEC
  0
SECTION
  2
TABLES
  0
TABLE
  2
VPORT
  5
8
330
0
100
AcDbSymbolTable
 70
     1
  0
VPORT
  5
57
330
8
100
AcDbSymbolTableRecord
100
AcDbViewportTableRecord
  2
*Active
 70
     0
 10
0.0
 20
0.0
 11
1.0
 21
1.0
 12
0.0
 22
0.0
 13
0.0
 23
0.0
 14
1.0
 24
1.0
 15
0.0
 25
0.0
 16
0.0
 26
0.0
 36
1.0
 17
115.3230533735401
 27
107.7383311532142
 37
0.0
 40
219.7861955525571
 41
1.070399477503876
 42
50.0
 43
0.0
 44
0.0
 50
0.0
 51
0.0
 71
     0
 72
   100
 73
     1
 74
     1
 75
     0
 76
     0
 77
     0
 78
     0
281
     0
 65
     1
110
0.0
120
0.0
130
0.0
111
1.0
121
0.0
131
0.0
112
0.0
122
1.0
132
0.0
 79
     0
146
0.0
 60
     3
 61
     5
292
     1
282
     1
141
0.0
142
0.0
 63
   250
421
  3355443
  0
ENDTAB
  0
TABLE
  2
LTYPE
  5
5
330
0
100
AcDbSymbolTable
 70
     1
  0
LTYPE
  5
5B
330
5
100
AcDbSymbolTableRecord
100
AcDbLinetypeTableRecord
  2
ByBlock
 70
     0
  3

 72
    65
 73
     0
 40
0.0
  0
LTYPE
  5
5C
330
5
100
AcDbSymbolTableRecord
100
AcDbLinetypeTableRecord
  2
ByLayer
 70
     0
  3

 72
    65
 73
     0
 40
0.0
  0
LTYPE
  5
5D
330
5
100
AcDbSymbolTableRecord
100
AcDbLinetypeTableRecord
  2
Continuous
 70
     0
  3
Solid line
 72
    65
 73
     0
 40
0.0
  0
ENDTAB
  0
TABLE
  2
LAYER
  5
2
330
0
100
AcDbSymbolTable
 70
     4
  0
LAYER
  5
54
330
2
100
AcDbSymbolTableRecord
100
AcDbLayerTableRecord
  2
0
 70
     0
 62
     7
  6
Continuous
370
    -3
390
F
347
21
348
0
  0
LAYER
  5
78
330
2
100
AcDbSymbolTableRecord
100
AcDbLayerTableRecord
  2
framework
 70
     0
 62
     7
  6
Continuous
370
     0
390
F
347
21
348
0
  0
LAYER
  5
87
330
2
100
AcDbSymbolTableRecord
100
AcDbLayerTableRecord
  2
cutti g
 70
     0
 62
     7
  6
Continuous
370
     0
390
F
347
21
348
0
  0
LAYER
  5
8B
330
2
100
AcDbSymbolTableRecord
100
AcDbLayerTableRecord
  2
scan
 70
     0
 62
     7
  6
Continuous
370
     0
390
F
347
21
348
0
  0
ENDTAB
  0
TABLE
  2
STYLE
  5
3
330
0
100
AcDbSymbolTable
 70
     2
  0
STYLE
  5
55
330
3
100
AcDbSymbolTableRecord
100
AcDbTextStyleTableRecord
  2
Standard
 70
     0
 40
0.0
 41
1.0
 50
0.0
 71
     0
 42
0.2
  3
txt
  4

  0
STYLE
  5
5A
330
3
100
AcDbSymbolTableRecord
100
AcDbTextStyleTableRecord
  2
Annotative
 70
     0
 40
0.0
 41
1.0
 50
0.0
 71
     0
 42
0.2
  3
txt
  4

1001
AcadAnnotative
1000
AnnotativeData
1002
{
1070
     1
1070
     1
1002
}
  0
ENDTAB
  0
TABLE
  2
VIEW
  5
6
330
0
100
AcDbSymbolTable
 70
     0
  0
ENDTAB
  0
TABLE
  2
UCS
  5
7
330
0
100
AcDbSymbolTable
 70
     0
  0
ENDTAB
  0
TABLE
  2
APPID
  5
9
330
0
100
AcDbSymbolTable
 70
     2
  0
APPID
  5
56
330
9
100
AcDbSymbolTableRecord
100
AcDbRegAppTableRecord
  2
ACAD
 70
     0
  0
APPID
  5
5E
330
9
100
AcDbSymbolTableRecord
100
AcDbRegAppTableRecord
  2
AcadAnnotative
 70
     0
  0
ENDTAB
  0
TABLE
  2
DIMSTYLE
  5
A
330
0
100
AcDbSymbolTable
 70
     2
100
AcDbDimStyleTable
 71
     0
  0
DIMSTYLE
105
58
330
A
100
AcDbSymbolTableRecord
100
AcDbDimStyleTableRecord
  2
Standard
 70
     0
340
55
  0
DIMSTYLE
105
59
330
A
100
AcDbSymbolTableRecord
100
AcDbDimStyleTableRecord
  2
Annotative
 70
     0
340
55
1001
AcadAnnotative
1000
AnnotativeData
1002
{
1070
     1
1070
     1
1002
}
  0
ENDTAB
  0
TABLE
  2
BLOCK_RECORD
  5
1
330
0
100
AcDbSymbolTable
 70
     3
  0
BLOCK_RECORD
  5
70
330
1
100
AcDbSymbolTableRecord
100
AcDbBlockTableRecord
  2
*Model_Space
340
73
 70
     0
280
     1
281
     0
  0
BLOCK_RECORD
  5
6C
330
1
100
AcDbSymbolTableRecord
100
AcDbBlockTableRecord
  2
*Paper_Space
340
6F
 70
     0
280
     1
281
     0
  0
BLOCK_RECORD
  5
74
330
1
100
AcDbSymbolTableRecord
100
AcDbBlockTableRecord
  2
*Paper_Space0
340
77
 70
     0
280
     1
281
     0
  0
BLOCK_RECORD
  5
79
330
1
100
AcDbSymbolTableRecord
100
AcDbBlockTableRecord
  2
Block_0
340
0
102
{BLKREFS
331
7A
102
}
 70
     0
280
     1
281
     0
  0
BLOCK_RECORD
  5
83
330
1
100
AcDbSymbolTableRecord
100
AcDbBlockTableRecord
  2
Block_1
340
0
102
{BLKREFS
331
84
102
}
 70
     0
280
     1
281
     0
  0
ENDTAB
  0
ENDSEC
  0
SECTION
  2
BLOCKS
  0
BLOCK
  5
71
330
70
100
AcDbEntity
  8
0
100
AcDbBlockBegin
  2
*Model_Space
 70
     0
 10
0.0
 20
0.0
 30
0.0
  3
*Model_Space
  1

  0
ENDBLK
  5
72
330
70
100
AcDbEntity
  8
0
100
AcDbBlockEnd
  0
BLOCK
  5
6D
330
6C
100
AcDbEntity
 67
     1
  8
0
100
AcDbBlockBegin
  2
*Paper_Space
 70
     0
 10
0.0
 20
0.0
 30
0.0
  3
*Paper_Space
  1

  0
ENDBLK
  5
6E
330
6C
100
AcDbEntity
 67
     1
  8
0
100
AcDbBlockEnd
  0
BLOCK
  5
75
330
74
100
AcDbEntity
 67
     1
  8
0
100
AcDbBlockBegin
  2
*Paper_Space0
 70
     0
 10
0.0
 20
0.0
 30
0.0
  3
*Paper_Space0
  1

  0
ENDBLK
  5
76
330
74
100
AcDbEntity
 67
     1
  8
0
100
AcDbBlockEnd
  0
BLOCK
  5
7B
330
79
100
AcDbEntity
  8
0
100
AcDbBlockBegin
  2
Block_0
 70
     0
 10
0.0
 20
0.0
 30
0.0
  3
Block_0
  1

  0
SPLINE
  5
7D
330
79
100
AcDbEntity
  8
framework
 62
    18
420
        0
370
    25
100
AcDbSpline
210
0.0
220
0.0
230
1.0
 70
    11
 71
     3
 72
   485
 73
   481
 74
     0
 42
0.0000000001
 43
0.0000000001
 40
0.0
 40
0.0
 40
0.0
 40
0.0
 40
1.0
 40
1.0
 40
1.0
 40
2.0
 40
2.0
 40
2.0
 40
3.0
 40
3.0
 40
3.0
 40
4.0
 40
4.0
 40
4.0
 40
5.0
 40
5.0
 40
5.0
 40
6.0
 40
6.0
 40
6.0
 40
7.0
 40
7.0
 40
7.0
 40
8.0
 40
8.0
 40
8.0
 40
9.0
 40
9.0
 40
9.0
 40
10.0
 40
10.0
 40
10.0
 40
11.0
 40
11.0
 40
11.0
 40
12.0
 40
12.0
 40
12.0
 40
13.0
 40
13.0
 40
13.0
 40
14.0
 40
14.0
 40
14.0
 40
15.0
 40
15.0
 40
15.0
 40
16.0
 40
16.0
 40
16.0
 40
17.0
 40
17.0
 40
17.0
 40
18.0
 40
18.0
 40
18.0
 40
19.0
 40
19.0
 40
19.0
 40
20.0
 40
20.0
 40
20.0
 40
21.0
 40
21.0
 40
21.0
 40
22.0
 40
22.0
 40
22.0
 40
23.0
 40
23.0
 40
23.0
 40
24.0
 40
24.0
 40
24.0
 40
25.0
 40
25.0
 40
25.0
 40
26.0
 40
26.0
 40
26.0
 40
27.0
 40
27.0
 40
27.0
 40
28.0
 40
28.0
 40
28.0
 40
29.0
 40
29.0
 40
29.0
 40
30.0
 40
30.0
 40
30.0
 40
31.0
 40
31.0
 40
31.0
 40
32.0
 40
32.0
 40
32.0
 40
33.0
 40
33.0
 40
33.0
 40
34.0
 40
34.0
 40
34.0
 40
35.0
 40
35.0
 40
35.0
 40
36.0
 40
36.0
 40
36.0
 40
37.0
 40
37.0
 40
37.0
 40
38.0
 40
38.0
 40
38.0
 40
39.0
 40
39.0
 40
39.0
 40
40.0
 40
40.0
 40
40.0
 40
41.0
 40
41.0
 40
41.0
 40
42.0
 40
42.0
 40
42.0
 40
43.0
 40
43.0
 40
43.0
 40
44.0
 40
44.0
 40
44.0
 40
45.0
 40
45.0
 40
45.0
 40
46.0
 40
46.0
 40
46.0
 40
47.0
 40
47.0
 40
47.0
 40
48.0
 40
48.0
 40
48.0
 40
49.0
 40
49.0
 40
49.0
 40
50.0
 40
50.0
 40
50.0
 40
51.0
 40
51.0
 40
51.0
 40
52.0
 40
52.0
 40
52.0
 40
53.0
 40
53.0
 40
53.0
 40
54.0
 40
54.0
 40
54.0
 40
55.0
 40
55.0
 40
55.0
 40
56.0
 40
56.0
 40
56.0
 40
57.0
 40
57.0
 40
57.0
 40
58.0
 40
58.0
 40
58.0
 40
59.0
 40
59.0
 40
59.0
 40
60.0
 40
60.0
 40
60.0
 40
61.0
 40
61.0
 40
61.0
 40
62.0
 40
62.0
 40
62.0
 40
63.0
 40
63.0
 40
63.0
 40
64.0
 40
64.0
 40
64.0
 40
65.0
 40
65.0
 40
65.0
 40
66.0
 40
66.0
 40
66.0
 40
67.0
 40
67.0
 40
67.0
 40
68.0
 40
68.0
 40
68.0
 40
69.0
 40
69.0
 40
69.0
 40
70.0
 40
70.0
 40
70.0
 40
71.0
 40
71.0
 40
71.0
 40
72.0
 40
72.0
 40
72.0
 40
73.0
 40
73.0
 40
73.0
 40
74.0
 40
74.0
 40
74.0
 40
75.0
 40
75.0
 40
75.0
 40
76.0
 40
76.0
 40
76.0
 40
77.0
 40
77.0
 40
77.0
 40
78.0
 40
78.0
 40
78.0
 40
79.0
 40
79.0
 40
79.0
 40
80.0
 40
80.0
 40
80.0
 40
81.0
 40
81.0
 40
81.0
 40
82.0
 40
82.0
 40
82.0
 40
83.0
 40
83.0
 40
83.0
 40
84.0
 40
84.0
 40
84.0
 40
85.0
 40
85.0
 40
85.0
 40
86.0
 40
86.0
 40
86.0
 40
87.0
 40
87.0
 40
87.0
 40
88.0
 40
88.0
 40
88.0
 40
89.0
 40
89.0
 40
89.0
 40
90.0
 40
90.0
 40
90.0
 40
91.0
 40
91.0
 40
91.0
 40
92.0
 40
92.0
 40
92.0
 40
93.0
 40
93.0
 40
93.0
 40
94.0
 40
94.0
 40
94.0
 40
95.0
 40
95.0
 40
95.0
 40
96.0
 40
96.0
 40
96.0
 40
97.0
 40
97.0
 40
97.0
 40
98.0
 40
98.0
 40
98.0
 40
99.0
 40
99.0
 40
99.0
 40
100.0
 40
100.0
 40
100.0
 40
101.0
 40
101.0
 40
101.0
 40
102.0
 40
102.0
 40
102.0
 40
103.0
 40
103.0
 40
103.0
 40
104.0
 40
104.0
 40
104.0
 40
105.0
 40
105.0
 40
105.0
 40
106.0
 40
106.0
 40
106.0
 40
107.0
 40
107.0
 40
107.0
 40
108.0
 40
108.0
 40
108.0
 40
109.0
 40
109.0
 40
109.0
 40
110.0
 40
110.0
 40
110.0
 40
111.0
 40
111.0
 40
111.0
 40
112.0
 40
112.0
 40
112.0
 40
113.0
 40
113.0
 40
113.0
 40
114.0
 40
114.0
 40
114.0
 40
115.0
 40
115.0
 40
115.0
 40
116.0
 40
116.0
 40
116.0
 40
117.0
 40
117.0
 40
117.0
 40
118.0
 40
118.0
 40
118.0
 40
119.0
 40
119.0
 40
119.0
 40
120.0
 40
120.0
 40
120.0
 40
121.0
 40
121.0
 40
121.0
 40
122.0
 40
122.0
 40
122.0
 40
123.0
 40
123.0
 40
123.0
 40
124.0
 40
124.0
 40
124.0
 40
125.0
 40
125.0
 40
125.0
 40
126.0
 40
126.0
 40
126.0
 40
127.0
 40
127.0
 40
127.0
 40
128.0
 40
128.0
 40
128.0
 40
129.0
 40
129.0
 40
129.0
 40
130.0
 40
130.0
 40
130.0
 40
131.0
 40
131.0
 40
131.0
 40
132.0
 40
132.0
 40
132.0
 40
133.0
 40
133.0
 40
133.0
 40
134.0
 40
134.0
 40
134.0
 40
135.0
 40
135.0
 40
135.0
 40
136.0
 40
136.0
 40
136.0
 40
137.0
 40
137.0
 40
137.0
 40
138.0
 40
138.0
 40
138.0
 40
139.0
 40
139.0
 40
139.0
 40
140.0
 40
140.0
 40
140.0
 40
141.0
 40
141.0
 40
141.0
 40
142.0
 40
142.0
 40
142.0
 40
143.0
 40
143.0
 40
143.0
 40
144.0
 40
144.0
 40
144.0
 40
145.0
 40
145.0
 40
145.0
 40
146.0
 40
146.0
 40
146.0
 40
147.0
 40
147.0
 40
147.0
 40
148.0
 40
148.0
 40
148.0
 40
149.0
 40
149.0
 40
149.0
 40
150.0
 40
150.0
 40
150.0
 40
151.0
 40
151.0
 40
151.0
 40
152.0
 40
152.0
 40
152.0
 40
153.0
 40
153.0
 40
153.0
 40
154.0
 40
154.0
 40
154.0
 40
155.0
 40
155.0
 40
155.0
 40
156.0
 40
156.0
 40
156.0
 40
157.0
 40
157.0
 40
157.0
 40
158.0
 40
158.0
 40
158.0
 40
159.0
 40
159.0
 40
159.0
 40
160.0
 40
160.0
 40
160.0
 40
160.0
 10
21.80166639206817
 20
21.76639835746009
 30
0.0
 10
21.80166639206817
 20
21.76639835746009
 30
0.0
 10
29.80972221476979
 20
21.76639835746009
 30
0.0
 10
29.80972221476979
 20
21.76639835746009
 30
0.0
 10
29.88027669371537
 20
21.76639835746009
 30
0.0
 10
29.91555662466901
 20
21.83695821936736
 30
0.0
 10
29.91555662466901
 20
21.8722273843976
 30
0.0
 10
29.91555662466901
 20
21.8722273843976
 30
0.0
 10
29.91555662466901
 20
24.76500946782155
 30
0.0
 10
29.91555662466901
 20
24.76500946782155
 30
0.0
 10
29.91555662466901
 20
24.87083849475906
 30
0.0
 10
29.80972221476979
 20
24.76500946782155
 30
0.0
 10
29.91555662466901
 20
24.76500946782155
 30
0.0
 10
29.91555662466901
 20
24.76500946782155
 30
0.0
 10
35.66583547760155
 20
24.76500946782155
 30
0.0
 10
35.66583547760155
 20
24.76500946782155
 30
0.0
 10
35.77166988750077
 20
24.76500946782155
 30
0.0
 10
35.66583547760155
 20
24.87083849475906
 30
0.0
 10
35.66583547760155
 20
24.76500946782155
 30
0.0
 10
35.66583547760155
 20
24.76500946782155
 30
0.0
 10
35.66583547760155
 20
21.8722273843976
 30
0.0
 10
35.66583547760155
 20
21.8722273843976
 30
0.0
 10
35.66583547760155
 20
21.80166752249033
 30
0.0
 10
35.73638995654714
 20
21.76639835746009
 30
0.0
 10
35.77166988750077
 20
21.76639835746009
 30
0.0
 10
35.77166988750077
 20
21.76639835746009
 30
0.0
 10
41.76889210822369
 20
21.76639835746009
 30
0.0
 10
41.76889210822369
 20
21.76639835746009
 30
0.0
 10
41.83944658716926
 20
21.76639835746009
 30
0.0
 10
41.8747265181229
 20
21.83695821936736
 30
0.0
 10
41.8747265181229
 20
21.8722273843976
 30
0.0
 10
41.8747265181229
 20
21.8722273843976
 30
0.0
 10
41.8747265181229
 20
24.76500946782155
 30
0.0
 10
41.8747265181229
 20
24.76500946782155
 30
0.0
 10
41.8747265181229
 20
24.87083849475906
 30
0.0
 10
41.76889210822369
 20
24.76500946782155
 30
0.0
 10
41.8747265181229
 20
24.76500946782155
 30
0.0
 10
41.8747265181229
 20
24.76500946782155
 30
0.0
 10
47.62500537105545
 20
24.76500946782155
 30
0.0
 10
47.62500537105545
 20
24.76500946782155
 30
0.0
 10
47.73083978095466
 20
24.76500946782155
 30
0.0
 10
47.62500537105545
 20
24.87083849475906
 30
0.0
 10
47.62500537105545
 20
24.76500946782155
 30
0.0
 10
47.62500537105545
 20
24.76500946782155
 30
0.0
 10
47.62500537105545
 20
21.8722273843976
 30
0.0
 10
47.62500537105545
 20
21.8722273843976
 30
0.0
 10
47.62500537105545
 20
21.80166752249033
 30
0.0
 10
47.69555985000102
 20
21.76639835746009
 30
0.0
 10
47.73083978095466
 20
21.76639835746009
 30
0.0
 10
47.73083978095466
 20
21.76639835746009
 30
0.0
 10
53.72806200167758
 20
21.76639835746009
 30
0.0
 10
53.72806200167758
 20
21.76639835746009
 30
0.0
 10
53.79861648062316
 20
21.76639835746009
 30
0.0
 10
53.8338964115768
 20
21.83695821936736
 30
0.0
 10
53.8338964115768
 20
21.8722273843976
 30
0.0
 10
53.8338964115768
 20
21.8722273843976
 30
0.0
 10
53.8338964115768
 20
24.76500946782155
 30
0.0
 10
53.8338964115768
 20
24.76500946782155
 30
0.0
 10
53.8338964115768
 20
24.87083849475906
 30
0.0
 10
53.72806200167758
 20
24.76500946782155
 30
0.0
 10
53.8338964115768
 20
24.76500946782155
 30
0.0
 10
53.8338964115768
 20
24.76500946782155
 30
0.0
 10
59.58417526450966
 20
24.76500946782155
 30
0.0
 10
59.58417526450966
 20
24.76500946782155
 30
0.0
 10
59.69000967440855
 20
24.76500946782155
 30
0.0
 10
59.58417526450966
 20
24.87083849475906
 30
0.0
 10
59.58417526450966
 20
24.76500946782155
 30
0.0
 10
59.58417526450966
 20
24.76500946782155
 30
0.0
 10
59.58417526450966
 20
21.8722273843976
 30
0.0
 10
59.58417526450966
 20
21.8722273843976
 30
0.0
 10
59.58417526450966
 20
21.80166752249033
 30
0.0
 10
59.65472974345491
 20
21.76639835746009
 30
0.0
 10
59.69000967440855
 20
21.76639835746009
 30
0.0
 10
59.69000967440855
 20
21.76639835746009
 30
0.0
 10
65.68723189513147
 20
21.76639835746009
 30
0.0
 10
65.68723189513147
 20
21.76639835746009
 30
0.0
 10
65.75778637407736
 20
21.76639835746009
 30
0.0
 10
65.79306630503069
 20
21.83695821936736
 30
0.0
 10
65.79306630503069
 20
21.8722273843976
 30
0.0
 10
65.79306630503069
 20
21.8722273843976
 30
0.0
 10
65.79306630503069
 20
24.76500946782155
 30
0.0
 10
65.79306630503069
 20
24.76500946782155
 30
0.0
 10
65.79306630503069
 20
24.87083849475906
 30
0.0
 10
65.68723189513147
 20
24.76500946782155
 30
0.0
 10
65.79306630503069
 20
24.76500946782155
 30
0.0
 10
65.79306630503069
 20
24.76500946782155
 30
0.0
 10
71.54334515796323
 20
24.76500946782155
 30
0.0
 10
71.54334515796323
 20
24.76500946782155
 30
0.0
 10
71.64917956786244
 20
24.76500946782155
 30
0.0
 10
71.54334515796323
 20
24.87083849475906
 30
0.0
 10
71.54334515796323
 20
24.76500946782155
 30
0.0
 10
71.54334515796323
 20
24.76500946782155
 30
0.0
 10
71.54334515796323
 20
21.8722273843976
 30
0.0
 10
71.54334515796323
 20
21.8722273843976
 30
0.0
 10
71.54334515796323
 20
21.80166752249033
 30
0.0
 10
71.61389963690881
 20
21.76639835746009
 30
0.0
 10
71.64917956786244
 20
21.76639835746009
 30
0.0
 10
71.64917956786244
 20
21.76639835746009
 30
0.0
 10
77.64640178858536
 20
21.76639835746009
 30
0.0
 10
77.64640178858536
 20
21.76639835746009
 30
0.0
 10
77.71695626753094
 20
21.76639835746009
 30
0.0
 10
77.75223619848458
 20
21.83695821936736
 30
0.0
 10
77.75223619848458
 20
21.8722273843976
 30
0.0
 10
77.75223619848458
 20
21.8722273843976
 30
0.0
 10
77.75223619848458
 20
24.76500946782155
 30
0.0
 10
77.75223619848458
 20
24.76500946782155
 30
0.0
 10
77.75223619848458
 20
24.87083849475906
 30
0.0
 10
77.64640178858536
 20
24.76500946782155
 30
0.0
 10
77.75223619848458
 20
24.76500946782155
 30
0.0
 10
77.75223619848458
 20
24.76500946782155
 30
0.0
 10
83.50251505141711
 20
24.76500946782155
 30
0.0
 10
83.50251505141711
 20
24.76500946782155
 30
0.0
 10
83.60834946131634
 20
24.76500946782155
 30
0.0
 10
83.50251505141711
 20
24.87083849475906
 30
0.0
 10
83.50251505141711
 20
24.76500946782155
 30
0.0
 10
83.50251505141711
 20
24.76500946782155
 30
0.0
 10
83.50251505141711
 20
21.8722273843976
 30
0.0
 10
83.50251505141711
 20
21.8722273843976
 30
0.0
 10
83.50251505141711
 20
21.80166752249033
 30
0.0
 10
83.57306953036269
 20
21.76639835746009
 30
0.0
 10
83.60834946131634
 20
21.76639835746009
 30
0.0
 10
83.60834946131634
 20
21.76639835746009
 30
0.0
 10
89.60557168203925
 20
21.76639835746009
 30
0.0
 10
89.60557168203925
 20
21.76639835746009
 30
0.0
 10
89.67612616098483
 20
21.76639835746009
 30
0.0
 10
89.71140609193847
 20
21.83695821936736
 30
0.0
 10
89.71140609193847
 20
21.8722273843976
 30
0.0
 10
89.71140609193847
 20
21.8722273843976
 30
0.0
 10
89.71140609193847
 20
24.76500946782155
 30
0.0
 10
89.71140609193847
 20
24.76500946782155
 30
0.0
 10
89.71140609193847
 20
24.87083849475906
 30
0.0
 10
89.60557168203925
 20
24.76500946782155
 30
0.0
 10
89.71140609193847
 20
24.76500946782155
 30
0.0
 10
89.71140609193847
 20
24.76500946782155
 30
0.0
 10
95.46167956190933
 20
24.76500946782155
 30
0.0
 10
95.46167956190933
 20
24.76500946782155
 30
0.0
 10
95.56750858884717
 20
24.76500946782155
 30
0.0
 10
95.46167956190933
 20
24.87083849475906
 30
0.0
 10
95.46167956190933
 20
24.76500946782155
 30
0.0
 10
95.46167956190933
 20
24.76500946782155
 30
0.0
 10
95.46167956190933
 20
21.8722273843976
 30
0.0
 10
95.46167956190933
 20
21.8722273843976
 30
0.0
 10
95.46167956190933
 20
21.80166752249033
 30
0.0
 10
95.53223942381659
 20
21.76639835746009
 30
0.0
 10
95.56750858884717
 20
21.76639835746009
 30
0.0
 10
95.56750858884717
 20
21.76639835746009
 30
0.0
 10
101.5647308095701
 20
21.76639835746009
 30
0.0
 10
101.5647308095701
 20
21.76639835746009
 30
0.0
 10
101.635290671477
 20
21.76639835746009
 30
0.0
 10
101.6705598365073
 20
21.83695821936736
 30
0.0
 10
101.6705598365073
 20
21.8722273843976
 30
0.0
 10
101.6705598365073
 20
21.8722273843976
 30
0.0
 10
101.6705598365073
 20
24.76500946782155
 30
0.0
 10
101.6705598365073
 20
24.76500946782155
 30
0.0
 10
101.6705598365073
 20
24.87083849475906
 30
0.0
 10
101.5647308095701
 20
24.76500946782155
 30
0.0
 10
101.6705598365073
 20
24.76500946782155
 30
0.0
 10
101.6705598365073
 20
24.76500946782155
 30
0.0
 10
107.4208333064781
 20
24.76500946782155
 30
0.0
 10
107.4208333064781
 20
24.76500946782155
 30
0.0
 10
107.5266623334156
 20
24.76500946782155
 30
0.0
 10
107.4208333064781
 20
24.87083849475906
 30
0.0
 10
107.4208333064781
 20
24.76500946782155
 30
0.0
 10
107.4208333064781
 20
24.76500946782155
 30
0.0
 10
107.4208333064781
 20
21.8722273843976
 30
0.0
 10
107.4208333064781
 20
21.8722273843976
 30
0.0
 10
107.4208333064781
 20
21.80166752249033
 30
0.0
 10
107.4913931683854
 20
21.76639835746009
 30
0.0
 10
107.5266623334156
 20
21.76639835746009
 30
0.0
 10
107.5266623334156
 20
21.76639835746009
 30
0.0
 10
115.5347221933385
 20
21.76639835746009
 30
0.0
 10
115.5347221933385
 20
21.76639835746009
 30
0.0
 10
115.5347221933385
 20
21.76639835746009
 30
0.0
 10
118.5333333037
 20
21.76639835746009
 30
0.0
 10
118.5333333037
 20
21.76639835746009
 30
0.0
 10
118.6038931656073
 20
21.76639835746009
 30
0.0
 10
118.6391623306375
 20
21.83695821936736
 30
0.0
 10
118.6391623306375
 20
21.8722273843976
 30
0.0
 10
118.6391623306375
 20
21.8722273843976
 30
0.0
 10
118.6391623306375
 20
24.87083849475906
 30
0.0
 10
118.6391623306375
 20
24.87083849475906
 30
0.0
 10
118.6391623306375
 20
24.87083849475906
 30
0.0
 10
118.6391623306375
 20
32.87889835468196
 30
0.0
 10
118.6391623306375
 20
32.87889835468196
 30
0.0
 10
118.6391623306375
 20
32.94945821658923
 30
0.0
 10
118.5686024687302
 20
32.98472738161948
 30
0.0
 10
118.5333333037
 20
32.98472738161948
 30
0.0
 10
118.5333333037
 20
32.98472738161948
 30
0.0
 10
115.640551220276
 20
32.98472738161948
 30
0.0
 10
115.640551220276
 20
32.98472738161948
 30
0.0
 10
115.5347221933385
 20
32.98472738161948
 30
0.0
 10
115.640551220276
 20
32.87889835468196
 30
0.0
 10
115.640551220276
 20
32.98472738161948
 30
0.0
 10
115.640551220276
 20
32.98472738161948
 30
0.0
 10
115.640551220276
 20
38.73500085159033
 30
0.0
 10
115.640551220276
 20
38.73500085159033
 30
0.0
 10
115.640551220276
 20
38.84082987852785
 30
0.0
 10
115.5347221933385
 20
38.73500085159033
 30
0.0
 10
115.640551220276
 20
38.73500085159033
 30
0.0
 10
115.640551220276
 20
38.73500085159033
 30
0.0
 10
118.5333333037
 20
38.73500085159033
 30
0.0
 10
118.5333333037
 20
38.73500085159033
 30
0.0
 10
118.6038931656073
 20
38.73500085159033
 30
0.0
 10
118.6391623306375
 20
38.8055607134976
 30
0.0
 10
118.6391623306375
 20
38.84082987852785
 30
0.0
 10
118.6391623306375
 20
38.84082987852785
 30
0.0
 10
118.6391623306375
 20
44.83805209925076
 30
0.0
 10
118.6391623306375
 20
44.83805209925076
 30
0.0
 10
118.6391623306375
 20
44.90861196115804
 30
0.0
 10
118.5686024687302
 20
44.94388112618827
 30
0.0
 10
118.5333333037
 20
44.94388112618827
 30
0.0
 10
118.5333333037
 20
44.94388112618827
 30
0.0
 10
115.640551220276
 20
44.94388112618827
 30
0.0
 10
115.640551220276
 20
44.94388112618827
 30
0.0
 10
115.5347221933385
 20
44.94388112618827
 30
0.0
 10
115.640551220276
 20
44.83805209925076
 30
0.0
 10
115.640551220276
 20
44.94388112618827
 30
0.0
 10
115.640551220276
 20
44.94388112618827
 30
0.0
 10
115.640551220276
 20
50.69415459615914
 30
0.0
 10
115.640551220276
 20
50.69415459615914
 30
0.0
 10
115.640551220276
 20
50.79998362309665
 30
0.0
 10
115.5347221933385
 20
50.69415459615914
 30
0.0
 10
115.640551220276
 20
50.69415459615914
 30
0.0
 10
115.640551220276
 20
50.69415459615914
 30
0.0
 10
118.5333333037
 20
50.69415459615914
 30
0.0
 10
118.5333333037
 20
50.69415459615914
 30
0.0
 10
118.6038931656073
 20
50.69415459615914
 30
0.0
 10
118.6391623306375
 20
50.76471445806641
 30
0.0
 10
118.6391623306375
 20
50.79998362309665
 30
0.0
 10
118.6391623306375
 20
50.79998362309665
 30
0.0
 10
118.6391623306375
 20
58.80804348301955
 30
0.0
 10
118.6391623306375
 20
58.80804348301955
 30
0.0
 10
118.6391623306375
 20
58.80804348301955
 30
0.0
 10
118.6391623306375
 20
61.80665459338101
 30
0.0
 10
118.6391623306375
 20
61.80665459338101
 30
0.0
 10
118.6391623306375
 20
61.87721445528828
 30
0.0
 10
118.5686024687302
 20
61.91248362031853
 30
0.0
 10
118.5333333037
 20
61.91248362031853
 30
0.0
 10
118.5333333037
 20
61.91248362031853
 30
0.0
 10
115.5347221933385
 20
61.91248362031853
 30
0.0
 10
115.5347221933385
 20
61.91248362031853
 30
0.0
 10
115.5347221933385
 20
61.91248362031853
 30
0.0
 10
107.5266623334156
 20
61.91248362031853
 30
0.0
 10
107.5266623334156
 20
61.91248362031853
 30
0.0
 10
107.4561024715087
 20
61.91248362031853
 30
0.0
 10
107.4208333064781
 20
61.84192375841125
 30
0.0
 10
107.4208333064781
 20
61.80665459338101
 30
0.0
 10
107.4208333064781
 20
61.80665459338101
 30
0.0
 10
107.4208333064781
 20
58.91387250995706
 30
0.0
 10
107.4208333064781
 20
58.91387250995706
 30
0.0
 10
107.4208333064781
 20
58.80804348301955
 30
0.0
 10
107.5266623334156
 20
58.91387250995706
 30
0.0
 10
107.4208333064781
 20
58.91387250995706
 30
0.0
 10
107.4208333064781
 20
58.91387250995706
 30
0.0
 10
101.6705598365073
 20
58.91387250995706
 30
0.0
 10
101.6705598365073
 20
58.91387250995706
 30
0.0
 10
101.5647308095701
 20
58.91387250995706
 30
0.0
 10
101.6705598365073
 20
58.80804348301955
 30
0.0
 10
101.6705598365073
 20
58.91387250995706
 30
0.0
 10
101.6705598365073
 20
58.91387250995706
 30
0.0
 10
101.6705598365073
 20
61.80665459338101
 30
0.0
 10
101.6705598365073
 20
61.80665459338101
 30
0.0
 10
101.6705598365073
 20
61.87721445528828
 30
0.0
 10
101.5999999746
 20
61.91248362031853
 30
0.0
 10
101.5647308095701
 20
61.91248362031853
 30
0.0
 10
101.5647308095701
 20
61.91248362031853
 30
0.0
 10
95.56750858884717
 20
61.91248362031853
 30
0.0
 10
95.56750858884717
 20
61.91248362031853
 30
0.0
 10
95.49694872693956
 20
61.91248362031853
 30
0.0
 10
95.46167956190933
 20
61.84192375841125
 30
0.0
 10
95.46167956190933
 20
61.80665459338101
 30
0.0
 10
95.46167956190933
 20
61.80665459338101
 30
0.0
 10
95.46167956190933
 20
58.91387250995706
 30
0.0
 10
95.46167956190933
 20
58.91387250995706
 30
0.0
 10
95.46167956190933
 20
58.80804348301955
 30
0.0
 10
95.56750858884717
 20
58.91387250995706
 30
0.0
 10
95.46167956190933
 20
58.91387250995706
 30
0.0
 10
95.46167956190933
 20
58.91387250995706
 30
0.0
 10
89.71140070897678
 20
58.91387250995706
 30
0.0
 10
89.71140070897678
 20
58.91387250995706
 30
0.0
 10
89.60556629907756
 20
58.91387250995706
 30
0.0
 10
89.71140070897678
 20
58.80804348301955
 30
0.0
 10
89.71140070897678
 20
58.91387250995706
 30
0.0
 10
89.71140070897678
 20
58.91387250995706
 30
0.0
 10
89.71140070897678
 20
61.80665459338101
 30
0.0
 10
89.71140070897678
 20
61.80665459338101
 30
0.0
 10
89.71140070897678
 20
61.87721445528828
 30
0.0
 10
89.6408462300312
 20
61.91248362031853
 30
0.0
 10
89.60556629907756
 20
61.91248362031853
 30
0.0
 10
89.60556629907756
 20
61.91248362031853
 30
0.0
 10
83.60834407835465
 20
61.91248362031853
 30
0.0
 10
83.60834407835465
 20
61.91248362031853
 30
0.0
 10
83.53778959940907
 20
61.91248362031853
 30
0.0
 10
83.50250966845543
 20
61.84192375841125
 30
0.0
 10
83.50250966845543
 20
61.80665459338101
 30
0.0
 10
83.50250966845543
 20
61.80665459338101
 30
0.0
 10
83.50250966845543
 20
58.91387250995706
 30
0.0
 10
83.50250966845543
 20
58.91387250995706
 30
0.0
 10
83.50250966845543
 20
58.80804348301955
 30
0.0
 10
83.60834407835465
 20
58.91387250995706
 30
0.0
 10
83.50250966845543
 20
58.91387250995706
 30
0.0
 10
83.50250966845543
 20
58.91387250995706
 30
0.0
 10
77.7522308155232
 20
58.91387250995706
 30
0.0
 10
77.7522308155232
 20
58.91387250995706
 30
0.0
 10
77.64639640562368
 20
58.91387250995706
 30
0.0
 10
77.7522308155232
 20
58.80804348301955
 30
0.0
 10
77.7522308155232
 20
58.91387250995706
 30
0.0
 10
77.7522308155232
 20
58.91387250995706
 30
0.0
 10
77.7522308155232
 20
61.80665459338101
 30
0.0
 10
77.7522308155232
 20
61.80665459338101
 30
0.0
 10
77.7522308155232
 20
61.87721445528828
 30
0.0
 10
77.68167633657731
 20
61.91248362031853
 30
0.0
 10
77.64639640562368
 20
61.91248362031853
 30
0.0
 10
77.64639640562368
 20
61.91248362031853
 30
0.0
 10
71.64917418490076
 20
61.91248362031853
 30
0.0
 10
71.64917418490076
 20
61.91248362031853
 30
0.0
 10
71.57861970595549
 20
61.91248362031853
 30
0.0
 10
71.54333977500154
 20
61.84192375841125
 30
0.0
 10
71.54333977500154
 20
61.80665459338101
 30
0.0
 10
71.54333977500154
 20
61.80665459338101
 30
0.0
 10
71.54333977500154
 20
58.91387250995706
 30
0.0
 10
71.54333977500154
 20
58.91387250995706
 30
0.0
 10
71.54333977500154
 20
58.80804348301955
 30
0.0
 10
71.64917418490076
 20
58.91387250995706
 30
0.0
 10
71.54333977500154
 20
58.91387250995706
 30
0.0
 10
71.54333977500154
 20
58.91387250995706
 30
0.0
 10
65.79306092206898
 20
58.91387250995706
 30
0.0
 10
65.79306092206898
 20
58.91387250995706
 30
0.0
 10
65.68722651216977
 20
58.91387250995706
 30
0.0
 10
65.79306092206898
 20
58.80804348301955
 30
0.0
 10
65.79306092206898
 20
58.91387250995706
 30
0.0
 10
65.79306092206898
 20
58.91387250995706
 30
0.0
 10
65.79306092206898
 20
61.80665459338101
 30
0.0
 10
65.79306092206898
 20
61.80665459338101
 30
0.0
 10
65.79306092206898
 20
61.87721445528828
 30
0.0
 10
65.7225064431234
 20
61.91248362031853
 30
0.0
 10
65.68722651216977
 20
61.91248362031853
 30
0.0
 10
65.68722651216977
 20
61.91248362031853
 30
0.0
 10
59.69000429144686
 20
61.91248362031853
 30
0.0
 10
59.69000429144686
 20
61.91248362031853
 30
0.0
 10
59.61944981250128
 20
61.91248362031853
 30
0.0
 10
59.58416988154764
 20
61.84192375841125
 30
0.0
 10
59.58416988154764
 20
61.80665459338101
 30
0.0
 10
59.58416988154764
 20
61.80665459338101
 30
0.0
 10
59.58416988154764
 20
58.91387250995706
 30
0.0
 10
59.58416988154764
 20
58.91387250995706
 30
0.0
 10
59.58416988154764
 20
58.80804348301955
 30
0.0
 10
59.69000429144686
 20
58.91387250995706
 30
0.0
 10
59.58416988154764
 20
58.91387250995706
 30
0.0
 10
59.58416988154764
 20
58.91387250995706
 30
0.0
 10
53.8338910286151
 20
58.91387250995706
 30
0.0
 10
53.8338910286151
 20
58.91387250995706
 30
0.0
 10
53.72805661871588
 20
58.91387250995706
 30
0.0
 10
53.8338910286151
 20
58.80804348301955
 30
0.0
 10
53.8338910286151
 20
58.91387250995706
 30
0.0
 10
53.8338910286151
 20
58.91387250995706
 30
0.0
 10
53.8338910286151
 20
61.80665459338101
 30
0.0
 10
53.8338910286151
 20
61.80665459338101
 30
0.0
 10
53.8338910286151
 20
61.87721445528828
 30
0.0
 10
53.76333654966952
 20
61.91248362031853
 30
0.0
 10
53.72805661871588
 20
61.91248362031853
 30
0.0
 10
53.72805661871588
 20
61.91248362031853
 30
0.0
 10
47.73083439799296
 20
61.91248362031853
 30
0.0
 10
47.73083439799296
 20
61.91248362031853
 30
0.0
 10
47.66027991904739
 20
61.91248362031853
 30
0.0
 10
47.62499998809375
 20
61.84192375841125
 30
0.0
 10
47.62499998809375
 20
61.80665459338101
 30
0.0
 10
47.62499998809375
 20
61.80665459338101
 30
0.0
 10
47.62499998809375
 20
58.91387250995706
 30
0.0
 10
47.62499998809375
 20
58.91387250995706
 30
0.0
 10
47.62499998809375
 20
58.80804348301955
 30
0.0
 10
47.73083439799296
 20
58.91387250995706
 30
0.0
 10
47.62499998809375
 20
58.91387250995706
 30
0.0
 10
47.62499998809375
 20
58.91387250995706
 30
0.0
 10
41.8747211351612
 20
58.91387250995706
 30
0.0
 10
41.8747211351612
 20
58.91387250995706
 30
0.0
 10
41.76888672526199
 20
58.91387250995706
 30
0.0
 10
41.8747211351612
 20
58.80804348301955
 30
0.0
 10
41.8747211351612
 20
58.91387250995706
 30
0.0
 10
41.8747211351612
 20
58.91387250995706
 30
0.0
 10
41.8747211351612
 20
61.80665459338101
 30
0.0
 10
41.8747211351612
 20
61.80665459338101
 30
0.0
 10
41.8747211351612
 20
61.87721445528828
 30
0.0
 10
41.80416665621563
 20
61.91248362031853
 30
0.0
 10
41.76888672526199
 20
61.91248362031853
 30
0.0
 10
41.76888672526199
 20
61.91248362031853
 30
0.0
 10
35.77166450453908
 20
61.91248362031853
 30
0.0
 10
35.77166450453908
 20
61.91248362031853
 30
0.0
 10
35.70111002559349
 20
61.91248362031853
 30
0.0
 10
35.66583009463986
 20
61.84192375841125
 30
0.0
 10
35.66583009463986
 20
61.80665459338101
 30
0.0
 10
35.66583009463986
 20
61.80665459338101
 30
0.0
 10
35.66583009463986
 20
58.91387250995706
 30
0.0
 10
35.66583009463986
 20
58.91387250995706
 30
0.0
 10
35.66583009463986
 20
58.80804348301955
 30
0.0
 10
35.77166450453908
 20
58.91387250995706
 30
0.0
 10
35.66583009463986
 20
58.91387250995706
 30
0.0
 10
35.66583009463986
 20
58.91387250995706
 30
0.0
 10
29.91555662466901
 20
58.91387250995706
 30
0.0
 10
29.91555662466901
 20
58.91387250995706
 30
0.0
 10
29.80972221476979
 20
58.91387250995706
 30
0.0
 10
29.91555662466901
 20
58.80804348301955
 30
0.0
 10
29.91555662466901
 20
58.91387250995706
 30
0.0
 10
29.91555662466901
 20
58.91387250995706
 30
0.0
 10
29.91555662466901
 20
61.80665459338101
 30
0.0
 10
29.91555662466901
 20
61.80665459338101
 30
0.0
 10
29.91555662466901
 20
61.87721445528828
 30
0.0
 10
29.84500214572343
 20
61.91248362031853
 30
0.0
 10
29.80972221476979
 20
61.91248362031853
 30
0.0
 10
29.80972221476979
 20
61.91248362031853
 30
0.0
 10
21.80166639206817
 20
61.91248362031853
 30
0.0
 10
21.80166639206817
 20
61.91248362031853
 30
0.0
 10
21.80166639206817
 20
61.91248362031853
 30
0.0
 10
18.80305528170671
 20
61.91248362031853
 30
0.0
 10
18.80305528170671
 20
61.91248362031853
 30
0.0
 10
18.7324994570207
 20
61.91248362031853
 30
0.0
 10
18.69722221754791
 20
61.84192375841125
 30
0.0
 10
18.69722221754791
 20
61.80665459338101
 30
0.0
 10
18.69722221754791
 20
61.80665459338101
 30
0.0
 10
18.69722221754791
 20
58.80804348301955
 30
0.0
 10
18.69722221754791
 20
58.80804348301955
 30
0.0
 10
18.69722221754791
 20
58.80804348301955
 30
0.0
 10
18.69722221754791
 20
50.79998362309665
 30
0.0
 10
18.69722221754791
 20
50.79998362309665
 30
0.0
 10
18.69722221754791
 20
50.72942376118938
 30
0.0
 10
18.76777804223392
 20
50.69415459615914
 30
0.0
 10
18.80305528170671
 20
50.69415459615914
 30
0.0
 10
18.80305528170671
 20
50.69415459615914
 30
0.0
 10
21.69583332790938
 20
50.69415459615914
 30
0.0
 10
21.69583332790938
 20
50.69415459615914
 30
0.0
 10
21.80166639206817
 20
50.69415459615914
 30
0.0
 10
21.69583332790938
 20
50.79998362309665
 30
0.0
 10
21.69583332790938
 20
50.69415459615914
 30
0.0
 10
21.69583332790938
 20
50.69415459615914
 30
0.0
 10
21.69583332790938
 20
44.94388112618827
 30
0.0
 10
21.69583332790938
 20
44.94388112618827
 30
0.0
 10
21.69583332790938
 20
44.83805209925076
 30
0.0
 10
21.80166639206817
 20
44.94388112618827
 30
0.0
 10
21.69583332790938
 20
44.94388112618827
 30
0.0
 10
21.69583332790938
 20
44.94388112618827
 30
0.0
 10
18.80305528170671
 20
44.94388112618827
 30
0.0
 10
18.80305528170671
 20
44.94388112618827
 30
0.0
 10
18.7324994570207
 20
44.94388112618827
 30
0.0
 10
18.69722221754791
 20
44.87332126428101
 30
0.0
 10
18.69722221754791
 20
44.83805209925076
 30
0.0
 10
18.69722221754791
 20
44.83805209925076
 30
0.0
 10
18.69722221754791
 20
38.84082987852785
 30
0.0
 10
18.69722221754791
 20
38.84082987852785
 30
0.0
 10
18.69722221754791
 20
38.77027001662057
 30
0.0
 10
18.76777804223392
 20
38.73500085159033
 30
0.0
 10
18.80305528170671
 20
38.73500085159033
 30
0.0
 10
18.80305528170671
 20
38.73500085159033
 30
0.0
 10
21.69583332790938
 20
38.73500085159033
 30
0.0
 10
21.69583332790938
 20
38.73500085159033
 30
0.0
 10
21.80166639206817
 20
38.73500085159033
 30
0.0
 10
21.69583332790938
 20
38.84082987852785
 30
0.0
 10
21.69583332790938
 20
38.73500085159033
 30
0.0
 10
21.69583332790938
 20
38.73500085159033
 30
0.0
 10
21.69583332790938
 20
32.98472738161948
 30
0.0
 10
21.69583332790938
 20
32.98472738161948
 30
0.0
 10
21.69583332790938
 20
32.87889835468196
 30
0.0
 10
21.80166639206817
 20
32.98472738161948
 30
0.0
 10
21.69583332790938
 20
32.98472738161948
 30
0.0
 10
21.69583332790938
 20
32.98472738161948
 30
0.0
 10
18.80305528170671
 20
32.98472738161948
 30
0.0
 10
18.80305528170671
 20
32.98472738161948
 30
0.0
 10
18.7324994570207
 20
32.98472738161948
 30
0.0
 10
18.69722221754791
 20
32.9141675197122
 30
0.0
 10
18.69722221754791
 20
32.87889835468196
 30
0.0
 10
18.69722221754791
 20
32.87889835468196
 30
0.0
 10
18.69722221754791
 20
24.87083849475906
 30
0.0
 10
18.69722221754791
 20
24.87083849475906
 30
0.0
 10
18.69722221754791
 20
24.87083849475906
 30
0.0
 10
18.69722221754791
 20
21.8722273843976
 30
0.0
 10
18.69722221754791
 20
21.8722273843976
 30
0.0
 10
18.69722221754791
 20
21.80166752249033
 30
0.0
 10
18.76777804223392
 20
21.76639835746009
 30
0.0
 10
18.80305528170671
 20
21.76639835746009
 30
0.0
 10
18.80305528170671
 20
21.76639835746009
 30
0.0
 10
21.80166639206817
 20
21.76639835746009
 30
0.0
 10
21.80166639206817
 20
21.76639835746009
 30
0.0
  0
SPLINE
  5
7E
330
79
100
AcDbEntity
  8
framework
 62
    18
420
        0
370
    25
100
AcDbSpline
210
0.0
220
0.0
230
1.0
 70
     9
 71
     3
 72
   473
 73
   469
 74
     0
 42
0.0000000001
 43
0.0000000001
 40
0.0
 40
0.0
 40
0.0
 40
0.0
 40
1.0
 40
1.0
 40
1.0
 40
2.0
 40
2.0
 40
2.0
 40
3.0
 40
3.0
 40
3.0
 40
4.0
 40
4.0
 40
4.0
 40
5.0
 40
5.0
 40
5.0
 40
6.0
 40
6.0
 40
6.0
 40
7.0
 40
7.0
 40
7.0
 40
8.0
 40
8.0
 40
8.0
 40
9.0
 40
9.0
 40
9.0
 40
10.0
 40
10.0
 40
10.0
 40
11.0
 40
11.0
 40
11.0
 40
12.0
 40
12.0
 40
12.0
 40
13.0
 40
13.0
 40
13.0
 40
14.0
 40
14.0
 40
14.0
 40
15.0
 40
15.0
 40
15.0
 40
16.0
 40
16.0
 40
16.0
 40
17.0
 40
17.0
 40
17.0
 40
18.0
 40
18.0
 40
18.0
 40
19.0
 40
19.0
 40
19.0
 40
20.0
 40
20.0
 40
20.0
 40
21.0
 40
21.0
 40
21.0
 40
22.0
 40
22.0
 40
22.0
 40
23.0
 40
23.0
 40
23.0
 40
24.0
 40
24.0
 40
24.0
 40
25.0
 40
25.0
 40
25.0
 40
26.0
 40
26.0
 40
26.0
 40
27.0
 40
27.0
 40
27.0
 40
28.0
 40
28.0
 40
28.0
 40
29.0
 40
29.0
 40
29.0
 40
30.0
 40
30.0
 40
30.0
 40
31.0
 40
31.0
 40
31.0
 40
32.0
 40
32.0
 40
32.0
 40
33.0
 40
33.0
 40
33.0
 40
34.0
 40
34.0
 40
34.0
 40
35.0
 40
35.0
 40
35.0
 40
36.0
 40
36.0
 40
36.0
 40
37.0
 40
37.0
 40
37.0
 40
38.0
 40
38.0
 40
38.0
 40
39.0
 40
39.0
 40
39.0
 40
40.0
 40
40.0
 40
40.0
 40
41.0
 40
41.0
 40
41.0
 40
42.0
 40
42.0
 40
42.0
 40
43.0
 40
43.0
 40
43.0
 40
44.0
 40
44.0
 40
44.0
 40
45.0
 40
45.0
 40
45.0
 40
46.0
 40
46.0
 40
46.0
 40
47.0
 40
47.0
 40
47.0
 40
48.0
 40
48.0
 40
48.0
 40
49.0
 40
49.0
 40
49.0
 40
50.0
 40
50.0
 40
50.0
 40
51.0
 40
51.0
 40
51.0
 40
52.0
 40
52.0
 40
52.0
 40
53.0
 40
53.0
 40
53.0
 40
54.0
 40
54.0
 40
54.0
 40
55.0
 40
55.0
 40
55.0
 40
56.0
 40
56.0
 40
56.0
 40
57.0
 40
57.0
 40
57.0
 40
58.0
 40
58.0
 40
58.0
 40
59.0
 40
59.0
 40
59.0
 40
60.0
 40
60.0
 40
60.0
 40
61.0
 40
61.0
 40
61.0
 40
62.0
 40
62.0
 40
62.0
 40
63.0
 40
63.0
 40
63.0
 40
64.0
 40
64.0
 40
64.0
 40
65.0
 40
65.0
 40
65.0
 40
66.0
 40
66.0
 40
66.0
 40
67.0
 40
67.0
 40
67.0
 40
68.0
 40
68.0
 40
68.0
 40
69.0
 40
69.0
 40
69.0
 40
70.0
 40
70.0
 40
70.0
 40
71.0
 40
71.0
 40
71.0
 40
72.0
 40
72.0
 40
72.0
 40
73.0
 40
73.0
 40
73.0
 40
74.0
 40
74.0
 40
74.0
 40
75.0
 40
75.0
 40
75.0
 40
76.0
 40
76.0
 40
76.0
 40
77.0
 40
77.0
 40
77.0
 40
78.0
 40
78.0
 40
78.0
 40
79.0
 40
79.0
 40
79.0
 40
80.0
 40
80.0
 40
80.0
 40
81.0
 40
81.0
 40
81.0
 40
82.0
 40
82.0
 40
82.0
 40
83.0
 40
83.0
 40
83.0
 40
84.0
 40
84.0
 40
84.0
 40
85.0
 40
85.0
 40
85.0
 40
86.0
 40
86.0
 40
86.0
 40
87.0
 40
87.0
 40
87.0
 40
88.0
 40
88.0
 40
88.0
 40
89.0
 40
89.0
 40
89.0
 40
90.0
 40
90.0
 40
90.0
 40
91.0
 40
91.0
 40
91.0
 40
92.0
 40
92.0
 40
92.0
 40
93.0
 40
93.0
 40
93.0
 40
94.0
 40
94.0
 40
94.0
 40
95.0
 40
95.0
 40
95.0
 40
96.0
 40
96.0
 40
96.0
 40
97.0
 40
97.0
 40
97.0
 40
98.0
 40
98.0
 40
98.0
 40
99.0
 40
99.0
 40
99.0
 40
100.0
 40
100.0
 40
100.0
 40
101.0
 40
101.0
 40
101.0
 40
102.0
 40
102.0
 40
102.0
 40
103.0
 40
103.0
 40
103.0
 40
104.0
 40
104.0
 40
104.0
 40
105.0
 40
105.0
 40
105.0
 40
106.0
 40
106.0
 40
106.0
 40
107.0
 40
107.0
 40
107.0
 40
108.0
 40
108.0
 40
108.0
 40
109.0
 40
109.0
 40
109.0
 40
110.0
 40
110.0
 40
110.0
 40
111.0
 40
111.0
 40
111.0
 40
112.0
 40
112.0
 40
112.0
 40
113.0
 40
113.0
 40
113.0
 40
114.0
 40
114.0
 40
114.0
 40
115.0
 40
115.0
 40
115.0
 40
116.0
 40
116.0
 40
116.0
 40
117.0
 40
117.0
 40
117.0
 40
118.0
 40
118.0
 40
118.0
 40
119.0
 40
119.0
 40
119.0
 40
120.0
 40
120.0
 40
120.0
 40
121.0
 40
121.0
 40
121.0
 40
122.0
 40
122.0
 40
122.0
 40
123.0
 40
123.0
 40
123.0
 40
124.0
 40
124.0
 40
124.0
 40
125.0
 40
125.0
 40
125.0
 40
126.0
 40
126.0
 40
126.0
 40
127.0
 40
127.0
 40
127.0
 40
128.0
 40
128.0
 40
128.0
 40
129.0
 40
129.0
 40
129.0
 40
130.0
 40
130.0
 40
130.0
 40
131.0
 40
131.0
 40
131.0
 40
132.0
 40
132.0
 40
132.0
 40
133.0
 40
133.0
 40
133.0
 40
134.0
 40
134.0
 40
134.0
 40
135.0
 40
135.0
 40
135.0
 40
136.0
 40
136.0
 40
136.0
 40
137.0
 40
137.0
 40
137.0
 40
138.0
 40
138.0
 40
138.0
 40
139.0
 40
139.0
 40
139.0
 40
140.0
 40
140.0
 40
140.0
 40
141.0
 40
141.0
 40
141.0
 40
142.0
 40
142.0
 40
142.0
 40
143.0
 40
143.0
 40
143.0
 40
144.0
 40
144.0
 40
144.0
 40
145.0
 40
145.0
 40
145.0
 40
146.0
 40
146.0
 40
146.0
 40
147.0
 40
147.0
 40
147.0
 40
148.0
 40
148.0
 40
148.0
 40
149.0
 40
149.0
 40
149.0
 40
150.0
 40
150.0
 40
150.0
 40
151.0
 40
151.0
 40
151.0
 40
152.0
 40
152.0
 40
152.0
 40
153.0
 40
153.0
 40
153.0
 40
154.0
 40
154.0
 40
154.0
 40
155.0
 40
155.0
 40
155.0
 40
156.0
 40
156.0
 40
156.0
 40
156.0
 10
123.5427820532614
 20
21.76639835746009
 30
0.0
 10
123.5427820532614
 20
21.76639835746009
 30
0.0
 10
131.5508419131843
 20
21.76639835746009
 30
0.0
 10
131.5508419131843
 20
21.76639835746009
 30
0.0
 10
131.6214017750916
 20
21.76639835746009
 30
0.0
 10
131.6566709401219
 20
21.83695821936736
 30
0.0
 10
131.6566709401219
 20
21.8722273843976
 30
0.0
 10
131.6566709401219
 20
21.8722273843976
 30
0.0
 10
131.6566709401219
 20
24.76500946782155
 30
0.0
 10
131.6566709401219
 20
24.76500946782155
 30
0.0
 10
131.6566709401219
 20
24.87083849475906
 30
0.0
 10
131.5508419131843
 20
24.76500946782155
 30
0.0
 10
131.6566709401219
 20
24.76500946782155
 30
0.0
 10
131.6566709401219
 20
24.76500946782155
 30
0.0
 10
137.4069444100927
 20
24.76500946782155
 30
0.0
 10
137.4069444100927
 20
24.76500946782155
 30
0.0
 10
137.5127734370302
 20
24.76500946782155
 30
0.0
 10
137.4069444100927
 20
24.87083849475906
 30
0.0
 10
137.4069444100927
 20
24.76500946782155
 30
0.0
 10
137.4069444100927
 20
24.76500946782155
 30
0.0
 10
137.4069444100927
 20
21.8722273843976
 30
0.0
 10
137.4069444100927
 20
21.8722273843976
 30
0.0
 10
137.4069444100927
 20
21.80166752249033
 30
0.0
 10
137.477504272
 20
21.76639835746009
 30
0.0
 10
137.5127734370302
 20
21.76639835746009
 30
0.0
 10
137.5127734370302
 20
21.76639835746009
 30
0.0
 10
143.5099956577531
 20
21.76639835746009
 30
0.0
 10
143.5099956577531
 20
21.76639835746009
 30
0.0
 10
143.5805555196604
 20
21.76639835746009
 30
0.0
 10
143.6158246846907
 20
21.83695821936736
 30
0.0
 10
143.6158246846907
 20
21.8722273843976
 30
0.0
 10
143.6158246846907
 20
21.8722273843976
 30
0.0
 10
143.6158246846907
 20
24.76500946782155
 30
0.0
 10
143.6158246846907
 20
24.76500946782155
 30
0.0
 10
143.6158246846907
 20
24.87083849475906
 30
0.0
 10
143.5099956577531
 20
24.76500946782155
 30
0.0
 10
143.6158246846907
 20
24.76500946782155
 30
0.0
 10
143.6158246846907
 20
24.76500946782155
 30
0.0
 10
149.3660981546615
 20
24.76500946782155
 30
0.0
 10
149.3660981546615
 20
24.76500946782155
 30
0.0
 10
149.471927181599
 20
24.76500946782155
 30
0.0
 10
149.3660981546615
 20
24.87083849475906
 30
0.0
 10
149.3660981546615
 20
24.76500946782155
 30
0.0
 10
149.3660981546615
 20
24.76500946782155
 30
0.0
 10
149.3660981546615
 20
21.8722273843976
 30
0.0
 10
149.3660981546615
 20
21.8722273843976
 30
0.0
 10
149.3660981546615
 20
21.80166752249033
 30
0.0
 10
149.4366580165688
 20
21.76639835746009
 30
0.0
 10
149.471927181599
 20
21.76639835746009
 30
0.0
 10
149.471927181599
 20
21.76639835746009
 30
0.0
 10
155.4691494023219
 20
21.76639835746009
 30
0.0
 10
155.4691494023219
 20
21.76639835746009
 30
0.0
 10
155.5397092642292
 20
21.76639835746009
 30
0.0
 10
155.5749784292595
 20
21.83695821936736
 30
0.0
 10
155.5749784292595
 20
21.8722273843976
 30
0.0
 10
155.5749784292595
 20
21.8722273843976
 30
0.0
 10
155.5749784292595
 20
24.76500946782155
 30
0.0
 10
155.5749784292595
 20
24.76500946782155
 30
0.0
 10
155.5749784292595
 20
24.87083849475906
 30
0.0
 10
155.4691494023219
 20
24.76500946782155
 30
0.0
 10
155.5749784292595
 20
24.76500946782155
 30
0.0
 10
155.5749784292595
 20
24.76500946782155
 30
0.0
 10
161.3252518992303
 20
24.76500946782155
 30
0.0
 10
161.3252518992303
 20
24.76500946782155
 30
0.0
 10
161.4310809261678
 20
24.76500946782155
 30
0.0
 10
161.3252518992303
 20
24.87083849475906
 30
0.0
 10
161.3252518992303
 20
24.76500946782155
 30
0.0
 10
161.3252518992303
 20
24.76500946782155
 30
0.0
 10
161.3252518992303
 20
21.8722273843976
 30
0.0
 10
161.3252518992303
 20
21.8722273843976
 30
0.0
 10
161.3252518992303
 20
21.80166752249033
 30
0.0
 10
161.3958117611376
 20
21.76639835746009
 30
0.0
 10
161.4310809261678
 20
21.76639835746009
 30
0.0
 10
161.4310809261678
 20
21.76639835746009
 30
0.0
 10
167.4283031468907
 20
21.76639835746009
 30
0.0
 10
167.4283031468907
 20
21.76639835746009
 30
0.0
 10
167.498863008798
 20
21.76639835746009
 30
0.0
 10
167.5341321738283
 20
21.83695821936736
 30
0.0
 10
167.5341321738283
 20
21.8722273843976
 30
0.0
 10
167.5341321738283
 20
21.8722273843976
 30
0.0
 10
167.5341321738283
 20
24.76500946782155
 30
0.0
 10
167.5341321738283
 20
24.76500946782155
 30
0.0
 10
167.5341321738283
 20
24.87083849475906
 30
0.0
 10
167.4283031468907
 20
24.76500946782155
 30
0.0
 10
167.5341321738283
 20
24.76500946782155
 30
0.0
 10
167.5341321738283
 20
24.76500946782155
 30
0.0
 10
173.2844056437991
 20
24.76500946782155
 30
0.0
 10
173.2844056437991
 20
24.76500946782155
 30
0.0
 10
173.3902346707366
 20
24.76500946782155
 30
0.0
 10
173.2844056437991
 20
24.87083849475906
 30
0.0
 10
173.2844056437991
 20
24.76500946782155
 30
0.0
 10
173.2844056437991
 20
24.76500946782155
 30
0.0
 10
173.2844056437991
 20
21.8722273843976
 30
0.0
 10
173.2844056437991
 20
21.8722273843976
 30
0.0
 10
173.2844056437991
 20
21.80166752249033
 30
0.0
 10
173.3549655057064
 20
21.76639835746009
 30
0.0
 10
173.3902346707366
 20
21.76639835746009
 30
0.0
 10
173.3902346707366
 20
21.76639835746009
 30
0.0
 10
179.3874568914596
 20
21.76639835746009
 30
0.0
 10
179.3874568914596
 20
21.76639835746009
 30
0.0
 10
179.4580167533668
 20
21.76639835746009
 30
0.0
 10
179.4932859183971
 20
21.83695821936736
 30
0.0
 10
179.4932859183971
 20
21.8722273843976
 30
0.0
 10
179.4932859183971
 20
21.8722273843976
 30
0.0
 10
179.4932859183971
 20
24.76500946782155
 30
0.0
 10
179.4932859183971
 20
24.76500946782155
 30
0.0
 10
179.4932859183971
 20
24.87083849475906
 30
0.0
 10
179.3874568914596
 20
24.76500946782155
 30
0.0
 10
179.4932859183971
 20
24.76500946782155
 30
0.0
 10
179.4932859183971
 20
24.76500946782155
 30
0.0
 10
185.2435593883679
 20
24.76500946782155
 30
0.0
 10
185.2435593883679
 20
24.76500946782155
 30
0.0
 10
185.3493884153055
 20
24.76500946782155
 30
0.0
 10
185.2435593883679
 20
24.87083849475906
 30
0.0
 10
185.2435593883679
 20
24.76500946782155
 30
0.0
 10
185.2435593883679
 20
24.76500946782155
 30
0.0
 10
185.2435593883679
 20
21.8722273843976
 30
0.0
 10
185.2435593883679
 20
21.8722273843976
 30
0.0
 10
185.2435593883679
 20
21.80166752249033
 30
0.0
 10
185.3141192502752
 20
21.76639835746009
 30
0.0
 10
185.3493884153055
 20
21.76639835746009
 30
0.0
 10
185.3493884153055
 20
21.76639835746009
 30
0.0
 10
191.3466106360283
 20
21.76639835746009
 30
0.0
 10
191.3466106360283
 20
21.76639835746009
 30
0.0
 10
191.4171704979356
 20
21.76639835746009
 30
0.0
 10
191.4524396629659
 20
21.83695821936736
 30
0.0
 10
191.4524396629659
 20
21.8722273843976
 30
0.0
 10
191.4524396629659
 20
21.8722273843976
 30
0.0
 10
191.4524396629659
 20
24.76500946782155
 30
0.0
 10
191.4524396629659
 20
24.76500946782155
 30
0.0
 10
191.4524396629659
 20
24.87083849475906
 30
0.0
 10
191.3466106360283
 20
24.76500946782155
 30
0.0
 10
191.4524396629659
 20
24.76500946782155
 30
0.0
 10
191.4524396629659
 20
24.76500946782155
 30
0.0
 10
197.2027131329367
 20
24.76500946782155
 30
0.0
 10
197.2027131329367
 20
24.76500946782155
 30
0.0
 10
197.3085421598742
 20
24.76500946782155
 30
0.0
 10
197.2027131329367
 20
24.87083849475906
 30
0.0
 10
197.2027131329367
 20
24.76500946782155
 30
0.0
 10
197.2027131329367
 20
24.76500946782155
 30
0.0
 10
197.2027131329367
 20
21.8722273843976
 30
0.0
 10
197.2027131329367
 20
21.8722273843976
 30
0.0
 10
197.2027131329367
 20
21.80166752249033
 30
0.0
 10
197.273272994844
 20
21.76639835746009
 30
0.0
 10
197.3085421598742
 20
21.76639835746009
 30
0.0
 10
197.3085421598742
 20
21.76639835746009
 30
0.0
 10
203.3057643805971
 20
21.76639835746009
 30
0.0
 10
203.3057643805971
 20
21.76639835746009
 30
0.0
 10
203.3763242425045
 20
21.76639835746009
 30
0.0
 10
203.4115934075347
 20
21.83695821936736
 30
0.0
 10
203.4115934075347
 20
21.8722273843976
 30
0.0
 10
203.4115934075347
 20
21.8722273843976
 30
0.0
 10
203.4115934075347
 20
24.76500946782155
 30
0.0
 10
203.4115934075347
 20
24.76500946782155
 30
0.0
 10
203.4115934075347
 20
24.87083849475906
 30
0.0
 10
203.3057643805971
 20
24.76500946782155
 30
0.0
 10
203.4115934075347
 20
24.76500946782155
 30
0.0
 10
203.4115934075347
 20
24.76500946782155
 30
0.0
 10
209.1618668775056
 20
24.76500946782155
 30
0.0
 10
209.1618668775056
 20
24.76500946782155
 30
0.0
 10
209.267695904443
 20
24.76500946782155
 30
0.0
 10
209.1618668775056
 20
24.87083849475906
 30
0.0
 10
209.1618668775056
 20
24.76500946782155
 30
0.0
 10
209.1618668775056
 20
24.76500946782155
 30
0.0
 10
209.1618668775056
 20
21.8722273843976
 30
0.0
 10
209.1618668775056
 20
21.8722273843976
 30
0.0
 10
209.1618668775056
 20
21.80166752249033
 30
0.0
 10
209.2324267394128
 20
21.76639835746009
 30
0.0
 10
209.267695904443
 20
21.76639835746009
 30
0.0
 10
209.267695904443
 20
21.76639835746009
 30
0.0
 10
217.2757557643659
 20
21.76639835746009
 30
0.0
 10
217.2757557643659
 20
21.76639835746009
 30
0.0
 10
217.3463156262732
 20
21.76639835746009
 30
0.0
 10
217.3815847913035
 20
21.83695821936736
 30
0.0
 10
217.3815847913035
 20
21.8722273843976
 30
0.0
 10
217.3815847913035
 20
21.8722273843976
 30
0.0
 10
217.3815847913035
 20
24.87083849475906
 30
0.0
 10
217.3815847913035
 20
24.87083849475906
 30
0.0
 10
217.3815847913035
 20
24.87083849475906
 30
0.0
 10
217.3815847913035
 20
32.73777863086741
 30
0.0
 10
217.3815847913035
 20
32.73777863086741
 30
0.0
 10
217.3815847913035
 20
32.84360765780493
 30
0.0
 10
217.2757557643659
 20
32.73777863086741
 30
0.0
 10
217.3815847913035
 20
32.73777863086741
 30
0.0
 10
217.3815847913035
 20
32.73777863086741
 30
0.0
 10
220.2743668747274
 20
32.73777863086741
 30
0.0
 10
220.2743668747274
 20
32.73777863086741
 30
0.0
 10
220.3449267366347
 20
32.73777863086741
 30
0.0
 10
220.3801959016649
 20
32.80833849277469
 30
0.0
 10
220.3801959016649
 20
32.84360765780493
 30
0.0
 10
220.3801959016649
 20
32.84360765780493
 30
0.0
 10
220.3801959016649
 20
38.84082987852785
 30
0.0
 10
220.3801959016649
 20
38.84082987852785
 30
0.0
 10
220.3801959016649
 20
38.91138974043512
 30
0.0
 10
220.3096360397577
 20
38.94665890546536
 30
0.0
 10
220.2743668747274
 20
38.94665890546536
 30
0.0
 10
220.2743668747274
 20
38.94665890546536
 30
0.0
 10
217.6638888344729
 20
38.94665890546536
 30
0.0
 10
217.6638888344729
 20
38.94665890546536
 30
0.0
 10
217.5580598075354
 20
38.94665890546536
 30
0.0
 10
217.6638888344729
 20
38.84082987852785
 30
0.0
 10
217.6638888344729
 20
38.94665890546536
 30
0.0
 10
217.6638888344729
 20
38.94665890546536
 30
0.0
 10
217.6638888344729
 20
44.69693237543622
 30
0.0
 10
217.6638888344729
 20
44.69693237543622
 30
0.0
 10
217.6638888344729
 20
44.80276140237373
 30
0.0
 10
217.5580598075354
 20
44.69693237543622
 30
0.0
 10
217.6638888344729
 20
44.69693237543622
 30
0.0
 10
217.6638888344729
 20
44.69693237543622
 30
0.0
 10
220.5566709178969
 20
44.69693237543622
 30
0.0
 10
220.5566709178969
 20
44.69693237543622
 30
0.0
 10
220.6272307798041
 20
44.69693237543622
 30
0.0
 10
220.6624999448344
 20
44.76749223734349
 30
0.0
 10
220.6624999448344
 20
44.80276140237373
 30
0.0
 10
220.6624999448344
 20
44.80276140237373
 30
0.0
 10
220.6624999448344
 20
50.79998362309665
 30
0.0
 10
220.6624999448344
 20
50.79998362309665
 30
0.0
 10
220.6624999448344
 20
50.87054348500393
 30
0.0
 10
220.5919400829271
 20
50.90581265003417
 30
0.0
 10
220.5566709178969
 20
50.90581265003417
 30
0.0
 10
220.5566709178969
 20
50.90581265003417
 30
0.0
 10
217.6638888344729
 20
50.90581265003417
 30
0.0
 10
217.6638888344729
 20
50.90581265003417
 30
0.0
 10
217.5580598075354
 20
50.90581265003417
 30
0.0
 10
217.6638888344729
 20
50.79998362309665
 30
0.0
 10
217.6638888344729
 20
50.90581265003417
 30
0.0
 10
217.6638888344729
 20
50.90581265003417
 30
0.0
 10
217.6638888344729
 20
58.77275278614252
 30
0.0
 10
217.6638888344729
 20
58.77275278614252
 30
0.0
 10
217.6638888344729
 20
58.77275278614252
 30
0.0
 10
217.6638888344729
 20
61.77136389650399
 30
0.0
 10
217.6638888344729
 20
61.77136389650399
 30
0.0
 10
217.6638888344729
 20
61.84192375841125
 30
0.0
 10
217.5933289725656
 20
61.8771929234415
 30
0.0
 10
217.5580598075354
 20
61.8771929234415
 30
0.0
 10
217.5580598075354
 20
61.8771929234415
 30
0.0
 10
209.5499999476125
 20
61.8771929234415
 30
0.0
 10
209.5499999476125
 20
61.8771929234415
 30
0.0
 10
209.4794400857053
 20
61.8771929234415
 30
0.0
 10
209.444170920675
 20
61.80663306153423
 30
0.0
 10
209.444170920675
 20
61.77136389650399
 30
0.0
 10
209.444170920675
 20
61.77136389650399
 30
0.0
 10
209.444170920675
 20
58.87858181308004
 30
0.0
 10
209.444170920675
 20
58.87858181308004
 30
0.0
 10
209.444170920675
 20
58.77275278614252
 30
0.0
 10
209.5499999476125
 20
58.87858181308004
 30
0.0
 10
209.444170920675
 20
58.87858181308004
 30
0.0
 10
209.444170920675
 20
58.87858181308004
 30
0.0
 10
203.6938974507041
 20
58.87858181308004
 30
0.0
 10
203.6938974507041
 20
58.87858181308004
 30
0.0
 10
203.5880684237666
 20
58.87858181308004
 30
0.0
 10
203.6938974507041
 20
58.77275278614252
 30
0.0
 10
203.6938974507041
 20
58.87858181308004
 30
0.0
 10
203.6938974507041
 20
58.87858181308004
 30
0.0
 10
203.6938974507041
 20
61.77136389650399
 30
0.0
 10
203.6938974507041
 20
61.77136389650399
 30
0.0
 10
203.6938974507041
 20
61.84192375841125
 30
0.0
 10
203.6233375887968
 20
61.8771929234415
 30
0.0
 10
203.5880684237666
 20
61.8771929234415
 30
0.0
 10
203.5880684237666
 20
61.8771929234415
 30
0.0
 10
197.5908462030437
 20
61.8771929234415
 30
0.0
 10
197.5908462030437
 20
61.8771929234415
 30
0.0
 10
197.5202863411364
 20
61.8771929234415
 30
0.0
 10
197.4850171761062
 20
61.80663306153423
 30
0.0
 10
197.4850171761062
 20
61.77136389650399
 30
0.0
 10
197.4850171761062
 20
61.77136389650399
 30
0.0
 10
197.4850171761062
 20
58.87858181308004
 30
0.0
 10
197.4850171761062
 20
58.87858181308004
 30
0.0
 10
197.4850171761062
 20
58.77275278614252
 30
0.0
 10
197.5908462030437
 20
58.87858181308004
 30
0.0
 10
197.4850171761062
 20
58.87858181308004
 30
0.0
 10
197.4850171761062
 20
58.87858181308004
 30
0.0
 10
191.7347437061353
 20
58.87858181308004
 30
0.0
 10
191.7347437061353
 20
58.87858181308004
 30
0.0
 10
191.6289146791978
 20
58.87858181308004
 30
0.0
 10
191.7347437061353
 20
58.77275278614252
 30
0.0
 10
191.7347437061353
 20
58.87858181308004
 30
0.0
 10
191.7347437061353
 20
58.87858181308004
 30
0.0
 10
191.7347437061353
 20
61.77136389650399
 30
0.0
 10
191.7347437061353
 20
61.77136389650399
 30
0.0
 10
191.7347437061353
 20
61.84192375841125
 30
0.0
 10
191.6641838442281
 20
61.8771929234415
 30
0.0
 10
191.6289146791978
 20
61.8771929234415
 30
0.0
 10
191.6289146791978
 20
61.8771929234415
 30
0.0
 10
185.6316924584749
 20
61.8771929234415
 30
0.0
 10
185.6316924584749
 20
61.8771929234415
 30
0.0
 10
185.5611325965676
 20
61.8771929234415
 30
0.0
 10
185.5258634315374
 20
61.80663306153423
 30
0.0
 10
185.5258634315374
 20
61.77136389650399
 30
0.0
 10
185.5258634315374
 20
61.77136389650399
 30
0.0
 10
185.5258634315374
 20
58.87858181308004
 30
0.0
 10
185.5258634315374
 20
58.87858181308004
 30
0.0
 10
185.5258634315374
 20
58.77275278614252
 30
0.0
 10
185.6316924584749
 20
58.87858181308004
 30
0.0
 10
185.5258634315374
 20
58.87858181308004
 30
0.0
 10
185.5258634315374
 20
58.87858181308004
 30
0.0
 10
179.7755899615665
 20
58.87858181308004
 30
0.0
 10
179.7755899615665
 20
58.87858181308004
 30
0.0
 10
179.669760934629
 20
58.87858181308004
 30
0.0
 10
179.7755899615665
 20
58.77275278614252
 30
0.0
 10
179.7755899615665
 20
58.87858181308004
 30
0.0
 10
179.7755899615665
 20
58.87858181308004
 30
0.0
 10
179.7755899615665
 20
61.77136389650399
 30
0.0
 10
179.7755899615665
 20
61.77136389650399
 30
0.0
 10
179.7755899615665
 20
61.84192375841125
 30
0.0
 10
179.7050300996593
 20
61.8771929234415
 30
0.0
 10
179.669760934629
 20
61.8771929234415
 30
0.0
 10
179.669760934629
 20
61.8771929234415
 30
0.0
 10
173.6725387139061
 20
61.8771929234415
 30
0.0
 10
173.6725387139061
 20
61.8771929234415
 30
0.0
 10
173.6019788519988
 20
61.8771929234415
 30
0.0
 10
173.5667096869686
 20
61.80663306153423
 30
0.0
 10
173.5667096869686
 20
61.77136389650399
 30
0.0
 10
173.5667096869686
 20
61.77136389650399
 30
0.0
 10
173.5667096869686
 20
58.87858181308004
 30
0.0
 10
173.5667096869686
 20
58.87858181308004
 30
0.0
 10
173.5667096869686
 20
58.77275278614252
 30
0.0
 10
173.6725387139061
 20
58.87858181308004
 30
0.0
 10
173.5667096869686
 20
58.87858181308004
 30
0.0
 10
173.5667096869686
 20
58.87858181308004
 30
0.0
 10
167.8164362169977
 20
58.87858181308004
 30
0.0
 10
167.8164362169977
 20
58.87858181308004
 30
0.0
 10
167.7106071900602
 20
58.87858181308004
 30
0.0
 10
167.8164362169977
 20
58.77275278614252
 30
0.0
 10
167.8164362169977
 20
58.87858181308004
 30
0.0
 10
167.8164362169977
 20
58.87858181308004
 30
0.0
 10
167.8164362169977
 20
61.77136389650399
 30
0.0
 10
167.8164362169977
 20
61.77136389650399
 30
0.0
 10
167.8164362169977
 20
61.84192375841125
 30
0.0
 10
167.7458763550904
 20
61.8771929234415
 30
0.0
 10
167.7106071900602
 20
61.8771929234415
 30
0.0
 10
167.7106071900602
 20
61.8771929234415
 30
0.0
 10
161.7133849693373
 20
61.8771929234415
 30
0.0
 10
161.7133849693373
 20
61.8771929234415
 30
0.0
 10
161.64282510743
 20
61.8771929234415
 30
0.0
 10
161.6075559423997
 20
61.80663306153423
 30
0.0
 10
161.6075559423997
 20
61.77136389650399
 30
0.0
 10
161.6075559423997
 20
61.77136389650399
 30
0.0
 10
161.6075559423997
 20
58.87858181308004
 30
0.0
 10
161.6075559423997
 20
58.87858181308004
 30
0.0
 10
161.6075559423997
 20
58.77275278614252
 30
0.0
 10
161.7133849693373
 20
58.87858181308004
 30
0.0
 10
161.6075559423997
 20
58.87858181308004
 30
0.0
 10
161.6075559423997
 20
58.87858181308004
 30
0.0
 10
155.8572824724289
 20
58.87858181308004
 30
0.0
 10
155.8572824724289
 20
58.87858181308004
 30
0.0
 10
155.7514534454914
 20
58.87858181308004
 30
0.0
 10
155.8572824724289
 20
58.77275278614252
 30
0.0
 10
155.8572824724289
 20
58.87858181308004
 30
0.0
 10
155.8572824724289
 20
58.87858181308004
 30
0.0
 10
155.8572824724289
 20
61.77136389650399
 30
0.0
 10
155.8572824724289
 20
61.77136389650399
 30
0.0
 10
155.8572824724289
 20
61.84192375841125
 30
0.0
 10
155.7867226105216
 20
61.8771929234415
 30
0.0
 10
155.7514534454914
 20
61.8771929234415
 30
0.0
 10
155.7514534454914
 20
61.8771929234415
 30
0.0
 10
149.7542312247685
 20
61.8771929234415
 30
0.0
 10
149.7542312247685
 20
61.8771929234415
 30
0.0
 10
149.6836713628612
 20
61.8771929234415
 30
0.0
 10
149.6484021978309
 20
61.80663306153423
 30
0.0
 10
149.6484021978309
 20
61.77136389650399
 30
0.0
 10
149.6484021978309
 20
61.77136389650399
 30
0.0
 10
149.6484021978309
 20
58.87858181308004
 30
0.0
 10
149.6484021978309
 20
58.87858181308004
 30
0.0
 10
149.6484021978309
 20
58.77275278614252
 30
0.0
 10
149.7542312247685
 20
58.87858181308004
 30
0.0
 10
149.6484021978309
 20
58.87858181308004
 30
0.0
 10
149.6484021978309
 20
58.87858181308004
 30
0.0
 10
143.8981287278601
 20
58.87858181308004
 30
0.0
 10
143.8981287278601
 20
58.87858181308004
 30
0.0
 10
143.7922997009226
 20
58.87858181308004
 30
0.0
 10
143.8981287278601
 20
58.77275278614252
 30
0.0
 10
143.8981287278601
 20
58.87858181308004
 30
0.0
 10
143.8981287278601
 20
58.87858181308004
 30
0.0
 10
143.8981287278601
 20
61.77136389650399
 30
0.0
 10
143.8981287278601
 20
61.77136389650399
 30
0.0
 10
143.8981287278601
 20
61.84192375841125
 30
0.0
 10
143.8275688659528
 20
61.8771929234415
 30
0.0
 10
143.7922997009226
 20
61.8771929234415
 30
0.0
 10
143.7922997009226
 20
61.8771929234415
 30
0.0
 10
137.7950774801997
 20
61.8771929234415
 30
0.0
 10
137.7950774801997
 20
61.8771929234415
 30
0.0
 10
137.7245176182924
 20
61.8771929234415
 30
0.0
 10
137.6892484532621
 20
61.80663306153423
 30
0.0
 10
137.6892484532621
 20
61.77136389650399
 30
0.0
 10
137.6892484532621
 20
61.77136389650399
 30
0.0
 10
137.6892484532621
 20
58.87858181308004
 30
0.0
 10
137.6892484532621
 20
58.87858181308004
 30
0.0
 10
137.6892484532621
 20
58.77275278614252
 30
0.0
 10
137.7950774801997
 20
58.87858181308004
 30
0.0
 10
137.6892484532621
 20
58.87858181308004
 30
0.0
 10
137.6892484532621
 20
58.87858181308004
 30
0.0
 10
131.9389749832913
 20
58.87858181308004
 30
0.0
 10
131.9389749832913
 20
58.87858181308004
 30
0.0
 10
131.8331459563538
 20
58.87858181308004
 30
0.0
 10
131.9389749832913
 20
58.77275278614252
 30
0.0
 10
131.9389749832913
 20
58.87858181308004
 30
0.0
 10
131.9389749832913
 20
58.87858181308004
 30
0.0
 10
131.9389749832913
 20
61.77136389650399
 30
0.0
 10
131.9389749832913
 20
61.77136389650399
 30
0.0
 10
131.9389749832913
 20
61.84192375841125
 30
0.0
 10
131.868415121384
 20
61.8771929234415
 30
0.0
 10
131.8331459563538
 20
61.8771929234415
 30
0.0
 10
131.8331459563538
 20
61.8771929234415
 30
0.0
 10
123.8250860964309
 20
61.8771929234415
 30
0.0
 10
123.8250860964309
 20
61.8771929234415
 30
0.0
 10
123.7545262345236
 20
61.8771929234415
 30
0.0
 10
123.7192570694933
 20
61.80663306153423
 30
0.0
 10
123.7192570694933
 20
61.77136389650399
 30
0.0
 10
123.7192570694933
 20
61.77136389650399
 30
0.0
 10
123.7192570694933
 20
58.77275278614252
 30
0.0
 10
123.7192570694933
 20
58.77275278614252
 30
0.0
 10
123.7192570694933
 20
58.77275278614252
 30
0.0
 10
123.7192570694933
 20
50.90581265003417
 30
0.0
 10
123.7192570694933
 20
50.90581265003417
 30
0.0
 10
123.7192570694933
 20
50.79998362309665
 30
0.0
 10
123.8250860964309
 20
50.90581265003417
 30
0.0
 10
123.7192570694933
 20
50.90581265003417
 30
0.0
 10
123.7192570694933
 20
50.90581265003417
 30
0.0
 10
120.8264749860694
 20
50.90581265003417
 30
0.0
 10
120.8264749860694
 20
50.90581265003417
 30
0.0
 10
120.7559151241621
 20
50.90581265003417
 30
0.0
 10
120.7206459591319
 20
50.8352527881269
 30
0.0
 10
120.7206459591319
 20
50.79998362309665
 30
0.0
 10
120.7206459591319
 20
50.79998362309665
 30
0.0
 10
120.7206459591319
 20
44.80276140237373
 30
0.0
 10
120.7206459591319
 20
44.80276140237373
 30
0.0
 10
120.7206459591319
 20
44.73220154046646
 30
0.0
 10
120.7912058210392
 20
44.69693237543622
 30
0.0
 10
120.8264749860694
 20
44.69693237543622
 30
0.0
 10
120.8264749860694
 20
44.69693237543622
 30
0.0
 10
123.7192570694933
 20
44.69693237543622
 30
0.0
 10
123.7192570694933
 20
44.69693237543622
 30
0.0
 10
123.8250860964309
 20
44.69693237543622
 30
0.0
 10
123.7192570694933
 20
44.80276140237373
 30
0.0
 10
123.7192570694933
 20
44.69693237543622
 30
0.0
 10
123.7192570694933
 20
44.69693237543622
 30
0.0
 10
123.7192570694933
 20
38.94665890546536
 30
0.0
 10
123.7192570694933
 20
38.94665890546536
 30
0.0
 10
123.7192570694933
 20
38.84082987852785
 30
0.0
 10
123.8250860964309
 20
38.94665890546536
 30
0.0
 10
123.7192570694933
 20
38.94665890546536
 30
0.0
 10
123.7192570694933
 20
38.94665890546536
 30
0.0
 10
120.8264749860694
 20
38.94665890546536
 30
0.0
 10
120.8264749860694
 20
38.94665890546536
 30
0.0
 10
120.7559151241621
 20
38.94665890546536
 30
0.0
 10
120.7206459591319
 20
38.87609904355809
 30
0.0
 10
120.7206459591319
 20
38.84082987852785
 30
0.0
 10
120.7206459591319
 20
38.84082987852785
 30
0.0
 10
120.7206459591319
 20
32.84360765780493
 30
0.0
 10
120.7206459591319
 20
32.84360765780493
 30
0.0
 10
120.7206459591319
 20
32.77304779589766
 30
0.0
 10
120.7912058210392
 20
32.73777863086741
 30
0.0
 10
120.8264749860694
 20
32.73777863086741
 30
0.0
 10
120.8264749860694
 20
32.73777863086741
 30
0.0
 10
123.7192570694933
 20
32.73777863086741
 30
0.0
 10
123.7192570694933
 20
32.73777863086741
 30
0.0
 10
123.8250860964309
 20
32.73777863086741
 30
0.0
 10
123.7192570694933
 20
32.84360765780493
 30
0.0
 10
123.7192570694933
 20
32.73777863086741
 30
0.0
 10
123.7192570694933
 20
32.73777863086741
 30
0.0
 10
123.7192570694933
 20
24.87083849475906
 30
0.0
 10
123.7192570694933
 20
24.87083849475906
 30
0.0
 10
123.7192570694933
 20
24.87083849475906
 30
0.0
 10
123.7192570694933
 20
21.8722273843976
 30
0.0
 10
123.7192570694933
 20
21.8722273843976
 30
0.0
 10
123.4369422604005
 20
21.80166752249033
 30
0.0
 10
123.4722221913542
 20
21.76639835746009
 30
0.0
 10
123.5427820532614
 20
21.76639835746009
 30
0.0
  0
SPLINE
  5
7F
330
79
100
AcDbEntity
  8
framework
 62
    18
420
        0
370
    25
100
AcDbSpline
210
0.0
220
0.0
230
1.0
 70
     9
 71
     3
 72
   473
 73
   469
 74
     0
 42
0.0000000001
 43
0.0000000001
 40
0.0
 40
0.0
 40
0.0
 40
0.0
 40
1.0
 40
1.0
 40
1.0
 40
2.0
 40
2.0
 40
2.0
 40
3.0
 40
3.0
 40
3.0
 40
4.0
 40
4.0
 40
4.0
 40
5.0
 40
5.0
 40
5.0
 40
6.0
 40
6.0
 40
6.0
 40
7.0
 40
7.0
 40
7.0
 40
8.0
 40
8.0
 40
8.0
 40
9.0
 40
9.0
 40
9.0
 40
10.0
 40
10.0
 40
10.0
 40
11.0
 40
11.0
 40
11.0
 40
12.0
 40
12.0
 40
12.0
 40
13.0
 40
13.0
 40
13.0
 40
14.0
 40
14.0
 40
14.0
 40
15.0
 40
15.0
 40
15.0
 40
16.0
 40
16.0
 40
16.0
 40
17.0
 40
17.0
 40
17.0
 40
18.0
 40
18.0
 40
18.0
 40
19.0
 40
19.0
 40
19.0
 40
20.0
 40
20.0
 40
20.0
 40
21.0
 40
21.0
 40
21.0
 40
22.0
 40
22.0
 40
22.0
 40
23.0
 40
23.0
 40
23.0
 40
24.0
 40
24.0
 40
24.0
 40
25.0
 40
25.0
 40
25.0
 40
26.0
 40
26.0
 40
26.0
 40
27.0
 40
27.0
 40
27.0
 40
28.0
 40
28.0
 40
28.0
 40
29.0
 40
29.0
 40
29.0
 40
30.0
 40
30.0
 40
30.0
 40
31.0
 40
31.0
 40
31.0
 40
32.0
 40
32.0
 40
32.0
 40
33.0
 40
33.0
 40
33.0
 40
34.0
 40
34.0
 40
34.0
 40
35.0
 40
35.0
 40
35.0
 40
36.0
 40
36.0
 40
36.0
 40
37.0
 40
37.0
 40
37.0
 40
38.0
 40
38.0
 40
38.0
 40
39.0
 40
39.0
 40
39.0
 40
40.0
 40
40.0
 40
40.0
 40
41.0
 40
41.0
 40
41.0
 40
42.0
 40
42.0
 40
42.0
 40
43.0
 40
43.0
 40
43.0
 40
44.0
 40
44.0
 40
44.0
 40
45.0
 40
45.0
 40
45.0
 40
46.0
 40
46.0
 40
46.0
 40
47.0
 40
47.0
 40
47.0
 40
48.0
 40
48.0
 40
48.0
 40
49.0
 40
49.0
 40
49.0
 40
50.0
 40
50.0
 40
50.0
 40
51.0
 40
51.0
 40
51.0
 40
52.0
 40
52.0
 40
52.0
 40
53.0
 40
53.0
 40
53.0
 40
54.0
 40
54.0
 40
54.0
 40
55.0
 40
55.0
 40
55.0
 40
56.0
 40
56.0
 40
56.0
 40
57.0
 40
57.0
 40
57.0
 40
58.0
 40
58.0
 40
58.0
 40
59.0
 40
59.0
 40
59.0
 40
60.0
 40
60.0
 40
60.0
 40
61.0
 40
61.0
 40
61.0
 40
62.0
 40
62.0
 40
62.0
 40
63.0
 40
63.0
 40
63.0
 40
64.0
 40
64.0
 40
64.0
 40
65.0
 40
65.0
 40
65.0
 40
66.0
 40
66.0
 40
66.0
 40
67.0
 40
67.0
 40
67.0
 40
68.0
 40
68.0
 40
68.0
 40
69.0
 40
69.0
 40
69.0
 40
70.0
 40
70.0
 40
70.0
 40
71.0
 40
71.0
 40
71.0
 40
72.0
 40
72.0
 40
72.0
 40
73.0
 40
73.0
 40
73.0
 40
74.0
 40
74.0
 40
74.0
 40
75.0
 40
75.0
 40
75.0
 40
76.0
 40
76.0
 40
76.0
 40
77.0
 40
77.0
 40
77.0
 40
78.0
 40
78.0
 40
78.0
 40
79.0
 40
79.0
 40
79.0
 40
80.0
 40
80.0
 40
80.0
 40
81.0
 40
81.0
 40
81.0
 40
82.0
 40
82.0
 40
82.0
 40
83.0
 40
83.0
 40
83.0
 40
84.0
 40
84.0
 40
84.0
 40
85.0
 40
85.0
 40
85.0
 40
86.0
 40
86.0
 40
86.0
 40
87.0
 40
87.0
 40
87.0
 40
88.0
 40
88.0
 40
88.0
 40
89.0
 40
89.0
 40
89.0
 40
90.0
 40
90.0
 40
90.0
 40
91.0
 40
91.0
 40
91.0
 40
92.0
 40
92.0
 40
92.0
 40
93.0
 40
93.0
 40
93.0
 40
94.0
 40
94.0
 40
94.0
 40
95.0
 40
95.0
 40
95.0
 40
96.0
 40
96.0
 40
96.0
 40
97.0
 40
97.0
 40
97.0
 40
98.0
 40
98.0
 40
98.0
 40
99.0
 40
99.0
 40
99.0
 40
100.0
 40
100.0
 40
100.0
 40
101.0
 40
101.0
 40
101.0
 40
102.0
 40
102.0
 40
102.0
 40
103.0
 40
103.0
 40
103.0
 40
104.0
 40
104.0
 40
104.0
 40
105.0
 40
105.0
 40
105.0
 40
106.0
 40
106.0
 40
106.0
 40
107.0
 40
107.0
 40
107.0
 40
108.0
 40
108.0
 40
108.0
 40
109.0
 40
109.0
 40
109.0
 40
110.0
 40
110.0
 40
110.0
 40
111.0
 40
111.0
 40
111.0
 40
112.0
 40
112.0
 40
112.0
 40
113.0
 40
113.0
 40
113.0
 40
114.0
 40
114.0
 40
114.0
 40
115.0
 40
115.0
 40
115.0
 40
116.0
 40
116.0
 40
116.0
 40
117.0
 40
117.0
 40
117.0
 40
118.0
 40
118.0
 40
118.0
 40
119.0
 40
119.0
 40
119.0
 40
120.0
 40
120.0
 40
120.0
 40
121.0
 40
121.0
 40
121.0
 40
122.0
 40
122.0
 40
122.0
 40
123.0
 40
123.0
 40
123.0
 40
124.0
 40
124.0
 40
124.0
 40
125.0
 40
125.0
 40
125.0
 40
126.0
 40
126.0
 40
126.0
 40
127.0
 40
127.0
 40
127.0
 40
128.0
 40
128.0
 40
128.0
 40
129.0
 40
129.0
 40
129.0
 40
130.0
 40
130.0
 40
130.0
 40
131.0
 40
131.0
 40
131.0
 40
132.0
 40
132.0
 40
132.0
 40
133.0
 40
133.0
 40
133.0
 40
134.0
 40
134.0
 40
134.0
 40
135.0
 40
135.0
 40
135.0
 40
136.0
 40
136.0
 40
136.0
 40
137.0
 40
137.0
 40
137.0
 40
138.0
 40
138.0
 40
138.0
 40
139.0
 40
139.0
 40
139.0
 40
140.0
 40
140.0
 40
140.0
 40
141.0
 40
141.0
 40
141.0
 40
142.0
 40
142.0
 40
142.0
 40
143.0
 40
143.0
 40
143.0
 40
144.0
 40
144.0
 40
144.0
 40
145.0
 40
145.0
 40
145.0
 40
146.0
 40
146.0
 40
146.0
 40
147.0
 40
147.0
 40
147.0
 40
148.0
 40
148.0
 40
148.0
 40
149.0
 40
149.0
 40
149.0
 40
150.0
 40
150.0
 40
150.0
 40
151.0
 40
151.0
 40
151.0
 40
152.0
 40
152.0
 40
152.0
 40
153.0
 40
153.0
 40
153.0
 40
154.0
 40
154.0
 40
154.0
 40
155.0
 40
155.0
 40
155.0
 40
156.0
 40
156.0
 40
156.0
 40
156.0
 10
123.5427820532614
 20
63.50000515176843
 30
0.0
 10
123.5427820532614
 20
63.50000515176843
 30
0.0
 10
131.5508419131843
 20
63.50000515176843
 30
0.0
 10
131.5508419131843
 20
63.50000515176843
 30
0.0
 10
131.6214017750916
 20
63.50000515176843
 30
0.0
 10
131.6566709401219
 20
63.57056501367571
 30
0.0
 10
131.6566709401219
 20
63.60583417870596
 30
0.0
 10
131.6566709401219
 20
63.60583417870596
 30
0.0
 10
131.6566709401219
 20
66.4986162621299
 30
0.0
 10
131.6566709401219
 20
66.4986162621299
 30
0.0
 10
131.6566709401219
 20
66.60444528906741
 30
0.0
 10
131.5508419131843
 20
66.4986162621299
 30
0.0
 10
131.6566709401219
 20
66.4986162621299
 30
0.0
 10
131.6566709401219
 20
66.4986162621299
 30
0.0
 10
137.4069444100927
 20
66.4986162621299
 30
0.0
 10
137.4069444100927
 20
66.4986162621299
 30
0.0
 10
137.5127734370302
 20
66.4986162621299
 30
0.0
 10
137.4069444100927
 20
66.60444528906741
 30
0.0
 10
137.4069444100927
 20
66.4986162621299
 30
0.0
 10
137.4069444100927
 20
66.4986162621299
 30
0.0
 10
137.4069444100927
 20
63.60583417870596
 30
0.0
 10
137.4069444100927
 20
63.60583417870596
 30
0.0
 10
137.4069444100927
 20
63.53527431679868
 30
0.0
 10
137.477504272
 20
63.50000515176843
 30
0.0
 10
137.5127734370302
 20
63.50000515176843
 30
0.0
 10
137.5127734370302
 20
63.50000515176843
 30
0.0
 10
143.5099956577531
 20
63.50000515176843
 30
0.0
 10
143.5099956577531
 20
63.50000515176843
 30
0.0
 10
143.5805555196604
 20
63.50000515176843
 30
0.0
 10
143.6158246846907
 20
63.57056501367571
 30
0.0
 10
143.6158246846907
 20
63.60583417870596
 30
0.0
 10
143.6158246846907
 20
63.60583417870596
 30
0.0
 10
143.6158246846907
 20
66.4986162621299
 30
0.0
 10
143.6158246846907
 20
66.4986162621299
 30
0.0
 10
143.6158246846907
 20
66.60444528906741
 30
0.0
 10
143.5099956577531
 20
66.4986162621299
 30
0.0
 10
143.6158246846907
 20
66.4986162621299
 30
0.0
 10
143.6158246846907
 20
66.4986162621299
 30
0.0
 10
149.3660981546615
 20
66.4986162621299
 30
0.0
 10
149.3660981546615
 20
66.4986162621299
 30
0.0
 10
149.471927181599
 20
66.4986162621299
 30
0.0
 10
149.3660981546615
 20
66.60444528906741
 30
0.0
 10
149.3660981546615
 20
66.4986162621299
 30
0.0
 10
149.3660981546615
 20
66.4986162621299
 30
0.0
 10
149.3660981546615
 20
63.60583417870596
 30
0.0
 10
149.3660981546615
 20
63.60583417870596
 30
0.0
 10
149.3660981546615
 20
63.53527431679868
 30
0.0
 10
149.4366580165688
 20
63.50000515176843
 30
0.0
 10
149.471927181599
 20
63.50000515176843
 30
0.0
 10
149.471927181599
 20
63.50000515176843
 30
0.0
 10
155.4691494023219
 20
63.50000515176843
 30
0.0
 10
155.4691494023219
 20
63.50000515176843
 30
0.0
 10
155.5397092642292
 20
63.50000515176843
 30
0.0
 10
155.5749784292595
 20
63.57056501367571
 30
0.0
 10
155.5749784292595
 20
63.60583417870596
 30
0.0
 10
155.5749784292595
 20
63.60583417870596
 30
0.0
 10
155.5749784292595
 20
66.4986162621299
 30
0.0
 10
155.5749784292595
 20
66.4986162621299
 30
0.0
 10
155.5749784292595
 20
66.60444528906741
 30
0.0
 10
155.4691494023219
 20
66.4986162621299
 30
0.0
 10
155.5749784292595
 20
66.4986162621299
 30
0.0
 10
155.5749784292595
 20
66.4986162621299
 30
0.0
 10
161.3252518992303
 20
66.4986162621299
 30
0.0
 10
161.3252518992303
 20
66.4986162621299
 30
0.0
 10
161.4310809261678
 20
66.4986162621299
 30
0.0
 10
161.3252518992303
 20
66.60444528906741
 30
0.0
 10
161.3252518992303
 20
66.4986162621299
 30
0.0
 10
161.3252518992303
 20
66.4986162621299
 30
0.0
 10
161.3252518992303
 20
63.60583417870596
 30
0.0
 10
161.3252518992303
 20
63.60583417870596
 30
0.0
 10
161.3252518992303
 20
63.53527431679868
 30
0.0
 10
161.3958117611376
 20
63.50000515176843
 30
0.0
 10
161.4310809261678
 20
63.50000515176843
 30
0.0
 10
161.4310809261678
 20
63.50000515176843
 30
0.0
 10
167.4283031468907
 20
63.50000515176843
 30
0.0
 10
167.4283031468907
 20
63.50000515176843
 30
0.0
 10
167.498863008798
 20
63.50000515176843
 30
0.0
 10
167.5341321738283
 20
63.57056501367571
 30
0.0
 10
167.5341321738283
 20
63.60583417870596
 30
0.0
 10
167.5341321738283
 20
63.60583417870596
 30
0.0
 10
167.5341321738283
 20
66.4986162621299
 30
0.0
 10
167.5341321738283
 20
66.4986162621299
 30
0.0
 10
167.5341321738283
 20
66.60444528906741
 30
0.0
 10
167.4283031468907
 20
66.4986162621299
 30
0.0
 10
167.5341321738283
 20
66.4986162621299
 30
0.0
 10
167.5341321738283
 20
66.4986162621299
 30
0.0
 10
173.2844056437991
 20
66.4986162621299
 30
0.0
 10
173.2844056437991
 20
66.4986162621299
 30
0.0
 10
173.3902346707366
 20
66.4986162621299
 30
0.0
 10
173.2844056437991
 20
66.60444528906741
 30
0.0
 10
173.2844056437991
 20
66.4986162621299
 30
0.0
 10
173.2844056437991
 20
66.4986162621299
 30
0.0
 10
173.2844056437991
 20
63.60583417870596
 30
0.0
 10
173.2844056437991
 20
63.60583417870596
 30
0.0
 10
173.2844056437991
 20
63.53527431679868
 30
0.0
 10
173.3549655057064
 20
63.50000515176843
 30
0.0
 10
173.3902346707366
 20
63.50000515176843
 30
0.0
 10
173.3902346707366
 20
63.50000515176843
 30
0.0
 10
179.3874568914596
 20
63.50000515176843
 30
0.0
 10
179.3874568914596
 20
63.50000515176843
 30
0.0
 10
179.4580167533668
 20
63.50000515176843
 30
0.0
 10
179.4932859183971
 20
63.57056501367571
 30
0.0
 10
179.4932859183971
 20
63.60583417870596
 30
0.0
 10
179.4932859183971
 20
63.60583417870596
 30
0.0
 10
179.4932859183971
 20
66.4986162621299
 30
0.0
 10
179.4932859183971
 20
66.4986162621299
 30
0.0
 10
179.4932859183971
 20
66.60444528906741
 30
0.0
 10
179.3874568914596
 20
66.4986162621299
 30
0.0
 10
179.4932859183971
 20
66.4986162621299
 30
0.0
 10
179.4932859183971
 20
66.4986162621299
 30
0.0
 10
185.2435593883679
 20
66.4986162621299
 30
0.0
 10
185.2435593883679
 20
66.4986162621299
 30
0.0
 10
185.3493884153055
 20
66.4986162621299
 30
0.0
 10
185.2435593883679
 20
66.60444528906741
 30
0.0
 10
185.2435593883679
 20
66.4986162621299
 30
0.0
 10
185.2435593883679
 20
66.4986162621299
 30
0.0
 10
185.2435593883679
 20
63.60583417870596
 30
0.0
 10
185.2435593883679
 20
63.60583417870596
 30
0.0
 10
185.2435593883679
 20
63.53527431679868
 30
0.0
 10
185.3141192502752
 20
63.50000515176843
 30
0.0
 10
185.3493884153055
 20
63.50000515176843
 30
0.0
 10
185.3493884153055
 20
63.50000515176843
 30
0.0
 10
191.3466106360283
 20
63.50000515176843
 30
0.0
 10
191.3466106360283
 20
63.50000515176843
 30
0.0
 10
191.4171704979356
 20
63.50000515176843
 30
0.0
 10
191.4524396629659
 20
63.57056501367571
 30
0.0
 10
191.4524396629659
 20
63.60583417870596
 30
0.0
 10
191.4524396629659
 20
63.60583417870596
 30
0.0
 10
191.4524396629659
 20
66.4986162621299
 30
0.0
 10
191.4524396629659
 20
66.4986162621299
 30
0.0
 10
191.4524396629659
 20
66.60444528906741
 30
0.0
 10
191.3466106360283
 20
66.4986162621299
 30
0.0
 10
191.4524396629659
 20
66.4986162621299
 30
0.0
 10
191.4524396629659
 20
66.4986162621299
 30
0.0
 10
197.2027131329367
 20
66.4986162621299
 30
0.0
 10
197.2027131329367
 20
66.4986162621299
 30
0.0
 10
197.3085421598742
 20
66.4986162621299
 30
0.0
 10
197.2027131329367
 20
66.60444528906741
 30
0.0
 10
197.2027131329367
 20
66.4986162621299
 30
0.0
 10
197.2027131329367
 20
66.4986162621299
 30
0.0
 10
197.2027131329367
 20
63.60583417870596
 30
0.0
 10
197.2027131329367
 20
63.60583417870596
 30
0.0
 10
197.2027131329367
 20
63.53527431679868
 30
0.0
 10
197.273272994844
 20
63.50000515176843
 30
0.0
 10
197.3085421598742
 20
63.50000515176843
 30
0.0
 10
197.3085421598742
 20
63.50000515176843
 30
0.0
 10
203.3057643805971
 20
63.50000515176843
 30
0.0
 10
203.3057643805971
 20
63.50000515176843
 30
0.0
 10
203.3763242425045
 20
63.50000515176843
 30
0.0
 10
203.4115934075347
 20
63.57056501367571
 30
0.0
 10
203.4115934075347
 20
63.60583417870596
 30
0.0
 10
203.4115934075347
 20
63.60583417870596
 30
0.0
 10
203.4115934075347
 20
66.4986162621299
 30
0.0
 10
203.4115934075347
 20
66.4986162621299
 30
0.0
 10
203.4115934075347
 20
66.60444528906741
 30
0.0
 10
203.3057643805971
 20
66.4986162621299
 30
0.0
 10
203.4115934075347
 20
66.4986162621299
 30
0.0
 10
203.4115934075347
 20
66.4986162621299
 30
0.0
 10
209.1618668775056
 20
66.4986162621299
 30
0.0
 10
209.1618668775056
 20
66.4986162621299
 30
0.0
 10
209.267695904443
 20
66.4986162621299
 30
0.0
 10
209.1618668775056
 20
66.60444528906741
 30
0.0
 10
209.1618668775056
 20
66.4986162621299
 30
0.0
 10
209.1618668775056
 20
66.4986162621299
 30
0.0
 10
209.1618668775056
 20
63.60583417870596
 30
0.0
 10
209.1618668775056
 20
63.60583417870596
 30
0.0
 10
209.1618668775056
 20
63.53527431679868
 30
0.0
 10
209.2324267394128
 20
63.50000515176843
 30
0.0
 10
209.267695904443
 20
63.50000515176843
 30
0.0
 10
209.267695904443
 20
63.50000515176843
 30
0.0
 10
217.2757557643659
 20
63.50000515176843
 30
0.0
 10
217.2757557643659
 20
63.50000515176843
 30
0.0
 10
217.3463156262732
 20
63.50000515176843
 30
0.0
 10
217.3815847913035
 20
63.57056501367571
 30
0.0
 10
217.3815847913035
 20
63.60583417870596
 30
0.0
 10
217.3815847913035
 20
63.60583417870596
 30
0.0
 10
217.3815847913035
 20
66.60444528906741
 30
0.0
 10
217.3815847913035
 20
66.60444528906741
 30
0.0
 10
217.3815847913035
 20
66.60444528906741
 30
0.0
 10
217.3815847913035
 20
74.47138542517577
 30
0.0
 10
217.3815847913035
 20
74.47138542517577
 30
0.0
 10
217.3815847913035
 20
74.57721445211328
 30
0.0
 10
217.2757557643659
 20
74.47138542517577
 30
0.0
 10
217.3815847913035
 20
74.47138542517577
 30
0.0
 10
217.3815847913035
 20
74.47138542517577
 30
0.0
 10
220.2743668747274
 20
74.47138542517577
 30
0.0
 10
220.2743668747274
 20
74.47138542517577
 30
0.0
 10
220.3449267366347
 20
74.47138542517577
 30
0.0
 10
220.3801959016649
 20
74.54194528708304
 30
0.0
 10
220.3801959016649
 20
74.57721445211328
 30
0.0
 10
220.3801959016649
 20
74.57721445211328
 30
0.0
 10
220.3801959016649
 20
80.57443667283619
 30
0.0
 10
220.3801959016649
 20
80.57443667283619
 30
0.0
 10
220.3801959016649
 20
80.64499653474348
 30
0.0
 10
220.3096360397577
 20
80.68026569977371
 30
0.0
 10
220.2743668747274
 20
80.68026569977371
 30
0.0
 10
220.2743668747274
 20
80.68026569977371
 30
0.0
 10
217.6638888344729
 20
80.68026569977371
 30
0.0
 10
217.6638888344729
 20
80.68026569977371
 30
0.0
 10
217.5580598075354
 20
80.68026569977371
 30
0.0
 10
217.6638888344729
 20
80.57443667283619
 30
0.0
 10
217.6638888344729
 20
80.68026569977371
 30
0.0
 10
217.6638888344729
 20
80.68026569977371
 30
0.0
 10
217.6638888344729
 20
86.43053916974457
 30
0.0
 10
217.6638888344729
 20
86.43053916974457
 30
0.0
 10
217.6638888344729
 20
86.53636819668209
 30
0.0
 10
217.5580598075354
 20
86.43053916974457
 30
0.0
 10
217.6638888344729
 20
86.43053916974457
 30
0.0
 10
217.6638888344729
 20
86.43053916974457
 30
0.0
 10
220.5566709178969
 20
86.43053916974457
 30
0.0
 10
220.5566709178969
 20
86.43053916974457
 30
0.0
 10
220.6272307798041
 20
86.43053916974457
 30
0.0
 10
220.6624999448344
 20
86.50109903165185
 30
0.0
 10
220.6624999448344
 20
86.53636819668209
 30
0.0
 10
220.6624999448344
 20
86.53636819668209
 30
0.0
 10
220.6624999448344
 20
92.533590417405
 30
0.0
 10
220.6624999448344
 20
92.533590417405
 30
0.0
 10
220.6624999448344
 20
92.60415027931228
 30
0.0
 10
220.5919400829271
 20
92.63941944434252
 30
0.0
 10
220.5566709178969
 20
92.63941944434252
 30
0.0
 10
220.5566709178969
 20
92.63941944434252
 30
0.0
 10
217.6638888344729
 20
92.63941944434252
 30
0.0
 10
217.6638888344729
 20
92.63941944434252
 30
0.0
 10
217.5580598075354
 20
92.63941944434252
 30
0.0
 10
217.6638888344729
 20
92.533590417405
 30
0.0
 10
217.6638888344729
 20
92.63941944434252
 30
0.0
 10
217.6638888344729
 20
92.63941944434252
 30
0.0
 10
217.6638888344729
 20
100.5063595804509
 30
0.0
 10
217.6638888344729
 20
100.5063595804509
 30
0.0
 10
217.6638888344729
 20
100.5063595804509
 30
0.0
 10
217.6638888344729
 20
103.5049706908123
 30
0.0
 10
217.6638888344729
 20
103.5049706908123
 30
0.0
 10
217.6638888344729
 20
103.5755305527196
 30
0.0
 10
217.5933289725656
 20
103.6107997177498
 30
0.0
 10
217.5580598075354
 20
103.6107997177498
 30
0.0
 10
217.5580598075354
 20
103.6107997177498
 30
0.0
 10
209.5499999476125
 20
103.6107997177498
 30
0.0
 10
209.5499999476125
 20
103.6107997177498
 30
0.0
 10
209.4794400857053
 20
103.6107997177498
 30
0.0
 10
209.444170920675
 20
103.5402398558426
 30
0.0
 10
209.444170920675
 20
103.5049706908123
 30
0.0
 10
209.444170920675
 20
103.5049706908123
 30
0.0
 10
209.444170920675
 20
100.6121886073884
 30
0.0
 10
209.444170920675
 20
100.6121886073884
 30
0.0
 10
209.444170920675
 20
100.5063595804509
 30
0.0
 10
209.5499999476125
 20
100.6121886073884
 30
0.0
 10
209.444170920675
 20
100.6121886073884
 30
0.0
 10
209.444170920675
 20
100.6121886073884
 30
0.0
 10
203.6938974507041
 20
100.6121886073884
 30
0.0
 10
203.6938974507041
 20
100.6121886073884
 30
0.0
 10
203.5880684237666
 20
100.6121886073884
 30
0.0
 10
203.6938974507041
 20
100.5063595804509
 30
0.0
 10
203.6938974507041
 20
100.6121886073884
 30
0.0
 10
203.6938974507041
 20
100.6121886073884
 30
0.0
 10
203.6938974507041
 20
103.5049706908123
 30
0.0
 10
203.6938974507041
 20
103.5049706908123
 30
0.0
 10
203.6938974507041
 20
103.5755305527196
 30
0.0
 10
203.6233375887968
 20
103.6107997177498
 30
0.0
 10
203.5880684237666
 20
103.6107997177498
 30
0.0
 10
203.5880684237666
 20
103.6107997177498
 30
0.0
 10
197.5908462030437
 20
103.6107997177498
 30
0.0
 10
197.5908462030437
 20
103.6107997177498
 30
0.0
 10
197.5202863411364
 20
103.6107997177498
 30
0.0
 10
197.4850171761062
 20
103.5402398558426
 30
0.0
 10
197.4850171761062
 20
103.5049706908123
 30
0.0
 10
197.4850171761062
 20
103.5049706908123
 30
0.0
 10
197.4850171761062
 20
100.6121886073884
 30
0.0
 10
197.4850171761062
 20
100.6121886073884
 30
0.0
 10
197.4850171761062
 20
100.5063595804509
 30
0.0
 10
197.5908462030437
 20
100.6121886073884
 30
0.0
 10
197.4850171761062
 20
100.6121886073884
 30
0.0
 10
197.4850171761062
 20
100.6121886073884
 30
0.0
 10
191.7347437061353
 20
100.6121886073884
 30
0.0
 10
191.7347437061353
 20
100.6121886073884
 30
0.0
 10
191.6289146791978
 20
100.6121886073884
 30
0.0
 10
191.7347437061353
 20
100.5063595804509
 30
0.0
 10
191.7347437061353
 20
100.6121886073884
 30
0.0
 10
191.7347437061353
 20
100.6121886073884
 30
0.0
 10
191.7347437061353
 20
103.5049706908123
 30
0.0
 10
191.7347437061353
 20
103.5049706908123
 30
0.0
 10
191.7347437061353
 20
103.5755305527196
 30
0.0
 10
191.6641838442281
 20
103.6107997177498
 30
0.0
 10
191.6289146791978
 20
103.6107997177498
 30
0.0
 10
191.6289146791978
 20
103.6107997177498
 30
0.0
 10
185.6316924584749
 20
103.6107997177498
 30
0.0
 10
185.6316924584749
 20
103.6107997177498
 30
0.0
 10
185.5611325965676
 20
103.6107997177498
 30
0.0
 10
185.5258634315374
 20
103.5402398558426
 30
0.0
 10
185.5258634315374
 20
103.5049706908123
 30
0.0
 10
185.5258634315374
 20
103.5049706908123
 30
0.0
 10
185.5258634315374
 20
100.6121886073884
 30
0.0
 10
185.5258634315374
 20
100.6121886073884
 30
0.0
 10
185.5258634315374
 20
100.5063595804509
 30
0.0
 10
185.6316924584749
 20
100.6121886073884
 30
0.0
 10
185.5258634315374
 20
100.6121886073884
 30
0.0
 10
185.5258634315374
 20
100.6121886073884
 30
0.0
 10
179.7755899615665
 20
100.6121886073884
 30
0.0
 10
179.7755899615665
 20
100.6121886073884
 30
0.0
 10
179.669760934629
 20
100.6121886073884
 30
0.0
 10
179.7755899615665
 20
100.5063595804509
 30
0.0
 10
179.7755899615665
 20
100.6121886073884
 30
0.0
 10
179.7755899615665
 20
100.6121886073884
 30
0.0
 10
179.7755899615665
 20
103.5049706908123
 30
0.0
 10
179.7755899615665
 20
103.5049706908123
 30
0.0
 10
179.7755899615665
 20
103.5755305527196
 30
0.0
 10
179.7050300996593
 20
103.6107997177498
 30
0.0
 10
179.669760934629
 20
103.6107997177498
 30
0.0
 10
179.669760934629
 20
103.6107997177498
 30
0.0
 10
173.6725387139061
 20
103.6107997177498
 30
0.0
 10
173.6725387139061
 20
103.6107997177498
 30
0.0
 10
173.6019788519988
 20
103.6107997177498
 30
0.0
 10
173.5667096869686
 20
103.5402398558426
 30
0.0
 10
173.5667096869686
 20
103.5049706908123
 30
0.0
 10
173.5667096869686
 20
103.5049706908123
 30
0.0
 10
173.5667096869686
 20
100.6121886073884
 30
0.0
 10
173.5667096869686
 20
100.6121886073884
 30
0.0
 10
173.5667096869686
 20
100.5063595804509
 30
0.0
 10
173.6725387139061
 20
100.6121886073884
 30
0.0
 10
173.5667096869686
 20
100.6121886073884
 30
0.0
 10
173.5667096869686
 20
100.6121886073884
 30
0.0
 10
167.8164362169977
 20
100.6121886073884
 30
0.0
 10
167.8164362169977
 20
100.6121886073884
 30
0.0
 10
167.7106071900602
 20
100.6121886073884
 30
0.0
 10
167.8164362169977
 20
100.5063595804509
 30
0.0
 10
167.8164362169977
 20
100.6121886073884
 30
0.0
 10
167.8164362169977
 20
100.6121886073884
 30
0.0
 10
167.8164362169977
 20
103.5049706908123
 30
0.0
 10
167.8164362169977
 20
103.5049706908123
 30
0.0
 10
167.8164362169977
 20
103.5755305527196
 30
0.0
 10
167.7458763550904
 20
103.6107997177498
 30
0.0
 10
167.7106071900602
 20
103.6107997177498
 30
0.0
 10
167.7106071900602
 20
103.6107997177498
 30
0.0
 10
161.7133849693373
 20
103.6107997177498
 30
0.0
 10
161.7133849693373
 20
103.6107997177498
 30
0.0
 10
161.64282510743
 20
103.6107997177498
 30
0.0
 10
161.6075559423997
 20
103.5402398558426
 30
0.0
 10
161.6075559423997
 20
103.5049706908123
 30
0.0
 10
161.6075559423997
 20
103.5049706908123
 30
0.0
 10
161.6075559423997
 20
100.6121886073884
 30
0.0
 10
161.6075559423997
 20
100.6121886073884
 30
0.0
 10
161.6075559423997
 20
100.5063595804509
 30
0.0
 10
161.7133849693373
 20
100.6121886073884
 30
0.0
 10
161.6075559423997
 20
100.6121886073884
 30
0.0
 10
161.6075559423997
 20
100.6121886073884
 30
0.0
 10
155.8572824724289
 20
100.6121886073884
 30
0.0
 10
155.8572824724289
 20
100.6121886073884
 30
0.0
 10
155.7514534454914
 20
100.6121886073884
 30
0.0
 10
155.8572824724289
 20
100.5063595804509
 30
0.0
 10
155.8572824724289
 20
100.6121886073884
 30
0.0
 10
155.8572824724289
 20
100.6121886073884
 30
0.0
 10
155.8572824724289
 20
103.5049706908123
 30
0.0
 10
155.8572824724289
 20
103.5049706908123
 30
0.0
 10
155.8572824724289
 20
103.5755305527196
 30
0.0
 10
155.7867226105216
 20
103.6107997177498
 30
0.0
 10
155.7514534454914
 20
103.6107997177498
 30
0.0
 10
155.7514534454914
 20
103.6107997177498
 30
0.0
 10
149.7542312247685
 20
103.6107997177498
 30
0.0
 10
149.7542312247685
 20
103.6107997177498
 30
0.0
 10
149.6836713628612
 20
103.6107997177498
 30
0.0
 10
149.6484021978309
 20
103.5402398558426
 30
0.0
 10
149.6484021978309
 20
103.5049706908123
 30
0.0
 10
149.6484021978309
 20
103.5049706908123
 30
0.0
 10
149.6484021978309
 20
100.6121886073884
 30
0.0
 10
149.6484021978309
 20
100.6121886073884
 30
0.0
 10
149.6484021978309
 20
100.5063595804509
 30
0.0
 10
149.7542312247685
 20
100.6121886073884
 30
0.0
 10
149.6484021978309
 20
100.6121886073884
 30
0.0
 10
149.6484021978309
 20
100.6121886073884
 30
0.0
 10
143.8981287278601
 20
100.6121886073884
 30
0.0
 10
143.8981287278601
 20
100.6121886073884
 30
0.0
 10
143.7922997009226
 20
100.6121886073884
 30
0.0
 10
143.8981287278601
 20
100.5063595804509
 30
0.0
 10
143.8981287278601
 20
100.6121886073884
 30
0.0
 10
143.8981287278601
 20
100.6121886073884
 30
0.0
 10
143.8981287278601
 20
103.5049706908123
 30
0.0
 10
143.8981287278601
 20
103.5049706908123
 30
0.0
 10
143.8981287278601
 20
103.5755305527196
 30
0.0
 10
143.8275688659528
 20
103.6107997177498
 30
0.0
 10
143.7922997009226
 20
103.6107997177498
 30
0.0
 10
143.7922997009226
 20
103.6107997177498
 30
0.0
 10
137.7950774801997
 20
103.6107997177498
 30
0.0
 10
137.7950774801997
 20
103.6107997177498
 30
0.0
 10
137.7245176182924
 20
103.6107997177498
 30
0.0
 10
137.6892484532621
 20
103.5402398558426
 30
0.0
 10
137.6892484532621
 20
103.5049706908123
 30
0.0
 10
137.6892484532621
 20
103.5049706908123
 30
0.0
 10
137.6892484532621
 20
100.6121886073884
 30
0.0
 10
137.6892484532621
 20
100.6121886073884
 30
0.0
 10
137.6892484532621
 20
100.5063595804509
 30
0.0
 10
137.7950774801997
 20
100.6121886073884
 30
0.0
 10
137.6892484532621
 20
100.6121886073884
 30
0.0
 10
137.6892484532621
 20
100.6121886073884
 30
0.0
 10
131.9389749832913
 20
100.6121886073884
 30
0.0
 10
131.9389749832913
 20
100.6121886073884
 30
0.0
 10
131.8331459563538
 20
100.6121886073884
 30
0.0
 10
131.9389749832913
 20
100.5063595804509
 30
0.0
 10
131.9389749832913
 20
100.6121886073884
 30
0.0
 10
131.9389749832913
 20
100.6121886073884
 30
0.0
 10
131.9389749832913
 20
103.5049706908123
 30
0.0
 10
131.9389749832913
 20
103.5049706908123
 30
0.0
 10
131.9389749832913
 20
103.5755305527196
 30
0.0
 10
131.868415121384
 20
103.6107997177498
 30
0.0
 10
131.8331459563538
 20
103.6107997177498
 30
0.0
 10
131.8331459563538
 20
103.6107997177498
 30
0.0
 10
123.8250860964309
 20
103.6107997177498
 30
0.0
 10
123.8250860964309
 20
103.6107997177498
 30
0.0
 10
123.7545262345236
 20
103.6107997177498
 30
0.0
 10
123.7192570694933
 20
103.5402398558426
 30
0.0
 10
123.7192570694933
 20
103.5049706908123
 30
0.0
 10
123.7192570694933
 20
103.5049706908123
 30
0.0
 10
123.7192570694933
 20
100.5063595804509
 30
0.0
 10
123.7192570694933
 20
100.5063595804509
 30
0.0
 10
123.7192570694933
 20
100.5063595804509
 30
0.0
 10
123.7192570694933
 20
92.63941944434252
 30
0.0
 10
123.7192570694933
 20
92.63941944434252
 30
0.0
 10
123.7192570694933
 20
92.533590417405
 30
0.0
 10
123.8250860964309
 20
92.63941944434252
 30
0.0
 10
123.7192570694933
 20
92.63941944434252
 30
0.0
 10
123.7192570694933
 20
92.63941944434252
 30
0.0
 10
120.8264749860694
 20
92.63941944434252
 30
0.0
 10
120.8264749860694
 20
92.63941944434252
 30
0.0
 10
120.7559151241621
 20
92.63941944434252
 30
0.0
 10
120.7206459591319
 20
92.56885958243525
 30
0.0
 10
120.7206459591319
 20
92.533590417405
 30
0.0
 10
120.7206459591319
 20
92.533590417405
 30
0.0
 10
120.7206459591319
 20
86.53636819668209
 30
0.0
 10
120.7206459591319
 20
86.53636819668209
 30
0.0
 10
120.7206459591319
 20
86.46580833477482
 30
0.0
 10
120.7912058210392
 20
86.43053916974457
 30
0.0
 10
120.8264749860694
 20
86.43053916974457
 30
0.0
 10
120.8264749860694
 20
86.43053916974457
 30
0.0
 10
123.7192570694933
 20
86.43053916974457
 30
0.0
 10
123.7192570694933
 20
86.43053916974457
 30
0.0
 10
123.8250860964309
 20
86.43053916974457
 30
0.0
 10
123.7192570694933
 20
86.53636819668209
 30
0.0
 10
123.7192570694933
 20
86.43053916974457
 30
0.0
 10
123.7192570694933
 20
86.43053916974457
 30
0.0
 10
123.7192570694933
 20
80.68026569977371
 30
0.0
 10
123.7192570694933
 20
80.68026569977371
 30
0.0
 10
123.7192570694933
 20
80.57443667283619
 30
0.0
 10
123.8250860964309
 20
80.68026569977371
 30
0.0
 10
123.7192570694933
 20
80.68026569977371
 30
0.0
 10
123.7192570694933
 20
80.68026569977371
 30
0.0
 10
120.8264749860694
 20
80.68026569977371
 30
0.0
 10
120.8264749860694
 20
80.68026569977371
 30
0.0
 10
120.7559151241621
 20
80.68026569977371
 30
0.0
 10
120.7206459591319
 20
80.60970583786644
 30
0.0
 10
120.7206459591319
 20
80.57443667283619
 30
0.0
 10
120.7206459591319
 20
80.57443667283619
 30
0.0
 10
120.7206459591319
 20
74.57721445211328
 30
0.0
 10
120.7206459591319
 20
74.57721445211328
 30
0.0
 10
120.7206459591319
 20
74.50665459020601
 30
0.0
 10
120.7912058210392
 20
74.47138542517577
 30
0.0
 10
120.8264749860694
 20
74.47138542517577
 30
0.0
 10
120.8264749860694
 20
74.47138542517577
 30
0.0
 10
123.7192570694933
 20
74.47138542517577
 30
0.0
 10
123.7192570694933
 20
74.47138542517577
 30
0.0
 10
123.8250860964309
 20
74.47138542517577
 30
0.0
 10
123.7192570694933
 20
74.57721445211328
 30
0.0
 10
123.7192570694933
 20
74.47138542517577
 30
0.0
 10
123.7192570694933
 20
74.47138542517577
 30
0.0
 10
123.7192570694933
 20
66.60444528906741
 30
0.0
 10
123.7192570694933
 20
66.60444528906741
 30
0.0
 10
123.7192570694933
 20
66.60444528906741
 30
0.0
 10
123.7192570694933
 20
63.60583417870596
 30
0.0
 10
123.7192570694933
 20
63.60583417870596
 30
0.0
 10
123.4369422604005
 20
63.53527431679868
 30
0.0
 10
123.4722221913542
 20
63.50000515176843
 30
0.0
 10
123.5427820532614
 20
63.50000515176843
 30
0.0
  0
SPLINE
  5
80
330
79
100
AcDbEntity
  8
framework
 62
    18
420
        0
370
    25
100
AcDbSpline
210
0.0
220
0.0
230
1.0
 70
    11
 71
     3
 72
   485
 73
   481
 74
     0
 42
0.0000000001
 43
0.0000000001
 40
0.0
 40
0.0
 40
0.0
 40
0.0
 40
1.0
 40
1.0
 40
1.0
 40
2.0
 40
2.0
 40
2.0
 40
3.0
 40
3.0
 40
3.0
 40
4.0
 40
4.0
 40
4.0
 40
5.0
 40
5.0
 40
5.0
 40
6.0
 40
6.0
 40
6.0
 40
7.0
 40
7.0
 40
7.0
 40
8.0
 40
8.0
 40
8.0
 40
9.0
 40
9.0
 40
9.0
 40
10.0
 40
10.0
 40
10.0
 40
11.0
 40
11.0
 40
11.0
 40
12.0
 40
12.0
 40
12.0
 40
13.0
 40
13.0
 40
13.0
 40
14.0
 40
14.0
 40
14.0
 40
15.0
 40
15.0
 40
15.0
 40
16.0
 40
16.0
 40
16.0
 40
17.0
 40
17.0
 40
17.0
 40
18.0
 40
18.0
 40
18.0
 40
19.0
 40
19.0
 40
19.0
 40
20.0
 40
20.0
 40
20.0
 40
21.0
 40
21.0
 40
21.0
 40
22.0
 40
22.0
 40
22.0
 40
23.0
 40
23.0
 40
23.0
 40
24.0
 40
24.0
 40
24.0
 40
25.0
 40
25.0
 40
25.0
 40
26.0
 40
26.0
 40
26.0
 40
27.0
 40
27.0
 40
27.0
 40
28.0
 40
28.0
 40
28.0
 40
29.0
 40
29.0
 40
29.0
 40
30.0
 40
30.0
 40
30.0
 40
31.0
 40
31.0
 40
31.0
 40
32.0
 40
32.0
 40
32.0
 40
33.0
 40
33.0
 40
33.0
 40
34.0
 40
34.0
 40
34.0
 40
35.0
 40
35.0
 40
35.0
 40
36.0
 40
36.0
 40
36.0
 40
37.0
 40
37.0
 40
37.0
 40
38.0
 40
38.0
 40
38.0
 40
39.0
 40
39.0
 40
39.0
 40
40.0
 40
40.0
 40
40.0
 40
41.0
 40
41.0
 40
41.0
 40
42.0
 40
42.0
 40
42.0
 40
43.0
 40
43.0
 40
43.0
 40
44.0
 40
44.0
 40
44.0
 40
45.0
 40
45.0
 40
45.0
 40
46.0
 40
46.0
 40
46.0
 40
47.0
 40
47.0
 40
47.0
 40
48.0
 40
48.0
 40
48.0
 40
49.0
 40
49.0
 40
49.0
 40
50.0
 40
50.0
 40
50.0
 40
51.0
 40
51.0
 40
51.0
 40
52.0
 40
52.0
 40
52.0
 40
53.0
 40
53.0
 40
53.0
 40
54.0
 40
54.0
 40
54.0
 40
55.0
 40
55.0
 40
55.0
 40
56.0
 40
56.0
 40
56.0
 40
57.0
 40
57.0
 40
57.0
 40
58.0
 40
58.0
 40
58.0
 40
59.0
 40
59.0
 40
59.0
 40
60.0
 40
60.0
 40
60.0
 40
61.0
 40
61.0
 40
61.0
 40
62.0
 40
62.0
 40
62.0
 40
63.0
 40
63.0
 40
63.0
 40
64.0
 40
64.0
 40
64.0
 40
65.0
 40
65.0
 40
65.0
 40
66.0
 40
66.0
 40
66.0
 40
67.0
 40
67.0
 40
67.0
 40
68.0
 40
68.0
 40
68.0
 40
69.0
 40
69.0
 40
69.0
 40
70.0
 40
70.0
 40
70.0
 40
71.0
 40
71.0
 40
71.0
 40
72.0
 40
72.0
 40
72.0
 40
73.0
 40
73.0
 40
73.0
 40
74.0
 40
74.0
 40
74.0
 40
75.0
 40
75.0
 40
75.0
 40
76.0
 40
76.0
 40
76.0
 40
77.0
 40
77.0
 40
77.0
 40
78.0
 40
78.0
 40
78.0
 40
79.0
 40
79.0
 40
79.0
 40
80.0
 40
80.0
 40
80.0
 40
81.0
 40
81.0
 40
81.0
 40
82.0
 40
82.0
 40
82.0
 40
83.0
 40
83.0
 40
83.0
 40
84.0
 40
84.0
 40
84.0
 40
85.0
 40
85.0
 40
85.0
 40
86.0
 40
86.0
 40
86.0
 40
87.0
 40
87.0
 40
87.0
 40
88.0
 40
88.0
 40
88.0
 40
89.0
 40
89.0
 40
89.0
 40
90.0
 40
90.0
 40
90.0
 40
91.0
 40
91.0
 40
91.0
 40
92.0
 40
92.0
 40
92.0
 40
93.0
 40
93.0
 40
93.0
 40
94.0
 40
94.0
 40
94.0
 40
95.0
 40
95.0
 40
95.0
 40
96.0
 40
96.0
 40
96.0
 40
97.0
 40
97.0
 40
97.0
 40
98.0
 40
98.0
 40
98.0
 40
99.0
 40
99.0
 40
99.0
 40
100.0
 40
100.0
 40
100.0
 40
101.0
 40
101.0
 40
101.0
 40
102.0
 40
102.0
 40
102.0
 40
103.0
 40
103.0
 40
103.0
 40
104.0
 40
104.0
 40
104.0
 40
105.0
 40
105.0
 40
105.0
 40
106.0
 40
106.0
 40
106.0
 40
107.0
 40
107.0
 40
107.0
 40
108.0
 40
108.0
 40
108.0
 40
109.0
 40
109.0
 40
109.0
 40
110.0
 40
110.0
 40
110.0
 40
111.0
 40
111.0
 40
111.0
 40
112.0
 40
112.0
 40
112.0
 40
113.0
 40
113.0
 40
113.0
 40
114.0
 40
114.0
 40
114.0
 40
115.0
 40
115.0
 40
115.0
 40
116.0
 40
116.0
 40
116.0
 40
117.0
 40
117.0
 40
117.0
 40
118.0
 40
118.0
 40
118.0
 40
119.0
 40
119.0
 40
119.0
 40
120.0
 40
120.0
 40
120.0
 40
121.0
 40
121.0
 40
121.0
 40
122.0
 40
122.0
 40
122.0
 40
123.0
 40
123.0
 40
123.0
 40
124.0
 40
124.0
 40
124.0
 40
125.0
 40
125.0
 40
125.0
 40
126.0
 40
126.0
 40
126.0
 40
127.0
 40
127.0
 40
127.0
 40
128.0
 40
128.0
 40
128.0
 40
129.0
 40
129.0
 40
129.0
 40
130.0
 40
130.0
 40
130.0
 40
131.0
 40
131.0
 40
131.0
 40
132.0
 40
132.0
 40
132.0
 40
133.0
 40
133.0
 40
133.0
 40
134.0
 40
134.0
 40
134.0
 40
135.0
 40
135.0
 40
135.0
 40
136.0
 40
136.0
 40
136.0
 40
137.0
 40
137.0
 40
137.0
 40
138.0
 40
138.0
 40
138.0
 40
139.0
 40
139.0
 40
139.0
 40
140.0
 40
140.0
 40
140.0
 40
141.0
 40
141.0
 40
141.0
 40
142.0
 40
142.0
 40
142.0
 40
143.0
 40
143.0
 40
143.0
 40
144.0
 40
144.0
 40
144.0
 40
145.0
 40
145.0
 40
145.0
 40
146.0
 40
146.0
 40
146.0
 40
147.0
 40
147.0
 40
147.0
 40
148.0
 40
148.0
 40
148.0
 40
149.0
 40
149.0
 40
149.0
 40
150.0
 40
150.0
 40
150.0
 40
151.0
 40
151.0
 40
151.0
 40
152.0
 40
152.0
 40
152.0
 40
153.0
 40
153.0
 40
153.0
 40
154.0
 40
154.0
 40
154.0
 40
155.0
 40
155.0
 40
155.0
 40
156.0
 40
156.0
 40
156.0
 40
157.0
 40
157.0
 40
157.0
 40
158.0
 40
158.0
 40
158.0
 40
159.0
 40
159.0
 40
159.0
 40
160.0
 40
160.0
 40
160.0
 40
160.0
 10
21.80166639206817
 20
63.50000515176843
 30
0.0
 10
21.80166639206817
 20
63.50000515176843
 30
0.0
 10
29.80972221476979
 20
63.50000515176843
 30
0.0
 10
29.80972221476979
 20
63.50000515176843
 30
0.0
 10
29.88027669371537
 20
63.50000515176843
 30
0.0
 10
29.91555662466901
 20
63.57056501367571
 30
0.0
 10
29.91555662466901
 20
63.60583417870596
 30
0.0
 10
29.91555662466901
 20
63.60583417870596
 30
0.0
 10
29.91555662466901
 20
66.4986162621299
 30
0.0
 10
29.91555662466901
 20
66.4986162621299
 30
0.0
 10
29.91555662466901
 20
66.60444528906741
 30
0.0
 10
29.80972221476979
 20
66.4986162621299
 30
0.0
 10
29.91555662466901
 20
66.4986162621299
 30
0.0
 10
29.91555662466901
 20
66.4986162621299
 30
0.0
 10
35.66583547760155
 20
66.4986162621299
 30
0.0
 10
35.66583547760155
 20
66.4986162621299
 30
0.0
 10
35.77166988750077
 20
66.4986162621299
 30
0.0
 10
35.66583547760155
 20
66.60444528906741
 30
0.0
 10
35.66583547760155
 20
66.4986162621299
 30
0.0
 10
35.66583547760155
 20
66.4986162621299
 30
0.0
 10
35.66583547760155
 20
63.60583417870596
 30
0.0
 10
35.66583547760155
 20
63.60583417870596
 30
0.0
 10
35.66583547760155
 20
63.53527431679868
 30
0.0
 10
35.73638995654714
 20
63.50000515176843
 30
0.0
 10
35.77166988750077
 20
63.50000515176843
 30
0.0
 10
35.77166988750077
 20
63.50000515176843
 30
0.0
 10
41.76889210822369
 20
63.50000515176843
 30
0.0
 10
41.76889210822369
 20
63.50000515176843
 30
0.0
 10
41.83944658716926
 20
63.50000515176843
 30
0.0
 10
41.8747265181229
 20
63.57056501367571
 30
0.0
 10
41.8747265181229
 20
63.60583417870596
 30
0.0
 10
41.8747265181229
 20
63.60583417870596
 30
0.0
 10
41.8747265181229
 20
66.4986162621299
 30
0.0
 10
41.8747265181229
 20
66.4986162621299
 30
0.0
 10
41.8747265181229
 20
66.60444528906741
 30
0.0
 10
41.76889210822369
 20
66.4986162621299
 30
0.0
 10
41.8747265181229
 20
66.4986162621299
 30
0.0
 10
41.8747265181229
 20
66.4986162621299
 30
0.0
 10
47.62500537105545
 20
66.4986162621299
 30
0.0
 10
47.62500537105545
 20
66.4986162621299
 30
0.0
 10
47.73083978095466
 20
66.4986162621299
 30
0.0
 10
47.62500537105545
 20
66.60444528906741
 30
0.0
 10
47.62500537105545
 20
66.4986162621299
 30
0.0
 10
47.62500537105545
 20
66.4986162621299
 30
0.0
 10
47.62500537105545
 20
63.60583417870596
 30
0.0
 10
47.62500537105545
 20
63.60583417870596
 30
0.0
 10
47.62500537105545
 20
63.53527431679868
 30
0.0
 10
47.69555985000102
 20
63.50000515176843
 30
0.0
 10
47.73083978095466
 20
63.50000515176843
 30
0.0
 10
47.73083978095466
 20
63.50000515176843
 30
0.0
 10
53.72806200167758
 20
63.50000515176843
 30
0.0
 10
53.72806200167758
 20
63.50000515176843
 30
0.0
 10
53.79861648062316
 20
63.50000515176843
 30
0.0
 10
53.8338964115768
 20
63.57056501367571
 30
0.0
 10
53.8338964115768
 20
63.60583417870596
 30
0.0
 10
53.8338964115768
 20
63.60583417870596
 30
0.0
 10
53.8338964115768
 20
66.4986162621299
 30
0.0
 10
53.8338964115768
 20
66.4986162621299
 30
0.0
 10
53.8338964115768
 20
66.60444528906741
 30
0.0
 10
53.72806200167758
 20
66.4986162621299
 30
0.0
 10
53.8338964115768
 20
66.4986162621299
 30
0.0
 10
53.8338964115768
 20
66.4986162621299
 30
0.0
 10
59.58417526450966
 20
66.4986162621299
 30
0.0
 10
59.58417526450966
 20
66.4986162621299
 30
0.0
 10
59.69000967440855
 20
66.4986162621299
 30
0.0
 10
59.58417526450966
 20
66.60444528906741
 30
0.0
 10
59.58417526450966
 20
66.4986162621299
 30
0.0
 10
59.58417526450966
 20
66.4986162621299
 30
0.0
 10
59.58417526450966
 20
63.60583417870596
 30
0.0
 10
59.58417526450966
 20
63.60583417870596
 30
0.0
 10
59.58417526450966
 20
63.53527431679868
 30
0.0
 10
59.65472974345491
 20
63.50000515176843
 30
0.0
 10
59.69000967440855
 20
63.50000515176843
 30
0.0
 10
59.69000967440855
 20
63.50000515176843
 30
0.0
 10
65.68723189513147
 20
63.50000515176843
 30
0.0
 10
65.68723189513147
 20
63.50000515176843
 30
0.0
 10
65.75778637407736
 20
63.50000515176843
 30
0.0
 10
65.79306630503069
 20
63.57056501367571
 30
0.0
 10
65.79306630503069
 20
63.60583417870596
 30
0.0
 10
65.79306630503069
 20
63.60583417870596
 30
0.0
 10
65.79306630503069
 20
66.4986162621299
 30
0.0
 10
65.79306630503069
 20
66.4986162621299
 30
0.0
 10
65.79306630503069
 20
66.60444528906741
 30
0.0
 10
65.68723189513147
 20
66.4986162621299
 30
0.0
 10
65.79306630503069
 20
66.4986162621299
 30
0.0
 10
65.79306630503069
 20
66.4986162621299
 30
0.0
 10
71.54334515796323
 20
66.4986162621299
 30
0.0
 10
71.54334515796323
 20
66.4986162621299
 30
0.0
 10
71.64917956786244
 20
66.4986162621299
 30
0.0
 10
71.54334515796323
 20
66.60444528906741
 30
0.0
 10
71.54334515796323
 20
66.4986162621299
 30
0.0
 10
71.54334515796323
 20
66.4986162621299
 30
0.0
 10
71.54334515796323
 20
63.60583417870596
 30
0.0
 10
71.54334515796323
 20
63.60583417870596
 30
0.0
 10
71.54334515796323
 20
63.53527431679868
 30
0.0
 10
71.61389963690881
 20
63.50000515176843
 30
0.0
 10
71.64917956786244
 20
63.50000515176843
 30
0.0
 10
71.64917956786244
 20
63.50000515176843
 30
0.0
 10
77.64640178858536
 20
63.50000515176843
 30
0.0
 10
77.64640178858536
 20
63.50000515176843
 30
0.0
 10
77.71695626753094
 20
63.50000515176843
 30
0.0
 10
77.75223619848458
 20
63.57056501367571
 30
0.0
 10
77.75223619848458
 20
63.60583417870596
 30
0.0
 10
77.75223619848458
 20
63.60583417870596
 30
0.0
 10
77.75223619848458
 20
66.4986162621299
 30
0.0
 10
77.75223619848458
 20
66.4986162621299
 30
0.0
 10
77.75223619848458
 20
66.60444528906741
 30
0.0
 10
77.64640178858536
 20
66.4986162621299
 30
0.0
 10
77.75223619848458
 20
66.4986162621299
 30
0.0
 10
77.75223619848458
 20
66.4986162621299
 30
0.0
 10
83.50251505141711
 20
66.4986162621299
 30
0.0
 10
83.50251505141711
 20
66.4986162621299
 30
0.0
 10
83.60834946131634
 20
66.4986162621299
 30
0.0
 10
83.50251505141711
 20
66.60444528906741
 30
0.0
 10
83.50251505141711
 20
66.4986162621299
 30
0.0
 10
83.50251505141711
 20
66.4986162621299
 30
0.0
 10
83.50251505141711
 20
63.60583417870596
 30
0.0
 10
83.50251505141711
 20
63.60583417870596
 30
0.0
 10
83.50251505141711
 20
63.53527431679868
 30
0.0
 10
83.57306953036269
 20
63.50000515176843
 30
0.0
 10
83.60834946131634
 20
63.50000515176843
 30
0.0
 10
83.60834946131634
 20
63.50000515176843
 30
0.0
 10
89.60557168203925
 20
63.50000515176843
 30
0.0
 10
89.60557168203925
 20
63.50000515176843
 30
0.0
 10
89.67612616098483
 20
63.50000515176843
 30
0.0
 10
89.71140609193847
 20
63.57056501367571
 30
0.0
 10
89.71140609193847
 20
63.60583417870596
 30
0.0
 10
89.71140609193847
 20
63.60583417870596
 30
0.0
 10
89.71140609193847
 20
66.4986162621299
 30
0.0
 10
89.71140609193847
 20
66.4986162621299
 30
0.0
 10
89.71140609193847
 20
66.60444528906741
 30
0.0
 10
89.60557168203925
 20
66.4986162621299
 30
0.0
 10
89.71140609193847
 20
66.4986162621299
 30
0.0
 10
89.71140609193847
 20
66.4986162621299
 30
0.0
 10
95.46167956190933
 20
66.4986162621299
 30
0.0
 10
95.46167956190933
 20
66.4986162621299
 30
0.0
 10
95.56750858884717
 20
66.4986162621299
 30
0.0
 10
95.46167956190933
 20
66.60444528906741
 30
0.0
 10
95.46167956190933
 20
66.4986162621299
 30
0.0
 10
95.46167956190933
 20
66.4986162621299
 30
0.0
 10
95.46167956190933
 20
63.60583417870596
 30
0.0
 10
95.46167956190933
 20
63.60583417870596
 30
0.0
 10
95.46167956190933
 20
63.53527431679868
 30
0.0
 10
95.53223942381659
 20
63.50000515176843
 30
0.0
 10
95.56750858884717
 20
63.50000515176843
 30
0.0
 10
95.56750858884717
 20
63.50000515176843
 30
0.0
 10
101.5647308095701
 20
63.50000515176843
 30
0.0
 10
101.5647308095701
 20
63.50000515176843
 30
0.0
 10
101.635290671477
 20
63.50000515176843
 30
0.0
 10
101.6705598365073
 20
63.57056501367571
 30
0.0
 10
101.6705598365073
 20
63.60583417870596
 30
0.0
 10
101.6705598365073
 20
63.60583417870596
 30
0.0
 10
101.6705598365073
 20
66.4986162621299
 30
0.0
 10
101.6705598365073
 20
66.4986162621299
 30
0.0
 10
101.6705598365073
 20
66.60444528906741
 30
0.0
 10
101.5647308095701
 20
66.4986162621299
 30
0.0
 10
101.6705598365073
 20
66.4986162621299
 30
0.0
 10
101.6705598365073
 20
66.4986162621299
 30
0.0
 10
107.4208333064781
 20
66.4986162621299
 30
0.0
 10
107.4208333064781
 20
66.4986162621299
 30
0.0
 10
107.5266623334156
 20
66.4986162621299
 30
0.0
 10
107.4208333064781
 20
66.60444528906741
 30
0.0
 10
107.4208333064781
 20
66.4986162621299
 30
0.0
 10
107.4208333064781
 20
66.4986162621299
 30
0.0
 10
107.4208333064781
 20
63.60583417870596
 30
0.0
 10
107.4208333064781
 20
63.60583417870596
 30
0.0
 10
107.4208333064781
 20
63.53527431679868
 30
0.0
 10
107.4913931683854
 20
63.50000515176843
 30
0.0
 10
107.5266623334156
 20
63.50000515176843
 30
0.0
 10
107.5266623334156
 20
63.50000515176843
 30
0.0
 10
115.5347221933385
 20
63.50000515176843
 30
0.0
 10
115.5347221933385
 20
63.50000515176843
 30
0.0
 10
115.5347221933385
 20
63.50000515176843
 30
0.0
 10
118.5333333037
 20
63.50000515176843
 30
0.0
 10
118.5333333037
 20
63.50000515176843
 30
0.0
 10
118.6038931656073
 20
63.50000515176843
 30
0.0
 10
118.6391623306375
 20
63.57056501367571
 30
0.0
 10
118.6391623306375
 20
63.60583417870596
 30
0.0
 10
118.6391623306375
 20
63.60583417870596
 30
0.0
 10
118.6391623306375
 20
66.60444528906741
 30
0.0
 10
118.6391623306375
 20
66.60444528906741
 30
0.0
 10
118.6391623306375
 20
66.60444528906741
 30
0.0
 10
118.6391623306375
 20
74.61250514899031
 30
0.0
 10
118.6391623306375
 20
74.61250514899031
 30
0.0
 10
118.6391623306375
 20
74.68306501089758
 30
0.0
 10
118.5686024687302
 20
74.71833417592783
 30
0.0
 10
118.5333333037
 20
74.71833417592783
 30
0.0
 10
118.5333333037
 20
74.71833417592783
 30
0.0
 10
115.640551220276
 20
74.71833417592783
 30
0.0
 10
115.640551220276
 20
74.71833417592783
 30
0.0
 10
115.5347221933385
 20
74.71833417592783
 30
0.0
 10
115.640551220276
 20
74.61250514899031
 30
0.0
 10
115.640551220276
 20
74.71833417592783
 30
0.0
 10
115.640551220276
 20
74.71833417592783
 30
0.0
 10
115.640551220276
 20
80.46860764589869
 30
0.0
 10
115.640551220276
 20
80.46860764589869
 30
0.0
 10
115.640551220276
 20
80.57443667283619
 30
0.0
 10
115.5347221933385
 20
80.46860764589869
 30
0.0
 10
115.640551220276
 20
80.46860764589869
 30
0.0
 10
115.640551220276
 20
80.46860764589869
 30
0.0
 10
118.5333333037
 20
80.46860764589869
 30
0.0
 10
118.5333333037
 20
80.46860764589869
 30
0.0
 10
118.6038931656073
 20
80.46860764589869
 30
0.0
 10
118.6391623306375
 20
80.53916750780595
 30
0.0
 10
118.6391623306375
 20
80.57443667283619
 30
0.0
 10
118.6391623306375
 20
80.57443667283619
 30
0.0
 10
118.6391623306375
 20
86.57165889355912
 30
0.0
 10
118.6391623306375
 20
86.57165889355912
 30
0.0
 10
118.6391623306375
 20
86.64221875546639
 30
0.0
 10
118.5686024687302
 20
86.67748792049662
 30
0.0
 10
118.5333333037
 20
86.67748792049662
 30
0.0
 10
118.5333333037
 20
86.67748792049662
 30
0.0
 10
115.640551220276
 20
86.67748792049662
 30
0.0
 10
115.640551220276
 20
86.67748792049662
 30
0.0
 10
115.5347221933385
 20
86.67748792049662
 30
0.0
 10
115.640551220276
 20
86.57165889355912
 30
0.0
 10
115.640551220276
 20
86.67748792049662
 30
0.0
 10
115.640551220276
 20
86.67748792049662
 30
0.0
 10
115.640551220276
 20
92.4277613904675
 30
0.0
 10
115.640551220276
 20
92.4277613904675
 30
0.0
 10
115.640551220276
 20
92.533590417405
 30
0.0
 10
115.5347221933385
 20
92.4277613904675
 30
0.0
 10
115.640551220276
 20
92.4277613904675
 30
0.0
 10
115.640551220276
 20
92.4277613904675
 30
0.0
 10
118.5333333037
 20
92.4277613904675
 30
0.0
 10
118.5333333037
 20
92.4277613904675
 30
0.0
 10
118.6038931656073
 20
92.4277613904675
 30
0.0
 10
118.6391623306375
 20
92.49832125237476
 30
0.0
 10
118.6391623306375
 20
92.533590417405
 30
0.0
 10
118.6391623306375
 20
92.533590417405
 30
0.0
 10
118.6391623306375
 20
100.5416502773279
 30
0.0
 10
118.6391623306375
 20
100.5416502773279
 30
0.0
 10
118.6391623306375
 20
100.5416502773279
 30
0.0
 10
118.6391623306375
 20
103.5402613876893
 30
0.0
 10
118.6391623306375
 20
103.5402613876893
 30
0.0
 10
118.6391623306375
 20
103.6108212495966
 30
0.0
 10
118.5686024687302
 20
103.6460904146269
 30
0.0
 10
118.5333333037
 20
103.6460904146269
 30
0.0
 10
118.5333333037
 20
103.6460904146269
 30
0.0
 10
115.5347221933385
 20
103.6460904146269
 30
0.0
 10
115.5347221933385
 20
103.6460904146269
 30
0.0
 10
115.5347221933385
 20
103.6460904146269
 30
0.0
 10
107.5266623334156
 20
103.6460904146269
 30
0.0
 10
107.5266623334156
 20
103.6460904146269
 30
0.0
 10
107.4561024715087
 20
103.6460904146269
 30
0.0
 10
107.4208333064781
 20
103.5755305527196
 30
0.0
 10
107.4208333064781
 20
103.5402613876893
 30
0.0
 10
107.4208333064781
 20
103.5402613876893
 30
0.0
 10
107.4208333064781
 20
100.6474793042654
 30
0.0
 10
107.4208333064781
 20
100.6474793042654
 30
0.0
 10
107.4208333064781
 20
100.5416502773279
 30
0.0
 10
107.5266623334156
 20
100.6474793042654
 30
0.0
 10
107.4208333064781
 20
100.6474793042654
 30
0.0
 10
107.4208333064781
 20
100.6474793042654
 30
0.0
 10
101.6705598365073
 20
100.6474793042654
 30
0.0
 10
101.6705598365073
 20
100.6474793042654
 30
0.0
 10
101.5647308095701
 20
100.6474793042654
 30
0.0
 10
101.6705598365073
 20
100.5416502773279
 30
0.0
 10
101.6705598365073
 20
100.6474793042654
 30
0.0
 10
101.6705598365073
 20
100.6474793042654
 30
0.0
 10
101.6705598365073
 20
103.5402613876893
 30
0.0
 10
101.6705598365073
 20
103.5402613876893
 30
0.0
 10
101.6705598365073
 20
103.6108212495966
 30
0.0
 10
101.5999999746
 20
103.6460904146269
 30
0.0
 10
101.5647308095701
 20
103.6460904146269
 30
0.0
 10
101.5647308095701
 20
103.6460904146269
 30
0.0
 10
95.56750858884717
 20
103.6460904146269
 30
0.0
 10
95.56750858884717
 20
103.6460904146269
 30
0.0
 10
95.49694872693956
 20
103.6460904146269
 30
0.0
 10
95.46167956190933
 20
103.5755305527196
 30
0.0
 10
95.46167956190933
 20
103.5402613876893
 30
0.0
 10
95.46167956190933
 20
103.5402613876893
 30
0.0
 10
95.46167956190933
 20
100.6474793042654
 30
0.0
 10
95.46167956190933
 20
100.6474793042654
 30
0.0
 10
95.46167956190933
 20
100.5416502773279
 30
0.0
 10
95.56750858884717
 20
100.6474793042654
 30
0.0
 10
95.46167956190933
 20
100.6474793042654
 30
0.0
 10
95.46167956190933
 20
100.6474793042654
 30
0.0
 10
89.71140070897678
 20
100.6474793042654
 30
0.0
 10
89.71140070897678
 20
100.6474793042654
 30
0.0
 10
89.60556629907756
 20
100.6474793042654
 30
0.0
 10
89.71140070897678
 20
100.5416502773279
 30
0.0
 10
89.71140070897678
 20
100.6474793042654
 30
0.0
 10
89.71140070897678
 20
100.6474793042654
 30
0.0
 10
89.71140070897678
 20
103.5402613876893
 30
0.0
 10
89.71140070897678
 20
103.5402613876893
 30
0.0
 10
89.71140070897678
 20
103.6108212495966
 30
0.0
 10
89.6408462300312
 20
103.6460904146269
 30
0.0
 10
89.60556629907756
 20
103.6460904146269
 30
0.0
 10
89.60556629907756
 20
103.6460904146269
 30
0.0
 10
83.60834407835465
 20
103.6460904146269
 30
0.0
 10
83.60834407835465
 20
103.6460904146269
 30
0.0
 10
83.53778959940907
 20
103.6460904146269
 30
0.0
 10
83.50250966845543
 20
103.5755305527196
 30
0.0
 10
83.50250966845543
 20
103.5402613876893
 30
0.0
 10
83.50250966845543
 20
103.5402613876893
 30
0.0
 10
83.50250966845543
 20
100.6474793042654
 30
0.0
 10
83.50250966845543
 20
100.6474793042654
 30
0.0
 10
83.50250966845543
 20
100.5416502773279
 30
0.0
 10
83.60834407835465
 20
100.6474793042654
 30
0.0
 10
83.50250966845543
 20
100.6474793042654
 30
0.0
 10
83.50250966845543
 20
100.6474793042654
 30
0.0
 10
77.7522308155232
 20
100.6474793042654
 30
0.0
 10
77.7522308155232
 20
100.6474793042654
 30
0.0
 10
77.64639640562368
 20
100.6474793042654
 30
0.0
 10
77.7522308155232
 20
100.5416502773279
 30
0.0
 10
77.7522308155232
 20
100.6474793042654
 30
0.0
 10
77.7522308155232
 20
100.6474793042654
 30
0.0
 10
77.7522308155232
 20
103.5402613876893
 30
0.0
 10
77.7522308155232
 20
103.5402613876893
 30
0.0
 10
77.7522308155232
 20
103.6108212495966
 30
0.0
 10
77.68167633657731
 20
103.6460904146269
 30
0.0
 10
77.64639640562368
 20
103.6460904146269
 30
0.0
 10
77.64639640562368
 20
103.6460904146269
 30
0.0
 10
71.64917418490076
 20
103.6460904146269
 30
0.0
 10
71.64917418490076
 20
103.6460904146269
 30
0.0
 10
71.57861970595549
 20
103.6460904146269
 30
0.0
 10
71.54333977500154
 20
103.5755305527196
 30
0.0
 10
71.54333977500154
 20
103.5402613876893
 30
0.0
 10
71.54333977500154
 20
103.5402613876893
 30
0.0
 10
71.54333977500154
 20
100.6474793042654
 30
0.0
 10
71.54333977500154
 20
100.6474793042654
 30
0.0
 10
71.54333977500154
 20
100.5416502773279
 30
0.0
 10
71.64917418490076
 20
100.6474793042654
 30
0.0
 10
71.54333977500154
 20
100.6474793042654
 30
0.0
 10
71.54333977500154
 20
100.6474793042654
 30
0.0
 10
65.79306092206898
 20
100.6474793042654
 30
0.0
 10
65.79306092206898
 20
100.6474793042654
 30
0.0
 10
65.68722651216977
 20
100.6474793042654
 30
0.0
 10
65.79306092206898
 20
100.5416502773279
 30
0.0
 10
65.79306092206898
 20
100.6474793042654
 30
0.0
 10
65.79306092206898
 20
100.6474793042654
 30
0.0
 10
65.79306092206898
 20
103.5402613876893
 30
0.0
 10
65.79306092206898
 20
103.5402613876893
 30
0.0
 10
65.79306092206898
 20
103.6108212495966
 30
0.0
 10
65.7225064431234
 20
103.6460904146269
 30
0.0
 10
65.68722651216977
 20
103.6460904146269
 30
0.0
 10
65.68722651216977
 20
103.6460904146269
 30
0.0
 10
59.69000429144686
 20
103.6460904146269
 30
0.0
 10
59.69000429144686
 20
103.6460904146269
 30
0.0
 10
59.61944981250128
 20
103.6460904146269
 30
0.0
 10
59.58416988154764
 20
103.5755305527196
 30
0.0
 10
59.58416988154764
 20
103.5402613876893
 30
0.0
 10
59.58416988154764
 20
103.5402613876893
 30
0.0
 10
59.58416988154764
 20
100.6474793042654
 30
0.0
 10
59.58416988154764
 20
100.6474793042654
 30
0.0
 10
59.58416988154764
 20
100.5416502773279
 30
0.0
 10
59.69000429144686
 20
100.6474793042654
 30
0.0
 10
59.58416988154764
 20
100.6474793042654
 30
0.0
 10
59.58416988154764
 20
100.6474793042654
 30
0.0
 10
53.8338910286151
 20
100.6474793042654
 30
0.0
 10
53.8338910286151
 20
100.6474793042654
 30
0.0
 10
53.72805661871588
 20
100.6474793042654
 30
0.0
 10
53.8338910286151
 20
100.5416502773279
 30
0.0
 10
53.8338910286151
 20
100.6474793042654
 30
0.0
 10
53.8338910286151
 20
100.6474793042654
 30
0.0
 10
53.8338910286151
 20
103.5402613876893
 30
0.0
 10
53.8338910286151
 20
103.5402613876893
 30
0.0
 10
53.8338910286151
 20
103.6108212495966
 30
0.0
 10
53.76333654966952
 20
103.6460904146269
 30
0.0
 10
53.72805661871588
 20
103.6460904146269
 30
0.0
 10
53.72805661871588
 20
103.6460904146269
 30
0.0
 10
47.73083439799296
 20
103.6460904146269
 30
0.0
 10
47.73083439799296
 20
103.6460904146269
 30
0.0
 10
47.66027991904739
 20
103.6460904146269
 30
0.0
 10
47.62499998809375
 20
103.5755305527196
 30
0.0
 10
47.62499998809375
 20
103.5402613876893
 30
0.0
 10
47.62499998809375
 20
103.5402613876893
 30
0.0
 10
47.62499998809375
 20
100.6474793042654
 30
0.0
 10
47.62499998809375
 20
100.6474793042654
 30
0.0
 10
47.62499998809375
 20
100.5416502773279
 30
0.0
 10
47.73083439799296
 20
100.6474793042654
 30
0.0
 10
47.62499998809375
 20
100.6474793042654
 30
0.0
 10
47.62499998809375
 20
100.6474793042654
 30
0.0
 10
41.8747211351612
 20
100.6474793042654
 30
0.0
 10
41.8747211351612
 20
100.6474793042654
 30
0.0
 10
41.76888672526199
 20
100.6474793042654
 30
0.0
 10
41.8747211351612
 20
100.5416502773279
 30
0.0
 10
41.8747211351612
 20
100.6474793042654
 30
0.0
 10
41.8747211351612
 20
100.6474793042654
 30
0.0
 10
41.8747211351612
 20
103.5402613876893
 30
0.0
 10
41.8747211351612
 20
103.5402613876893
 30
0.0
 10
41.8747211351612
 20
103.6108212495966
 30
0.0
 10
41.80416665621563
 20
103.6460904146269
 30
0.0
 10
41.76888672526199
 20
103.6460904146269
 30
0.0
 10
41.76888672526199
 20
103.6460904146269
 30
0.0
 10
35.77166450453908
 20
103.6460904146269
 30
0.0
 10
35.77166450453908
 20
103.6460904146269
 30
0.0
 10
35.70111002559349
 20
103.6460904146269
 30
0.0
 10
35.66583009463986
 20
103.5755305527196
 30
0.0
 10
35.66583009463986
 20
103.5402613876893
 30
0.0
 10
35.66583009463986
 20
103.5402613876893
 30
0.0
 10
35.66583009463986
 20
100.6474793042654
 30
0.0
 10
35.66583009463986
 20
100.6474793042654
 30
0.0
 10
35.66583009463986
 20
100.5416502773279
 30
0.0
 10
35.77166450453908
 20
100.6474793042654
 30
0.0
 10
35.66583009463986
 20
100.6474793042654
 30
0.0
 10
35.66583009463986
 20
100.6474793042654
 30
0.0
 10
29.91555662466901
 20
100.6474793042654
 30
0.0
 10
29.91555662466901
 20
100.6474793042654
 30
0.0
 10
29.80972221476979
 20
100.6474793042654
 30
0.0
 10
29.91555662466901
 20
100.5416502773279
 30
0.0
 10
29.91555662466901
 20
100.6474793042654
 30
0.0
 10
29.91555662466901
 20
100.6474793042654
 30
0.0
 10
29.91555662466901
 20
103.5402613876893
 30
0.0
 10
29.91555662466901
 20
103.5402613876893
 30
0.0
 10
29.91555662466901
 20
103.6108212495966
 30
0.0
 10
29.84500214572343
 20
103.6460904146269
 30
0.0
 10
29.80972221476979
 20
103.6460904146269
 30
0.0
 10
29.80972221476979
 20
103.6460904146269
 30
0.0
 10
21.80166639206817
 20
103.6460904146269
 30
0.0
 10
21.80166639206817
 20
103.6460904146269
 30
0.0
 10
21.80166639206817
 20
103.6460904146269
 30
0.0
 10
18.80305528170671
 20
103.6460904146269
 30
0.0
 10
18.80305528170671
 20
103.6460904146269
 30
0.0
 10
18.7324994570207
 20
103.6460904146269
 30
0.0
 10
18.69722221754791
 20
103.5755305527196
 30
0.0
 10
18.69722221754791
 20
103.5402613876893
 30
0.0
 10
18.69722221754791
 20
103.5402613876893
 30
0.0
 10
18.69722221754791
 20
100.5416502773279
 30
0.0
 10
18.69722221754791
 20
100.5416502773279
 30
0.0
 10
18.69722221754791
 20
100.5416502773279
 30
0.0
 10
18.69722221754791
 20
92.533590417405
 30
0.0
 10
18.69722221754791
 20
92.533590417405
 30
0.0
 10
18.69722221754791
 20
92.46303055549773
 30
0.0
 10
18.76777804223392
 20
92.4277613904675
 30
0.0
 10
18.80305528170671
 20
92.4277613904675
 30
0.0
 10
18.80305528170671
 20
92.4277613904675
 30
0.0
 10
21.69583332790938
 20
92.4277613904675
 30
0.0
 10
21.69583332790938
 20
92.4277613904675
 30
0.0
 10
21.80166639206817
 20
92.4277613904675
 30
0.0
 10
21.69583332790938
 20
92.533590417405
 30
0.0
 10
21.69583332790938
 20
92.4277613904675
 30
0.0
 10
21.69583332790938
 20
92.4277613904675
 30
0.0
 10
21.69583332790938
 20
86.67748792049662
 30
0.0
 10
21.69583332790938
 20
86.67748792049662
 30
0.0
 10
21.69583332790938
 20
86.57165889355912
 30
0.0
 10
21.80166639206817
 20
86.67748792049662
 30
0.0
 10
21.69583332790938
 20
86.67748792049662
 30
0.0
 10
21.69583332790938
 20
86.67748792049662
 30
0.0
 10
18.80305528170671
 20
86.67748792049662
 30
0.0
 10
18.80305528170671
 20
86.67748792049662
 30
0.0
 10
18.7324994570207
 20
86.67748792049662
 30
0.0
 10
18.69722221754791
 20
86.60692805858936
 30
0.0
 10
18.69722221754791
 20
86.57165889355912
 30
0.0
 10
18.69722221754791
 20
86.57165889355912
 30
0.0
 10
18.69722221754791
 20
80.57443667283619
 30
0.0
 10
18.69722221754791
 20
80.57443667283619
 30
0.0
 10
18.69722221754791
 20
80.50387681092892
 30
0.0
 10
18.76777804223392
 20
80.46860764589869
 30
0.0
 10
18.80305528170671
 20
80.46860764589869
 30
0.0
 10
18.80305528170671
 20
80.46860764589869
 30
0.0
 10
21.69583332790938
 20
80.46860764589869
 30
0.0
 10
21.69583332790938
 20
80.46860764589869
 30
0.0
 10
21.80166639206817
 20
80.46860764589869
 30
0.0
 10
21.69583332790938
 20
80.57443667283619
 30
0.0
 10
21.69583332790938
 20
80.46860764589869
 30
0.0
 10
21.69583332790938
 20
80.46860764589869
 30
0.0
 10
21.69583332790938
 20
74.71833417592783
 30
0.0
 10
21.69583332790938
 20
74.71833417592783
 30
0.0
 10
21.69583332790938
 20
74.61250514899031
 30
0.0
 10
21.80166639206817
 20
74.71833417592783
 30
0.0
 10
21.69583332790938
 20
74.71833417592783
 30
0.0
 10
21.69583332790938
 20
74.71833417592783
 30
0.0
 10
18.80305528170671
 20
74.71833417592783
 30
0.0
 10
18.80305528170671
 20
74.71833417592783
 30
0.0
 10
18.7324994570207
 20
74.71833417592783
 30
0.0
 10
18.69722221754791
 20
74.64777431402055
 30
0.0
 10
18.69722221754791
 20
74.61250514899031
 30
0.0
 10
18.69722221754791
 20
74.61250514899031
 30
0.0
 10
18.69722221754791
 20
66.60444528906741
 30
0.0
 10
18.69722221754791
 20
66.60444528906741
 30
0.0
 10
18.69722221754791
 20
66.60444528906741
 30
0.0
 10
18.69722221754791
 20
63.60583417870596
 30
0.0
 10
18.69722221754791
 20
63.60583417870596
 30
0.0
 10
18.69722221754791
 20
63.53527431679868
 30
0.0
 10
18.76777804223392
 20
63.50000515176843
 30
0.0
 10
18.80305528170671
 20
63.50000515176843
 30
0.0
 10
18.80305528170671
 20
63.50000515176843
 30
0.0
 10
21.80166639206817
 20
63.50000515176843
 30
0.0
 10
21.80166639206817
 20
63.50000515176843
 30
0.0
  0
SPLINE
  5
81
330
79
100
AcDbEntity
  8
framework
 62
    18
420
        0
370
    25
100
AcDbSpline
210
0.0
220
0.0
230
1.0
 70
     9
 71
     3
 72
   701
 73
   697
 74
     0
 42
0.0000000001
 43
0.0000000001
 40
0.0
 40
0.0
 40
0.0
 40
0.0
 40
1.0
 40
1.0
 40
1.0
 40
2.0
 40
2.0
 40
2.0
 40
3.0
 40
3.0
 40
3.0
 40
4.0
 40
4.0
 40
4.0
 40
5.0
 40
5.0
 40
5.0
 40
6.0
 40
6.0
 40
6.0
 40
7.0
 40
7.0
 40
7.0
 40
8.0
 40
8.0
 40
8.0
 40
9.0
 40
9.0
 40
9.0
 40
10.0
 40
10.0
 40
10.0
 40
11.0
 40
11.0
 40
11.0
 40
12.0
 40
12.0
 40
12.0
 40
13.0
 40
13.0
 40
13.0
 40
14.0
 40
14.0
 40
14.0
 40
15.0
 40
15.0
 40
15.0
 40
16.0
 40
16.0
 40
16.0
 40
17.0
 40
17.0
 40
17.0
 40
18.0
 40
18.0
 40
18.0
 40
19.0
 40
19.0
 40
19.0
 40
20.0
 40
20.0
 40
20.0
 40
21.0
 40
21.0
 40
21.0
 40
22.0
 40
22.0
 40
22.0
 40
23.0
 40
23.0
 40
23.0
 40
24.0
 40
24.0
 40
24.0
 40
25.0
 40
25.0
 40
25.0
 40
26.0
 40
26.0
 40
26.0
 40
27.0
 40
27.0
 40
27.0
 40
28.0
 40
28.0
 40
28.0
 40
29.0
 40
29.0
 40
29.0
 40
30.0
 40
30.0
 40
30.0
 40
31.0
 40
31.0
 40
31.0
 40
32.0
 40
32.0
 40
32.0
 40
33.0
 40
33.0
 40
33.0
 40
34.0
 40
34.0
 40
34.0
 40
35.0
 40
35.0
 40
35.0
 40
36.0
 40
36.0
 40
36.0
 40
37.0
 40
37.0
 40
37.0
 40
38.0
 40
38.0
 40
38.0
 40
39.0
 40
39.0
 40
39.0
 40
40.0
 40
40.0
 40
40.0
 40
41.0
 40
41.0
 40
41.0
 40
42.0
 40
42.0
 40
42.0
 40
43.0
 40
43.0
 40
43.0
 40
44.0
 40
44.0
 40
44.0
 40
45.0
 40
45.0
 40
45.0
 40
46.0
 40
46.0
 40
46.0
 40
47.0
 40
47.0
 40
47.0
 40
48.0
 40
48.0
 40
48.0
 40
49.0
 40
49.0
 40
49.0
 40
50.0
 40
50.0
 40
50.0
 40
51.0
 40
51.0
 40
51.0
 40
52.0
 40
52.0
 40
52.0
 40
53.0
 40
53.0
 40
53.0
 40
54.0
 40
54.0
 40
54.0
 40
55.0
 40
55.0
 40
55.0
 40
56.0
 40
56.0
 40
56.0
 40
57.0
 40
57.0
 40
57.0
 40
58.0
 40
58.0
 40
58.0
 40
59.0
 40
59.0
 40
59.0
 40
60.0
 40
60.0
 40
60.0
 40
61.0
 40
61.0
 40
61.0
 40
62.0
 40
62.0
 40
62.0
 40
63.0
 40
63.0
 40
63.0
 40
64.0
 40
64.0
 40
64.0
 40
65.0
 40
65.0
 40
65.0
 40
66.0
 40
66.0
 40
66.0
 40
67.0
 40
67.0
 40
67.0
 40
68.0
 40
68.0
 40
68.0
 40
69.0
 40
69.0
 40
69.0
 40
70.0
 40
70.0
 40
70.0
 40
71.0
 40
71.0
 40
71.0
 40
72.0
 40
72.0
 40
72.0
 40
73.0
 40
73.0
 40
73.0
 40
74.0
 40
74.0
 40
74.0
 40
75.0
 40
75.0
 40
75.0
 40
76.0
 40
76.0
 40
76.0
 40
77.0
 40
77.0
 40
77.0
 40
78.0
 40
78.0
 40
78.0
 40
79.0
 40
79.0
 40
79.0
 40
80.0
 40
80.0
 40
80.0
 40
81.0
 40
81.0
 40
81.0
 40
82.0
 40
82.0
 40
82.0
 40
83.0
 40
83.0
 40
83.0
 40
84.0
 40
84.0
 40
84.0
 40
85.0
 40
85.0
 40
85.0
 40
86.0
 40
86.0
 40
86.0
 40
87.0
 40
87.0
 40
87.0
 40
88.0
 40
88.0
 40
88.0
 40
89.0
 40
89.0
 40
89.0
 40
90.0
 40
90.0
 40
90.0
 40
91.0
 40
91.0
 40
91.0
 40
92.0
 40
92.0
 40
92.0
 40
93.0
 40
93.0
 40
93.0
 40
94.0
 40
94.0
 40
94.0
 40
95.0
 40
95.0
 40
95.0
 40
96.0
 40
96.0
 40
96.0
 40
97.0
 40
97.0
 40
97.0
 40
98.0
 40
98.0
 40
98.0
 40
99.0
 40
99.0
 40
99.0
 40
100.0
 40
100.0
 40
100.0
 40
101.0
 40
101.0
 40
101.0
 40
102.0
 40
102.0
 40
102.0
 40
103.0
 40
103.0
 40
103.0
 40
104.0
 40
104.0
 40
104.0
 40
105.0
 40
105.0
 40
105.0
 40
106.0
 40
106.0
 40
106.0
 40
107.0
 40
107.0
 40
107.0
 40
108.0
 40
108.0
 40
108.0
 40
109.0
 40
109.0
 40
109.0
 40
110.0
 40
110.0
 40
110.0
 40
111.0
 40
111.0
 40
111.0
 40
112.0
 40
112.0
 40
112.0
 40
113.0
 40
113.0
 40
113.0
 40
114.0
 40
114.0
 40
114.0
 40
115.0
 40
115.0
 40
115.0
 40
116.0
 40
116.0
 40
116.0
 40
117.0
 40
117.0
 40
117.0
 40
118.0
 40
118.0
 40
118.0
 40
119.0
 40
119.0
 40
119.0
 40
120.0
 40
120.0
 40
120.0
 40
121.0
 40
121.0
 40
121.0
 40
122.0
 40
122.0
 40
122.0
 40
123.0
 40
123.0
 40
123.0
 40
124.0
 40
124.0
 40
124.0
 40
125.0
 40
125.0
 40
125.0
 40
126.0
 40
126.0
 40
126.0
 40
127.0
 40
127.0
 40
127.0
 40
128.0
 40
128.0
 40
128.0
 40
129.0
 40
129.0
 40
129.0
 40
130.0
 40
130.0
 40
130.0
 40
131.0
 40
131.0
 40
131.0
 40
132.0
 40
132.0
 40
132.0
 40
133.0
 40
133.0
 40
133.0
 40
134.0
 40
134.0
 40
134.0
 40
135.0
 40
135.0
 40
135.0
 40
136.0
 40
136.0
 40
136.0
 40
137.0
 40
137.0
 40
137.0
 40
138.0
 40
138.0
 40
138.0
 40
139.0
 40
139.0
 40
139.0
 40
140.0
 40
140.0
 40
140.0
 40
141.0
 40
141.0
 40
141.0
 40
142.0
 40
142.0
 40
142.0
 40
143.0
 40
143.0
 40
143.0
 40
144.0
 40
144.0
 40
144.0
 40
145.0
 40
145.0
 40
145.0
 40
146.0
 40
146.0
 40
146.0
 40
147.0
 40
147.0
 40
147.0
 40
148.0
 40
148.0
 40
148.0
 40
149.0
 40
149.0
 40
149.0
 40
150.0
 40
150.0
 40
150.0
 40
151.0
 40
151.0
 40
151.0
 40
152.0
 40
152.0
 40
152.0
 40
153.0
 40
153.0
 40
153.0
 40
154.0
 40
154.0
 40
154.0
 40
155.0
 40
155.0
 40
155.0
 40
156.0
 40
156.0
 40
156.0
 40
157.0
 40
157.0
 40
157.0
 40
158.0
 40
158.0
 40
158.0
 40
159.0
 40
159.0
 40
159.0
 40
160.0
 40
160.0
 40
160.0
 40
161.0
 40
161.0
 40
161.0
 40
162.0
 40
162.0
 40
162.0
 40
163.0
 40
163.0
 40
163.0
 40
164.0
 40
164.0
 40
164.0
 40
165.0
 40
165.0
 40
165.0
 40
166.0
 40
166.0
 40
166.0
 40
167.0
 40
167.0
 40
167.0
 40
168.0
 40
168.0
 40
168.0
 40
169.0
 40
169.0
 40
169.0
 40
170.0
 40
170.0
 40
170.0
 40
171.0
 40
171.0
 40
171.0
 40
172.0
 40
172.0
 40
172.0
 40
173.0
 40
173.0
 40
173.0
 40
174.0
 40
174.0
 40
174.0
 40
175.0
 40
175.0
 40
175.0
 40
176.0
 40
176.0
 40
176.0
 40
177.0
 40
177.0
 40
177.0
 40
178.0
 40
178.0
 40
178.0
 40
179.0
 40
179.0
 40
179.0
 40
180.0
 40
180.0
 40
180.0
 40
181.0
 40
181.0
 40
181.0
 40
182.0
 40
182.0
 40
182.0
 40
183.0
 40
183.0
 40
183.0
 40
184.0
 40
184.0
 40
184.0
 40
185.0
 40
185.0
 40
185.0
 40
186.0
 40
186.0
 40
186.0
 40
187.0
 40
187.0
 40
187.0
 40
188.0
 40
188.0
 40
188.0
 40
189.0
 40
189.0
 40
189.0
 40
190.0
 40
190.0
 40
190.0
 40
191.0
 40
191.0
 40
191.0
 40
192.0
 40
192.0
 40
192.0
 40
193.0
 40
193.0
 40
193.0
 40
194.0
 40
194.0
 40
194.0
 40
195.0
 40
195.0
 40
195.0
 40
196.0
 40
196.0
 40
196.0
 40
197.0
 40
197.0
 40
197.0
 40
198.0
 40
198.0
 40
198.0
 40
199.0
 40
199.0
 40
199.0
 40
200.0
 40
200.0
 40
200.0
 40
201.0
 40
201.0
 40
201.0
 40
202.0
 40
202.0
 40
202.0
 40
203.0
 40
203.0
 40
203.0
 40
204.0
 40
204.0
 40
204.0
 40
205.0
 40
205.0
 40
205.0
 40
206.0
 40
206.0
 40
206.0
 40
207.0
 40
207.0
 40
207.0
 40
208.0
 40
208.0
 40
208.0
 40
209.0
 40
209.0
 40
209.0
 40
210.0
 40
210.0
 40
210.0
 40
211.0
 40
211.0
 40
211.0
 40
212.0
 40
212.0
 40
212.0
 40
213.0
 40
213.0
 40
213.0
 40
214.0
 40
214.0
 40
214.0
 40
215.0
 40
215.0
 40
215.0
 40
216.0
 40
216.0
 40
216.0
 40
217.0
 40
217.0
 40
217.0
 40
218.0
 40
218.0
 40
218.0
 40
219.0
 40
219.0
 40
219.0
 40
220.0
 40
220.0
 40
220.0
 40
221.0
 40
221.0
 40
221.0
 40
222.0
 40
222.0
 40
222.0
 40
223.0
 40
223.0
 40
223.0
 40
224.0
 40
224.0
 40
224.0
 40
225.0
 40
225.0
 40
225.0
 40
226.0
 40
226.0
 40
226.0
 40
227.0
 40
227.0
 40
227.0
 40
228.0
 40
228.0
 40
228.0
 40
229.0
 40
229.0
 40
229.0
 40
230.0
 40
230.0
 40
230.0
 40
231.0
 40
231.0
 40
231.0
 40
232.0
 40
232.0
 40
232.0
 40
232.0
 10
21.80166639206817
 20
108.2322230564382
 30
0.0
 10
21.80166639206817
 20
108.2322230564382
 30
0.0
 10
29.66861056539779
 20
108.2322230564382
 30
0.0
 10
29.66861056539779
 20
108.2322230564382
 30
0.0
 10
29.77444497529701
 20
108.2322230564382
 30
0.0
 10
29.66861056539779
 20
108.3380520833757
 30
0.0
 10
29.66861056539779
 20
108.2322230564382
 30
0.0
 10
29.66861056539779
 20
108.2322230564382
 30
0.0
 10
29.66861056539779
 20
105.3394409730143
 30
0.0
 10
29.66861056539779
 20
105.3394409730143
 30
0.0
 10
29.66861056539779
 20
105.268881111107
 30
0.0
 10
29.73916504434337
 20
105.2336119460768
 30
0.0
 10
29.77444497529701
 20
105.2336119460768
 30
0.0
 10
29.77444497529701
 20
105.2336119460768
 30
0.0
 10
35.77166719601992
 20
105.2336119460768
 30
0.0
 10
35.77166719601992
 20
105.2336119460768
 30
0.0
 10
35.8422216749655
 20
105.2336119460768
 30
0.0
 10
35.87750160591914
 20
105.304171807984
 30
0.0
 10
35.87750160591914
 20
105.3394409730143
 30
0.0
 10
35.87750160591914
 20
105.3394409730143
 30
0.0
 10
35.87750160591914
 20
108.2322230564382
 30
0.0
 10
35.87750160591914
 20
108.2322230564382
 30
0.0
 10
35.87750160591914
 20
108.3380520833757
 30
0.0
 10
35.77166719601992
 20
108.2322230564382
 30
0.0
 10
35.87750160591914
 20
108.2322230564382
 30
0.0
 10
35.87750160591914
 20
108.2322230564382
 30
0.0
 10
41.62777776737083
 20
108.2322230564382
 30
0.0
 10
41.62777776737083
 20
108.2322230564382
 30
0.0
 10
41.73361217727005
 20
108.2322230564382
 30
0.0
 10
41.62777776737083
 20
108.3380520833757
 30
0.0
 10
41.62777776737083
 20
108.2322230564382
 30
0.0
 10
41.62777776737083
 20
108.2322230564382
 30
0.0
 10
41.62777776737083
 20
105.3394409730143
 30
0.0
 10
41.62777776737083
 20
105.3394409730143
 30
0.0
 10
41.62777776737083
 20
105.268881111107
 30
0.0
 10
41.6983322463164
 20
105.2336119460768
 30
0.0
 10
41.73361217727005
 20
105.2336119460768
 30
0.0
 10
41.73361217727005
 20
105.2336119460768
 30
0.0
 10
47.73083439799296
 20
105.2336119460768
 30
0.0
 10
47.73083439799296
 20
105.2336119460768
 30
0.0
 10
47.80138887693854
 20
105.2336119460768
 30
0.0
 10
47.83666880789218
 20
105.304171807984
 30
0.0
 10
47.83666880789218
 20
105.3394409730143
 30
0.0
 10
47.83666880789218
 20
105.3394409730143
 30
0.0
 10
47.83666880789218
 20
108.2322230564382
 30
0.0
 10
47.83666880789218
 20
108.2322230564382
 30
0.0
 10
47.83666880789218
 20
108.3380520833757
 30
0.0
 10
47.73083439799296
 20
108.2322230564382
 30
0.0
 10
47.83666880789218
 20
108.2322230564382
 30
0.0
 10
47.83666880789218
 20
108.2322230564382
 30
0.0
 10
53.58694766082472
 20
108.2322230564382
 30
0.0
 10
53.58694766082472
 20
108.2322230564382
 30
0.0
 10
53.69278207072394
 20
108.2322230564382
 30
0.0
 10
53.58694766082472
 20
108.3380520833757
 30
0.0
 10
53.58694766082472
 20
108.2322230564382
 30
0.0
 10
53.58694766082472
 20
108.2322230564382
 30
0.0
 10
53.58694766082472
 20
105.3394409730143
 30
0.0
 10
53.58694766082472
 20
105.3394409730143
 30
0.0
 10
53.58694766082472
 20
105.268881111107
 30
0.0
 10
53.65750213977031
 20
105.2336119460768
 30
0.0
 10
53.69278207072394
 20
105.2336119460768
 30
0.0
 10
53.69278207072394
 20
105.2336119460768
 30
0.0
 10
59.69000429144686
 20
105.2336119460768
 30
0.0
 10
59.69000429144686
 20
105.2336119460768
 30
0.0
 10
59.76055877039243
 20
105.2336119460768
 30
0.0
 10
59.79583870134607
 20
105.304171807984
 30
0.0
 10
59.79583870134607
 20
105.3394409730143
 30
0.0
 10
59.79583870134607
 20
105.3394409730143
 30
0.0
 10
59.79583870134607
 20
108.2322230564382
 30
0.0
 10
59.79583870134607
 20
108.2322230564382
 30
0.0
 10
59.79583870134607
 20
108.3380520833757
 30
0.0
 10
59.69000429144686
 20
108.2322230564382
 30
0.0
 10
59.79583870134607
 20
108.2322230564382
 30
0.0
 10
59.79583870134607
 20
108.2322230564382
 30
0.0
 10
65.54611755427862
 20
108.2322230564382
 30
0.0
 10
65.54611755427862
 20
108.2322230564382
 30
0.0
 10
65.65195196417784
 20
108.2322230564382
 30
0.0
 10
65.54611755427862
 20
108.3380520833757
 30
0.0
 10
65.54611755427862
 20
108.2322230564382
 30
0.0
 10
65.54611755427862
 20
108.2322230564382
 30
0.0
 10
65.54611755427862
 20
105.3394409730143
 30
0.0
 10
65.54611755427862
 20
105.3394409730143
 30
0.0
 10
65.54611755427862
 20
105.268881111107
 30
0.0
 10
65.61667203322421
 20
105.2336119460768
 30
0.0
 10
65.65195196417784
 20
105.2336119460768
 30
0.0
 10
65.65195196417784
 20
105.2336119460768
 30
0.0
 10
71.64917418490076
 20
105.2336119460768
 30
0.0
 10
71.64917418490076
 20
105.2336119460768
 30
0.0
 10
71.71972866384632
 20
105.2336119460768
 30
0.0
 10
71.75500859480028
 20
105.304171807984
 30
0.0
 10
71.75500859480028
 20
105.3394409730143
 30
0.0
 10
71.75500859480028
 20
105.3394409730143
 30
0.0
 10
71.75500859480028
 20
108.2322230564382
 30
0.0
 10
71.75500859480028
 20
108.2322230564382
 30
0.0
 10
71.75500859480028
 20
108.3380520833757
 30
0.0
 10
71.64917418490076
 20
108.2322230564382
 30
0.0
 10
71.75500859480028
 20
108.2322230564382
 30
0.0
 10
71.75500859480028
 20
108.2322230564382
 30
0.0
 10
77.50528744773252
 20
108.2322230564382
 30
0.0
 10
77.50528744773252
 20
108.2322230564382
 30
0.0
 10
77.61112185763173
 20
108.2322230564382
 30
0.0
 10
77.50528744773252
 20
108.3380520833757
 30
0.0
 10
77.50528744773252
 20
108.2322230564382
 30
0.0
 10
77.50528744773252
 20
108.2322230564382
 30
0.0
 10
77.50528744773252
 20
105.3394409730143
 30
0.0
 10
77.50528744773252
 20
105.3394409730143
 30
0.0
 10
77.50528744773252
 20
105.268881111107
 30
0.0
 10
77.57584192667841
 20
105.2336119460768
 30
0.0
 10
77.61112185763173
 20
105.2336119460768
 30
0.0
 10
77.61112185763173
 20
105.2336119460768
 30
0.0
 10
83.60834407835465
 20
105.2336119460768
 30
0.0
 10
83.60834407835465
 20
105.2336119460768
 30
0.0
 10
83.67889855730023
 20
105.2336119460768
 30
0.0
 10
83.71417848825386
 20
105.304171807984
 30
0.0
 10
83.71417848825386
 20
105.3394409730143
 30
0.0
 10
83.71417848825386
 20
105.3394409730143
 30
0.0
 10
83.71417848825386
 20
108.2322230564382
 30
0.0
 10
83.71417848825386
 20
108.2322230564382
 30
0.0
 10
83.71417848825386
 20
108.3380520833757
 30
0.0
 10
83.60834407835465
 20
108.2322230564382
 30
0.0
 10
83.71417848825386
 20
108.2322230564382
 30
0.0
 10
83.71417848825386
 20
108.2322230564382
 30
0.0
 10
89.4644573411864
 20
108.2322230564382
 30
0.0
 10
89.4644573411864
 20
108.2322230564382
 30
0.0
 10
89.57029175108562
 20
108.2322230564382
 30
0.0
 10
89.4644573411864
 20
108.3380520833757
 30
0.0
 10
89.4644573411864
 20
108.2322230564382
 30
0.0
 10
89.4644573411864
 20
108.2322230564382
 30
0.0
 10
89.4644573411864
 20
105.3394409730143
 30
0.0
 10
89.4644573411864
 20
105.3394409730143
 30
0.0
 10
89.4644573411864
 20
105.268881111107
 30
0.0
 10
89.53501182013198
 20
105.2336119460768
 30
0.0
 10
89.57029175108562
 20
105.2336119460768
 30
0.0
 10
89.57029175108562
 20
105.2336119460768
 30
0.0
 10
95.56750858884717
 20
105.2336119460768
 30
0.0
 10
95.56750858884717
 20
105.2336119460768
 30
0.0
 10
95.63806845075411
 20
105.2336119460768
 30
0.0
 10
95.67333761578437
 20
105.304171807984
 30
0.0
 10
95.67333761578437
 20
105.3394409730143
 30
0.0
 10
95.67333761578437
 20
105.3394409730143
 30
0.0
 10
95.67333761578437
 20
108.2322230564382
 30
0.0
 10
95.67333761578437
 20
108.2322230564382
 30
0.0
 10
95.67333761578437
 20
108.3380520833757
 30
0.0
 10
95.56750858884717
 20
108.2322230564382
 30
0.0
 10
95.67333761578437
 20
108.2322230564382
 30
0.0
 10
95.67333761578437
 20
108.2322230564382
 30
0.0
 10
101.4236110857552
 20
108.2322230564382
 30
0.0
 10
101.4236110857552
 20
108.2322230564382
 30
0.0
 10
101.5294401126927
 20
108.2322230564382
 30
0.0
 10
101.4236110857552
 20
108.3380520833757
 30
0.0
 10
101.4236110857552
 20
108.2322230564382
 30
0.0
 10
101.4236110857552
 20
108.2322230564382
 30
0.0
 10
101.4236110857552
 20
105.3394409730143
 30
0.0
 10
101.4236110857552
 20
105.3394409730143
 30
0.0
 10
101.4236110857552
 20
105.268881111107
 30
0.0
 10
101.4941709476625
 20
105.2336119460768
 30
0.0
 10
101.5294401126927
 20
105.2336119460768
 30
0.0
 10
101.5294401126927
 20
105.2336119460768
 30
0.0
 10
107.5266623334156
 20
105.2336119460768
 30
0.0
 10
107.5266623334156
 20
105.2336119460768
 30
0.0
 10
107.5972221953229
 20
105.2336119460768
 30
0.0
 10
107.6324913603535
 20
105.304171807984
 30
0.0
 10
107.6324913603535
 20
105.3394409730143
 30
0.0
 10
107.6324913603535
 20
105.3394409730143
 30
0.0
 10
107.6324913603535
 20
108.2322230564382
 30
0.0
 10
107.6324913603535
 20
108.2322230564382
 30
0.0
 10
107.6324913603535
 20
108.3380520833757
 30
0.0
 10
107.5266623334156
 20
108.2322230564382
 30
0.0
 10
107.6324913603535
 20
108.2322230564382
 30
0.0
 10
107.6324913603535
 20
108.2322230564382
 30
0.0
 10
115.4994314964615
 20
108.2322230564382
 30
0.0
 10
115.4994314964615
 20
108.2322230564382
 30
0.0
 10
115.5699913583688
 20
108.2322230564382
 30
0.0
 10
115.605260523399
 20
108.3027829183455
 30
0.0
 10
115.605260523399
 20
108.3380520833757
 30
0.0
 10
115.605260523399
 20
108.3380520833757
 30
0.0
 10
115.605260523399
 20
116.2049922194841
 30
0.0
 10
115.605260523399
 20
116.2049922194841
 30
0.0
 10
115.605260523399
 20
116.3108212464216
 30
0.0
 10
115.4994314964615
 20
116.2049922194841
 30
0.0
 10
115.605260523399
 20
116.2049922194841
 30
0.0
 10
115.605260523399
 20
116.2049922194841
 30
0.0
 10
118.4980426068229
 20
116.2049922194841
 30
0.0
 10
118.4980426068229
 20
116.2049922194841
 30
0.0
 10
118.5686024687302
 20
116.2049922194841
 30
0.0
 10
118.6038716337605
 20
116.2755520813914
 30
0.0
 10
118.6038716337605
 20
116.3108212464216
 30
0.0
 10
118.6038716337605
 20
116.3108212464216
 30
0.0
 10
118.6038716337605
 20
122.3080434671445
 30
0.0
 10
118.6038716337605
 20
122.3080434671445
 30
0.0
 10
118.6038716337605
 20
122.3786033290518
 30
0.0
 10
118.5333117718532
 20
122.413872494082
 30
0.0
 10
118.4980426068229
 20
122.413872494082
 30
0.0
 10
118.4980426068229
 20
122.413872494082
 30
0.0
 10
115.605260523399
 20
122.413872494082
 30
0.0
 10
115.605260523399
 20
122.413872494082
 30
0.0
 10
115.4994314964615
 20
122.413872494082
 30
0.0
 10
115.605260523399
 20
122.3080434671445
 30
0.0
 10
115.605260523399
 20
122.413872494082
 30
0.0
 10
115.605260523399
 20
122.413872494082
 30
0.0
 10
115.605260523399
 20
128.1641513470146
 30
0.0
 10
115.605260523399
 20
128.1641513470146
 30
0.0
 10
115.605260523399
 20
128.2699857569138
 30
0.0
 10
115.4994314964615
 20
128.1641513470146
 30
0.0
 10
115.605260523399
 20
128.1641513470146
 30
0.0
 10
115.605260523399
 20
128.1641513470146
 30
0.0
 10
118.4980426068229
 20
128.1641513470146
 30
0.0
 10
118.4980426068229
 20
128.1641513470146
 30
0.0
 10
118.5686024687302
 20
128.1641513470146
 30
0.0
 10
118.6038716337605
 20
128.2347058259602
 30
0.0
 10
118.6038716337605
 20
128.2699857569138
 30
0.0
 10
118.6038716337605
 20
128.2699857569138
 30
0.0
 10
118.6038716337605
 20
134.2672079776367
 30
0.0
 10
118.6038716337605
 20
134.2672079776367
 30
0.0
 10
118.6038716337605
 20
134.3377624565823
 30
0.0
 10
118.5333117718532
 20
134.373042387536
 30
0.0
 10
118.4980426068229
 20
134.373042387536
 30
0.0
 10
118.4980426068229
 20
134.373042387536
 30
0.0
 10
115.605260523399
 20
134.373042387536
 30
0.0
 10
115.605260523399
 20
134.373042387536
 30
0.0
 10
115.4994314964615
 20
134.373042387536
 30
0.0
 10
115.605260523399
 20
134.2672079776367
 30
0.0
 10
115.605260523399
 20
134.373042387536
 30
0.0
 10
115.605260523399
 20
134.373042387536
 30
0.0
 10
115.605260523399
 20
140.1233212404685
 30
0.0
 10
115.605260523399
 20
140.1233212404685
 30
0.0
 10
115.605260523399
 20
140.2291556503677
 30
0.0
 10
115.4994314964615
 20
140.1233212404685
 30
0.0
 10
115.605260523399
 20
140.1233212404685
 30
0.0
 10
115.605260523399
 20
140.1233212404685
 30
0.0
 10
118.4980426068229
 20
140.1233212404685
 30
0.0
 10
118.4980426068229
 20
140.1233212404685
 30
0.0
 10
118.5686024687302
 20
140.1233212404685
 30
0.0
 10
118.6038716337605
 20
140.1938757194141
 30
0.0
 10
118.6038716337605
 20
140.2291556503677
 30
0.0
 10
118.6038716337605
 20
140.2291556503677
 30
0.0
 10
118.6038716337605
 20
146.2263778710906
 30
0.0
 10
118.6038716337605
 20
146.2263778710906
 30
0.0
 10
118.6038716337605
 20
146.2969323500362
 30
0.0
 10
118.5333117718532
 20
146.3322122809898
 30
0.0
 10
118.4980426068229
 20
146.3322122809898
 30
0.0
 10
118.4980426068229
 20
146.3322122809898
 30
0.0
 10
115.605260523399
 20
146.3322122809898
 30
0.0
 10
115.605260523399
 20
146.3322122809898
 30
0.0
 10
115.4994314964615
 20
146.3322122809898
 30
0.0
 10
115.605260523399
 20
146.2263778710906
 30
0.0
 10
115.605260523399
 20
146.3322122809898
 30
0.0
 10
115.605260523399
 20
146.3322122809898
 30
0.0
 10
115.605260523399
 20
152.0824911339224
 30
0.0
 10
115.605260523399
 20
152.0824911339224
 30
0.0
 10
115.605260523399
 20
152.1883255438216
 30
0.0
 10
115.4994314964615
 20
152.0824911339224
 30
0.0
 10
115.605260523399
 20
152.0824911339224
 30
0.0
 10
115.605260523399
 20
152.0824911339224
 30
0.0
 10
118.4980426068229
 20
152.0824911339224
 30
0.0
 10
118.4980426068229
 20
152.0824911339224
 30
0.0
 10
118.5686024687302
 20
152.0824911339224
 30
0.0
 10
118.6038716337605
 20
152.1530456128679
 30
0.0
 10
118.6038716337605
 20
152.1883255438216
 30
0.0
 10
118.6038716337605
 20
152.1883255438216
 30
0.0
 10
118.6038716337605
 20
158.1855477645445
 30
0.0
 10
118.6038716337605
 20
158.1855477645445
 30
0.0
 10
118.6038716337605
 20
158.2561022434901
 30
0.0
 10
118.5333117718532
 20
158.2913821744437
 30
0.0
 10
118.4980426068229
 20
158.2913821744437
 30
0.0
 10
118.4980426068229
 20
158.2913821744437
 30
0.0
 10
115.605260523399
 20
158.2913821744437
 30
0.0
 10
115.605260523399
 20
158.2913821744437
 30
0.0
 10
115.4994314964615
 20
158.2913821744437
 30
0.0
 10
115.605260523399
 20
158.1855477645445
 30
0.0
 10
115.605260523399
 20
158.2913821744437
 30
0.0
 10
115.605260523399
 20
158.2913821744437
 30
0.0
 10
115.605260523399
 20
164.0416610273763
 30
0.0
 10
115.605260523399
 20
164.0416610273763
 30
0.0
 10
115.605260523399
 20
164.1474954372755
 30
0.0
 10
115.4994314964615
 20
164.0416610273763
 30
0.0
 10
115.605260523399
 20
164.0416610273763
 30
0.0
 10
115.605260523399
 20
164.0416610273763
 30
0.0
 10
118.4980426068229
 20
164.0416610273763
 30
0.0
 10
118.4980426068229
 20
164.0416610273763
 30
0.0
 10
118.5686024687302
 20
164.0416610273763
 30
0.0
 10
118.6038716337605
 20
164.1122155063219
 30
0.0
 10
118.6038716337605
 20
164.1474954372755
 30
0.0
 10
118.6038716337605
 20
164.1474954372755
 30
0.0
 10
118.6038716337605
 20
170.1447176579984
 30
0.0
 10
118.6038716337605
 20
170.1447176579984
 30
0.0
 10
118.6038716337605
 20
170.215272136944
 30
0.0
 10
118.5333117718532
 20
170.2505520678976
 30
0.0
 10
118.4980426068229
 20
170.2505520678976
 30
0.0
 10
118.4980426068229
 20
170.2505520678976
 30
0.0
 10
115.605260523399
 20
170.2505520678976
 30
0.0
 10
115.605260523399
 20
170.2505520678976
 30
0.0
 10
115.4994314964615
 20
170.2505520678976
 30
0.0
 10
115.605260523399
 20
170.1447176579984
 30
0.0
 10
115.605260523399
 20
170.2505520678976
 30
0.0
 10
115.605260523399
 20
170.2505520678976
 30
0.0
 10
115.605260523399
 20
176.0008309208302
 30
0.0
 10
115.605260523399
 20
176.0008309208302
 30
0.0
 10
115.605260523399
 20
176.1066653307294
 30
0.0
 10
115.4994314964615
 20
176.0008309208302
 30
0.0
 10
115.605260523399
 20
176.0008309208302
 30
0.0
 10
115.605260523399
 20
176.0008309208302
 30
0.0
 10
118.4980426068229
 20
176.0008309208302
 30
0.0
 10
118.4980426068229
 20
176.0008309208302
 30
0.0
 10
118.5686024687302
 20
176.0008309208302
 30
0.0
 10
118.6038716337605
 20
176.0713853997757
 30
0.0
 10
118.6038716337605
 20
176.1066653307294
 30
0.0
 10
118.6038716337605
 20
176.1066653307294
 30
0.0
 10
118.6038716337605
 20
182.1038875514523
 30
0.0
 10
118.6038716337605
 20
182.1038875514523
 30
0.0
 10
118.6038716337605
 20
182.1744420303979
 30
0.0
 10
118.5333117718532
 20
182.2097219613515
 30
0.0
 10
118.4980426068229
 20
182.2097219613515
 30
0.0
 10
118.4980426068229
 20
182.2097219613515
 30
0.0
 10
115.605260523399
 20
182.2097219613515
 30
0.0
 10
115.605260523399
 20
182.2097219613515
 30
0.0
 10
115.4994314964615
 20
182.2097219613515
 30
0.0
 10
115.605260523399
 20
182.1038875514523
 30
0.0
 10
115.605260523399
 20
182.2097219613515
 30
0.0
 10
115.605260523399
 20
182.2097219613515
 30
0.0
 10
115.605260523399
 20
188.2422241130281
 30
0.0
 10
115.605260523399
 20
188.2422241130281
 30
0.0
 10
115.605260523399
 20
188.3480585229273
 30
0.0
 10
115.4994314964615
 20
188.2422241130281
 30
0.0
 10
115.605260523399
 20
188.2422241130281
 30
0.0
 10
115.605260523399
 20
188.2422241130281
 30
0.0
 10
118.4980426068229
 20
188.2422241130281
 30
0.0
 10
118.4980426068229
 20
188.2422241130281
 30
0.0
 10
118.5686024687302
 20
188.2422241130281
 30
0.0
 10
118.6038716337605
 20
188.3127785919737
 30
0.0
 10
118.6038716337605
 20
188.3480585229273
 30
0.0
 10
118.6038716337605
 20
188.3480585229273
 30
0.0
 10
118.6038716337605
 20
194.3452807436502
 30
0.0
 10
118.6038716337605
 20
194.3452807436502
 30
0.0
 10
118.6038716337605
 20
194.4158365683362
 30
0.0
 10
118.5333117718532
 20
194.451113807809
 30
0.0
 10
118.4980426068229
 20
194.451113807809
 30
0.0
 10
118.4980426068229
 20
194.451113807809
 30
0.0
 10
115.605260523399
 20
194.451113807809
 30
0.0
 10
115.605260523399
 20
194.451113807809
 30
0.0
 10
115.4994314964615
 20
194.451113807809
 30
0.0
 10
115.605260523399
 20
194.3452807436502
 30
0.0
 10
115.605260523399
 20
194.451113807809
 30
0.0
 10
115.605260523399
 20
194.451113807809
 30
0.0
 10
115.605260523399
 20
202.353333874871
 30
0.0
 10
115.605260523399
 20
202.353333874871
 30
0.0
 10
115.605260523399
 20
202.423889699557
 30
0.0
 10
115.5347006614917
 20
202.4591669390298
 30
0.0
 10
115.4994314964615
 20
202.4591669390298
 30
0.0
 10
115.4994314964615
 20
202.4591669390298
 30
0.0
 10
107.6324913603535
 20
202.4591669390298
 30
0.0
 10
107.6324913603535
 20
202.4591669390298
 30
0.0
 10
107.5266623334156
 20
202.4591669390298
 30
0.0
 10
107.6324913603535
 20
202.353333874871
 30
0.0
 10
107.6324913603535
 20
202.4591669390298
 30
0.0
 10
107.6324913603535
 20
202.4591669390298
 30
0.0
 10
107.6324913603535
 20
205.3519449852324
 30
0.0
 10
107.6324913603535
 20
205.3519449852324
 30
0.0
 10
107.6324913603535
 20
205.4225008099185
 30
0.0
 10
107.5619314984459
 20
205.4577780493912
 30
0.0
 10
107.5266623334156
 20
205.4577780493912
 30
0.0
 10
107.5266623334156
 20
205.4577780493912
 30
0.0
 10
101.5294401126927
 20
205.4577780493912
 30
0.0
 10
101.5294401126927
 20
205.4577780493912
 30
0.0
 10
101.4588802507857
 20
205.4577780493912
 30
0.0
 10
101.4236110857552
 20
205.3872222247056
 30
0.0
 10
101.4236110857552
 20
205.3519449852324
 30
0.0
 10
101.4236110857552
 20
205.3519449852324
 30
0.0
 10
101.4236110857552
 20
202.4591669390298
 30
0.0
 10
101.4236110857552
 20
202.4591669390298
 30
0.0
 10
101.4236110857552
 20
202.353333874871
 30
0.0
 10
101.5294401126927
 20
202.4591669390298
 30
0.0
 10
101.4236110857552
 20
202.4591669390298
 30
0.0
 10
101.4236110857552
 20
202.4591669390298
 30
0.0
 10
95.67333761578437
 20
202.4591669390298
 30
0.0
 10
95.67333761578437
 20
202.4591669390298
 30
0.0
 10
95.56750858884717
 20
202.4591669390298
 30
0.0
 10
95.67333761578437
 20
202.353333874871
 30
0.0
 10
95.67333761578437
 20
202.4591669390298
 30
0.0
 10
95.67333761578437
 20
202.4591669390298
 30
0.0
 10
95.67333761578437
 20
205.3519449852324
 30
0.0
 10
95.67333761578437
 20
205.3519449852324
 30
0.0
 10
95.67333761578437
 20
205.4225008099185
 30
0.0
 10
95.60277775387708
 20
205.4577780493912
 30
0.0
 10
95.56750858884717
 20
205.4577780493912
 30
0.0
 10
95.56750858884717
 20
205.4577780493912
 30
0.0
 10
89.57028636812424
 20
205.4577780493912
 30
0.0
 10
89.57028636812424
 20
205.4577780493912
 30
0.0
 10
89.49973188917835
 20
205.4577780493912
 30
0.0
 10
89.46445195822471
 20
205.3872222247056
 30
0.0
 10
89.46445195822471
 20
205.3519449852324
 30
0.0
 10
89.46445195822471
 20
205.3519449852324
 30
0.0
 10
89.46445195822471
 20
202.4591669390298
 30
0.0
 10
89.46445195822471
 20
202.4591669390298
 30
0.0
 10
89.46445195822471
 20
202.353333874871
 30
0.0
 10
89.57028636812424
 20
202.4591669390298
 30
0.0
 10
89.46445195822471
 20
202.4591669390298
 30
0.0
 10
89.46445195822471
 20
202.4591669390298
 30
0.0
 10
83.71417310529215
 20
202.4591669390298
 30
0.0
 10
83.71417310529215
 20
202.4591669390298
 30
0.0
 10
83.60833869539295
 20
202.4591669390298
 30
0.0
 10
83.71417310529215
 20
202.353333874871
 30
0.0
 10
83.71417310529215
 20
202.4591669390298
 30
0.0
 10
83.71417310529215
 20
202.4591669390298
 30
0.0
 10
83.71417310529215
 20
205.3519449852324
 30
0.0
 10
83.71417310529215
 20
205.3519449852324
 30
0.0
 10
83.71417310529215
 20
205.4225008099185
 30
0.0
 10
83.64361862634657
 20
205.4577780493912
 30
0.0
 10
83.60833869539295
 20
205.4577780493912
 30
0.0
 10
83.60833869539295
 20
205.4577780493912
 30
0.0
 10
77.61111647467003
 20
205.4577780493912
 30
0.0
 10
77.61111647467003
 20
205.4577780493912
 30
0.0
 10
77.54056199572445
 20
205.4577780493912
 30
0.0
 10
77.50528206477082
 20
205.3872222247056
 30
0.0
 10
77.50528206477082
 20
205.3519449852324
 30
0.0
 10
77.50528206477082
 20
205.3519449852324
 30
0.0
 10
77.50528206477082
 20
202.4591669390298
 30
0.0
 10
77.50528206477082
 20
202.4591669390298
 30
0.0
 10
77.50528206477082
 20
202.353333874871
 30
0.0
 10
77.61111647467003
 20
202.4591669390298
 30
0.0
 10
77.50528206477082
 20
202.4591669390298
 30
0.0
 10
77.50528206477082
 20
202.4591669390298
 30
0.0
 10
71.75500321183827
 20
202.4591669390298
 30
0.0
 10
71.75500321183827
 20
202.4591669390298
 30
0.0
 10
71.64916880193906
 20
202.4591669390298
 30
0.0
 10
71.75500321183827
 20
202.353333874871
 30
0.0
 10
71.75500321183827
 20
202.4591669390298
 30
0.0
 10
71.75500321183827
 20
202.4591669390298
 30
0.0
 10
71.75500321183827
 20
205.3519449852324
 30
0.0
 10
71.75500321183827
 20
205.3519449852324
 30
0.0
 10
71.75500321183827
 20
205.4225008099185
 30
0.0
 10
71.68444873289269
 20
205.4577780493912
 30
0.0
 10
71.64916880193906
 20
205.4577780493912
 30
0.0
 10
71.64916880193906
 20
205.4577780493912
 30
0.0
 10
65.65194658121614
 20
205.4577780493912
 30
0.0
 10
65.65194658121614
 20
205.4577780493912
 30
0.0
 10
65.58139210227055
 20
205.4577780493912
 30
0.0
 10
65.54611217131692
 20
205.3872222247056
 30
0.0
 10
65.54611217131692
 20
205.3519449852324
 30
0.0
 10
65.54611217131692
 20
205.3519449852324
 30
0.0
 10
65.54611217131692
 20
202.4591669390298
 30
0.0
 10
65.54611217131692
 20
202.4591669390298
 30
0.0
 10
65.54611217131692
 20
202.353333874871
 30
0.0
 10
65.65194658121614
 20
202.4591669390298
 30
0.0
 10
65.54611217131692
 20
202.4591669390298
 30
0.0
 10
65.54611217131692
 20
202.4591669390298
 30
0.0
 10
59.79583331838437
 20
202.4591669390298
 30
0.0
 10
59.79583331838437
 20
202.4591669390298
 30
0.0
 10
59.68999890848516
 20
202.4591669390298
 30
0.0
 10
59.79583331838437
 20
202.353333874871
 30
0.0
 10
59.79583331838437
 20
202.4591669390298
 30
0.0
 10
59.79583331838437
 20
202.4591669390298
 30
0.0
 10
59.79583331838437
 20
205.3519449852324
 30
0.0
 10
59.79583331838437
 20
205.3519449852324
 30
0.0
 10
59.79583331838437
 20
205.4225008099185
 30
0.0
 10
59.7252788394388
 20
205.4577780493912
 30
0.0
 10
59.68999890848516
 20
205.4577780493912
 30
0.0
 10
59.68999890848516
 20
205.4577780493912
 30
0.0
 10
53.69277668776224
 20
205.4577780493912
 30
0.0
 10
53.69277668776224
 20
205.4577780493912
 30
0.0
 10
53.62222220881666
 20
205.4577780493912
 30
0.0
 10
53.58694227786303
 20
205.3872222247056
 30
0.0
 10
53.58694227786303
 20
205.3519449852324
 30
0.0
 10
53.58694227786303
 20
205.3519449852324
 30
0.0
 10
53.58694227786303
 20
202.4591669390298
 30
0.0
 10
53.58694227786303
 20
202.4591669390298
 30
0.0
 10
53.58694227786303
 20
202.353333874871
 30
0.0
 10
53.69277668776224
 20
202.4591669390298
 30
0.0
 10
53.58694227786303
 20
202.4591669390298
 30
0.0
 10
53.58694227786303
 20
202.4591669390298
 30
0.0
 10
47.83666342493048
 20
202.4591669390298
 30
0.0
 10
47.83666342493048
 20
202.4591669390298
 30
0.0
 10
47.73082901503126
 20
202.4591669390298
 30
0.0
 10
47.83666342493048
 20
202.353333874871
 30
0.0
 10
47.83666342493048
 20
202.4591669390298
 30
0.0
 10
47.83666342493048
 20
202.4591669390298
 30
0.0
 10
47.83666342493048
 20
205.3519449852324
 30
0.0
 10
47.83666342493048
 20
205.3519449852324
 30
0.0
 10
47.83666342493048
 20
205.4225008099185
 30
0.0
 10
47.7661089459849
 20
205.4577780493912
 30
0.0
 10
47.73082901503126
 20
205.4577780493912
 30
0.0
 10
47.73082901503126
 20
205.4577780493912
 30
0.0
 10
41.73360679430834
 20
205.4577780493912
 30
0.0
 10
41.73360679430834
 20
205.4577780493912
 30
0.0
 10
41.66305231536277
 20
205.4577780493912
 30
0.0
 10
41.62777238440914
 20
205.3872222247056
 30
0.0
 10
41.62777238440914
 20
205.3519449852324
 30
0.0
 10
41.62777238440914
 20
205.3519449852324
 30
0.0
 10
41.62777238440914
 20
202.4591669390298
 30
0.0
 10
41.62777238440914
 20
202.4591669390298
 30
0.0
 10
41.62777238440914
 20
202.353333874871
 30
0.0
 10
41.73360679430834
 20
202.4591669390298
 30
0.0
 10
41.62777238440914
 20
202.4591669390298
 30
0.0
 10
41.62777238440914
 20
202.4591669390298
 30
0.0
 10
35.87749353147659
 20
202.4591669390298
 30
0.0
 10
35.87749353147659
 20
202.4591669390298
 30
0.0
 10
35.77165912157738
 20
202.4591669390298
 30
0.0
 10
35.87749353147659
 20
202.353333874871
 30
0.0
 10
35.87749353147659
 20
202.4591669390298
 30
0.0
 10
35.87749353147659
 20
202.4591669390298
 30
0.0
 10
35.87749353147659
 20
205.3519449852324
 30
0.0
 10
35.87749353147659
 20
205.3519449852324
 30
0.0
 10
35.87749353147659
 20
205.4225008099185
 30
0.0
 10
35.80693905253101
 20
205.4577780493912
 30
0.0
 10
35.77165912157738
 20
205.4577780493912
 30
0.0
 10
35.77165912157738
 20
205.4577780493912
 30
0.0
 10
29.77443690085446
 20
205.4577780493912
 30
0.0
 10
29.77443690085446
 20
205.4577780493912
 30
0.0
 10
29.70388242190889
 20
205.4577780493912
 30
0.0
 10
29.66860249095525
 20
205.3872222247056
 30
0.0
 10
29.66860249095525
 20
205.3519449852324
 30
0.0
 10
29.66860249095525
 20
205.3519449852324
 30
0.0
 10
29.66860249095525
 20
202.4591669390298
 30
0.0
 10
29.66860249095525
 20
202.4591669390298
 30
0.0
 10
29.66860249095525
 20
202.353333874871
 30
0.0
 10
29.77443690085446
 20
202.4591669390298
 30
0.0
 10
29.66860249095525
 20
202.4591669390298
 30
0.0
 10
29.66860249095525
 20
202.4591669390298
 30
0.0
 10
21.80166639206817
 20
202.4591669390298
 30
0.0
 10
21.80166639206817
 20
202.4591669390298
 30
0.0
 10
21.73111056738216
 20
202.4591669390298
 30
0.0
 10
21.69583332790938
 20
202.3886111143441
 30
0.0
 10
21.69583332790938
 20
202.353333874871
 30
0.0
 10
21.69583332790938
 20
202.353333874871
 30
0.0
 10
21.69583332790938
 20
194.4863897015414
 30
0.0
 10
21.69583332790938
 20
194.4863897015414
 30
0.0
 10
21.69583332790938
 20
194.3805566373826
 30
0.0
 10
21.80166639206817
 20
194.4863897015414
 30
0.0
 10
21.69583332790938
 20
194.4863897015414
 30
0.0
 10
21.69583332790938
 20
194.4863897015414
 30
0.0
 10
18.80305528170671
 20
194.4863897015414
 30
0.0
 10
18.80305528170671
 20
194.4863897015414
 30
0.0
 10
18.7324994570207
 20
194.4863897015414
 30
0.0
 10
18.69722221754791
 20
194.4158338768554
 30
0.0
 10
18.69722221754791
 20
194.3805566373826
 30
0.0
 10
18.69722221754791
 20
194.3805566373826
 30
0.0
 10
18.69722221754791
 20
188.3833330709192
 30
0.0
 10
18.69722221754791
 20
188.3833330709192
 30
0.0
 10
18.69722221754791
 20
188.3127785919737
 30
0.0
 10
18.76777804223392
 20
188.27749866102
 30
0.0
 10
18.80305528170671
 20
188.27749866102
 30
0.0
 10
18.80305528170671
 20
188.27749866102
 30
0.0
 10
21.69583332790938
 20
188.27749866102
 30
0.0
 10
21.69583332790938
 20
188.27749866102
 30
0.0
 10
21.80166639206817
 20
188.27749866102
 30
0.0
 10
21.69583332790938
 20
188.3833330709192
 30
0.0
 10
21.69583332790938
 20
188.27749866102
 30
0.0
 10
21.69583332790938
 20
188.27749866102
 30
0.0
 10
21.69583332790938
 20
182.5272198080875
 30
0.0
 10
21.69583332790938
 20
182.5272198080875
 30
0.0
 10
21.69583332790938
 20
182.4213853981883
 30
0.0
 10
21.80166639206817
 20
182.5272198080875
 30
0.0
 10
21.69583332790938
 20
182.5272198080875
 30
0.0
 10
21.69583332790938
 20
182.5272198080875
 30
0.0
 10
18.80305528170671
 20
182.5272198080875
 30
0.0
 10
18.80305528170671
 20
182.5272198080875
 30
0.0
 10
18.7324994570207
 20
182.5272198080875
 30
0.0
 10
18.69722221754791
 20
182.4566653291419
 30
0.0
 10
18.69722221754791
 20
182.4213853981883
 30
0.0
 10
18.69722221754791
 20
182.4213853981883
 30
0.0
 10
18.69722221754791
 20
176.4241631774653
 30
0.0
 10
18.69722221754791
 20
176.4241631774653
 30
0.0
 10
18.69722221754791
 20
176.3536086985197
 30
0.0
 10
18.76777804223392
 20
176.3183287675661
 30
0.0
 10
18.80305528170671
 20
176.3183287675661
 30
0.0
 10
18.80305528170671
 20
176.3183287675661
 30
0.0
 10
21.69583332790938
 20
176.3183287675661
 30
0.0
 10
21.69583332790938
 20
176.3183287675661
 30
0.0
 10
21.80166639206817
 20
176.3183287675661
 30
0.0
 10
21.69583332790938
 20
176.4241631774653
 30
0.0
 10
21.69583332790938
 20
176.3183287675661
 30
0.0
 10
21.69583332790938
 20
176.3183287675661
 30
0.0
 10
21.69583332790938
 20
170.5680499146336
 30
0.0
 10
21.69583332790938
 20
170.5680499146336
 30
0.0
 10
21.69583332790938
 20
170.4622155047344
 30
0.0
 10
21.80166639206817
 20
170.5680499146336
 30
0.0
 10
21.69583332790938
 20
170.5680499146336
 30
0.0
 10
21.69583332790938
 20
170.5680499146336
 30
0.0
 10
18.80305528170671
 20
170.5680499146336
 30
0.0
 10
18.80305528170671
 20
170.5680499146336
 30
0.0
 10
18.7324994570207
 20
170.5680499146336
 30
0.0
 10
18.69722221754791
 20
170.497495435688
 30
0.0
 10
18.69722221754791
 20
170.4622155047344
 30
0.0
 10
18.69722221754791
 20
170.4622155047344
 30
0.0
 10
18.69722221754791
 20
164.4649932840114
 30
0.0
 10
18.69722221754791
 20
164.4649932840114
 30
0.0
 10
18.69722221754791
 20
164.3944388050659
 30
0.0
 10
18.76777804223392
 20
164.3591588741122
 30
0.0
 10
18.80305528170671
 20
164.3591588741122
 30
0.0
 10
18.80305528170671
 20
164.3591588741122
 30
0.0
 10
21.69583332790938
 20
164.3591588741122
 30
0.0
 10
21.69583332790938
 20
164.3591588741122
 30
0.0
 10
21.80166639206817
 20
164.3591588741122
 30
0.0
 10
21.69583332790938
 20
164.4649932840114
 30
0.0
 10
21.69583332790938
 20
164.3591588741122
 30
0.0
 10
21.69583332790938
 20
164.3591588741122
 30
0.0
 10
21.69583332790938
 20
158.6088800211797
 30
0.0
 10
21.69583332790938
 20
158.6088800211797
 30
0.0
 10
21.69583332790938
 20
158.5030456112805
 30
0.0
 10
21.80166639206817
 20
158.6088800211797
 30
0.0
 10
21.69583332790938
 20
158.6088800211797
 30
0.0
 10
21.69583332790938
 20
158.6088800211797
 30
0.0
 10
18.80305528170671
 20
158.6088800211797
 30
0.0
 10
18.80305528170671
 20
158.6088800211797
 30
0.0
 10
18.7324994570207
 20
158.6088800211797
 30
0.0
 10
18.69722221754791
 20
158.5383255422341
 30
0.0
 10
18.69722221754791
 20
158.5030456112805
 30
0.0
 10
18.69722221754791
 20
158.5030456112805
 30
0.0
 10
18.69722221754791
 20
152.5058233905575
 30
0.0
 10
18.69722221754791
 20
152.5058233905575
 30
0.0
 10
18.69722221754791
 20
152.435268911612
 30
0.0
 10
18.76777804223392
 20
152.3999889806583
 30
0.0
 10
18.80305528170671
 20
152.3999889806583
 30
0.0
 10
18.80305528170671
 20
152.3999889806583
 30
0.0
 10
21.69583332790938
 20
152.3999889806583
 30
0.0
 10
21.69583332790938
 20
152.3999889806583
 30
0.0
 10
21.80166639206817
 20
152.3999889806583
 30
0.0
 10
21.69583332790938
 20
152.5058233905575
 30
0.0
 10
21.69583332790938
 20
152.3999889806583
 30
0.0
 10
21.69583332790938
 20
152.3999889806583
 30
0.0
 10
21.69583332790938
 20
146.6497101277258
 30
0.0
 10
21.69583332790938
 20
146.6497101277258
 30
0.0
 10
21.69583332790938
 20
146.5438757178266
 30
0.0
 10
21.80166639206817
 20
146.6497101277258
 30
0.0
 10
21.69583332790938
 20
146.6497101277258
 30
0.0
 10
21.69583332790938
 20
146.6497101277258
 30
0.0
 10
18.80305528170671
 20
146.6497101277258
 30
0.0
 10
18.80305528170671
 20
146.6497101277258
 30
0.0
 10
18.7324994570207
 20
146.6497101277258
 30
0.0
 10
18.69722221754791
 20
146.5791556487802
 30
0.0
 10
18.69722221754791
 20
146.5438757178266
 30
0.0
 10
18.69722221754791
 20
146.5438757178266
 30
0.0
 10
18.69722221754791
 20
140.5466534971036
 30
0.0
 10
18.69722221754791
 20
140.5466534971036
 30
0.0
 10
18.69722221754791
 20
140.4760990181581
 30
0.0
 10
18.76777804223392
 20
140.4408190872044
 30
0.0
 10
18.80305528170671
 20
140.4408190872044
 30
0.0
 10
18.80305528170671
 20
140.4408190872044
 30
0.0
 10
21.69583332790938
 20
140.4408190872044
 30
0.0
 10
21.69583332790938
 20
140.4408190872044
 30
0.0
 10
21.80166639206817
 20
140.4408190872044
 30
0.0
 10
21.69583332790938
 20
140.5466534971036
 30
0.0
 10
21.69583332790938
 20
140.4408190872044
 30
0.0
 10
21.69583332790938
 20
140.4408190872044
 30
0.0
 10
21.69583332790938
 20
134.6905402342719
 30
0.0
 10
21.69583332790938
 20
134.6905402342719
 30
0.0
 10
21.69583332790938
 20
134.5847058243727
 30
0.0
 10
21.80166639206817
 20
134.6905402342719
 30
0.0
 10
21.69583332790938
 20
134.6905402342719
 30
0.0
 10
21.69583332790938
 20
134.6905402342719
 30
0.0
 10
18.80305528170671
 20
134.6905402342719
 30
0.0
 10
18.80305528170671
 20
134.6905402342719
 30
0.0
 10
18.7324994570207
 20
134.6905402342719
 30
0.0
 10
18.69722221754791
 20
134.6199857553263
 30
0.0
 10
18.69722221754791
 20
134.5847058243727
 30
0.0
 10
18.69722221754791
 20
134.5847058243727
 30
0.0
 10
18.69722221754791
 20
128.5874836036498
 30
0.0
 10
18.69722221754791
 20
128.5874836036498
 30
0.0
 10
18.69722221754791
 20
128.5169291247042
 30
0.0
 10
18.76777804223392
 20
128.4816491937506
 30
0.0
 10
18.80305528170671
 20
128.4816491937506
 30
0.0
 10
18.80305528170671
 20
128.4816491937506
 30
0.0
 10
21.69583332790938
 20
128.4816491937506
 30
0.0
 10
21.69583332790938
 20
128.4816491937506
 30
0.0
 10
21.80166639206817
 20
128.4816491937506
 30
0.0
 10
21.69583332790938
 20
128.5874836036498
 30
0.0
 10
21.69583332790938
 20
128.4816491937506
 30
0.0
 10
21.69583332790938
 20
128.4816491937506
 30
0.0
 10
21.69583332790938
 20
122.731370340818
 30
0.0
 10
21.69583332790938
 20
122.731370340818
 30
0.0
 10
21.69583332790938
 20
122.6255413138805
 30
0.0
 10
21.80166639206817
 20
122.731370340818
 30
0.0
 10
21.69583332790938
 20
122.731370340818
 30
0.0
 10
21.69583332790938
 20
122.731370340818
 30
0.0
 10
18.80305528170671
 20
122.731370340818
 30
0.0
 10
18.80305528170671
 20
122.731370340818
 30
0.0
 10
18.7324994570207
 20
122.731370340818
 30
0.0
 10
18.69722221754791
 20
122.6608104789107
 30
0.0
 10
18.69722221754791
 20
122.6255413138805
 30
0.0
 10
18.69722221754791
 20
122.6255413138805
 30
0.0
 10
18.69722221754791
 20
116.6283190931576
 30
0.0
 10
18.69722221754791
 20
116.6283190931576
 30
0.0
 10
18.69722221754791
 20
116.5577592312503
 30
0.0
 10
18.76777804223392
 20
116.5224900662201
 30
0.0
 10
18.80305528170671
 20
116.5224900662201
 30
0.0
 10
18.80305528170671
 20
116.5224900662201
 30
0.0
 10
21.69583332790938
 20
116.5224900662201
 30
0.0
 10
21.69583332790938
 20
116.5224900662201
 30
0.0
 10
21.80166639206817
 20
116.5224900662201
 30
0.0
 10
21.69583332790938
 20
116.6283190931576
 30
0.0
 10
21.69583332790938
 20
116.5224900662201
 30
0.0
 10
21.69583332790938
 20
116.5224900662201
 30
0.0
 10
21.69583332790938
 20
108.6555499301117
 30
0.0
 10
21.69583332790938
 20
108.6555499301117
 30
0.0
 10
21.69583332790938
 20
108.3027829183455
 30
0.0
 10
21.73111056738216
 20
108.2322230564382
 30
0.0
 10
21.80166639206817
 20
108.2322230564382
 30
0.0
  0
SPLINE
  5
82
330
79
100
AcDbEntity
  8
framework
 62
    18
420
        0
370
    25
100
AcDbSpline
210
0.0
220
0.0
230
1.0
 70
     9
 71
     3
 72
   701
 73
   697
 74
     0
 42
0.0000000001
 43
0.0000000001
 40
0.0
 40
0.0
 40
0.0
 40
0.0
 40
1.0
 40
1.0
 40
1.0
 40
2.0
 40
2.0
 40
2.0
 40
3.0
 40
3.0
 40
3.0
 40
4.0
 40
4.0
 40
4.0
 40
5.0
 40
5.0
 40
5.0
 40
6.0
 40
6.0
 40
6.0
 40
7.0
 40
7.0
 40
7.0
 40
8.0
 40
8.0
 40
8.0
 40
9.0
 40
9.0
 40
9.0
 40
10.0
 40
10.0
 40
10.0
 40
11.0
 40
11.0
 40
11.0
 40
12.0
 40
12.0
 40
12.0
 40
13.0
 40
13.0
 40
13.0
 40
14.0
 40
14.0
 40
14.0
 40
15.0
 40
15.0
 40
15.0
 40
16.0
 40
16.0
 40
16.0
 40
17.0
 40
17.0
 40
17.0
 40
18.0
 40
18.0
 40
18.0
 40
19.0
 40
19.0
 40
19.0
 40
20.0
 40
20.0
 40
20.0
 40
21.0
 40
21.0
 40
21.0
 40
22.0
 40
22.0
 40
22.0
 40
23.0
 40
23.0
 40
23.0
 40
24.0
 40
24.0
 40
24.0
 40
25.0
 40
25.0
 40
25.0
 40
26.0
 40
26.0
 40
26.0
 40
27.0
 40
27.0
 40
27.0
 40
28.0
 40
28.0
 40
28.0
 40
29.0
 40
29.0
 40
29.0
 40
30.0
 40
30.0
 40
30.0
 40
31.0
 40
31.0
 40
31.0
 40
32.0
 40
32.0
 40
32.0
 40
33.0
 40
33.0
 40
33.0
 40
34.0
 40
34.0
 40
34.0
 40
35.0
 40
35.0
 40
35.0
 40
36.0
 40
36.0
 40
36.0
 40
37.0
 40
37.0
 40
37.0
 40
38.0
 40
38.0
 40
38.0
 40
39.0
 40
39.0
 40
39.0
 40
40.0
 40
40.0
 40
40.0
 40
41.0
 40
41.0
 40
41.0
 40
42.0
 40
42.0
 40
42.0
 40
43.0
 40
43.0
 40
43.0
 40
44.0
 40
44.0
 40
44.0
 40
45.0
 40
45.0
 40
45.0
 40
46.0
 40
46.0
 40
46.0
 40
47.0
 40
47.0
 40
47.0
 40
48.0
 40
48.0
 40
48.0
 40
49.0
 40
49.0
 40
49.0
 40
50.0
 40
50.0
 40
50.0
 40
51.0
 40
51.0
 40
51.0
 40
52.0
 40
52.0
 40
52.0
 40
53.0
 40
53.0
 40
53.0
 40
54.0
 40
54.0
 40
54.0
 40
55.0
 40
55.0
 40
55.0
 40
56.0
 40
56.0
 40
56.0
 40
57.0
 40
57.0
 40
57.0
 40
58.0
 40
58.0
 40
58.0
 40
59.0
 40
59.0
 40
59.0
 40
60.0
 40
60.0
 40
60.0
 40
61.0
 40
61.0
 40
61.0
 40
62.0
 40
62.0
 40
62.0
 40
63.0
 40
63.0
 40
63.0
 40
64.0
 40
64.0
 40
64.0
 40
65.0
 40
65.0
 40
65.0
 40
66.0
 40
66.0
 40
66.0
 40
67.0
 40
67.0
 40
67.0
 40
68.0
 40
68.0
 40
68.0
 40
69.0
 40
69.0
 40
69.0
 40
70.0
 40
70.0
 40
70.0
 40
71.0
 40
71.0
 40
71.0
 40
72.0
 40
72.0
 40
72.0
 40
73.0
 40
73.0
 40
73.0
 40
74.0
 40
74.0
 40
74.0
 40
75.0
 40
75.0
 40
75.0
 40
76.0
 40
76.0
 40
76.0
 40
77.0
 40
77.0
 40
77.0
 40
78.0
 40
78.0
 40
78.0
 40
79.0
 40
79.0
 40
79.0
 40
80.0
 40
80.0
 40
80.0
 40
81.0
 40
81.0
 40
81.0
 40
82.0
 40
82.0
 40
82.0
 40
83.0
 40
83.0
 40
83.0
 40
84.0
 40
84.0
 40
84.0
 40
85.0
 40
85.0
 40
85.0
 40
86.0
 40
86.0
 40
86.0
 40
87.0
 40
87.0
 40
87.0
 40
88.0
 40
88.0
 40
88.0
 40
89.0
 40
89.0
 40
89.0
 40
90.0
 40
90.0
 40
90.0
 40
91.0
 40
91.0
 40
91.0
 40
92.0
 40
92.0
 40
92.0
 40
93.0
 40
93.0
 40
93.0
 40
94.0
 40
94.0
 40
94.0
 40
95.0
 40
95.0
 40
95.0
 40
96.0
 40
96.0
 40
96.0
 40
97.0
 40
97.0
 40
97.0
 40
98.0
 40
98.0
 40
98.0
 40
99.0
 40
99.0
 40
99.0
 40
100.0
 40
100.0
 40
100.0
 40
101.0
 40
101.0
 40
101.0
 40
102.0
 40
102.0
 40
102.0
 40
103.0
 40
103.0
 40
103.0
 40
104.0
 40
104.0
 40
104.0
 40
105.0
 40
105.0
 40
105.0
 40
106.0
 40
106.0
 40
106.0
 40
107.0
 40
107.0
 40
107.0
 40
108.0
 40
108.0
 40
108.0
 40
109.0
 40
109.0
 40
109.0
 40
110.0
 40
110.0
 40
110.0
 40
111.0
 40
111.0
 40
111.0
 40
112.0
 40
112.0
 40
112.0
 40
113.0
 40
113.0
 40
113.0
 40
114.0
 40
114.0
 40
114.0
 40
115.0
 40
115.0
 40
115.0
 40
116.0
 40
116.0
 40
116.0
 40
117.0
 40
117.0
 40
117.0
 40
118.0
 40
118.0
 40
118.0
 40
119.0
 40
119.0
 40
119.0
 40
120.0
 40
120.0
 40
120.0
 40
121.0
 40
121.0
 40
121.0
 40
122.0
 40
122.0
 40
122.0
 40
123.0
 40
123.0
 40
123.0
 40
124.0
 40
124.0
 40
124.0
 40
125.0
 40
125.0
 40
125.0
 40
126.0
 40
126.0
 40
126.0
 40
127.0
 40
127.0
 40
127.0
 40
128.0
 40
128.0
 40
128.0
 40
129.0
 40
129.0
 40
129.0
 40
130.0
 40
130.0
 40
130.0
 40
131.0
 40
131.0
 40
131.0
 40
132.0
 40
132.0
 40
132.0
 40
133.0
 40
133.0
 40
133.0
 40
134.0
 40
134.0
 40
134.0
 40
135.0
 40
135.0
 40
135.0
 40
136.0
 40
136.0
 40
136.0
 40
137.0
 40
137.0
 40
137.0
 40
138.0
 40
138.0
 40
138.0
 40
139.0
 40
139.0
 40
139.0
 40
140.0
 40
140.0
 40
140.0
 40
141.0
 40
141.0
 40
141.0
 40
142.0
 40
142.0
 40
142.0
 40
143.0
 40
143.0
 40
143.0
 40
144.0
 40
144.0
 40
144.0
 40
145.0
 40
145.0
 40
145.0
 40
146.0
 40
146.0
 40
146.0
 40
147.0
 40
147.0
 40
147.0
 40
148.0
 40
148.0
 40
148.0
 40
149.0
 40
149.0
 40
149.0
 40
150.0
 40
150.0
 40
150.0
 40
151.0
 40
151.0
 40
151.0
 40
152.0
 40
152.0
 40
152.0
 40
153.0
 40
153.0
 40
153.0
 40
154.0
 40
154.0
 40
154.0
 40
155.0
 40
155.0
 40
155.0
 40
156.0
 40
156.0
 40
156.0
 40
157.0
 40
157.0
 40
157.0
 40
158.0
 40
158.0
 40
158.0
 40
159.0
 40
159.0
 40
159.0
 40
160.0
 40
160.0
 40
160.0
 40
161.0
 40
161.0
 40
161.0
 40
162.0
 40
162.0
 40
162.0
 40
163.0
 40
163.0
 40
163.0
 40
164.0
 40
164.0
 40
164.0
 40
165.0
 40
165.0
 40
165.0
 40
166.0
 40
166.0
 40
166.0
 40
167.0
 40
167.0
 40
167.0
 40
168.0
 40
168.0
 40
168.0
 40
169.0
 40
169.0
 40
169.0
 40
170.0
 40
170.0
 40
170.0
 40
171.0
 40
171.0
 40
171.0
 40
172.0
 40
172.0
 40
172.0
 40
173.0
 40
173.0
 40
173.0
 40
174.0
 40
174.0
 40
174.0
 40
175.0
 40
175.0
 40
175.0
 40
176.0
 40
176.0
 40
176.0
 40
177.0
 40
177.0
 40
177.0
 40
178.0
 40
178.0
 40
178.0
 40
179.0
 40
179.0
 40
179.0
 40
180.0
 40
180.0
 40
180.0
 40
181.0
 40
181.0
 40
181.0
 40
182.0
 40
182.0
 40
182.0
 40
183.0
 40
183.0
 40
183.0
 40
184.0
 40
184.0
 40
184.0
 40
185.0
 40
185.0
 40
185.0
 40
186.0
 40
186.0
 40
186.0
 40
187.0
 40
187.0
 40
187.0
 40
188.0
 40
188.0
 40
188.0
 40
189.0
 40
189.0
 40
189.0
 40
190.0
 40
190.0
 40
190.0
 40
191.0
 40
191.0
 40
191.0
 40
192.0
 40
192.0
 40
192.0
 40
193.0
 40
193.0
 40
193.0
 40
194.0
 40
194.0
 40
194.0
 40
195.0
 40
195.0
 40
195.0
 40
196.0
 40
196.0
 40
196.0
 40
197.0
 40
197.0
 40
197.0
 40
198.0
 40
198.0
 40
198.0
 40
199.0
 40
199.0
 40
199.0
 40
200.0
 40
200.0
 40
200.0
 40
201.0
 40
201.0
 40
201.0
 40
202.0
 40
202.0
 40
202.0
 40
203.0
 40
203.0
 40
203.0
 40
204.0
 40
204.0
 40
204.0
 40
205.0
 40
205.0
 40
205.0
 40
206.0
 40
206.0
 40
206.0
 40
207.0
 40
207.0
 40
207.0
 40
208.0
 40
208.0
 40
208.0
 40
209.0
 40
209.0
 40
209.0
 40
210.0
 40
210.0
 40
210.0
 40
211.0
 40
211.0
 40
211.0
 40
212.0
 40
212.0
 40
212.0
 40
213.0
 40
213.0
 40
213.0
 40
214.0
 40
214.0
 40
214.0
 40
215.0
 40
215.0
 40
215.0
 40
216.0
 40
216.0
 40
216.0
 40
217.0
 40
217.0
 40
217.0
 40
218.0
 40
218.0
 40
218.0
 40
219.0
 40
219.0
 40
219.0
 40
220.0
 40
220.0
 40
220.0
 40
221.0
 40
221.0
 40
221.0
 40
222.0
 40
222.0
 40
222.0
 40
223.0
 40
223.0
 40
223.0
 40
224.0
 40
224.0
 40
224.0
 40
225.0
 40
225.0
 40
225.0
 40
226.0
 40
226.0
 40
226.0
 40
227.0
 40
227.0
 40
227.0
 40
228.0
 40
228.0
 40
228.0
 40
229.0
 40
229.0
 40
229.0
 40
230.0
 40
230.0
 40
230.0
 40
231.0
 40
231.0
 40
231.0
 40
232.0
 40
232.0
 40
232.0
 40
232.0
 10
123.5427820532614
 20
108.2322230564382
 30
0.0
 10
123.5427820532614
 20
108.2322230564382
 30
0.0
 10
131.4097221893698
 20
108.2322230564382
 30
0.0
 10
131.4097221893698
 20
108.2322230564382
 30
0.0
 10
131.5155512163073
 20
108.2322230564382
 30
0.0
 10
131.4097221893698
 20
108.3380520833757
 30
0.0
 10
131.4097221893698
 20
108.2322230564382
 30
0.0
 10
131.4097221893698
 20
108.2322230564382
 30
0.0
 10
131.4097221893698
 20
105.3394409730143
 30
0.0
 10
131.4097221893698
 20
105.3394409730143
 30
0.0
 10
131.4097221893698
 20
105.268881111107
 30
0.0
 10
131.480282051277
 20
105.2336119460768
 30
0.0
 10
131.5155512163073
 20
105.2336119460768
 30
0.0
 10
131.5155512163073
 20
105.2336119460768
 30
0.0
 10
137.5127734370302
 20
105.2336119460768
 30
0.0
 10
137.5127734370302
 20
105.2336119460768
 30
0.0
 10
137.5833332989375
 20
105.2336119460768
 30
0.0
 10
137.6186024639677
 20
105.304171807984
 30
0.0
 10
137.6186024639677
 20
105.3394409730143
 30
0.0
 10
137.6186024639677
 20
105.3394409730143
 30
0.0
 10
137.6186024639677
 20
108.2322230564382
 30
0.0
 10
137.6186024639677
 20
108.2322230564382
 30
0.0
 10
137.6186024639677
 20
108.3380520833757
 30
0.0
 10
137.5127734370302
 20
108.2322230564382
 30
0.0
 10
137.6186024639677
 20
108.2322230564382
 30
0.0
 10
137.6186024639677
 20
108.2322230564382
 30
0.0
 10
143.3688759339386
 20
108.2322230564382
 30
0.0
 10
143.3688759339386
 20
108.2322230564382
 30
0.0
 10
143.4747049608761
 20
108.2322230564382
 30
0.0
 10
143.3688759339386
 20
108.3380520833757
 30
0.0
 10
143.3688759339386
 20
108.2322230564382
 30
0.0
 10
143.3688759339386
 20
108.2322230564382
 30
0.0
 10
143.3688759339386
 20
105.3394409730143
 30
0.0
 10
143.3688759339386
 20
105.3394409730143
 30
0.0
 10
143.3688759339386
 20
105.268881111107
 30
0.0
 10
143.4394357958458
 20
105.2336119460768
 30
0.0
 10
143.4747049608761
 20
105.2336119460768
 30
0.0
 10
143.4747049608761
 20
105.2336119460768
 30
0.0
 10
149.471927181599
 20
105.2336119460768
 30
0.0
 10
149.471927181599
 20
105.2336119460768
 30
0.0
 10
149.5424870435063
 20
105.2336119460768
 30
0.0
 10
149.5777562085365
 20
105.304171807984
 30
0.0
 10
149.5777562085365
 20
105.3394409730143
 30
0.0
 10
149.5777562085365
 20
105.3394409730143
 30
0.0
 10
149.5777562085365
 20
108.2322230564382
 30
0.0
 10
149.5777562085365
 20
108.2322230564382
 30
0.0
 10
149.5777562085365
 20
108.3380520833757
 30
0.0
 10
149.471927181599
 20
108.2322230564382
 30
0.0
 10
149.5777562085365
 20
108.2322230564382
 30
0.0
 10
149.5777562085365
 20
108.2322230564382
 30
0.0
 10
155.3280296785074
 20
108.2322230564382
 30
0.0
 10
155.3280296785074
 20
108.2322230564382
 30
0.0
 10
155.4338587054449
 20
108.2322230564382
 30
0.0
 10
155.3280296785074
 20
108.3380520833757
 30
0.0
 10
155.3280296785074
 20
108.2322230564382
 30
0.0
 10
155.3280296785074
 20
108.2322230564382
 30
0.0
 10
155.3280296785074
 20
105.3394409730143
 30
0.0
 10
155.3280296785074
 20
105.3394409730143
 30
0.0
 10
155.3280296785074
 20
105.268881111107
 30
0.0
 10
155.3985895404147
 20
105.2336119460768
 30
0.0
 10
155.4338587054449
 20
105.2336119460768
 30
0.0
 10
155.4338587054449
 20
105.2336119460768
 30
0.0
 10
161.4310809261678
 20
105.2336119460768
 30
0.0
 10
161.4310809261678
 20
105.2336119460768
 30
0.0
 10
161.5016407880751
 20
105.2336119460768
 30
0.0
 10
161.5369099531053
 20
105.304171807984
 30
0.0
 10
161.5369099531053
 20
105.3394409730143
 30
0.0
 10
161.5369099531053
 20
105.3394409730143
 30
0.0
 10
161.5369099531053
 20
108.2322230564382
 30
0.0
 10
161.5369099531053
 20
108.2322230564382
 30
0.0
 10
161.5369099531053
 20
108.3380520833757
 30
0.0
 10
161.4310809261678
 20
108.2322230564382
 30
0.0
 10
161.5369099531053
 20
108.2322230564382
 30
0.0
 10
161.5369099531053
 20
108.2322230564382
 30
0.0
 10
167.2871834230762
 20
108.2322230564382
 30
0.0
 10
167.2871834230762
 20
108.2322230564382
 30
0.0
 10
167.3930124500137
 20
108.2322230564382
 30
0.0
 10
167.2871834230762
 20
108.3380520833757
 30
0.0
 10
167.2871834230762
 20
108.2322230564382
 30
0.0
 10
167.2871834230762
 20
108.2322230564382
 30
0.0
 10
167.2871834230762
 20
105.3394409730143
 30
0.0
 10
167.2871834230762
 20
105.3394409730143
 30
0.0
 10
167.2871834230762
 20
105.268881111107
 30
0.0
 10
167.3577432849835
 20
105.2336119460768
 30
0.0
 10
167.3930124500137
 20
105.2336119460768
 30
0.0
 10
167.3930124500137
 20
105.2336119460768
 30
0.0
 10
173.3902346707366
 20
105.2336119460768
 30
0.0
 10
173.3902346707366
 20
105.2336119460768
 30
0.0
 10
173.4607945326439
 20
105.2336119460768
 30
0.0
 10
173.4960636976742
 20
105.304171807984
 30
0.0
 10
173.4960636976742
 20
105.3394409730143
 30
0.0
 10
173.4960636976742
 20
105.3394409730143
 30
0.0
 10
173.4960636976742
 20
108.2322230564382
 30
0.0
 10
173.4960636976742
 20
108.2322230564382
 30
0.0
 10
173.4960636976742
 20
108.3380520833757
 30
0.0
 10
173.3902346707366
 20
108.2322230564382
 30
0.0
 10
173.4960636976742
 20
108.2322230564382
 30
0.0
 10
173.4960636976742
 20
108.2322230564382
 30
0.0
 10
179.246337167645
 20
108.2322230564382
 30
0.0
 10
179.246337167645
 20
108.2322230564382
 30
0.0
 10
179.3521661945825
 20
108.2322230564382
 30
0.0
 10
179.246337167645
 20
108.3380520833757
 30
0.0
 10
179.246337167645
 20
108.2322230564382
 30
0.0
 10
179.246337167645
 20
108.2322230564382
 30
0.0
 10
179.246337167645
 20
105.3394409730143
 30
0.0
 10
179.246337167645
 20
105.3394409730143
 30
0.0
 10
179.246337167645
 20
105.268881111107
 30
0.0
 10
179.3168970295523
 20
105.2336119460768
 30
0.0
 10
179.3521661945825
 20
105.2336119460768
 30
0.0
 10
179.3521661945825
 20
105.2336119460768
 30
0.0
 10
185.3493884153055
 20
105.2336119460768
 30
0.0
 10
185.3493884153055
 20
105.2336119460768
 30
0.0
 10
185.4199482772127
 20
105.2336119460768
 30
0.0
 10
185.455217442243
 20
105.304171807984
 30
0.0
 10
185.455217442243
 20
105.3394409730143
 30
0.0
 10
185.455217442243
 20
105.3394409730143
 30
0.0
 10
185.455217442243
 20
108.2322230564382
 30
0.0
 10
185.455217442243
 20
108.2322230564382
 30
0.0
 10
185.455217442243
 20
108.3380520833757
 30
0.0
 10
185.3493884153055
 20
108.2322230564382
 30
0.0
 10
185.455217442243
 20
108.2322230564382
 30
0.0
 10
185.455217442243
 20
108.2322230564382
 30
0.0
 10
191.2054909122138
 20
108.2322230564382
 30
0.0
 10
191.2054909122138
 20
108.2322230564382
 30
0.0
 10
191.3113199391513
 20
108.2322230564382
 30
0.0
 10
191.2054909122138
 20
108.3380520833757
 30
0.0
 10
191.2054909122138
 20
108.2322230564382
 30
0.0
 10
191.2054909122138
 20
108.2322230564382
 30
0.0
 10
191.2054909122138
 20
105.3394409730143
 30
0.0
 10
191.2054909122138
 20
105.3394409730143
 30
0.0
 10
191.2054909122138
 20
105.268881111107
 30
0.0
 10
191.2760507741211
 20
105.2336119460768
 30
0.0
 10
191.3113199391513
 20
105.2336119460768
 30
0.0
 10
191.3113199391513
 20
105.2336119460768
 30
0.0
 10
197.3085421598742
 20
105.2336119460768
 30
0.0
 10
197.3085421598742
 20
105.2336119460768
 30
0.0
 10
197.3791020217815
 20
105.2336119460768
 30
0.0
 10
197.4143711868118
 20
105.304171807984
 30
0.0
 10
197.4143711868118
 20
105.3394409730143
 30
0.0
 10
197.4143711868118
 20
105.3394409730143
 30
0.0
 10
197.4143711868118
 20
108.2322230564382
 30
0.0
 10
197.4143711868118
 20
108.2322230564382
 30
0.0
 10
197.4143711868118
 20
108.3380520833757
 30
0.0
 10
197.3085421598742
 20
108.2322230564382
 30
0.0
 10
197.4143711868118
 20
108.2322230564382
 30
0.0
 10
197.4143711868118
 20
108.2322230564382
 30
0.0
 10
203.1646446567826
 20
108.2322230564382
 30
0.0
 10
203.1646446567826
 20
108.2322230564382
 30
0.0
 10
203.2704736837202
 20
108.2322230564382
 30
0.0
 10
203.1646446567826
 20
108.3380520833757
 30
0.0
 10
203.1646446567826
 20
108.2322230564382
 30
0.0
 10
203.1646446567826
 20
108.2322230564382
 30
0.0
 10
203.1646446567826
 20
105.3394409730143
 30
0.0
 10
203.1646446567826
 20
105.3394409730143
 30
0.0
 10
203.1646446567826
 20
105.268881111107
 30
0.0
 10
203.2352045186899
 20
105.2336119460768
 30
0.0
 10
203.2704736837202
 20
105.2336119460768
 30
0.0
 10
203.2704736837202
 20
105.2336119460768
 30
0.0
 10
209.267695904443
 20
105.2336119460768
 30
0.0
 10
209.267695904443
 20
105.2336119460768
 30
0.0
 10
209.3382557663503
 20
105.2336119460768
 30
0.0
 10
209.3735249313806
 20
105.304171807984
 30
0.0
 10
209.3735249313806
 20
105.3394409730143
 30
0.0
 10
209.3735249313806
 20
105.3394409730143
 30
0.0
 10
209.3735249313806
 20
108.2322230564382
 30
0.0
 10
209.3735249313806
 20
108.2322230564382
 30
0.0
 10
209.3735249313806
 20
108.3380520833757
 30
0.0
 10
209.267695904443
 20
108.2322230564382
 30
0.0
 10
209.3735249313806
 20
108.2322230564382
 30
0.0
 10
209.3735249313806
 20
108.2322230564382
 30
0.0
 10
217.2404650674889
 20
108.2322230564382
 30
0.0
 10
217.2404650674889
 20
108.2322230564382
 30
0.0
 10
217.3110249293962
 20
108.2322230564382
 30
0.0
 10
217.3462940944265
 20
108.3027829183455
 30
0.0
 10
217.3462940944265
 20
108.3380520833757
 30
0.0
 10
217.3462940944265
 20
108.3380520833757
 30
0.0
 10
217.3462940944265
 20
116.2049922194841
 30
0.0
 10
217.3462940944265
 20
116.2049922194841
 30
0.0
 10
217.3462940944265
 20
116.3108212464216
 30
0.0
 10
217.2404650674889
 20
116.2049922194841
 30
0.0
 10
217.3462940944265
 20
116.2049922194841
 30
0.0
 10
217.3462940944265
 20
116.2049922194841
 30
0.0
 10
220.2390761778504
 20
116.2049922194841
 30
0.0
 10
220.2390761778504
 20
116.2049922194841
 30
0.0
 10
220.3096360397577
 20
116.2049922194841
 30
0.0
 10
220.3449052047879
 20
116.2755520813914
 30
0.0
 10
220.3449052047879
 20
116.3108212464216
 30
0.0
 10
220.3449052047879
 20
116.3108212464216
 30
0.0
 10
220.3449052047879
 20
122.3080434671445
 30
0.0
 10
220.3449052047879
 20
122.3080434671445
 30
0.0
 10
220.3449052047879
 20
122.3786033290518
 30
0.0
 10
220.2743453428806
 20
122.413872494082
 30
0.0
 10
220.2390761778504
 20
122.413872494082
 30
0.0
 10
220.2390761778504
 20
122.413872494082
 30
0.0
 10
217.6638888344729
 20
122.413872494082
 30
0.0
 10
217.6638888344729
 20
122.413872494082
 30
0.0
 10
217.5580598075354
 20
122.413872494082
 30
0.0
 10
217.6638888344729
 20
122.3080434671445
 30
0.0
 10
217.6638888344729
 20
122.413872494082
 30
0.0
 10
217.6638888344729
 20
122.413872494082
 30
0.0
 10
217.6638888344729
 20
128.1641513470146
 30
0.0
 10
217.6638888344729
 20
128.1641513470146
 30
0.0
 10
217.6638888344729
 20
128.2699857569138
 30
0.0
 10
217.5580598075354
 20
128.1641513470146
 30
0.0
 10
217.6638888344729
 20
128.1641513470146
 30
0.0
 10
217.6638888344729
 20
128.1641513470146
 30
0.0
 10
220.5566709178969
 20
128.1641513470146
 30
0.0
 10
220.5566709178969
 20
128.1641513470146
 30
0.0
 10
220.6272307798041
 20
128.1641513470146
 30
0.0
 10
220.6624999448344
 20
128.2347058259602
 30
0.0
 10
220.6624999448344
 20
128.2699857569138
 30
0.0
 10
220.6624999448344
 20
128.2699857569138
 30
0.0
 10
220.6624999448344
 20
134.2672079776367
 30
0.0
 10
220.6624999448344
 20
134.2672079776367
 30
0.0
 10
220.6624999448344
 20
134.3377624565823
 30
0.0
 10
220.5919400829271
 20
134.373042387536
 30
0.0
 10
220.5566709178969
 20
134.373042387536
 30
0.0
 10
220.5566709178969
 20
134.373042387536
 30
0.0
 10
217.6638888344729
 20
134.373042387536
 30
0.0
 10
217.6638888344729
 20
134.373042387536
 30
0.0
 10
217.5580598075354
 20
134.373042387536
 30
0.0
 10
217.6638888344729
 20
134.2672079776367
 30
0.0
 10
217.6638888344729
 20
134.373042387536
 30
0.0
 10
217.6638888344729
 20
134.373042387536
 30
0.0
 10
217.6638888344729
 20
140.1233212404685
 30
0.0
 10
217.6638888344729
 20
140.1233212404685
 30
0.0
 10
217.6638888344729
 20
140.2291556503677
 30
0.0
 10
217.5580598075354
 20
140.1233212404685
 30
0.0
 10
217.6638888344729
 20
140.1233212404685
 30
0.0
 10
217.6638888344729
 20
140.1233212404685
 30
0.0
 10
220.5566709178969
 20
140.1233212404685
 30
0.0
 10
220.5566709178969
 20
140.1233212404685
 30
0.0
 10
220.6272307798041
 20
140.1233212404685
 30
0.0
 10
220.6624999448344
 20
140.1938757194141
 30
0.0
 10
220.6624999448344
 20
140.2291556503677
 30
0.0
 10
220.6624999448344
 20
140.2291556503677
 30
0.0
 10
220.6624999448344
 20
146.2263778710906
 30
0.0
 10
220.6624999448344
 20
146.2263778710906
 30
0.0
 10
220.6624999448344
 20
146.2969323500362
 30
0.0
 10
220.5919400829271
 20
146.3322122809898
 30
0.0
 10
220.5566709178969
 20
146.3322122809898
 30
0.0
 10
220.5566709178969
 20
146.3322122809898
 30
0.0
 10
217.6638888344729
 20
146.3322122809898
 30
0.0
 10
217.6638888344729
 20
146.3322122809898
 30
0.0
 10
217.5580598075354
 20
146.3322122809898
 30
0.0
 10
217.6638888344729
 20
146.2263778710906
 30
0.0
 10
217.6638888344729
 20
146.3322122809898
 30
0.0
 10
217.6638888344729
 20
146.3322122809898
 30
0.0
 10
217.6638888344729
 20
152.0824911339224
 30
0.0
 10
217.6638888344729
 20
152.0824911339224
 30
0.0
 10
217.6638888344729
 20
152.1883255438216
 30
0.0
 10
217.5580598075354
 20
152.0824911339224
 30
0.0
 10
217.6638888344729
 20
152.0824911339224
 30
0.0
 10
217.6638888344729
 20
152.0824911339224
 30
0.0
 10
220.5566709178969
 20
152.0824911339224
 30
0.0
 10
220.5566709178969
 20
152.0824911339224
 30
0.0
 10
220.6272307798041
 20
152.0824911339224
 30
0.0
 10
220.6624999448344
 20
152.1530456128679
 30
0.0
 10
220.6624999448344
 20
152.1883255438216
 30
0.0
 10
220.6624999448344
 20
152.1883255438216
 30
0.0
 10
220.6624999448344
 20
158.1855477645445
 30
0.0
 10
220.6624999448344
 20
158.1855477645445
 30
0.0
 10
220.6624999448344
 20
158.2561022434901
 30
0.0
 10
220.5919400829271
 20
158.2913821744437
 30
0.0
 10
220.5566709178969
 20
158.2913821744437
 30
0.0
 10
220.5566709178969
 20
158.2913821744437
 30
0.0
 10
217.6638888344729
 20
158.2913821744437
 30
0.0
 10
217.6638888344729
 20
158.2913821744437
 30
0.0
 10
217.5580598075354
 20
158.2913821744437
 30
0.0
 10
217.6638888344729
 20
158.1855477645445
 30
0.0
 10
217.6638888344729
 20
158.2913821744437
 30
0.0
 10
217.6638888344729
 20
158.2913821744437
 30
0.0
 10
217.6638888344729
 20
164.0416610273763
 30
0.0
 10
217.6638888344729
 20
164.0416610273763
 30
0.0
 10
217.6638888344729
 20
164.1474954372755
 30
0.0
 10
217.5580598075354
 20
164.0416610273763
 30
0.0
 10
217.6638888344729
 20
164.0416610273763
 30
0.0
 10
217.6638888344729
 20
164.0416610273763
 30
0.0
 10
220.5566709178969
 20
164.0416610273763
 30
0.0
 10
220.5566709178969
 20
164.0416610273763
 30
0.0
 10
220.6272307798041
 20
164.0416610273763
 30
0.0
 10
220.6624999448344
 20
164.1122155063219
 30
0.0
 10
220.6624999448344
 20
164.1474954372755
 30
0.0
 10
220.6624999448344
 20
164.1474954372755
 30
0.0
 10
220.6624999448344
 20
170.1447176579984
 30
0.0
 10
220.6624999448344
 20
170.1447176579984
 30
0.0
 10
220.6624999448344
 20
170.215272136944
 30
0.0
 10
220.5919400829271
 20
170.2505520678976
 30
0.0
 10
220.5566709178969
 20
170.2505520678976
 30
0.0
 10
220.5566709178969
 20
170.2505520678976
 30
0.0
 10
217.6638888344729
 20
170.2505520678976
 30
0.0
 10
217.6638888344729
 20
170.2505520678976
 30
0.0
 10
217.5580598075354
 20
170.2505520678976
 30
0.0
 10
217.6638888344729
 20
170.1447176579984
 30
0.0
 10
217.6638888344729
 20
170.2505520678976
 30
0.0
 10
217.6638888344729
 20
170.2505520678976
 30
0.0
 10
217.6638888344729
 20
176.0008309208302
 30
0.0
 10
217.6638888344729
 20
176.0008309208302
 30
0.0
 10
217.6638888344729
 20
176.1066653307294
 30
0.0
 10
217.5580598075354
 20
176.0008309208302
 30
0.0
 10
217.6638888344729
 20
176.0008309208302
 30
0.0
 10
217.6638888344729
 20
176.0008309208302
 30
0.0
 10
220.5566709178969
 20
176.0008309208302
 30
0.0
 10
220.5566709178969
 20
176.0008309208302
 30
0.0
 10
220.6272307798041
 20
176.0008309208302
 30
0.0
 10
220.6624999448344
 20
176.0713853997757
 30
0.0
 10
220.6624999448344
 20
176.1066653307294
 30
0.0
 10
220.6624999448344
 20
176.1066653307294
 30
0.0
 10
220.6624999448344
 20
182.1038875514523
 30
0.0
 10
220.6624999448344
 20
182.1038875514523
 30
0.0
 10
220.6624999448344
 20
182.1744420303979
 30
0.0
 10
220.5919400829271
 20
182.2097219613515
 30
0.0
 10
220.5566709178969
 20
182.2097219613515
 30
0.0
 10
220.5566709178969
 20
182.2097219613515
 30
0.0
 10
217.6638888344729
 20
182.2097219613515
 30
0.0
 10
217.6638888344729
 20
182.2097219613515
 30
0.0
 10
217.5580598075354
 20
182.2097219613515
 30
0.0
 10
217.6638888344729
 20
182.1038875514523
 30
0.0
 10
217.6638888344729
 20
182.2097219613515
 30
0.0
 10
217.6638888344729
 20
182.2097219613515
 30
0.0
 10
217.6638888344729
 20
188.2422241130281
 30
0.0
 10
217.6638888344729
 20
188.2422241130281
 30
0.0
 10
217.6638888344729
 20
188.3480585229273
 30
0.0
 10
217.5580598075354
 20
188.2422241130281
 30
0.0
 10
217.6638888344729
 20
188.2422241130281
 30
0.0
 10
217.6638888344729
 20
188.2422241130281
 30
0.0
 10
220.5566709178969
 20
188.2422241130281
 30
0.0
 10
220.5566709178969
 20
188.2422241130281
 30
0.0
 10
220.6272307798041
 20
188.2422241130281
 30
0.0
 10
220.6624999448344
 20
188.3127785919737
 30
0.0
 10
220.6624999448344
 20
188.3480585229273
 30
0.0
 10
220.6624999448344
 20
188.3480585229273
 30
0.0
 10
220.6624999448344
 20
194.3452807436502
 30
0.0
 10
220.6624999448344
 20
194.3452807436502
 30
0.0
 10
220.6624999448344
 20
194.4158365683362
 30
0.0
 10
220.5919400829271
 20
194.451113807809
 30
0.0
 10
220.5566709178969
 20
194.451113807809
 30
0.0
 10
220.5566709178969
 20
194.451113807809
 30
0.0
 10
217.6638888344729
 20
194.451113807809
 30
0.0
 10
217.6638888344729
 20
194.451113807809
 30
0.0
 10
217.5580598075354
 20
194.451113807809
 30
0.0
 10
217.6638888344729
 20
194.3452807436502
 30
0.0
 10
217.6638888344729
 20
194.451113807809
 30
0.0
 10
217.6638888344729
 20
194.451113807809
 30
0.0
 10
217.6638888344729
 20
202.353333874871
 30
0.0
 10
217.6638888344729
 20
202.353333874871
 30
0.0
 10
217.6638888344729
 20
202.423889699557
 30
0.0
 10
217.5933289725656
 20
202.4591669390298
 30
0.0
 10
217.5580598075354
 20
202.4591669390298
 30
0.0
 10
217.5580598075354
 20
202.4591669390298
 30
0.0
 10
209.6911196714271
 20
202.4591669390298
 30
0.0
 10
209.6911196714271
 20
202.4591669390298
 30
0.0
 10
209.5852906444895
 20
202.4591669390298
 30
0.0
 10
209.6911196714271
 20
202.353333874871
 30
0.0
 10
209.6911196714271
 20
202.4591669390298
 30
0.0
 10
209.6911196714271
 20
202.4591669390298
 30
0.0
 10
209.6911196714271
 20
205.3519449852324
 30
0.0
 10
209.6911196714271
 20
205.3519449852324
 30
0.0
 10
209.6911196714271
 20
205.4225008099185
 30
0.0
 10
209.6205598095198
 20
205.4577780493912
 30
0.0
 10
209.5852906444895
 20
205.4577780493912
 30
0.0
 10
209.5852906444895
 20
205.4577780493912
 30
0.0
 10
203.5880684237666
 20
205.4577780493912
 30
0.0
 10
203.5880684237666
 20
205.4577780493912
 30
0.0
 10
203.5175085618594
 20
205.4577780493912
 30
0.0
 10
203.4822393968291
 20
205.3872222247056
 30
0.0
 10
203.4822393968291
 20
205.3519449852324
 30
0.0
 10
203.4822393968291
 20
205.3519449852324
 30
0.0
 10
203.4822393968291
 20
202.4591669390298
 30
0.0
 10
203.4822393968291
 20
202.4591669390298
 30
0.0
 10
203.4822393968291
 20
202.353333874871
 30
0.0
 10
203.5880684237666
 20
202.4591669390298
 30
0.0
 10
203.4822393968291
 20
202.4591669390298
 30
0.0
 10
203.4822393968291
 20
202.4591669390298
 30
0.0
 10
197.7319659268582
 20
202.4591669390298
 30
0.0
 10
197.7319659268582
 20
202.4591669390298
 30
0.0
 10
197.6261368999207
 20
202.4591669390298
 30
0.0
 10
197.7319659268582
 20
202.353333874871
 30
0.0
 10
197.7319659268582
 20
202.4591669390298
 30
0.0
 10
197.7319659268582
 20
202.4591669390298
 30
0.0
 10
197.7319659268582
 20
205.3519449852324
 30
0.0
 10
197.7319659268582
 20
205.3519449852324
 30
0.0
 10
197.7319659268582
 20
205.4225008099185
 30
0.0
 10
197.6614060649509
 20
205.4577780493912
 30
0.0
 10
197.6261368999207
 20
205.4577780493912
 30
0.0
 10
197.6261368999207
 20
205.4577780493912
 30
0.0
 10
191.6289146791978
 20
205.4577780493912
 30
0.0
 10
191.6289146791978
 20
205.4577780493912
 30
0.0
 10
191.5583548172905
 20
205.4577780493912
 30
0.0
 10
191.5230856522603
 20
205.3872222247056
 30
0.0
 10
191.5230856522603
 20
205.3519449852324
 30
0.0
 10
191.5230856522603
 20
205.3519449852324
 30
0.0
 10
191.5230856522603
 20
202.4591669390298
 30
0.0
 10
191.5230856522603
 20
202.4591669390298
 30
0.0
 10
191.5230856522603
 20
202.353333874871
 30
0.0
 10
191.6289146791978
 20
202.4591669390298
 30
0.0
 10
191.5230856522603
 20
202.4591669390298
 30
0.0
 10
191.5230856522603
 20
202.4591669390298
 30
0.0
 10
185.7728121822894
 20
202.4591669390298
 30
0.0
 10
185.7728121822894
 20
202.4591669390298
 30
0.0
 10
185.6669831553519
 20
202.4591669390298
 30
0.0
 10
185.7728121822894
 20
202.353333874871
 30
0.0
 10
185.7728121822894
 20
202.4591669390298
 30
0.0
 10
185.7728121822894
 20
202.4591669390298
 30
0.0
 10
185.7728121822894
 20
205.3519449852324
 30
0.0
 10
185.7728121822894
 20
205.3519449852324
 30
0.0
 10
185.7728121822894
 20
205.4225008099185
 30
0.0
 10
185.7022523203822
 20
205.4577780493912
 30
0.0
 10
185.6669831553519
 20
205.4577780493912
 30
0.0
 10
185.6669831553519
 20
205.4577780493912
 30
0.0
 10
179.669760934629
 20
205.4577780493912
 30
0.0
 10
179.669760934629
 20
205.4577780493912
 30
0.0
 10
179.5992010727217
 20
205.4577780493912
 30
0.0
 10
179.5639319076915
 20
205.3872222247056
 30
0.0
 10
179.5639319076915
 20
205.3519449852324
 30
0.0
 10
179.5639319076915
 20
205.3519449852324
 30
0.0
 10
179.5639319076915
 20
202.4591669390298
 30
0.0
 10
179.5639319076915
 20
202.4591669390298
 30
0.0
 10
179.5639319076915
 20
202.353333874871
 30
0.0
 10
179.669760934629
 20
202.4591669390298
 30
0.0
 10
179.5639319076915
 20
202.4591669390298
 30
0.0
 10
179.5639319076915
 20
202.4591669390298
 30
0.0
 10
173.8136584377206
 20
202.4591669390298
 30
0.0
 10
173.8136584377206
 20
202.4591669390298
 30
0.0
 10
173.7078294107831
 20
202.4591669390298
 30
0.0
 10
173.8136584377206
 20
202.353333874871
 30
0.0
 10
173.8136584377206
 20
202.4591669390298
 30
0.0
 10
173.8136584377206
 20
202.4591669390298
 30
0.0
 10
173.8136584377206
 20
205.3519449852324
 30
0.0
 10
173.8136584377206
 20
205.3519449852324
 30
0.0
 10
173.8136584377206
 20
205.4225008099185
 30
0.0
 10
173.7430985758134
 20
205.4577780493912
 30
0.0
 10
173.7078294107831
 20
205.4577780493912
 30
0.0
 10
173.7078294107831
 20
205.4577780493912
 30
0.0
 10
167.7106071900602
 20
205.4577780493912
 30
0.0
 10
167.7106071900602
 20
205.4577780493912
 30
0.0
 10
167.6400473281529
 20
205.4577780493912
 30
0.0
 10
167.6047781631227
 20
205.3872222247056
 30
0.0
 10
167.6047781631227
 20
205.3519449852324
 30
0.0
 10
167.6047781631227
 20
205.3519449852324
 30
0.0
 10
167.6047781631227
 20
202.4591669390298
 30
0.0
 10
167.6047781631227
 20
202.4591669390298
 30
0.0
 10
167.6047781631227
 20
202.353333874871
 30
0.0
 10
167.7106071900602
 20
202.4591669390298
 30
0.0
 10
167.6047781631227
 20
202.4591669390298
 30
0.0
 10
167.6047781631227
 20
202.4591669390298
 30
0.0
 10
161.8545046931518
 20
202.4591669390298
 30
0.0
 10
161.8545046931518
 20
202.4591669390298
 30
0.0
 10
161.7486756662143
 20
202.4591669390298
 30
0.0
 10
161.8545046931518
 20
202.353333874871
 30
0.0
 10
161.8545046931518
 20
202.4591669390298
 30
0.0
 10
161.8545046931518
 20
202.4591669390298
 30
0.0
 10
161.8545046931518
 20
205.3519449852324
 30
0.0
 10
161.8545046931518
 20
205.3519449852324
 30
0.0
 10
161.8545046931518
 20
205.4225008099185
 30
0.0
 10
161.7839448312445
 20
205.4577780493912
 30
0.0
 10
161.7486756662143
 20
205.4577780493912
 30
0.0
 10
161.7486756662143
 20
205.4577780493912
 30
0.0
 10
155.7514534454914
 20
205.4577780493912
 30
0.0
 10
155.7514534454914
 20
205.4577780493912
 30
0.0
 10
155.6808935835841
 20
205.4577780493912
 30
0.0
 10
155.6456244185539
 20
205.3872222247056
 30
0.0
 10
155.6456244185539
 20
205.3519449852324
 30
0.0
 10
155.6456244185539
 20
205.3519449852324
 30
0.0
 10
155.6456244185539
 20
202.4591669390298
 30
0.0
 10
155.6456244185539
 20
202.4591669390298
 30
0.0
 10
155.6456244185539
 20
202.353333874871
 30
0.0
 10
155.7514534454914
 20
202.4591669390298
 30
0.0
 10
155.6456244185539
 20
202.4591669390298
 30
0.0
 10
155.6456244185539
 20
202.4591669390298
 30
0.0
 10
149.895350948583
 20
202.4591669390298
 30
0.0
 10
149.895350948583
 20
202.4591669390298
 30
0.0
 10
149.7895219216455
 20
202.4591669390298
 30
0.0
 10
149.895350948583
 20
202.353333874871
 30
0.0
 10
149.895350948583
 20
202.4591669390298
 30
0.0
 10
149.895350948583
 20
202.4591669390298
 30
0.0
 10
149.895350948583
 20
205.3519449852324
 30
0.0
 10
149.895350948583
 20
205.3519449852324
 30
0.0
 10
149.895350948583
 20
205.4225008099185
 30
0.0
 10
149.8247910866757
 20
205.4577780493912
 30
0.0
 10
149.7895219216455
 20
205.4577780493912
 30
0.0
 10
149.7895219216455
 20
205.4577780493912
 30
0.0
 10
143.7922997009226
 20
205.4577780493912
 30
0.0
 10
143.7922997009226
 20
205.4577780493912
 30
0.0
 10
143.7217398390153
 20
205.4577780493912
 30
0.0
 10
143.6864706739851
 20
205.3872222247056
 30
0.0
 10
143.6864706739851
 20
205.3519449852324
 30
0.0
 10
143.6864706739851
 20
205.3519449852324
 30
0.0
 10
143.6864706739851
 20
202.4591669390298
 30
0.0
 10
143.6864706739851
 20
202.4591669390298
 30
0.0
 10
143.6864706739851
 20
202.353333874871
 30
0.0
 10
143.7922997009226
 20
202.4591669390298
 30
0.0
 10
143.6864706739851
 20
202.4591669390298
 30
0.0
 10
143.6864706739851
 20
202.4591669390298
 30
0.0
 10
137.9361972040142
 20
202.4591669390298
 30
0.0
 10
137.9361972040142
 20
202.4591669390298
 30
0.0
 10
137.8303681770767
 20
202.4591669390298
 30
0.0
 10
137.9361972040142
 20
202.353333874871
 30
0.0
 10
137.9361972040142
 20
202.4591669390298
 30
0.0
 10
137.9361972040142
 20
202.4591669390298
 30
0.0
 10
137.9361972040142
 20
205.3519449852324
 30
0.0
 10
137.9361972040142
 20
205.3519449852324
 30
0.0
 10
137.9361972040142
 20
205.4225008099185
 30
0.0
 10
137.8656373421069
 20
205.4577780493912
 30
0.0
 10
137.8303681770767
 20
205.4577780493912
 30
0.0
 10
137.8303681770767
 20
205.4577780493912
 30
0.0
 10
131.8331459563538
 20
205.4577780493912
 30
0.0
 10
131.8331459563538
 20
205.4577780493912
 30
0.0
 10
131.7625860944465
 20
205.4577780493912
 30
0.0
 10
131.7273169294163
 20
205.3872222247056
 30
0.0
 10
131.7273169294163
 20
205.3519449852324
 30
0.0
 10
131.7273169294163
 20
205.3519449852324
 30
0.0
 10
131.7273169294163
 20
202.4591669390298
 30
0.0
 10
131.7273169294163
 20
202.4591669390298
 30
0.0
 10
131.7273169294163
 20
202.353333874871
 30
0.0
 10
131.8331459563538
 20
202.4591669390298
 30
0.0
 10
131.7273169294163
 20
202.4591669390298
 30
0.0
 10
131.7273169294163
 20
202.4591669390298
 30
0.0
 10
123.8603767933079
 20
202.4591669390298
 30
0.0
 10
123.8603767933079
 20
202.4591669390298
 30
0.0
 10
123.7898169314006
 20
202.4591669390298
 30
0.0
 10
123.7545477663704
 20
202.3886111143441
 30
0.0
 10
123.7545477663704
 20
202.353333874871
 30
0.0
 10
123.7545477663704
 20
202.353333874871
 30
0.0
 10
123.7545477663704
 20
194.4863897015414
 30
0.0
 10
123.7545477663704
 20
194.4863897015414
 30
0.0
 10
123.7545477663704
 20
194.3805566373826
 30
0.0
 10
123.8603767933079
 20
194.4863897015414
 30
0.0
 10
123.7545477663704
 20
194.4863897015414
 30
0.0
 10
123.7545477663704
 20
194.4863897015414
 30
0.0
 10
120.8617656829464
 20
194.4863897015414
 30
0.0
 10
120.8617656829464
 20
194.4863897015414
 30
0.0
 10
120.7912058210392
 20
194.4863897015414
 30
0.0
 10
120.7559366560089
 20
194.4158338768554
 30
0.0
 10
120.7559366560089
 20
194.3805566373826
 30
0.0
 10
120.7559366560089
 20
194.3805566373826
 30
0.0
 10
120.7559366560089
 20
188.3833330709192
 30
0.0
 10
120.7559366560089
 20
188.3833330709192
 30
0.0
 10
120.7559366560089
 20
188.3127785919737
 30
0.0
 10
120.8264965179162
 20
188.27749866102
 30
0.0
 10
120.8617656829464
 20
188.27749866102
 30
0.0
 10
120.8617656829464
 20
188.27749866102
 30
0.0
 10
123.7545477663704
 20
188.27749866102
 30
0.0
 10
123.7545477663704
 20
188.27749866102
 30
0.0
 10
123.8603767933079
 20
188.27749866102
 30
0.0
 10
123.7545477663704
 20
188.3833330709192
 30
0.0
 10
123.7545477663704
 20
188.27749866102
 30
0.0
 10
123.7545477663704
 20
188.27749866102
 30
0.0
 10
123.7545477663704
 20
182.5272198080875
 30
0.0
 10
123.7545477663704
 20
182.5272198080875
 30
0.0
 10
123.7545477663704
 20
182.4213853981883
 30
0.0
 10
123.8603767933079
 20
182.5272198080875
 30
0.0
 10
123.7545477663704
 20
182.5272198080875
 30
0.0
 10
123.7545477663704
 20
182.5272198080875
 30
0.0
 10
120.8617656829464
 20
182.5272198080875
 30
0.0
 10
120.8617656829464
 20
182.5272198080875
 30
0.0
 10
120.7912058210392
 20
182.5272198080875
 30
0.0
 10
120.7559366560089
 20
182.4566653291419
 30
0.0
 10
120.7559366560089
 20
182.4213853981883
 30
0.0
 10
120.7559366560089
 20
182.4213853981883
 30
0.0
 10
120.7559366560089
 20
176.4241631774653
 30
0.0
 10
120.7559366560089
 20
176.4241631774653
 30
0.0
 10
120.7559366560089
 20
176.3536086985197
 30
0.0
 10
120.8264965179162
 20
176.3183287675661
 30
0.0
 10
120.8617656829464
 20
176.3183287675661
 30
0.0
 10
120.8617656829464
 20
176.3183287675661
 30
0.0
 10
123.7545477663704
 20
176.3183287675661
 30
0.0
 10
123.7545477663704
 20
176.3183287675661
 30
0.0
 10
123.8603767933079
 20
176.3183287675661
 30
0.0
 10
123.7545477663704
 20
176.4241631774653
 30
0.0
 10
123.7545477663704
 20
176.3183287675661
 30
0.0
 10
123.7545477663704
 20
176.3183287675661
 30
0.0
 10
123.7545477663704
 20
170.5680499146336
 30
0.0
 10
123.7545477663704
 20
170.5680499146336
 30
0.0
 10
123.7545477663704
 20
170.4622155047344
 30
0.0
 10
123.8603767933079
 20
170.5680499146336
 30
0.0
 10
123.7545477663704
 20
170.5680499146336
 30
0.0
 10
123.7545477663704
 20
170.5680499146336
 30
0.0
 10
120.8617656829464
 20
170.5680499146336
 30
0.0
 10
120.8617656829464
 20
170.5680499146336
 30
0.0
 10
120.7912058210392
 20
170.5680499146336
 30
0.0
 10
120.7559366560089
 20
170.497495435688
 30
0.0
 10
120.7559366560089
 20
170.4622155047344
 30
0.0
 10
120.7559366560089
 20
170.4622155047344
 30
0.0
 10
120.7559366560089
 20
164.4649932840114
 30
0.0
 10
120.7559366560089
 20
164.4649932840114
 30
0.0
 10
120.7559366560089
 20
164.3944388050659
 30
0.0
 10
120.8264965179162
 20
164.3591588741122
 30
0.0
 10
120.8617656829464
 20
164.3591588741122
 30
0.0
 10
120.8617656829464
 20
164.3591588741122
 30
0.0
 10
123.7545477663704
 20
164.3591588741122
 30
0.0
 10
123.7545477663704
 20
164.3591588741122
 30
0.0
 10
123.8603767933079
 20
164.3591588741122
 30
0.0
 10
123.7545477663704
 20
164.4649932840114
 30
0.0
 10
123.7545477663704
 20
164.3591588741122
 30
0.0
 10
123.7545477663704
 20
164.3591588741122
 30
0.0
 10
123.7545477663704
 20
158.6088800211797
 30
0.0
 10
123.7545477663704
 20
158.6088800211797
 30
0.0
 10
123.7545477663704
 20
158.5030456112805
 30
0.0
 10
123.8603767933079
 20
158.6088800211797
 30
0.0
 10
123.7545477663704
 20
158.6088800211797
 30
0.0
 10
123.7545477663704
 20
158.6088800211797
 30
0.0
 10
120.8617656829464
 20
158.6088800211797
 30
0.0
 10
120.8617656829464
 20
158.6088800211797
 30
0.0
 10
120.7912058210392
 20
158.6088800211797
 30
0.0
 10
120.7559366560089
 20
158.5383255422341
 30
0.0
 10
120.7559366560089
 20
158.5030456112805
 30
0.0
 10
120.7559366560089
 20
158.5030456112805
 30
0.0
 10
120.7559366560089
 20
152.5058233905575
 30
0.0
 10
120.7559366560089
 20
152.5058233905575
 30
0.0
 10
120.7559366560089
 20
152.435268911612
 30
0.0
 10
120.8264965179162
 20
152.3999889806583
 30
0.0
 10
120.8617656829464
 20
152.3999889806583
 30
0.0
 10
120.8617656829464
 20
152.3999889806583
 30
0.0
 10
123.7545477663704
 20
152.3999889806583
 30
0.0
 10
123.7545477663704
 20
152.3999889806583
 30
0.0
 10
123.8603767933079
 20
152.3999889806583
 30
0.0
 10
123.7545477663704
 20
152.5058233905575
 30
0.0
 10
123.7545477663704
 20
152.3999889806583
 30
0.0
 10
123.7545477663704
 20
152.3999889806583
 30
0.0
 10
123.7545477663704
 20
146.6497101277258
 30
0.0
 10
123.7545477663704
 20
146.6497101277258
 30
0.0
 10
123.7545477663704
 20
146.5438757178266
 30
0.0
 10
123.8603767933079
 20
146.6497101277258
 30
0.0
 10
123.7545477663704
 20
146.6497101277258
 30
0.0
 10
123.7545477663704
 20
146.6497101277258
 30
0.0
 10
120.8617656829464
 20
146.6497101277258
 30
0.0
 10
120.8617656829464
 20
146.6497101277258
 30
0.0
 10
120.7912058210392
 20
146.6497101277258
 30
0.0
 10
120.7559366560089
 20
146.5791556487802
 30
0.0
 10
120.7559366560089
 20
146.5438757178266
 30
0.0
 10
120.7559366560089
 20
146.5438757178266
 30
0.0
 10
120.7559366560089
 20
140.5466534971036
 30
0.0
 10
120.7559366560089
 20
140.5466534971036
 30
0.0
 10
120.7559366560089
 20
140.4760990181581
 30
0.0
 10
120.8264965179162
 20
140.4408190872044
 30
0.0
 10
120.8617656829464
 20
140.4408190872044
 30
0.0
 10
120.8617656829464
 20
140.4408190872044
 30
0.0
 10
123.7545477663704
 20
140.4408190872044
 30
0.0
 10
123.7545477663704
 20
140.4408190872044
 30
0.0
 10
123.8603767933079
 20
140.4408190872044
 30
0.0
 10
123.7545477663704
 20
140.5466534971036
 30
0.0
 10
123.7545477663704
 20
140.4408190872044
 30
0.0
 10
123.7545477663704
 20
140.4408190872044
 30
0.0
 10
123.7545477663704
 20
134.6905402342719
 30
0.0
 10
123.7545477663704
 20
134.6905402342719
 30
0.0
 10
123.7545477663704
 20
134.5847058243727
 30
0.0
 10
123.8603767933079
 20
134.6905402342719
 30
0.0
 10
123.7545477663704
 20
134.6905402342719
 30
0.0
 10
123.7545477663704
 20
134.6905402342719
 30
0.0
 10
120.8617656829464
 20
134.6905402342719
 30
0.0
 10
120.8617656829464
 20
134.6905402342719
 30
0.0
 10
120.7912058210392
 20
134.6905402342719
 30
0.0
 10
120.7559366560089
 20
134.6199857553263
 30
0.0
 10
120.7559366560089
 20
134.5847058243727
 30
0.0
 10
120.7559366560089
 20
134.5847058243727
 30
0.0
 10
120.7559366560089
 20
128.5874836036498
 30
0.0
 10
120.7559366560089
 20
128.5874836036498
 30
0.0
 10
120.7559366560089
 20
128.5169291247042
 30
0.0
 10
120.8264965179162
 20
128.4816491937506
 30
0.0
 10
120.8617656829464
 20
128.4816491937506
 30
0.0
 10
120.8617656829464
 20
128.4816491937506
 30
0.0
 10
123.7545477663704
 20
128.4816491937506
 30
0.0
 10
123.7545477663704
 20
128.4816491937506
 30
0.0
 10
123.8603767933079
 20
128.4816491937506
 30
0.0
 10
123.7545477663704
 20
128.5874836036498
 30
0.0
 10
123.7545477663704
 20
128.4816491937506
 30
0.0
 10
123.7545477663704
 20
128.4816491937506
 30
0.0
 10
123.7545477663704
 20
122.731370340818
 30
0.0
 10
123.7545477663704
 20
122.731370340818
 30
0.0
 10
123.7545477663704
 20
122.6255413138805
 30
0.0
 10
123.8603767933079
 20
122.731370340818
 30
0.0
 10
123.7545477663704
 20
122.731370340818
 30
0.0
 10
123.7545477663704
 20
122.731370340818
 30
0.0
 10
120.8617656829464
 20
122.731370340818
 30
0.0
 10
120.8617656829464
 20
122.731370340818
 30
0.0
 10
120.7912058210392
 20
122.731370340818
 30
0.0
 10
120.7559366560089
 20
122.6608104789107
 30
0.0
 10
120.7559366560089
 20
122.6255413138805
 30
0.0
 10
120.7559366560089
 20
122.6255413138805
 30
0.0
 10
120.7559366560089
 20
116.6283190931576
 30
0.0
 10
120.7559366560089
 20
116.6283190931576
 30
0.0
 10
120.7559366560089
 20
116.5577592312503
 30
0.0
 10
120.8264965179162
 20
116.5224900662201
 30
0.0
 10
120.8617656829464
 20
116.5224900662201
 30
0.0
 10
120.8617656829464
 20
116.5224900662201
 30
0.0
 10
123.7545477663704
 20
116.5224900662201
 30
0.0
 10
123.7545477663704
 20
116.5224900662201
 30
0.0
 10
123.8603767933079
 20
116.5224900662201
 30
0.0
 10
123.7545477663704
 20
116.6283190931576
 30
0.0
 10
123.7545477663704
 20
116.5224900662201
 30
0.0
 10
123.7545477663704
 20
116.5224900662201
 30
0.0
 10
123.7545477663704
 20
108.6555499301117
 30
0.0
 10
123.7545477663704
 20
108.6555499301117
 30
0.0
 10
123.4369422604005
 20
108.3027829183455
 30
0.0
 10
123.4722221913542
 20
108.2322230564382
 30
0.0
 10
123.5427820532614
 20
108.2322230564382
 30
0.0
  0
ENDBLK
  5
7C
330
79
100
AcDbEntity
  8
0
100
AcDbBlockEnd
  0
BLOCK
  5
85
330
83
100
AcDbEntity
  8
0
100
AcDbBlockBegin
  2
Block_1
 70
     0
 10
0.0
 20
0.0
 30
0.0
  3
Block_1
  1

  0
ENDBLK
  5
86
330
83
100
AcDbEntity
  8
0
100
AcDbBlockEnd
  0
ENDSEC
  0
SECTION
  2
ENTITIES
  0
INSERT
  5
7A
330
70
100
AcDbEntity
  8
framework
100
AcDbBlockReference
  2
Block_0
 10
0.0
 20
0.0
 30
0.0
  0
INSERT
  5
84
330
70
100
AcDbEntity
  8
framework
100
AcDbBlockReference
  2
Block_1
 10
0.0
 20
0.0
 30
0.0
  0
CIRCLE
  5
88
330
70
100
AcDbEntity
  8
cutti g
 62
    18
420
        0
370
    35
100
AcDbCircle
 10
27.16013592707656
 20
83.57304778319766
 30
0.0
 40
1.499999999624979
  0
CIRCLE
  5
89
330
70
100
AcDbEntity
  8
cutti g
 62
    18
420
        0
370
    35
100
AcDbCircle
 10
68.66819227409272
 20
187.6919038387129
 30
0.0
 40
1.999999999499946
  0
CIRCLE
  5
8A
330
70
100
AcDbEntity
  8
cutti g
 62
    18
420
        0
370
    35
100
AcDbCircle
 10
68.66819227409272
 20
155.345694997734
 30
0.0
 40
1.999999999499866
  0
LWPOLYLINE
  5
8C
330
70
100
AcDbEntity
  8
scan
 62
    18
420
        0
370
    35
100
AcDbPolyline
 90
        4
 70
     1
 43
0.0
 10
44.86820329847559
 20
156.845694997359
 10
44.86820329847559
 20
153.845694998109
 10
64.86820329347555
 20
153.845694998109
 10
64.86820329347555
 20
156.845694997359
  0
LWPOLYLINE
  5
8D
330
70
100
AcDbEntity
  8
scan
 62
    18
420
        0
370
    35
100
AcDbPolyline
 90
        4
 70
     1
 43
0.0
 10
72.53225065451665
 20
156.845694997359
 10
72.53225065451665
 20
153.845694998109
 10
92.5322506495166
 20
153.845694998109
 10
92.5322506495166
 20
156.845694997359
  0
LWPOLYLINE
  5
8E
330
70
100
AcDbEntity
  8
scan
 62
    18
420
        0
370
    35
100
AcDbPolyline
 90
        4
 70
     1
 43
0.0
 10
70.16819227371771
 20
151.569952852256
 10
67.16819227446774
 20
151.569952852256
 10
67.16819227446774
 20
131.569952857256
 10
70.16819227371771
 20
131.569952857256
  0
LWPOLYLINE
  5
8F
330
70
100
AcDbEntity
  8
scan
 62
    18
420
        0
370
    35
100
AcDbPolyline
 90
        4
 70
     1
 43
0.0
 10
70.16819227371771
 20
179.1214371382119
 10
67.16819227446774
 20
179.1214371382119
 10
67.16819227446774
 20
159.121437143212
 10
70.16819227371771
 20
159.121437143212
  0
ENDSEC
  0
SECTION
  2
OBJECTS
  0
DICTIONARY
  5
C
330
0
100
AcDbDictionary
281
     1
  3
ACAD_COLOR
350
63
  3
ACAD_DETAILVIEWSTYLE
350
6A
  3
ACAD_GROUP
350
D
  3
ACAD_LAYOUT
350
62
  3
ACAD_MATERIAL
350
10
  3
ACAD_MLEADERSTYLE
350
66
  3
ACAD_MLINESTYLE
350
5F
  3
ACAD_PLOTSETTINGS
350
61
  3
ACAD_PLOTSTYLENAME
350
E
  3
ACAD_SCALELIST
350
42
  3
ACAD_SECTIONVIEWSTYLE
350
68
  3
ACAD_TABLESTYLE
350
64
  3
ACAD_VISUALSTYLE
350
29
  3
ACDB_RECOMPOSE_DATA
350
98
  3
AcDbVariableDictionary
350
90
  0
DICTIONARY
  5
63
102
{ACAD_REACTORS
330
C
102
}
330
C
100
AcDbDictionary
281
     1
  0
DICTIONARY
  5
6A
102
{ACAD_REACTORS
330
C
102
}
330
C
100
AcDbDictionary
281
     1
  3
Imperial24
350
6B
  0
DICTIONARY
  5
D
102
{ACAD_REACTORS
330
C
102
}
330
C
100
AcDbDictionary
281
     1
  0
DICTIONARY
  5
62
102
{ACAD_REACTORS
330
C
102
}
330
C
100
AcDbDictionary
281
     1
  3
Layout1
350
6F
  3
Layout2
350
77
  3
Model
350
73
  0
DICTIONARY
  5
10
102
{ACAD_REACTORS
330
C
102
}
330
C
100
AcDbDictionary
281
     1
  3
ByBlock
350
19
  3
ByLayer
350
11
  3
Global
350
21
  0
DICTIONARY
  5
66
102
{ACAD_REACTORS
330
C
102
}
330
C
100
AcDbDictionary
281
     1
  3
Standard
350
67
  0
DICTIONARY
  5
5F
102
{ACAD_REACTORS
330
C
102
}
330
C
100
AcDbDictionary
281
     1
  3
Standard
350
60
  0
DICTIONARY
  5
61
102
{ACAD_REACTORS
330
C
102
}
330
C
100
AcDbDictionary
281
     1
  0
ACDBDICTIONARYWDFLT
  5
E
102
{ACAD_REACTORS
330
C
102
}
330
C
100
AcDbDictionary
281
     1
  3
Normal
350
F
100
AcDbDictionaryWithDefault
340
F
  0
DICTIONARY
  5
42
102
{ACAD_REACTORS
330
C
102
}
330
C
100
AcDbDictionary
281
     1
  3
A0
350
43
  3
A1
350
44
  3
A2
350
45
  3
A3
350
46
  3
A4
350
47
  3
A5
350
48
  3
A6
350
49
  3
A7
350
4A
  3
A8
350
4B
  3
A9
350
4C
  3
B0
350
4D
  3
B1
350
4E
  3
B2
350
4F
  3
B3
350
50
  3
B4
350
51
  3
B5
350
52
  3
B6
350
53
  0
DICTIONARY
  5
68
102
{ACAD_REACTORS
330
C
102
}
330
C
100
AcDbDictionary
281
     1
  3
Imperial24
350
69
  0
DICTIONARY
  5
64
102
{ACAD_REACTORS
330
C
102
}
330
C
100
AcDbDictionary
281
     1
  3
Standard
350
65
  0
DICTIONARY
  5
29
102
{ACAD_REACTORS
330
C
102
}
330
C
100
AcDbDictionary
281
     1
  3
2dWireframe
350
2F
  3
Basic
350
2E
  3
Brighten
350
35
  3
ColorChange
350
39
  3
Conceptual
350
32
  3
Dim
350
34
  3
EdgeColorOff
350
41
  3
Facepattern
350
38
  3
Flat
350
2A
  3
FlatWithEdges
350
2B
  3
Gouraud
350
2C
  3
GouraudWithEdges
350
2D
  3
Hidden
350
31
  3
JitterOff
350
3F
  3
Linepattern
350
37
  3
OverhangOff
350
40
  3
Realistic
350
33
  3
Shaded
350
3E
  3
Shaded with edges
350
3D
  3
Shades of Gray
350
3A
  3
Sketchy
350
3B
  3
Thicken
350
36
  3
Wireframe
350
30
  3
X-Ray
350
3C
  0
XRECORD
  5
98
102
{ACAD_REACTORS
330
C
102
}
330
C
100
AcDbXrecord
280
     1
 90
        1
330
65
  0
DICTIONARY
  5
90
102
{ACAD_REACTORS
330
C
102
}
330
C
100
AcDbDictionary
281
     1
  3
CANNOSCALE
350
95
  3
CMLEADERSTYLE
350
92
  3
CTABLESTYLE
350
91
  3
CVIEWDETAILSTYLE
350
93
  3
CVIEWSECTIONSTYLE
350
94
  0
ACDBDETAILVIEWSTYLE
  5
6B
102
{ACAD_REACTORS
330
6A
102
}
330
6A
100
AcDbModelDocViewStyle
 70
     0
  3
Imperial24
290
     1
300
Imperial24
 90
        0
100
AcDbDetailViewStyle
 70
     0
 71
     0
 90
        3
 71
     1
340
55
 62
   256
 40
0.24
340
0
 62
   256
 40
0.24
300

 40
0.36
280
     3
 71
     2
340
5D
 90
       25
 62
   256
 71
     3
340
55
 62
   256
 40
0.24
 90
        1
 40
0.75
 90
        1
300
%<\AcVar ViewType \f "%tc1">% %<\AcVar ViewDetailId>%\PSCALE %<\AcVar ViewScale \f "%sn">%
 71
     4
340
5D
 90
       25
 62
   256
340
5D
 90
       25
 62
   256
280
     0
  0
LAYOUT
  5
6F
102
{ACAD_REACTORS
330
62
102
}
330
62
100
AcDbPlotSettings
  1

  2

  4

  6

 40
0.0
 41
0.0
 42
0.0
 43
0.0
 44
0.0
 45
0.0
 46
0.0
 47
0.0
 48
0.0
 49
0.0
140
0.0
141
0.0
142
1.0
143
1.0
 70
   688
 72
     0
 73
     0
 74
     5
  7

 75
    16
147
1.0
 76
     0
 77
     2
 78
   300
148
0.0
149
0.0
100
AcDbLayout
  1
Layout1
 70
     1
 71
     1
 10
0.0
 20
0.0
 11
12.0
 21
9.0
 12
0.0
 22
0.0
 32
0.0
 14
0.0
 24
0.0
 34
0.0
 15
0.0
 25
0.0
 35
0.0
146
0.0
 13
0.0
 23
0.0
 33
0.0
 16
1.0
 26
0.0
 36
0.0
 17
0.0
 27
1.0
 37
0.0
 76
     0
330
6C
  0
LAYOUT
  5
77
102
{ACAD_REACTORS
330
62
102
}
330
62
100
AcDbPlotSettings
  1

  2

  4

  6

 40
0.0
 41
0.0
 42
0.0
 43
0.0
 44
0.0
 45
0.0
 46
0.0
 47
0.0
 48
0.0
 49
0.0
140
0.0
141
0.0
142
1.0
143
1.0
 70
   688
 72
     0
 73
     0
 74
     5
  7

 75
    16
147
1.0
 76
     0
 77
     2
 78
   300
148
0.0
149
0.0
100
AcDbLayout
  1
Layout2
 70
     1
 71
     2
 10
0.0
 20
0.0
 11
12.0
 21
9.0
 12
0.0
 22
0.0
 32
0.0
 14
0.0
 24
0.0
 34
0.0
 15
0.0
 25
0.0
 35
0.0
146
0.0
 13
0.0
 23
0.0
 33
0.0
 16
1.0
 26
0.0
 36
0.0
 17
0.0
 27
1.0
 37
0.0
 76
     0
330
74
  0
LAYOUT
  5
73
102
{ACAD_REACTORS
330
62
102
}
330
62
100
AcDbPlotSettings
  1

  2

  4

  6

 40
0.0
 41
0.0
 42
0.0
 43
0.0
 44
0.0
 45
0.0
 46
0.0
 47
0.0
 48
0.0
 49
0.0
140
0.0
141
0.0
142
1.0
143
1.0
 70
  1712
 72
     0
 73
     0
 74
     0
  7

 75
     0
147
1.0
 76
     0
 77
     2
 78
   300
148
0.0
149
0.0
100
AcDbLayout
  1
Model
 70
     1
 71
     0
 10
0.0
 20
0.0
 11
12.0
 21
9.0
 12
0.0
 22
0.0
 32
0.0
 14
0.0
 24
0.0
 34
0.0
 15
0.0
 25
0.0
 35
0.0
146
0.0
 13
0.0
 23
0.0
 33
0.0
 16
1.0
 26
0.0
 36
0.0
 17
0.0
 27
1.0
 37
0.0
 76
     0
330
70
  0
MATERIAL
  5
19
102
{ACAD_XDICTIONARY
360
1A
102
}
102
{ACAD_REACTORS
330
10
102
}
330
10
100
AcDbMaterial
  1
ByBlock
 72
     0
 43
0.0208333333333333
 43
0.0
 43
0.0
 43
0.0
 43
0.0
 43
0.0208333333333333
 43
0.0
 43
0.0
 43
0.0
 43
0.0
 43
1.0
 43
0.0
 43
0.0
 43
0.0
 43
0.0
 43
1.0
 77
     0
 47
0.0208333333333333
 47
0.0
 47
0.0
 47
0.0
 47
0.0
 47
0.0208333333333333
 47
0.0
 47
0.0
 47
0.0
 47
0.0
 47
1.0
 47
0.0
 47
0.0
 47
0.0
 47
0.0
 47
1.0
171
     0
 49
0.0208333333333333
 49
0.0
 49
0.0
 49
0.0
 49
0.0
 49
0.0208333333333333
 49
0.0
 49
0.0
 49
0.0
 49
0.0
 49
1.0
 49
0.0
 49
0.0
 49
0.0
 49
0.0
 49
1.0
175
     0
142
0.0208333333333333
142
0.0
142
0.0
142
0.0
142
0.0
142
0.0208333333333333
142
0.0
142
0.0
142
0.0
142
0.0
142
1.0
142
0.0
142
0.0
142
0.0
142
0.0
142
1.0
179
     0
144
0.0208333333333333
144
0.0
144
0.0
144
0.0
144
0.0
144
0.0208333333333333
144
0.0
144
0.0
144
0.0
144
0.0
144
1.0
144
0.0
144
0.0
144
0.0
144
0.0
144
1.0
147
0.0208333333333333
147
0.0
147
0.0
147
0.0
147
0.0
147
0.0208333333333333
147
0.0
147
0.0
147
0.0
147
0.0
147
1.0
147
0.0
147
0.0
147
0.0
147
0.0
147
1.0
  0
MATERIAL
  5
11
102
{ACAD_XDICTIONARY
360
12
102
}
102
{ACAD_REACTORS
330
10
102
}
330
10
100
AcDbMaterial
  1
ByLayer
 72
     0
 43
0.0208333333333333
 43
0.0
 43
0.0
 43
0.0
 43
0.0
 43
0.0208333333333333
 43
0.0
 43
0.0
 43
0.0
 43
0.0
 43
1.0
 43
0.0
 43
0.0
 43
0.0
 43
0.0
 43
1.0
 77
     0
 47
0.0208333333333333
 47
0.0
 47
0.0
 47
0.0
 47
0.0
 47
0.0208333333333333
 47
0.0
 47
0.0
 47
0.0
 47
0.0
 47
1.0
 47
0.0
 47
0.0
 47
0.0
 47
0.0
 47
1.0
171
     0
 49
0.0208333333333333
 49
0.0
 49
0.0
 49
0.0
 49
0.0
 49
0.0208333333333333
 49
0.0
 49
0.0
 49
0.0
 49
0.0
 49
1.0
 49
0.0
 49
0.0
 49
0.0
 49
0.0
 49
1.0
175
     0
142
0.0208333333333333
142
0.0
142
0.0
142
0.0
142
0.0
142
0.0208333333333333
142
0.0
142
0.0
142
0.0
142
0.0
142
1.0
142
0.0
142
0.0
142
0.0
142
0.0
142
1.0
179
     0
144
0.0208333333333333
144
0.0
144
0.0
144
0.0
144
0.0
144
0.0208333333333333
144
0.0
144
0.0
144
0.0
144
0.0
144
1.0
144
0.0
144
0.0
144
0.0
144
0.0
144
1.0
147
0.0208333333333333
147
0.0
147
0.0
147
0.0
147
0.0
147
0.0208333333333333
147
0.0
147
0.0
147
0.0
147
0.0
147
1.0
147
0.0
147
0.0
147
0.0
147
0.0
147
1.0
  0
MATERIAL
  5
21
102
{ACAD_XDICTIONARY
360
22
102
}
102
{ACAD_REACTORS
330
10
102
}
330
10
100
AcDbMaterial
  1
Global
 72
     0
 43
0.0208333333333333
 43
0.0
 43
0.0
 43
0.0
 43
0.0
 43
0.0208333333333333
 43
0.0
 43
0.0
 43
0.0
 43
0.0
 43
1.0
 43
0.0
 43
0.0
 43
0.0
 43
0.0
 43
1.0
 77
     0
 47
0.0208333333333333
 47
0.0
 47
0.0
 47
0.0
 47
0.0
 47
0.0208333333333333
 47
0.0
 47
0.0
 47
0.0
 47
0.0
 47
1.0
 47
0.0
 47
0.0
 47
0.0
 47
0.0
 47
1.0
171
     0
 49
0.0208333333333333
 49
0.0
 49
0.0
 49
0.0
 49
0.0
 49
0.0208333333333333
 49
0.0
 49
0.0
 49
0.0
 49
0.0
 49
1.0
 49
0.0
 49
0.0
 49
0.0
 49
0.0
 49
1.0
175
     0
142
0.0208333333333333
142
0.0
142
0.0
142
0.0
142
0.0
142
0.0208333333333333
142
0.0
142
0.0
142
0.0
142
0.0
142
1.0
142
0.0
142
0.0
142
0.0
142
0.0
142
1.0
179
     0
144
0.0208333333333333
144
0.0
144
0.0
144
0.0
144
0.0
144
0.0208333333333333
144
0.0
144
0.0
144
0.0
144
0.0
144
1.0
144
0.0
144
0.0
144
0.0
144
0.0
144
1.0
147
0.0208333333333333
147
0.0
147
0.0
147
0.0
147
0.0
147
0.0208333333333333
147
0.0
147
0.0
147
0.0
147
0.0
147
1.0
147
0.0
147
0.0
147
0.0
147
0.0
147
1.0
  0
MLEADERSTYLE
  5
67
102
{ACAD_REACTORS
330
66
102
}
330
66
100
AcDbMLeaderStyle
179
     2
170
     2
171
     1
172
     0
 90
        2
 40
0.0
 41
0.0
173
     1
 91
-1056964608
340
5B
 92
       -2
290
     1
 42
0.09
291
     1
 43
0.36
  3
Standard
 44
0.18
300

342
55
174
     1
178
     6
175
     1
176
     0
 93
-1056964608
 45
0.18
292
     0
297
     0
 46
0.18
 94
-1056964608
 47
1.0
 49
1.0
140
1.0
293
     1
141
0.0
294
     1
177
     0
142
1.0
295
     1
296
     0
143
0.125
271
     0
272
     9
273
     9
298
     1
  0
MLINESTYLE
  5
60
102
{ACAD_REACTORS
330
5F
102
}
330
5F
100
AcDbMlineStyle
  2
STANDARD
 70
     0
  3

 62
   256
 51
90.0
 52
90.0
 71
     2
 49
0.5
 62
   256
  6
BYLAYER
 49
-0.5
 62
   256
  6
BYLAYER
  0
ACDBPLACEHOLDER
  5
F
102
{ACAD_REACTORS
330
E
102
}
330
E
  0
SCALE
  5
43
102
{ACAD_REACTORS
330
42
102
}
330
42
100
AcDbScale
 70
     0
300
1:1
140
1.0
141
1.0
290
     1
  0
SCALE
  5
44
102
{ACAD_REACTORS
330
42
102
}
330
42
100
AcDbScale
 70
     0
300
1/128" = 1'-0"
140
0.0078125
141
12.0
290
     0
  0
SCALE
  5
45
102
{ACAD_REACTORS
330
42
102
}
330
42
100
AcDbScale
 70
     0
300
1/64" = 1'-0"
140
0.015625
141
12.0
290
     0
  0
SCALE
  5
46
102
{ACAD_REACTORS
330
42
102
}
330
42
100
AcDbScale
 70
     0
300
1/32" = 1'-0"
140
0.03125
141
12.0
290
     0
  0
SCALE
  5
47
102
{ACAD_REACTORS
330
42
102
}
330
42
100
AcDbScale
 70
     0
300
1/16" = 1'-0"
140
0.0625
141
12.0
290
     0
  0
SCALE
  5
48
102
{ACAD_REACTORS
330
42
102
}
330
42
100
AcDbScale
 70
     0
300
3/32" = 1'-0"
140
0.09375
141
12.0
290
     0
  0
SCALE
  5
49
102
{ACAD_REACTORS
330
42
102
}
330
42
100
AcDbScale
 70
     0
300
1/8" = 1'-0"
140
0.125
141
12.0
290
     0
  0
SCALE
  5
4A
102
{ACAD_REACTORS
330
42
102
}
330
42
100
AcDbScale
 70
     0
300
3/16" = 1'-0"
140
0.1875
141
12.0
290
     0
  0
SCALE
  5
4B
102
{ACAD_REACTORS
330
42
102
}
330
42
100
AcDbScale
 70
     0
300
1/4" = 1'-0"
140
0.25
141
12.0
290
     0
  0
SCALE
  5
4C
102
{ACAD_REACTORS
330
42
102
}
330
42
100
AcDbScale
 70
     0
300
3/8" = 1'-0"
140
0.375
141
12.0
290
     0
  0
SCALE
  5
4D
102
{ACAD_REACTORS
330
42
102
}
330
42
100
AcDbScale
 70
     0
300
1/2" = 1'-0"
140
0.5
141
12.0
290
     0
  0
SCALE
  5
4E
102
{ACAD_REACTORS
330
42
102
}
330
42
100
AcDbScale
 70
     0
300
3/4" = 1'-0"
140
0.75
141
12.0
290
     0
  0
SCALE
  5
4F
102
{ACAD_REACTORS
330
42
102
}
330
42
100
AcDbScale
 70
     0
300
1" = 1'-0"
140
1.0
141
12.0
290
     0
  0
SCALE
  5
50
102
{ACAD_REACTORS
330
42
102
}
330
42
100
AcDbScale
 70
     0
300
1-1/2" = 1'-0"
140
1.5
141
12.0
290
     0
  0
SCALE
  5
51
102
{ACAD_REACTORS
330
42
102
}
330
42
100
AcDbScale
 70
     0
300
3" = 1'-0"
140
3.0
141
12.0
290
     0
  0
SCALE
  5
52
102
{ACAD_REACTORS
330
42
102
}
330
42
100
AcDbScale
 70
     0
300
6" = 1'-0"
140
6.0
141
12.0
290
     0
  0
SCALE
  5
53
102
{ACAD_REACTORS
330
42
102
}
330
42
100
AcDbScale
 70
     0
300
1'-0" = 1'-0"
140
12.0
141
12.0
290
     0
  0
ACDBSECTIONVIEWSTYLE
  5
69
102
{ACAD_REACTORS
330
68
102
}
330
68
100
AcDbModelDocViewStyle
 70
     0
  3
Imperial24
290
     1
300
Imperial24
 90
        0
100
AcDbSectionViewStyle
 70
     0
 71
     0
 90
       78
 71
     1
340
55
 62
   256
 40
0.24
340
0
340
0
 62
   256
 40
0.24
300
I, O, Q, S, X, Z
 40
0.48
 90
        3
 40
0.18
 90
        1
 71
     2
340
5D
 90
       25
 62
   256
340
5D
 90
       50
 62
   256
 40
0.24
 40
0.0
 40
0.24
 71
     3
340
55
 62
   256
 40
0.24
 90
        1
 40
0.75
 90
        1
300
%<\AcVar ViewType \f "%tc1">% %<\AcVar ViewSectionStartId>%-%<\AcVar ViewSectionEndId>%\PSCALE %<\AcVar ViewScale \f "%sn">%
 71
     4
 62
   256
 62
   257
300
ANSI31
 40
1.0
 90
        0
290
     0
290
     0
 90
        6
 40
0.0
 40
1.570796326794896
 40
0.2617993877991494
 40
1.308996938995747
 40
-0.2617993877991494
 40
1.832595714594046
  0
TABLESTYLE
  5
65
102
{ACAD_XDICTIONARY
360
96
102
}
102
{ACAD_REACTORS
330
64
102
}
330
64
100
AcDbTableStyle
280
     0
  3
Standard
 70
     0
 71
     0
 40
0.06
 41
0.06
280
     0
281
     0
  7
Standard
140
0.18
170
     2
 62
     0
 63
     7
283
     0
 90
      512
 91
        0
  1

274
    -2
284
     1
 64
     0
275
    -2
285
     1
 65
     0
276
    -2
286
     1
 66
     0
277
    -2
287
     1
 67
     0
278
    -2
288
     1
 68
     0
279
    -2
289
     1
 69
     0
  7
Standard
140
0.25
170
     5
 62
     0
 63
     7
283
     0
 90
      512
 91
        0
  1

274
    -2
284
     1
 64
     0
275
    -2
285
     1
 65
     0
276
    -2
286
     1
 66
     0
277
    -2
287
     1
 67
     0
278
    -2
288
     1
 68
     0
279
    -2
289
     1
 69
     0
  7
Standard
140
0.18
170
     5
 62
     0
 63
     7
283
     0
 90
      512
 91
        0
  1

274
    -2
284
     1
 64
     0
275
    -2
285
     1
 65
     0
276
    -2
286
     1
 66
     0
277
    -2
287
     1
 67
     0
278
    -2
288
     1
 68
     0
279
    -2
289
     1
 69
     0
  0
VISUALSTYLE
  5
2F
102
{ACAD_REACTORS
330
29
102
}
330
29
100
AcDbVisualStyle
  2
2dWireframe
 70
     4
177
     3
291
     0
 70
    58
 90
        0
176
     1
 90
        2
176
     1
 90
        0
176
     1
 90
        0
176
     1
 40
0.6
176
     1
 40
30.0
176
     1
 62
     7
420
 16777215
176
     1
 90
        1
176
     1
 90
        4
176
     1
 62
     7
176
     1
 62
   257
176
     1
 90
        1
176
     1
 90
        1
176
     1
 40
1.0
176
     1
 90
        0
176
     1
 62
   257
176
     1
 40
1.0
176
     1
 90
        1
176
     1
 90
        6
176
     1
 90
        2
176
     1
 62
     7
176
     1
 90
        5
176
     1
 90
        0
176
     1
 90
        0
176
     1
290
     0
176
     1
 90
        1
176
     1
 40
0.0
176
     1
 90
        0
176
     1
290
     1
176
     1
290
     1
176
     1
290
     0
176
     1
290
     0
176
     1
290
     0
176
     1
290
     0
176
     1
290
     0
176
     1
290
     0
176
     1
290
     0
176
     1
 90
       50
176
     1
 40
0.0
176
     1
 40
1.0
176
     1
 90
        0
176
     1
 62
    18
420
        0
176
     1
 90
       50
176
     1
 90
        3
176
     1
 62
     5
420
      255
176
     1
290
     0
176
     1
 90
       50
176
     1
 90
       50
176
     1
 90
       50
176
     1
290
     0
176
     1
 90
       50
176
     1
 62
   256
176
     0
 40
1.0
176
     0
 90
        2
176
     1
  1
strokes_ogs.tif
176
     1
290
     0
176
     1
 40
1.0
176
     1
 40
1.0
176
     1
  0
VISUALSTYLE
  5
2E
102
{ACAD_REACTORS
330
29
102
}
330
29
100
AcDbVisualStyle
  2
Basic
 70
     7
177
     3
291
     1
 70
    58
 90
        1
176
     1
 90
        0
176
     1
 90
        1
176
     1
 90
        0
176
     1
 40
0.6
176
     1
 40
30.0
176
     1
 62
     7
420
 16777215
176
     1
 90
        0
176
     1
 90
        4
176
     1
 62
     7
176
     1
 62
   257
176
     1
 90
        1
176
     1
 90
        1
176
     1
 40
1.0
176
     1
 90
        8
176
     1
 62
     7
176
     1
 40
1.0
176
     1
 90
        1
176
     1
 90
        6
176
     1
 90
        2
176
     1
 62
     7
176
     1
 90
        5
176
     1
 90
        0
176
     1
 90
        0
176
     1
290
     0
176
     1
 90
        1
176
     1
 40
0.0
176
     1
 90
        0
176
     1
290
     0
176
     1
290
     1
176
     1
290
     1
176
     1
290
     0
176
     1
290
     0
176
     1
290
     0
176
     1
290
     0
176
     1
290
     0
176
     1
290
     0
176
     1
 90
       50
176
     1
 40
0.0
176
     1
 40
1.0
176
     1
 90
        0
176
     1
 62
    18
420
        0
176
     1
 90
       50
176
     1
 90
        3
176
     1
 62
     5
420
      255
176
     1
290
     0
176
     1
 90
       50
176
     1
 90
       50
176
     1
 90
       50
176
     1
290
     0
176
     1
 90
       50
176
     1
 62
   256
176
     0
 40
1.0
176
     0
 90
        2
176
     1
  1
strokes_ogs.tif
176
     1
290
     0
176
     1
 40
1.0
176
     1
 40
1.0
176
     1
  0
VISUALSTYLE
  5
35
102
{ACAD_REACTORS
330
29
102
}
330
29
100
AcDbVisualStyle
  2
Brighten
 70
    12
177
     3
291
     1
 70
    58
 90
        2
176
     1
 90
        2
176
     1
 90
        0
176
     1
 90
        0
176
     1
 40
0.6
176
     1
 40
30.0
176
     1
 62
     7
420
 16777215
176
     1
 90
        1
176
     1
 90
        4
176
     1
 62
     7
176
     1
 62
   257
176
     1
 90
        1
176
     1
 90
        1
176
     1
 40
1.0
176
     1
 90
        8
176
     1
 62
     7
176
     1
 40
1.0
176
     1
 90
        1
176
     1
 90
        6
176
     1
 90
        2
176
     1
 62
     7
176
     1
 90
        5
176
     1
 90
        0
176
     1
 90
        0
176
     1
290
     0
176
     1
 90
        1
176
     1
 40
50.0
176
     1
 90
        0
176
     1
290
     0
176
     1
290
     1
176
     1
290
     1
176
     1
290
     0
176
     1
290
     0
176
     1
290
     0
176
     1
290
     0
176
     1
290
     0
176
     1
290
     0
176
     1
 90
       50
176
     1
 40
0.0
176
     1
 40
1.0
176
     1
 90
        0
176
     1
 62
    18
420
        0
176
     1
 90
       50
176
     1
 90
        3
176
     1
 62
     5
420
      255
176
     1
290
     0
176
     1
 90
       50
176
     1
 90
       50
176
     1
 90
       50
176
     1
290
     0
176
     1
 90
       50
176
     1
 62
   256
176
     0
 40
1.0
176
     0
 90
        2
176
     1
  1
strokes_ogs.tif
176
     1
290
     0
176
     1
 40
1.0
176
     1
 40
1.0
176
     1
  0
VISUALSTYLE
  5
39
102
{ACAD_REACTORS
330
29
102
}
330
29
100
AcDbVisualStyle
  2
ColorChange
 70
    16
177
     3
291
     1
 70
    58
 90
        2
176
     1
 90
        2
176
     1
 90
        3
176
     1
 90
        0
176
     1
 40
0.6
176
     1
 40
30.0
176
     1
 62
     8
420
  8421504
176
     1
 90
        1
176
     1
 90
        4
176
     1
 62
     7
176
     1
 62
   257
176
     1
 90
        1
176
     1
 90
        1
176
     1
 40
1.0
176
     1
 90
        8
176
     1
 62
     8
420
  8421504
176
     1
 40
1.0
176
     1
 90
        1
176
     1
 90
        6
176
     1
 90
        2
176
     1
 62
     7
176
     1
 90
        5
176
     1
 90
        0
176
     1
 90
        0
176
     1
290
     0
176
     1
 90
        1
176
     1
 40
0.0
176
     1
 90
        0
176
     1
290
     0
176
     1
290
     1
176
     1
290
     1
176
     1
290
     0
176
     1
290
     0
176
     1
290
     0
176
     1
290
     0
176
     1
290
     0
176
     1
290
     0
176
     1
 90
       50
176
     1
 40
0.0
176
     1
 40
1.0
176
     1
 90
        0
176
     1
 62
    18
420
        0
176
     1
 90
       50
176
     1
 90
        3
176
     1
 62
     5
420
      255
176
     1
290
     0
176
     1
 90
       50
176
     1
 90
       50
176
     1
 90
       50
176
     1
290
     0
176
     1
 90
       50
176
     1
 62
   256
176
     0
 40
1.0
176
     0
 90
        2
176
     1
  1
strokes_ogs.tif
176
     1
290
     0
176
     1
 40
1.0
176
     1
 40
1.0
176
     1
  0
VISUALSTYLE
  5
32
102
{ACAD_REACTORS
330
29
102
}
330
29
100
AcDbVisualStyle
  2
Conceptual
 70
     9
177
     3
291
     0
 70
    58
 90
        3
176
     1
 90
        2
176
     1
 90
        0
176
     1
 90
        0
176
     1
 40
0.6
176
     1
 40
30.0
176
     1
 62
     7
420
 16777215
176
     1
 90
        2
176
     1
 90
        2
176
     1
 62
     7
176
     1
 62
   257
176
     1
 90
        1
176
     1
 90
        1
176
     1
 40
179.0
176
     1
 90
        8
176
     1
 62
     7
176
     1
 40
1.0
176
     1
 90
        1
176
     1
 90
        6
176
     1
 90
        2
176
     1
 62
     7
176
     1
 90
        3
176
     1
 90
        0
176
     1
 90
        0
176
     1
290
     0
176
     1
 90
        1
176
     1
 40
0.0
176
     1
 90
        0
176
     1
290
     0
176
     1
290
     1
176
     1
290
     1
176
     1
290
     0
176
     1
290
     0
176
     1
290
     0
176
     1
290
     0
176
     1
290
     0
176
     1
290
     0
176
     1
 90
       50
176
     1
 40
0.0
176
     1
 40
1.0
176
     1
 90
        0
176
     1
 62
    18
420
        0
176
     1
 90
       50
176
     1
 90
        3
176
     1
 62
     5
420
      255
176
     1
290
     0
176
     1
 90
       50
176
     1
 90
       50
176
     1
 90
       50
176
     1
290
     0
176
     1
 90
       50
176
     1
 62
   256
176
     0
 40
1.0
176
     0
 90
        2
176
     1
  1
strokes_ogs.tif
176
     1
290
     0
176
     1
 40
1.0
176
     1
 40
1.0
176
     1
  0
VISUALSTYLE
  5
34
102
{ACAD_REACTORS
330
29
102
}
330
29
100
AcDbVisualStyle
  2
Dim
 70
    11
177
     3
291
     1
 70
    58
 90
        2
176
     1
 90
        2
176
     1
 90
        0
176
     1
 90
        0
176
     1
 40
0.6
176
     1
 40
30.0
176
     1
 62
     7
420
 16777215
176
     1
 90
        1
176
     1
 90
        4
176
     1
 62
     7
176
     1
 62
   257
176
     1
 90
        1
176
     1
 90
        1
176
     1
 40
1.0
176
     1
 90
        8
176
     1
 62
     7
176
     1
 40
1.0
176
     1
 90
        1
176
     1
 90
        6
176
     1
 90
        2
176
     1
 62
     7
176
     1
 90
        5
176
     1
 90
        0
176
     1
 90
        0
176
     1
290
     0
176
     1
 90
        1
176
     1
 40
-50.0
176
     1
 90
        0
176
     1
290
     0
176
     1
290
     1
176
     1
290
     1
176
     1
290
     0
176
     1
290
     0
176
     1
290
     0
176
     1
290
     0
176
     1
290
     0
176
     1
290
     0
176
     1
 90
       50
176
     1
 40
0.0
176
     1
 40
1.0
176
     1
 90
        0
176
     1
 62
    18
420
        0
176
     1
 90
       50
176
     1
 90
        3
176
     1
 62
     5
420
      255
176
     1
290
     0
176
     1
 90
       50
176
     1
 90
       50
176
     1
 90
       50
176
     1
290
     0
176
     1
 90
       50
176
     1
 62
   256
176
     0
 40
1.0
176
     0
 90
        2
176
     1
  1
strokes_ogs.tif
176
     1
290
     0
176
     1
 40
1.0
176
     1
 40
1.0
176
     1
  0
VISUALSTYLE
  5
41
102
{ACAD_REACTORS
330
29
102
}
330
29
100
AcDbVisualStyle
  2
EdgeColorOff
 70
    22
177
     3
291
     1
 70
    58
 90
        2
176
     0
 90
        2
176
     0
 90
        0
176
     0
 90
        0
176
     0
 40
0.6
176
     0
 40
30.0
176
     0
 62
     7
420
 16777215
176
     0
 90
        1
176
     0
 90
        4
176
     0
 62
     7
176
     0
 62
   257
176
     0
 90
        1
176
     0
 90
        1
176
     0
 40
1.0
176
     0
 90
        8
176
     2
 62
     7
176
     0
 40
1.0
176
     0
 90
        1
176
     0
 90
        6
176
     0
 90
        2
176
     0
 62
     7
176
     0
 90
        5
176
     0
 90
        0
176
     0
 90
        0
176
     0
290
     0
176
     0
 90
        1
176
     0
 40
0.0
176
     0
 90
        0
176
     0
290
     0
176
     0
290
     1
176
     0
290
     1
176
     0
290
     0
176
     0
290
     0
176
     0
290
     0
176
     0
290
     0
176
     0
290
     0
176
     0
290
     0
176
     0
 90
       50
176
     0
 40
0.0
176
     0
 40
1.0
176
     0
 90
        0
176
     0
 62
    18
420
        0
176
     0
 90
       50
176
     0
 90
        3
176
     0
 62
     5
420
      255
176
     0
290
     0
176
     0
 90
       50
176
     0
 90
       50
176
     0
 90
       50
176
     0
290
     0
176
     0
 90
       50
176
     0
 62
   256
176
     0
 40
1.0
176
     0
 90
        2
176
     0
  1
strokes_ogs.tif
176
     0
290
     0
176
     0
 40
1.0
176
     0
 40
1.0
176
     0
  0
VISUALSTYLE
  5
38
102
{ACAD_REACTORS
330
29
102
}
330
29
100
AcDbVisualStyle
  2
Facepattern
 70
    15
177
     3
291
     1
 70
    58
 90
        2
176
     1
 90
        2
176
     1
 90
        0
176
     1
 90
        0
176
     1
 40
0.6
176
     1
 40
30.0
176
     1
 62
     7
420
 16777215
176
     1
 90
        1
176
     1
 90
        4
176
     1
 62
     7
176
     1
 62
   257
176
     1
 90
        1
176
     1
 90
        1
176
     1
 40
1.0
176
     1
 90
        8
176
     1
 62
     7
176
     1
 40
1.0
176
     1
 90
        1
176
     1
 90
        6
176
     1
 90
        2
176
     1
 62
     7
176
     1
 90
        5
176
     1
 90
        0
176
     1
 90
        0
176
     1
290
     0
176
     1
 90
        1
176
     1
 40
0.0
176
     1
 90
        0
176
     1
290
     0
176
     1
290
     1
176
     1
290
     1
176
     1
290
     0
176
     1
290
     0
176
     1
290
     0
176
     1
290
     0
176
     1
290
     0
176
     1
290
     0
176
     1
 90
       50
176
     1
 40
0.0
176
     1
 40
1.0
176
     1
 90
        0
176
     1
 62
    18
420
        0
176
     1
 90
       50
176
     1
 90
        3
176
     1
 62
     5
420
      255
176
     1
290
     0
176
     1
 90
       50
176
     1
 90
       50
176
     1
 90
       50
176
     1
290
     0
176
     1
 90
       50
176
     1
 62
   256
176
     0
 40
1.0
176
     0
 90
        2
176
     1
  1
strokes_ogs.tif
176
     1
290
     0
176
     1
 40
1.0
176
     1
 40
1.0
176
     1
  0
VISUALSTYLE
  5
2A
102
{ACAD_REACTORS
330
29
102
}
330
29
100
AcDbVisualStyle
  2
Flat
 70
     0
177
     3
291
     1
 70
    58
 90
        2
176
     1
 90
        1
176
     1
 90
        1
176
     1
 90
        2
176
     1
 40
0.6
176
     1
 40
30.0
176
     1
 62
     7
420
 16777215
176
     1
 90
        0
176
     1
 90
        0
176
     1
 62
     7
176
     1
 62
   257
176
     1
 90
        1
176
     1
 90
        1
176
     1
 40
1.0
176
     1
 90
        8
176
     1
 62
     7
176
     1
 40
1.0
176
     1
 90
        1
176
     1
 90
        6
176
     1
 90
        2
176
     1
 62
     7
176
     1
 90
        5
176
     1
 90
        0
176
     1
 90
        0
176
     1
290
     0
176
     1
 90
       13
176
     1
 40
0.0
176
     1
 90
        0
176
     1
290
     0
176
     1
290
     1
176
     1
290
     1
176
     1
290
     0
176
     1
290
     0
176
     1
290
     0
176
     1
290
     0
176
     1
290
     0
176
     1
290
     0
176
     1
 90
       50
176
     1
 40
0.0
176
     1
 40
1.0
176
     1
 90
        0
176
     1
 62
    18
420
        0
176
     1
 90
       50
176
     1
 90
        3
176
     1
 62
     5
420
      255
176
     1
290
     0
176
     1
 90
       50
176
     1
 90
       50
176
     1
 90
       50
176
     1
290
     0
176
     1
 90
       50
176
     1
 62
   256
176
     0
 40
1.0
176
     0
 90
        2
176
     1
  1
strokes_ogs.tif
176
     1
290
     0
176
     1
 40
1.0
176
     1
 40
1.0
176
     1
  0
VISUALSTYLE
  5
2B
102
{ACAD_REACTORS
330
29
102
}
330
29
100
AcDbVisualStyle
  2
FlatWithEdges
 70
     1
177
     3
291
     1
 70
    58
 90
        2
176
     1
 90
        1
176
     1
 90
        1
176
     1
 90
        2
176
     1
 40
0.6
176
     1
 40
30.0
176
     1
 62
     7
420
 16777215
176
     1
 90
        1
176
     1
 90
        0
176
     1
 62
     7
176
     1
 62
   257
176
     1
 90
        1
176
     1
 90
        1
176
     1
 40
1.0
176
     1
 90
        0
176
     1
 62
   257
176
     1
 40
1.0
176
     1
 90
        1
176
     1
 90
        6
176
     1
 90
        2
176
     1
 62
     7
176
     1
 90
        5
176
     1
 90
        0
176
     1
 90
        0
176
     1
290
     0
176
     1
 90
       13
176
     1
 40
0.0
176
     1
 90
        0
176
     1
290
     0
176
     1
290
     1
176
     1
290
     1
176
     1
290
     0
176
     1
290
     0
176
     1
290
     0
176
     1
290
     0
176
     1
290
     0
176
     1
290
     0
176
     1
 90
       50
176
     1
 40
0.0
176
     1
 40
1.0
176
     1
 90
        0
176
     1
 62
    18
420
        0
176
     1
 90
       50
176
     1
 90
        3
176
     1
 62
     5
420
      255
176
     1
290
     0
176
     1
 90
       50
176
     1
 90
       50
176
     1
 90
       50
176
     1
290
     0
176
     1
 90
       50
176
     1
 62
   256
176
     0
 40
1.0
176
     0
 90
        2
176
     1
  1
strokes_ogs.tif
176
     1
290
     0
176
     1
 40
1.0
176
     1
 40
1.0
176
     1
  0
VISUALSTYLE
  5
2C
102
{ACAD_REACTORS
330
29
102
}
330
29
100
AcDbVisualStyle
  2
Gouraud
 70
     2
177
     3
291
     1
 70
    58
 90
        2
176
     1
 90
        2
176
     1
 90
        1
176
     1
 90
        2
176
     1
 40
0.6
176
     1
 40
30.0
176
     1
 62
     7
420
 16777215
176
     1
 90
        0
176
     1
 90
        0
176
     1
 62
     7
176
     1
 62
   257
176
     1
 90
        1
176
     1
 90
        1
176
     1
 40
1.0
176
     1
 90
        0
176
     1
 62
     7
176
     1
 40
1.0
176
     1
 90
        1
176
     1
 90
        6
176
     1
 90
        2
176
     1
 62
     7
176
     1
 90
        5
176
     1
 90
        0
176
     1
 90
        0
176
     1
290
     0
176
     1
 90
       13
176
     1
 40
0.0
176
     1
 90
        0
176
     1
290
     0
176
     1
290
     1
176
     1
290
     1
176
     1
290
     0
176
     1
290
     0
176
     1
290
     0
176
     1
290
     0
176
     1
290
     0
176
     1
290
     0
176
     1
 90
       50
176
     1
 40
0.0
176
     1
 40
1.0
176
     1
 90
        0
176
     1
 62
    18
420
        0
176
     1
 90
       50
176
     1
 90
        3
176
     1
 62
     5
420
      255
176
     1
290
     0
176
     1
 90
       50
176
     1
 90
       50
176
     1
 90
       50
176
     1
290
     0
176
     1
 90
       50
176
     1
 62
   256
176
     0
 40
1.0
176
     0
 90
        2
176
     1
  1
strokes_ogs.tif
176
     1
290
     0
176
     1
 40
1.0
176
     1
 40
1.0
176
     1
  0
VISUALSTYLE
  5
2D
102
{ACAD_REACTORS
330
29
102
}
330
29
100
AcDbVisualStyle
  2
GouraudWithEdges
 70
     3
177
     3
291
     1
 70
    58
 90
        2
176
     1
 90
        2
176
     1
 90
        1
176
     1
 90
        2
176
     1
 40
0.6
176
     1
 40
30.0
176
     1
 62
     7
420
 16777215
176
     1
 90
        1
176
     1
 90
        0
176
     1
 62
     7
176
     1
 62
   257
176
     1
 90
        1
176
     1
 90
        1
176
     1
 40
1.0
176
     1
 90
        0
176
     1
 62
   257
176
     1
 40
1.0
176
     1
 90
        1
176
     1
 90
        6
176
     1
 90
        2
176
     1
 62
     7
176
     1
 90
        5
176
     1
 90
        0
176
     1
 90
        0
176
     1
290
     0
176
     1
 90
       13
176
     1
 40
0.0
176
     1
 90
        0
176
     1
290
     0
176
     1
290
     1
176
     1
290
     1
176
     1
290
     0
176
     1
290
     0
176
     1
290
     0
176
     1
290
     0
176
     1
290
     0
176
     1
290
     0
176
     1
 90
       50
176
     1
 40
0.0
176
     1
 40
1.0
176
     1
 90
        0
176
     1
 62
    18
420
        0
176
     1
 90
       50
176
     1
 90
        3
176
     1
 62
     5
420
      255
176
     1
290
     0
176
     1
 90
       50
176
     1
 90
       50
176
     1
 90
       50
176
     1
290
     0
176
     1
 90
       50
176
     1
 62
   256
176
     0
 40
1.0
176
     0
 90
        2
176
     1
  1
strokes_ogs.tif
176
     1
290
     0
176
     1
 40
1.0
176
     1
 40
1.0
176
     1
  0
VISUALSTYLE
  5
31
102
{ACAD_REACTORS
330
29
102
}
330
29
100
AcDbVisualStyle
  2
Hidden
 70
     6
177
     3
291
     0
 70
    58
 90
        1
176
     1
 90
        2
176
     1
 90
        2
176
     1
 90
        0
176
     1
 40
0.6
176
     1
 40
30.0
176
     1
 62
     7
420
 16777215
176
     1
 90
        2
176
     1
 90
        2
176
     1
 62
     7
176
     1
 62
   257
176
     1
 90
        2
176
     1
 90
        1
176
     1
 40
40.0
176
     1
 90
        0
176
     1
 62
   257
176
     1
 40
1.0
176
     1
 90
        1
176
     1
 90
        6
176
     1
 90
        2
176
     1
 62
     7
176
     1
 90
        3
176
     1
 90
        0
176
     1
 90
        0
176
     1
290
     0
176
     1
 90
        1
176
     1
 40
0.0
176
     1
 90
        0
176
     1
290
     0
176
     1
290
     1
176
     1
290
     1
176
     1
290
     0
176
     1
290
     0
176
     1
290
     0
176
     1
290
     0
176
     1
290
     0
176
     1
290
     0
176
     1
 90
       50
176
     1
 40
0.0
176
     1
 40
1.0
176
     1
 90
        0
176
     1
 62
    18
420
        0
176
     1
 90
       50
176
     1
 90
        3
176
     1
 62
     5
420
      255
176
     1
290
     0
176
     1
 90
       50
176
     1
 90
       50
176
     1
 90
       50
176
     1
290
     0
176
     1
 90
       50
176
     1
 62
   256
176
     0
 40
1.0
176
     0
 90
        2
176
     1
  1
strokes_ogs.tif
176
     1
290
     0
176
     1
 40
1.0
176
     1
 40
1.0
176
     1
  0
VISUALSTYLE
  5
3F
102
{ACAD_REACTORS
330
29
102
}
330
29
100
AcDbVisualStyle
  2
JitterOff
 70
    20
177
     3
291
     1
 70
    58
 90
        2
176
     0
 90
        2
176
     0
 90
        0
176
     0
 90
        0
176
     0
 40
0.6
176
     0
 40
30.0
176
     0
 62
     7
420
 16777215
176
     0
 90
        1
176
     0
 90
        4
176
     0
 62
     7
176
     0
 62
   257
176
     0
 90
        1
176
     0
 90
        1
176
     0
 40
1.0
176
     0
 90
       10
176
     2
 62
     7
176
     0
 40
1.0
176
     0
 90
        1
176
     0
 90
        6
176
     0
 90
        2
176
     0
 62
     7
176
     0
 90
        5
176
     0
 90
        0
176
     0
 90
        0
176
     0
290
     0
176
     0
 90
        1
176
     0
 40
0.0
176
     0
 90
        0
176
     0
290
     0
176
     0
290
     1
176
     0
290
     1
176
     0
290
     0
176
     0
290
     0
176
     0
290
     0
176
     0
290
     0
176
     0
290
     0
176
     0
290
     0
176
     0
 90
       50
176
     0
 40
0.0
176
     0
 40
1.0
176
     0
 90
        0
176
     0
 62
    18
420
        0
176
     0
 90
       50
176
     0
 90
        3
176
     0
 62
     5
420
      255
176
     0
290
     0
176
     0
 90
       50
176
     0
 90
       50
176
     0
 90
       50
176
     0
290
     0
176
     0
 90
       50
176
     0
 62
   256
176
     0
 40
1.0
176
     0
 90
        2
176
     0
  1
strokes_ogs.tif
176
     0
290
     0
176
     0
 40
1.0
176
     0
 40
1.0
176
     0
  0
VISUALSTYLE
  5
37
102
{ACAD_REACTORS
330
29
102
}
330
29
100
AcDbVisualStyle
  2
Linepattern
 70
    14
177
     3
291
     1
 70
    58
 90
        2
176
     1
 90
        2
176
     1
 90
        0
176
     1
 90
        0
176
     1
 40
0.6
176
     1
 40
30.0
176
     1
 62
     7
420
 16777215
176
     1
 90
        1
176
     1
 90
        4
176
     1
 62
     7
176
     1
 62
   257
176
     1
 90
        7
176
     1
 90
        7
176
     1
 40
1.0
176
     1
 90
        8
176
     1
 62
     7
176
     1
 40
1.0
176
     1
 90
        1
176
     1
 90
        6
176
     1
 90
        2
176
     1
 62
     7
176
     1
 90
        5
176
     1
 90
        0
176
     1
 90
        0
176
     1
290
     0
176
     1
 90
        1
176
     1
 40
0.0
176
     1
 90
        0
176
     1
290
     0
176
     1
290
     1
176
     1
290
     1
176
     1
290
     0
176
     1
290
     0
176
     1
290
     0
176
     1
290
     0
176
     1
290
     0
176
     1
290
     0
176
     1
 90
       50
176
     1
 40
0.0
176
     1
 40
1.0
176
     1
 90
        0
176
     1
 62
    18
420
        0
176
     1
 90
       50
176
     1
 90
        3
176
     1
 62
     5
420
      255
176
     1
290
     0
176
     1
 90
       50
176
     1
 90
       50
176
     1
 90
       50
176
     1
290
     0
176
     1
 90
       50
176
     1
 62
   256
176
     0
 40
1.0
176
     0
 90
        2
176
     1
  1
strokes_ogs.tif
176
     1
290
     0
176
     1
 40
1.0
176
     1
 40
1.0
176
     1
  0
VISUALSTYLE
  5
40
102
{ACAD_REACTORS
330
29
102
}
330
29
100
AcDbVisualStyle
  2
OverhangOff
 70
    21
177
     3
291
     1
 70
    58
 90
        2
176
     0
 90
        2
176
     0
 90
        0
176
     0
 90
        0
176
     0
 40
0.6
176
     0
 40
30.0
176
     0
 62
     7
420
 16777215
176
     0
 90
        1
176
     0
 90
        4
176
     0
 62
     7
176
     0
 62
   257
176
     0
 90
        1
176
     0
 90
        1
176
     0
 40
1.0
176
     0
 90
        9
176
     2
 62
     7
176
     0
 40
1.0
176
     0
 90
        1
176
     0
 90
        6
176
     0
 90
        2
176
     0
 62
     7
176
     0
 90
        5
176
     0
 90
        0
176
     0
 90
        0
176
     0
290
     0
176
     0
 90
        1
176
     0
 40
0.0
176
     0
 90
        0
176
     0
290
     0
176
     0
290
     1
176
     0
290
     1
176
     0
290
     0
176
     0
290
     0
176
     0
290
     0
176
     0
290
     0
176
     0
290
     0
176
     0
290
     0
176
     0
 90
       50
176
     0
 40
0.0
176
     0
 40
1.0
176
     0
 90
        0
176
     0
 62
    18
420
        0
176
     0
 90
       50
176
     0
 90
        3
176
     0
 62
     5
420
      255
176
     0
290
     0
176
     0
 90
       50
176
     0
 90
       50
176
     0
 90
       50
176
     0
290
     0
176
     0
 90
       50
176
     0
 62
   256
176
     0
 40
1.0
176
     0
 90
        2
176
     0
  1
strokes_ogs.tif
176
     0
290
     0
176
     0
 40
1.0
176
     0
 40
1.0
176
     0
  0
VISUALSTYLE
  5
33
102
{ACAD_REACTORS
330
29
102
}
330
29
100
AcDbVisualStyle
  2
Realistic
 70
     8
177
     3
291
     0
 70
    58
 90
        2
176
     1
 90
        3
176
     1
 90
        0
176
     1
 90
        2
176
     1
 40
0.6
176
     1
 40
30.0
176
     1
 62
     7
420
 16777215
176
     1
 90
        0
176
     1
 90
        0
176
     1
 62
     7
176
     1
 62
   257
176
     1
 90
        1
176
     1
 90
        1
176
     1
 40
1.0
176
     1
 90
        8
176
     1
 62
   257
176
     1
 40
1.0
176
     1
 90
        1
176
     1
 90
        6
176
     1
 90
        2
176
     1
 62
     7
176
     1
 90
        3
176
     1
 90
        0
176
     1
 90
        0
176
     1
290
     0
176
     1
 90
       13
176
     1
 40
0.0
176
     1
 90
        0
176
     1
290
     0
176
     1
290
     1
176
     1
290
     1
176
     1
290
     0
176
     1
290
     0
176
     1
290
     0
176
     1
290
     0
176
     1
290
     0
176
     1
290
     0
176
     1
 90
       50
176
     1
 40
0.0
176
     1
 40
1.0
176
     1
 90
        0
176
     1
 62
    18
420
        0
176
     1
 90
       50
176
     1
 90
        3
176
     1
 62
     5
420
      255
176
     1
290
     0
176
     1
 90
       50
176
     1
 90
       50
176
     1
 90
       50
176
     1
290
     0
176
     1
 90
       50
176
     1
 62
   256
176
     0
 40
1.0
176
     0
 90
        2
176
     1
  1
strokes_ogs.tif
176
     1
290
     0
176
     1
 40
1.0
176
     1
 40
1.0
176
     1
  0
VISUALSTYLE
  5
3E
102
{ACAD_REACTORS
330
29
102
}
330
29
100
AcDbVisualStyle
  2
Shaded
 70
    27
177
     3
291
     0
 70
    58
 90
        2
176
     1
 90
        2
176
     1
 90
        1
176
     1
 90
        2
176
     1
 40
0.6
176
     1
 40
30.0
176
     1
 62
     7
420
 16777215
176
     1
 90
        0
176
     1
 90
        4
176
     1
 62
     7
176
     1
 62
   257
176
     1
 90
        1
176
     1
 90
        1
176
     1
 40
1.0
176
     1
 90
        8
176
     1
 62
   257
176
     1
 40
1.0
176
     1
 90
        1
176
     1
 90
        6
176
     1
 90
        2
176
     1
 62
     8
420
  7895160
176
     1
 90
        3
176
     1
 90
        0
176
     1
 90
        0
176
     1
290
     0
176
     1
 90
        5
176
     1
 40
0.0
176
     1
 90
        0
176
     1
290
     0
176
     1
290
     1
176
     1
290
     1
176
     1
290
     0
176
     1
290
     0
176
     1
290
     0
176
     1
290
     0
176
     1
290
     0
176
     1
290
     0
176
     1
 90
       50
176
     1
 40
0.0
176
     1
 40
1.0
176
     1
 90
        0
176
     1
 62
    18
420
        0
176
     1
 90
       50
176
     1
 90
        3
176
     1
 62
     5
420
      255
176
     1
290
     0
176
     1
 90
       50
176
     1
 90
       50
176
     1
 90
       50
176
     1
290
     0
176
     1
 90
       50
176
     1
 62
   256
176
     0
 40
1.0
176
     0
 90
        2
176
     1
  1
strokes_ogs.tif
176
     1
290
     0
176
     1
 40
1.0
176
     1
 40
1.0
176
     1
  0
VISUALSTYLE
  5
3D
102
{ACAD_REACTORS
330
29
102
}
330
29
100
AcDbVisualStyle
  2
Shaded with edges
 70
    26
177
     3
291
     0
 70
    58
 90
        2
176
     1
 90
        2
176
     1
 90
        1
176
     1
 90
        2
176
     1
 40
0.6
176
     1
 40
30.0
176
     1
 62
     7
420
 16777215
176
     1
 90
        1
176
     1
 90
        2
176
     1
 62
     7
176
     1
 62
   257
176
     1
 90
        2
176
     1
 90
        1
176
     1
 40
1.0
176
     1
 90
        8
176
     1
 62
   257
176
     1
 40
1.0
176
     1
 90
        1
176
     1
 90
        6
176
     1
 90
        2
176
     1
 62
     7
176
     1
 90
        3
176
     1
 90
        0
176
     1
 90
        0
176
     1
290
     0
176
     1
 90
        5
176
     1
 40
0.0
176
     1
 90
        0
176
     1
290
     0
176
     1
290
     1
176
     1
290
     1
176
     1
290
     0
176
     1
290
     0
176
     1
290
     0
176
     1
290
     0
176
     1
290
     0
176
     1
290
     0
176
     1
 90
       50
176
     1
 40
0.0
176
     1
 40
1.0
176
     1
 90
        0
176
     1
 62
    18
420
        0
176
     1
 90
       50
176
     1
 90
        3
176
     1
 62
     5
420
      255
176
     1
290
     0
176
     1
 90
       50
176
     1
 90
       50
176
     1
 90
       50
176
     1
290
     0
176
     1
 90
       50
176
     1
 62
   256
176
     0
 40
1.0
176
     0
 90
        2
176
     1
  1
strokes_ogs.tif
176
     1
290
     0
176
     1
 40
1.0
176
     1
 40
1.0
176
     1
  0
VISUALSTYLE
  5
3A
102
{ACAD_REACTORS
330
29
102
}
330
29
100
AcDbVisualStyle
  2
Shades of Gray
 70
    23
177
     3
291
     0
 70
    58
 90
        2
176
     1
 90
        2
176
     1
 90
        3
176
     1
 90
        0
176
     1
 40
0.6
176
     1
 40
30.0
176
     1
 62
     7
420
 16777215
176
     1
 90
        2
176
     1
 90
        2
176
     1
 62
     7
176
     1
 62
     7
176
     1
 90
        1
176
     1
 90
        1
176
     1
 40
40.0
176
     1
 90
        8
176
     1
 62
     7
176
     1
 40
1.0
176
     1
 90
        1
176
     1
 90
        6
176
     1
 90
        2
176
     1
 62
     7
176
     1
 90
        3
176
     1
 90
        0
176
     1
 90
        0
176
     1
290
     0
176
     1
 90
        1
176
     1
 40
0.0
176
     1
 90
        0
176
     1
290
     0
176
     1
290
     1
176
     1
290
     1
176
     1
290
     0
176
     1
290
     0
176
     1
290
     0
176
     1
290
     0
176
     1
290
     0
176
     1
290
     0
176
     1
 90
       50
176
     1
 40
0.0
176
     1
 40
1.0
176
     1
 90
        0
176
     1
 62
    18
420
        0
176
     1
 90
       50
176
     1
 90
        3
176
     1
 62
     5
420
      255
176
     1
290
     0
176
     1
 90
       50
176
     1
 90
       50
176
     1
 90
       50
176
     1
290
     0
176
     1
 90
       50
176
     1
 62
   256
176
     0
 40
1.0
176
     0
 90
        2
176
     1
  1
strokes_ogs.tif
176
     1
290
     0
176
     1
 40
1.0
176
     1
 40
1.0
176
     1
  0
VISUALSTYLE
  5
3B
102
{ACAD_REACTORS
330
29
102
}
330
29
100
AcDbVisualStyle
  2
Sketchy
 70
    24
177
     3
291
     0
 70
    58
 90
        1
176
     1
 90
        2
176
     1
 90
        2
176
     1
 90
        0
176
     1
 40
0.6
176
     1
 40
30.0
176
     1
 62
     7
420
 16777215
176
     1
 90
        2
176
     1
 90
        2
176
     1
 62
     7
176
     1
 62
     7
176
     1
 90
        1
176
     1
 90
        1
176
     1
 40
40.0
176
     1
 90
       11
176
     1
 62
     7
176
     1
 40
1.0
176
     1
 90
        1
176
     1
 90
        6
176
     1
 90
        2
176
     1
 62
     7
176
     1
 90
        6
176
     1
 90
        0
176
     1
 90
        0
176
     1
290
     0
176
     1
 90
        1
176
     1
 40
0.0
176
     1
 90
        0
176
     1
290
     0
176
     1
290
     1
176
     1
290
     1
176
     1
290
     0
176
     1
290
     0
176
     1
290
     0
176
     1
290
     0
176
     1
290
     0
176
     1
290
     0
176
     1
 90
       50
176
     1
 40
0.0
176
     1
 40
1.0
176
     1
 90
        0
176
     1
 62
    18
420
        0
176
     1
 90
       50
176
     1
 90
        3
176
     1
 62
     5
420
      255
176
     1
290
     0
176
     1
 90
       50
176
     1
 90
       50
176
     1
 90
       50
176
     1
290
     0
176
     1
 90
       50
176
     1
 62
   256
176
     0
 40
1.0
176
     0
 90
        2
176
     1
  1
strokes_ogs.tif
176
     1
290
     0
176
     1
 40
1.0
176
     1
 40
1.0
176
     1
  0
VISUALSTYLE
  5
36
102
{ACAD_REACTORS
330
29
102
}
330
29
100
AcDbVisualStyle
  2
Thicken
 70
    13
177
     3
291
     1
 70
    58
 90
        2
176
     1
 90
        2
176
     1
 90
        0
176
     1
 90
        0
176
     1
 40
0.6
176
     1
 40
30.0
176
     1
 62
     7
420
 16777215
176
     1
 90
        1
176
     1
 90
        4
176
     1
 62
     7
176
     1
 62
   257
176
     1
 90
        1
176
     1
 90
        1
176
     1
 40
1.0
176
     1
 90
       12
176
     1
 62
     7
176
     1
 40
1.0
176
     1
 90
        1
176
     1
 90
        6
176
     1
 90
        2
176
     1
 62
     7
176
     1
 90
        5
176
     1
 90
        0
176
     1
 90
        0
176
     1
290
     0
176
     1
 90
        1
176
     1
 40
0.0
176
     1
 90
        0
176
     1
290
     0
176
     1
290
     1
176
     1
290
     1
176
     1
290
     0
176
     1
290
     0
176
     1
290
     0
176
     1
290
     0
176
     1
290
     0
176
     1
290
     0
176
     1
 90
       50
176
     1
 40
0.0
176
     1
 40
1.0
176
     1
 90
        0
176
     1
 62
    18
420
        0
176
     1
 90
       50
176
     1
 90
        3
176
     1
 62
     5
420
      255
176
     1
290
     0
176
     1
 90
       50
176
     1
 90
       50
176
     1
 90
       50
176
     1
290
     0
176
     1
 90
       50
176
     1
 62
   256
176
     0
 40
1.0
176
     0
 90
        2
176
     1
  1
strokes_ogs.tif
176
     1
290
     0
176
     1
 40
1.0
176
     1
 40
1.0
176
     1
  0
VISUALSTYLE
  5
30
102
{ACAD_REACTORS
330
29
102
}
330
29
100
AcDbVisualStyle
  2
Wireframe
 70
     5
177
     3
291
     0
 70
    58
 90
        0
176
     1
 90
        2
176
     1
 90
        0
176
     1
 90
        0
176
     1
 40
0.6
176
     1
 40
30.0
176
     1
 62
     7
420
 16777215
176
     1
 90
        1
176
     1
 90
        4
176
     1
 62
     7
176
     1
 62
   257
176
     1
 90
        1
176
     1
 90
        1
176
     1
 40
1.0
176
     1
 90
        0
176
     1
 62
   257
176
     1
 40
1.0
176
     1
 90
        1
176
     1
 90
        6
176
     1
 90
        2
176
     1
 62
     7
176
     1
 90
        3
176
     1
 90
        0
176
     1
 90
        0
176
     1
290
     0
176
     1
 90
        1
176
     1
 40
0.0
176
     1
 90
        0
176
     1
290
     0
176
     1
290
     1
176
     1
290
     1
176
     1
290
     0
176
     1
290
     0
176
     1
290
     0
176
     1
290
     0
176
     1
290
     0
176
     1
290
     0
176
     1
 90
       50
176
     1
 40
0.0
176
     1
 40
1.0
176
     1
 90
        0
176
     1
 62
    18
420
        0
176
     1
 90
       50
176
     1
 90
        3
176
     1
 62
     5
420
      255
176
     1
290
     0
176
     1
 90
       50
176
     1
 90
       50
176
     1
 90
       50
176
     1
290
     0
176
     1
 90
       50
176
     1
 62
   256
176
     0
 40
1.0
176
     0
 90
        2
176
     1
  1
strokes_ogs.tif
176
     1
290
     0
176
     1
 40
1.0
176
     1
 40
1.0
176
     1
  0
VISUALSTYLE
  5
3C
102
{ACAD_REACTORS
330
29
102
}
330
29
100
AcDbVisualStyle
  2
X-Ray
 70
    25
177
     3
291
     0
 70
    58
 90
        2
176
     1
 90
        2
176
     1
 90
        1
176
     1
 90
        1
176
     1
 40
0.5
176
     1
 40
30.0
176
     1
 62
     7
420
 16777215
176
     1
 90
        1
176
     1
 90
        0
176
     1
 62
     7
176
     1
 62
   257
176
     1
 90
        1
176
     1
 90
        1
176
     1
 40
1.0
176
     1
 90
        8
176
     1
 62
     7
176
     1
 40
1.0
176
     1
 90
        1
176
     1
 90
        6
176
     1
 90
        2
176
     1
 62
     7
176
     1
 90
        3
176
     1
 90
        0
176
     1
 90
        0
176
     1
290
     0
176
     1
 90
       13
176
     1
 40
0.0
176
     1
 90
        0
176
     1
290
     0
176
     1
290
     1
176
     1
290
     1
176
     1
290
     0
176
     1
290
     0
176
     1
290
     0
176
     1
290
     0
176
     1
290
     0
176
     1
290
     0
176
     1
 90
       50
176
     1
 40
0.0
176
     1
 40
1.0
176
     1
 90
        0
176
     1
 62
    18
420
        0
176
     1
 90
       50
176
     1
 90
        3
176
     1
 62
     5
420
      255
176
     1
290
     0
176
     1
 90
       50
176
     1
 90
       50
176
     1
 90
       50
176
     1
290
     0
176
     1
 90
       50
176
     1
 62
   256
176
     0
 40
1.0
176
     0
 90
        2
176
     1
  1
strokes_ogs.tif
176
     1
290
     0
176
     1
 40
1.0
176
     1
 40
1.0
176
     1
  0
DICTIONARYVAR
  5
95
102
{ACAD_REACTORS
330
90
102
}
330
90
100
DictionaryVariables
280
     0
  1
1:1
  0
DICTIONARYVAR
  5
92
102
{ACAD_REACTORS
330
90
102
}
330
90
100
DictionaryVariables
280
     0
  1
STANDARD
  0
DICTIONARYVAR
  5
91
102
{ACAD_REACTORS
330
90
102
}
330
90
100
DictionaryVariables
280
     0
  1
STANDARD
  0
DICTIONARYVAR
  5
93
102
{ACAD_REACTORS
330
90
102
}
330
90
100
DictionaryVariables
280
     0
  1
Imperial24
  0
DICTIONARYVAR
  5
94
102
{ACAD_REACTORS
330
90
102
}
330
90
100
DictionaryVariables
280
     0
  1
Imperial24
  0
DICTIONARY
  5
1A
330
19
100
AcDbDictionary
280
     1
281
     1
  3
BUMPTILE
360
1C
  3
DIFFUSETILE
360
1B
  3
OPACITYTILE
360
1F
  3
REFLECTIONTILE
360
1E
  3
REFRACTIONTILE
360
20
  3
SPECULARTILE
360
1D
  0
DICTIONARY
  5
12
330
11
100
AcDbDictionary
280
     1
281
     1
  3
BUMPTILE
360
14
  3
DIFFUSETILE
360
13
  3
OPACITYTILE
360
17
  3
REFLECTIONTILE
360
16
  3
REFRACTIONTILE
360
18
  3
SPECULARTILE
360
15
  0
DICTIONARY
  5
22
330
21
100
AcDbDictionary
280
     1
281
     1
  3
BUMPTILE
360
24
  3
DIFFUSETILE
360
23
  3
OPACITYTILE
360
27
  3
REFLECTIONTILE
360
26
  3
REFRACTIONTILE
360
28
  3
SPECULARTILE
360
25
  0
DICTIONARY
  5
96
330
65
100
AcDbDictionary
280
     1
281
     1
  3
ACAD_ROUNDTRIP_2008_TABLESTYLE_CELLSTYLEMAP
360
97
  0
XRECORD
  5
1C
102
{ACAD_REACTORS
330
1A
102
}
330
1A
100
AcDbXrecord
280
     1
270
     1
271
     1
  0
XRECORD
  5
1B
102
{ACAD_REACTORS
330
1A
102
}
330
1A
100
AcDbXrecord
280
     1
270
     1
271
     1
  0
XRECORD
  5
1F
102
{ACAD_REACTORS
330
1A
102
}
330
1A
100
AcDbXrecord
280
     1
270
     1
271
     1
  0
XRECORD
  5
1E
102
{ACAD_REACTORS
330
1A
102
}
330
1A
100
AcDbXrecord
280
     1
270
     1
271
     1
  0
XRECORD
  5
20
102
{ACAD_REACTORS
330
1A
102
}
330
1A
100
AcDbXrecord
280
     1
270
     1
271
     1
  0
XRECORD
  5
1D
102
{ACAD_REACTORS
330
1A
102
}
330
1A
100
AcDbXrecord
280
     1
270
     1
271
     1
  0
XRECORD
  5
14
102
{ACAD_REACTORS
330
12
102
}
330
12
100
AcDbXrecord
280
     1
270
     1
271
     1
  0
XRECORD
  5
13
102
{ACAD_REACTORS
330
12
102
}
330
12
100
AcDbXrecord
280
     1
270
     1
271
     1
  0
XRECORD
  5
17
102
{ACAD_REACTORS
330
12
102
}
330
12
100
AcDbXrecord
280
     1
270
     1
271
     1
  0
XRECORD
  5
16
102
{ACAD_REACTORS
330
12
102
}
330
12
100
AcDbXrecord
280
     1
270
     1
271
     1
  0
XRECORD
  5
18
102
{ACAD_REACTORS
330
12
102
}
330
12
100
AcDbXrecord
280
     1
270
     1
271
     1
  0
XRECORD
  5
15
102
{ACAD_REACTORS
330
12
102
}
330
12
100
AcDbXrecord
280
     1
270
     1
271
     1
  0
XRECORD
  5
24
102
{ACAD_REACTORS
330
22
102
}
330
22
100
AcDbXrecord
280
     1
270
     1
271
     1
  0
XRECORD
  5
23
102
{ACAD_REACTORS
330
22
102
}
330
22
100
AcDbXrecord
280
     1
270
     1
271
     1
  0
XRECORD
  5
27
102
{ACAD_REACTORS
330
22
102
}
330
22
100
AcDbXrecord
280
     1
270
     1
271
     1
  0
XRECORD
  5
26
102
{ACAD_REACTORS
330
22
102
}
330
22
100
AcDbXrecord
280
     1
270
     1
271
     1
  0
XRECORD
  5
28
102
{ACAD_REACTORS
330
22
102
}
330
22
100
AcDbXrecord
280
     1
270
     1
271
     1
  0
XRECORD
  5
25
102
{ACAD_REACTORS
330
22
102
}
330
22
100
AcDbXrecord
280
     1
270
     1
271
     1
  0
CELLSTYLEMAP
  5
97
102
{ACAD_REACTORS
330
96
102
}
330
96
100
AcDbCellStyleMap
 90
        3
300
CELLSTYLE
  1
TABLEFORMAT_BEGIN
 90
        5
170
     1
 91
        0
 92
    32768
 62
   257
 93
        1
300
CONTENTFORMAT
  1
CONTENTFORMAT_BEGIN
 90
        0
 91
        0
 92
      512
 93
        0
300

 40
0.0
140
1.0
 94
        5
 62
     0
340
55
144
0.25
309
CONTENTFORMAT_END
171
     0
 94
        0
309
TABLEFORMAT_END
  1
CELLSTYLE_BEGIN
 90
        1
 91
        1
300
_TITLE
309
CELLSTYLE_END
300
CELLSTYLE
  1
TABLEFORMAT_BEGIN
 90
        5
170
     1
 91
        0
 92
        0
 62
   257
 93
        1
300
CONTENTFORMAT
  1
CONTENTFORMAT_BEGIN
 90
        0
 91
        0
 92
      512
 93
        0
300

 40
0.0
140
1.0
 94
        5
 62
     0
340
55
144
0.18
309
CONTENTFORMAT_END
171
     0
 94
        0
309
TABLEFORMAT_END
  1
CELLSTYLE_BEGIN
 90
        2
 91
        1
300
_HEADER
309
CELLSTYLE_END
300
CELLSTYLE
  1
TABLEFORMAT_BEGIN
 90
        5
170
     1
 91
        0
 92
        0
 62
   257
 93
        1
300
CONTENTFORMAT
  1
CONTENTFORMAT_BEGIN
 90
        0
 91
        0
 92
      512
 93
        0
300

 40
0.0
140
1.0
 94
        2
 62
     0
340
55
144
0.18
309
CONTENTFORMAT_END
171
     0
 94
        0
309
TABLEFORMAT_END
  1
CELLSTYLE_BEGIN
 90
        3
 91
        2
300
_DATA
309
CELLSTYLE_END
  0
ENDSEC
  0
EOF
