  0
SECTION
  2
HEADER
  9
$ACADVER
  1
AC1009
  9
$DWGCODEPAGE
  3
ansi_1252
  9
$INSBASE
  10
0.0
  20
0.0
  30
0.0
  9
$EXTMIN
  10
17.8618
  20
137.622
  30
0.0
  9
$EXTMAX
  10
688.893
  20
493.009
  30
0.0
  0
ENDSEC
  0
SECTION
  2
ENTITIES
  0
POLYLINE
  62
0
  70
1
  0
VERTEX
  10
48.921997
  20
488.06415
  0
VERTEX
  10
105.52209
  20
488.06415
  0
VERTEX
  10
105.52209
  20
320.06415
  0
VERTEX
  10
54.921997
  20
320.06415
  0
VERTEX
  10
54.921997
  20
326.06415
  0
VERTEX
  10
48.921997
  20
326.06415
  0
VERTEX
  10
48.921997
  20
332.06415
  0
VERTEX
  10
54.921997
  20
332.06415
  0
VERTEX
  10
54.921997
  20
385.4213
  0
VERTEX
  10
57.245178
  20
385.45728
  0
VERTEX
  10
59.55603
  20
385.56467
  0
VERTEX
  10
61.851563
  20
385.74271
  0
VERTEX
  10
64.128662
  20
385.9906
  0
VERTEX
  10
66.384216
  20
386.30759
  0
VERTEX
  10
68.615234
  20
386.69284
  0
VERTEX
  10
70.818604
  20
387.14557
  0
VERTEX
  10
72.991211
  20
387.66504
  0
VERTEX
  10
75.130066
  20
388.25043
  0
VERTEX
  10
77.232056
  20
388.90094
  0
VERTEX
  10
79.294067
  20
389.61578
  0
VERTEX
  10
81.31311
  20
390.39423
  0
VERTEX
  10
83.286133
  20
391.23541
  0
VERTEX
  10
85.209961
  20
392.13861
  0
VERTEX
  10
87.081665
  20
393.10303
  0
VERTEX
  10
88.89801
  20
394.12781
  0
VERTEX
  10
88.89801
  20
451.71478
  0
VERTEX
  10
87.081665
  20
452.73956
  0
VERTEX
  10
85.209961
  20
453.70398
  0
VERTEX
  10
83.286133
  20
454.60715
  0
VERTEX
  10
81.31311
  20
455.44836
  0
VERTEX
  10
79.294067
  20
456.22678
  0
VERTEX
  10
77.232056
  20
456.94165
  0
VERTEX
  10
75.130066
  20
457.59216
  0
VERTEX
  10
72.991211
  20
458.17752
  0
VERTEX
  10
70.818604
  20
458.69699
  0
VERTEX
  10
68.615234
  20
459.14972
  0
VERTEX
  10
66.384216
  20
459.53497
  0
VERTEX
  10
64.128662
  20
459.85196
  0
VERTEX
  10
61.851563
  20
460.09985
  0
VERTEX
  10
59.55603
  20
460.27789
  0
VERTEX
  10
57.245178
  20
460.38531
  0
VERTEX
  10
54.921997
  20
460.4213
  0
VERTEX
  10
54.921997
  20
482.06415
  0
VERTEX
  10
48.921997
  20
482.06415
  0
VERTEX
  10
48.921997
  20
488.06415
  0
SEQEND
  0
POLYLINE
  62
0
  70
1
  0
VERTEX
  10
88.898071
  20
337.58743
  0
VERTEX
  10
87.095947
  20
337.57788
  0
VERTEX
  10
85.312073
  20
337.65448
  0
VERTEX
  10
83.551758
  20
337.81525
  0
VERTEX
  10
81.820313
  20
338.05817
  0
VERTEX
  10
80.122925
  20
338.38126
  0
VERTEX
  10
78.464905
  20
338.78244
  0
VERTEX
  10
76.85144
  20
339.25977
  0
VERTEX
  10
75.287964
  20
339.81116
  0
VERTEX
  10
73.779541
  20
340.43466
  0
VERTEX
  10
72.331604
  20
341.12823
  0
VERTEX
  10
70.949341
  20
341.88989
  0
VERTEX
  10
69.637939
  20
342.71756
  0
VERTEX
  10
69.010498
  20
343.15555
  0
VERTEX
  10
68.40271
  20
343.60928
  0
VERTEX
  10
67.815369
  20
344.07852
  0
VERTEX
  10
67.249023
  20
344.56302
  0
VERTEX
  10
66.704346
  20
345.06253
  0
VERTEX
  10
66.182007
  20
345.57678
  0
VERTEX
  10
65.682678
  20
346.10553
  0
VERTEX
  10
65.207031
  20
346.6485
  0
VERTEX
  10
64.757874
  20
347.20267
  0
VERTEX
  10
64.337708
  20
347.76477
  0
VERTEX
  10
63.946533
  20
348.33432
  0
VERTEX
  10
63.584351
  20
348.91071
  0
VERTEX
  10
63.251099
  20
349.49347
  0
VERTEX
  10
62.946838
  20
350.08203
  0
VERTEX
  10
62.67157
  20
350.67587
  0
VERTEX
  10
62.425293
  20
351.27448
  0
VERTEX
  10
62.207947
  20
351.87732
  0
VERTEX
  10
62.019592
  20
352.48386
  0
VERTEX
  10
61.860229
  20
353.09357
  0
VERTEX
  10
61.729858
  20
353.70596
  0
VERTEX
  10
61.628418
  20
354.32043
  0
VERTEX
  10
61.555969
  20
354.93649
  0
VERTEX
  10
61.512512
  20
355.55365
  0
VERTEX
  10
61.498047
  20
356.1713
  0
VERTEX
  10
61.512512
  20
356.78894
  0
VERTEX
  10
61.555969
  20
357.4061
  0
VERTEX
  10
61.628418
  20
358.02216
  0
VERTEX
  10
61.729858
  20
358.63663
  0
VERTEX
  10
61.860229
  20
359.24902
  0
VERTEX
  10
62.019592
  20
359.85873
  0
VERTEX
  10
62.207947
  20
360.46527
  0
VERTEX
  10
62.425293
  20
361.06812
  0
VERTEX
  10
62.67157
  20
361.66672
  0
VERTEX
  10
62.946838
  20
362.26056
  0
VERTEX
  10
63.251099
  20
362.84912
  0
VERTEX
  10
63.584351
  20
363.43188
  0
VERTEX
  10
63.946533
  20
364.00824
  0
VERTEX
  10
64.337708
  20
364.57776
  0
VERTEX
  10
64.757874
  20
365.13989
  0
VERTEX
  10
65.207031
  20
365.69409
  0
VERTEX
  10
65.682678
  20
366.23706
  0
VERTEX
  10
66.182007
  20
366.76581
  0
VERTEX
  10
66.704346
  20
367.28006
  0
VERTEX
  10
67.249023
  20
367.77954
  0
VERTEX
  10
67.815369
  20
368.26404
  0
VERTEX
  10
68.40271
  20
368.73328
  0
VERTEX
  10
69.010498
  20
369.18704
  0
VERTEX
  10
69.637939
  20
369.625
  0
VERTEX
  10
70.949341
  20
370.4527
  0
VERTEX
  10
72.331604
  20
371.21432
  0
VERTEX
  10
73.779541
  20
371.9079
  0
VERTEX
  10
75.287964
  20
372.53143
  0
VERTEX
  10
76.85144
  20
373.08282
  0
VERTEX
  10
78.464905
  20
373.56015
  0
VERTEX
  10
80.122925
  20
373.96133
  0
VERTEX
  10
81.820313
  20
374.28442
  0
VERTEX
  10
83.551758
  20
374.52734
  0
VERTEX
  10
85.312073
  20
374.68811
  0
VERTEX
  10
87.095886
  20
374.76474
  0
VERTEX
  10
88.89801
  20
374.75516
  0
VERTEX
  10
88.898071
  20
337.58743
  0
SEQEND
  0
POLYLINE
  62
0
  70
1
  0
VERTEX
  10
241.99188
  20
193.2626
  0
VERTEX
  10
241.96649
  20
193.01068
  0
VERTEX
  10
241.89368
  20
192.77606
  0
VERTEX
  10
241.77844
  20
192.56372
  0
VERTEX
  10
241.62579
  20
192.37872
  0
VERTEX
  10
241.4408
  20
192.22607
  0
VERTEX
  10
241.22845
  20
192.11084
  0
VERTEX
  10
240.99384
  20
192.03802
  0
VERTEX
  10
240.74188
  20
192.0126
  0
VERTEX
  10
240.48993
  20
192.03802
  0
VERTEX
  10
240.25531
  20
192.11084
  0
VERTEX
  10
240.04297
  20
192.22607
  0
VERTEX
  10
239.85797
  20
192.37872
  0
VERTEX
  10
239.70532
  20
192.56372
  0
VERTEX
  10
239.59009
  20
192.77606
  0
VERTEX
  10
239.51727
  20
193.01068
  0
VERTEX
  10
239.49188
  20
193.2626
  0
VERTEX
  10
239.51727
  20
193.51453
  0
VERTEX
  10
239.59009
  20
193.74915
  0
VERTEX
  10
239.70532
  20
193.96149
  0
VERTEX
  10
239.85797
  20
194.14648
  0
VERTEX
  10
240.04297
  20
194.29913
  0
VERTEX
  10
240.25531
  20
194.41437
  0
VERTEX
  10
240.48993
  20
194.48718
  0
VERTEX
  10
240.74188
  20
194.5126
  0
VERTEX
  10
240.99384
  20
194.48718
  0
VERTEX
  10
241.22845
  20
194.41437
  0
VERTEX
  10
241.4408
  20
194.29913
  0
VERTEX
  10
241.62579
  20
194.14648
  0
VERTEX
  10
241.77844
  20
193.96149
  0
VERTEX
  10
241.89368
  20
193.74915
  0
VERTEX
  10
241.96649
  20
193.51453
  0
VERTEX
  10
241.99188
  20
193.2626
  0
SEQEND
  0
POLYLINE
  62
0
  70
1
  0
VERTEX
  10
220.17816
  20
153.28375
  0
VERTEX
  10
221.53018
  20
154.41626
  0
VERTEX
  10
222.85913
  20
155.58923
  0
VERTEX
  10
224.16479
  20
156.80188
  0
VERTEX
  10
225.44696
  20
158.05347
  0
VERTEX
  10
226.70544
  20
159.34326
  0
VERTEX
  10
227.94006
  20
160.67047
  0
VERTEX
  10
229.15063
  20
162.03436
  0
VERTEX
  10
230.33691
  20
163.4342
  0
VERTEX
  10
231.49872
  20
164.8692
  0
VERTEX
  10
232.63589
  20
166.33862
  0
VERTEX
  10
233.74823
  20
167.84174
  0
VERTEX
  10
234.83551
  20
169.37775
  0
VERTEX
  10
235.89752
  20
170.94592
  0
VERTEX
  10
236.93414
  20
172.54553
  0
VERTEX
  10
237.94513
  20
174.17578
  0
VERTEX
  10
238.93027
  20
175.83594
  0
VERTEX
  10
239.88937
  20
177.52527
  0
VERTEX
  10
240.8223
  20
179.24304
  0
VERTEX
  10
241.72876
  20
180.98843
  0
VERTEX
  10
242.60867
  20
182.76074
  0
VERTEX
  10
243.46176
  20
184.55914
  0
VERTEX
  10
244.28784
  20
186.383
  0
VERTEX
  10
245.08676
  20
188.23151
  0
VERTEX
  10
245.85828
  20
190.10388
  0
VERTEX
  10
246.60223
  20
191.99939
  0
VERTEX
  10
247.31836
  20
193.9173
  0
VERTEX
  10
248.00653
  20
195.85681
  0
VERTEX
  10
248.66656
  20
197.81726
  0
VERTEX
  10
249.29816
  20
199.79779
  0
VERTEX
  10
249.90125
  20
201.79773
  0
VERTEX
  10
250.47559
  20
203.81631
  0
VERTEX
  10
251.02097
  20
205.85272
  0
VERTEX
  10
251.53723
  20
207.90628
  0
VERTEX
  10
252.02411
  20
209.9762
  0
VERTEX
  10
252.48145
  20
212.06177
  0
VERTEX
  10
252.90906
  20
214.16217
  0
VERTEX
  10
253.30676
  20
216.27667
  0
VERTEX
  10
253.67435
  20
218.40457
  0
VERTEX
  10
254.0116
  20
220.54507
  0
VERTEX
  10
254.31836
  20
222.69742
  0
VERTEX
  10
254.59439
  20
224.86084
  0
VERTEX
  10
254.83954
  20
227.03467
  0
VERTEX
  10
255.05359
  20
229.21808
  0
VERTEX
  10
255.23633
  20
231.41031
  0
VERTEX
  10
255.38757
  20
233.61063
  0
VERTEX
  10
255.50714
  20
235.81833
  0
VERTEX
  10
255.59482
  20
238.03262
  0
VERTEX
  10
255.65045
  20
240.25272
  0
VERTEX
  10
255.6738
  20
242.47791
  0
VERTEX
  10
255.66467
  20
244.70744
  0
VERTEX
  10
255.62289
  20
246.94055
  0
VERTEX
  10
255.54828
  20
249.17648
  0
VERTEX
  10
255.44061
  20
251.41449
  0
VERTEX
  10
255.29968
  20
253.65384
  0
VERTEX
  10
255.12531
  20
255.89375
  0
VERTEX
  10
254.9173
  20
258.13348
  0
VERTEX
  10
254.67545
  20
260.37228
  0
VERTEX
  10
254.3996
  20
262.60938
  0
VERTEX
  10
254.08948
  20
264.84406
  0
VERTEX
  10
253.745
  20
267.07556
  0
VERTEX
  10
253.36584
  20
269.3031
  0
VERTEX
  10
252.95193
  20
271.52594
  0
VERTEX
  10
252.50299
  20
273.74335
  0
VERTEX
  10
252.01889
  20
275.95453
  0
VERTEX
  10
251.76471
  20
276.89417
  0
VERTEX
  10
251.50696
  20
277.815
  0
VERTEX
  10
251.24561
  20
278.71698
  0
VERTEX
  10
250.98059
  20
279.59973
  0
VERTEX
  10
250.71188
  20
280.46295
  0
VERTEX
  10
250.43936
  20
281.30615
  0
VERTEX
  10
250.1629
  20
282.12878
  0
VERTEX
  10
249.88242
  20
282.93018
  0
VERTEX
  10
249.59775
  20
283.70953
  0
VERTEX
  10
249.30875
  20
284.46613
  0
VERTEX
  10
249.01526
  20
285.19907
  0
VERTEX
  10
248.7171
  20
285.90747
  0
VERTEX
  10
248.56619
  20
286.2522
  0
VERTEX
  10
248.41409
  20
286.59045
  0
VERTEX
  10
248.26071
  20
286.92218
  0
VERTEX
  10
248.10608
  20
287.24719
  0
VERTEX
  10
247.95016
  20
287.56543
  0
VERTEX
  10
247.79291
  20
287.8768
  0
VERTEX
  10
247.63437
  20
288.18121
  0
VERTEX
  10
247.47446
  20
288.47861
  0
VERTEX
  10
247.31323
  20
288.76886
  0
VERTEX
  10
247.1506
  20
289.052
  0
VERTEX
  10
246.98663
  20
289.32788
  0
VERTEX
  10
246.82129
  20
289.59656
  0
VERTEX
  10
246.65454
  20
289.85791
  0
VERTEX
  10
246.48642
  20
290.11206
  0
VERTEX
  10
246.31689
  20
290.35892
  0
VERTEX
  10
246.14603
  20
290.59857
  0
VERTEX
  10
245.97379
  20
290.83099
  0
VERTEX
  10
245.80017
  20
291.05627
  0
VERTEX
  10
245.62521
  20
291.27444
  0
VERTEX
  10
245.44891
  20
291.4856
  0
VERTEX
  10
245.27127
  20
291.6897
  0
VERTEX
  10
245.09235
  20
291.88693
  0
VERTEX
  10
244.91208
  20
292.07727
  0
VERTEX
  10
244.73053
  20
292.26083
  0
VERTEX
  10
244.5477
  20
292.43765
  0
VERTEX
  10
244.36362
  20
292.60782
  0
VERTEX
  10
244.17825
  20
292.77136
  0
VERTEX
  10
243.99167
  20
292.92838
  0
VERTEX
  10
243.80383
  20
293.07892
  0
VERTEX
  10
243.61478
  20
293.22299
  0
VERTEX
  10
243.4245
  20
293.36069
  0
VERTEX
  10
243.23303
  20
293.49203
  0
VERTEX
  10
243.04034
  20
293.61707
  0
VERTEX
  10
242.84647
  20
293.73584
  0
VERTEX
  10
242.6514
  20
293.8483
  0
VERTEX
  10
242.45514
  20
293.95453
  0
VERTEX
  10
242.45514
  20
287.95453
  0
VERTEX
  10
241.11707
  20
287.95453
  0
VERTEX
  10
241.11707
  20
275.95453
  0
VERTEX
  10
239.77896
  20
275.95453
  0
VERTEX
  10
240.3338
  20
273.58679
  0
VERTEX
  10
240.84705
  20
271.19531
  0
VERTEX
  10
241.31842
  20
268.78149
  0
VERTEX
  10
241.74756
  20
266.34674
  0
VERTEX
  10
242.83572
  20
267.43494
  0
VERTEX
  10
247.07837
  20
263.19226
  0
VERTEX
  10
242.7829
  20
258.89682
  0
VERTEX
  10
242.98938
  20
256.9205
  0
VERTEX
  10
243.16846
  20
254.93799
  0
VERTEX
  10
243.32013
  20
252.95001
  0
VERTEX
  10
243.44427
  20
250.95737
  0
VERTEX
  10
243.54092
  20
248.96074
  0
VERTEX
  10
243.60999
  20
246.96091
  0
VERTEX
  10
243.65146
  20
244.95859
  0
VERTEX
  10
243.66528
  20
242.95453
  0
VERTEX
  10
243.64688
  20
240.57727
  0
VERTEX
  10
243.59183
  20
238.20627
  0
VERTEX
  10
243.50037
  20
235.84235
  0
VERTEX
  10
243.37271
  20
233.48639
  0
VERTEX
  10
243.20908
  20
231.13931
  0
VERTEX
  10
243.0097
  20
228.80194
  0
VERTEX
  10
242.77478
  20
226.47516
  0
VERTEX
  10
242.50458
  20
224.15985
  0
VERTEX
  10
242.19928
  20
221.85693
  0
VERTEX
  10
241.85916
  20
219.5672
  0
VERTEX
  10
241.48441
  20
217.29163
  0
VERTEX
  10
241.07526
  20
215.03101
  0
VERTEX
  10
240.63196
  20
212.78622
  0
VERTEX
  10
240.15472
  20
210.5582
  0
VERTEX
  10
239.64374
  20
208.34778
  0
VERTEX
  10
239.09927
  20
206.15585
  0
VERTEX
  10
238.52155
  20
203.98328
  0
VERTEX
  10
237.91074
  20
201.83096
  0
VERTEX
  10
237.26715
  20
199.69974
  0
VERTEX
  10
236.59094
  20
197.59048
  0
VERTEX
  10
235.88239
  20
195.50412
  0
VERTEX
  10
235.14166
  20
193.4415
  0
VERTEX
  10
234.36905
  20
191.40347
  0
VERTEX
  10
233.5647
  20
189.39096
  0
VERTEX
  10
232.72888
  20
187.40482
  0
VERTEX
  10
231.86182
  20
185.44589
  0
VERTEX
  10
230.96378
  20
183.51514
  0
VERTEX
  10
230.03494
  20
181.61334
  0
VERTEX
  10
229.07553
  20
179.74142
  0
VERTEX
  10
228.08578
  20
177.90027
  0
VERTEX
  10
227.06592
  20
176.09073
  0
VERTEX
  10
226.01614
  20
174.31366
  0
VERTEX
  10
227.8876
  20
172.4422
  0
VERTEX
  10
223.64496
  20
168.19955
  0
VERTEX
  10
222.67654
  20
169.16797
  0
VERTEX
  10
221.57077
  20
167.6153
  0
VERTEX
  10
220.44272
  20
166.10074
  0
VERTEX
  10
219.29279
  20
164.62476
  0
VERTEX
  10
218.12137
  20
163.18787
  0
VERTEX
  10
216.92896
  20
161.79062
  0
VERTEX
  10
215.716
  20
160.43356
  0
VERTEX
  10
214.48291
  20
159.11719
  0
VERTEX
  10
213.23016
  20
157.84201
  0
VERTEX
  10
213.53479
  20
157.76825
  0
VERTEX
  10
213.85391
  20
157.70587
  0
VERTEX
  10
214.18558
  20
157.65326
  0
VERTEX
  10
214.52774
  20
157.60883
  0
VERTEX
  10
214.8782
  20
157.57086
  0
VERTEX
  10
215.23465
  20
157.5376
  0
VERTEX
  10
215.59479
  20
157.5072
  0
VERTEX
  10
215.95612
  20
157.47772
  0
VERTEX
  10
216.31625
  20
157.4473
  0
VERTEX
  10
216.67276
  20
157.41394
  0
VERTEX
  10
217.02319
  20
157.37589
  0
VERTEX
  10
217.36523
  20
157.33127
  0
VERTEX
  10
217.69659
  20
157.27826
  0
VERTEX
  10
218.01514
  20
157.21518
  0
VERTEX
  10
218.31885
  20
157.1405
  0
VERTEX
  10
218.6059
  20
157.05273
  0
VERTEX
  10
218.74261
  20
157.00354
  0
VERTEX
  10
218.87457
  20
156.95062
  0
VERTEX
  10
219.00156
  20
156.8938
  0
VERTEX
  10
219.12347
  20
156.83301
  0
VERTEX
  10
219.24014
  20
156.76813
  0
VERTEX
  10
219.35144
  20
156.69901
  0
VERTEX
  10
219.45724
  20
156.62561
  0
VERTEX
  10
219.55746
  20
156.54782
  0
VERTEX
  10
219.65204
  20
156.46561
  0
VERTEX
  10
219.74084
  20
156.37888
  0
VERTEX
  10
219.82382
  20
156.2876
  0
VERTEX
  10
219.90091
  20
156.19171
  0
VERTEX
  10
219.97211
  20
156.09119
  0
VERTEX
  10
220.03732
  20
155.98602
  0
VERTEX
  10
220.09656
  20
155.8761
  0
VERTEX
  10
220.14975
  20
155.76154
  0
VERTEX
  10
220.1969
  20
155.64221
  0
VERTEX
  10
220.23801
  20
155.51813
  0
VERTEX
  10
220.27304
  20
155.38928
  0
VERTEX
  10
220.302
  20
155.25574
  0
VERTEX
  10
220.32492
  20
155.11743
  0
VERTEX
  10
220.34174
  20
154.97433
  0
VERTEX
  10
220.35251
  20
154.82654
  0
VERTEX
  10
220.35724
  20
154.67395
  0
VERTEX
  10
220.3559
  20
154.51666
  0
VERTEX
  10
220.34854
  20
154.35468
  0
VERTEX
  10
220.33514
  20
154.18793
  0
VERTEX
  10
220.31573
  20
154.01648
  0
VERTEX
  10
220.29034
  20
153.84033
  0
VERTEX
  10
220.25894
  20
153.65948
  0
VERTEX
  10
220.22153
  20
153.47394
  0
VERTEX
  10
220.17816
  20
153.28375
  0
SEQEND
  0
POLYLINE
  62
0
  70
1
  0
VERTEX
  10
233.37292
  20
277.54922
  0
VERTEX
  10
233.42416
  20
277.77634
  0
VERTEX
  10
233.4668
  20
277.99677
  0
VERTEX
  10
233.50085
  20
278.21045
  0
VERTEX
  10
233.52634
  20
278.41736
  0
VERTEX
  10
233.54318
  20
278.61755
  0
VERTEX
  10
233.55139
  20
278.81104
  0
VERTEX
  10
233.55096
  20
278.99768
  0
VERTEX
  10
233.54187
  20
279.17758
  0
VERTEX
  10
233.52408
  20
279.35071
  0
VERTEX
  10
233.49762
  20
279.51697
  0
VERTEX
  10
233.46246
  20
279.67645
  0
VERTEX
  10
233.41861
  20
279.82913
  0
VERTEX
  10
233.36606
  20
279.97501
  0
VERTEX
  10
233.30487
  20
280.11414
  0
VERTEX
  10
233.23502
  20
280.24643
  0
VERTEX
  10
233.15659
  20
280.37207
  0
VERTEX
  10
233.06964
  20
280.49097
  0
VERTEX
  10
232.97421
  20
280.60327
  0
VERTEX
  10
232.87042
  20
280.70901
  0
VERTEX
  10
232.75836
  20
280.80832
  0
VERTEX
  10
232.63815
  20
280.90121
  0
VERTEX
  10
232.50998
  20
280.98785
  0
VERTEX
  10
232.37399
  20
281.06842
  0
VERTEX
  10
232.23041
  20
281.14297
  0
VERTEX
  10
232.07947
  20
281.21179
  0
VERTEX
  10
231.92142
  20
281.27509
  0
VERTEX
  10
231.75656
  20
281.33301
  0
VERTEX
  10
231.58524
  20
281.38586
  0
VERTEX
  10
231.40775
  20
281.4339
  0
VERTEX
  10
231.22452
  20
281.47745
  0
VERTEX
  10
231.03595
  20
281.51678
  0
VERTEX
  10
230.84244
  20
281.55231
  0
VERTEX
  10
230.44247
  20
281.6131
  0
VERTEX
  10
230.02832
  20
281.66278
  0
VERTEX
  10
229.60394
  20
281.7045
  0
VERTEX
  10
229.17349
  20
281.74139
  0
VERTEX
  10
228.74106
  20
281.77667
  0
VERTEX
  10
228.31085
  20
281.81372
  0
VERTEX
  10
227.88699
  20
281.85571
  0
VERTEX
  10
227.47351
  20
281.90576
  0
VERTEX
  10
227.07419
  20
281.96689
  0
VERTEX
  10
226.69263
  20
282.04193
  0
VERTEX
  10
226.50952
  20
282.08542
  0
VERTEX
  10
226.33206
  20
282.13333
  0
VERTEX
  10
226.16058
  20
282.18591
  0
VERTEX
  10
225.99539
  20
282.24338
  0
VERTEX
  10
225.83679
  20
282.30603
  0
VERTEX
  10
225.685
  20
282.37402
  0
VERTEX
  10
225.54025
  20
282.44745
  0
VERTEX
  10
225.40277
  20
282.52661
  0
VERTEX
  10
225.27274
  20
282.61157
  0
VERTEX
  10
225.15024
  20
282.70245
  0
VERTEX
  10
225.03546
  20
282.79932
  0
VERTEX
  10
224.9285
  20
282.90234
  0
VERTEX
  10
224.82941
  20
283.01147
  0
VERTEX
  10
224.73825
  20
283.12683
  0
VERTEX
  10
224.65512
  20
283.24847
  0
VERTEX
  10
224.58005
  20
283.3764
  0
VERTEX
  10
224.51303
  20
283.51062
  0
VERTEX
  10
224.4541
  20
283.65118
  0
VERTEX
  10
224.40329
  20
283.79807
  0
VERTEX
  10
224.3606
  20
283.95129
  0
VERTEX
  10
224.32599
  20
284.11084
  0
VERTEX
  10
224.29947
  20
284.27673
  0
VERTEX
  10
224.28104
  20
284.44894
  0
VERTEX
  10
224.27066
  20
284.62744
  0
VERTEX
  10
224.26831
  20
284.81223
  0
VERTEX
  10
224.27405
  20
285.0033
  0
VERTEX
  10
224.28775
  20
285.20062
  0
VERTEX
  10
224.30951
  20
285.40424
  0
VERTEX
  10
223.36914
  20
284.72595
  0
VERTEX
  10
222.42169
  20
284.07611
  0
VERTEX
  10
221.46747
  20
283.45493
  0
VERTEX
  10
220.50677
  20
282.86246
  0
VERTEX
  10
219.53973
  20
282.29883
  0
VERTEX
  10
218.56671
  20
281.76416
  0
VERTEX
  10
217.58789
  20
281.25861
  0
VERTEX
  10
216.60352
  20
280.78223
  0
VERTEX
  10
215.61389
  20
280.33517
  0
VERTEX
  10
214.61926
  20
279.91754
  0
VERTEX
  10
213.61987
  20
279.52948
  0
VERTEX
  10
212.61594
  20
279.17111
  0
VERTEX
  10
211.60773
  20
278.84253
  0
VERTEX
  10
210.59552
  20
278.54385
  0
VERTEX
  10
209.57956
  20
278.27521
  0
VERTEX
  10
208.56009
  20
278.03668
  0
VERTEX
  10
193.56009
  20
278.03668
  0
VERTEX
  10
191.81458
  20
278.46402
  0
VERTEX
  10
190.08139
  20
278.97919
  0
VERTEX
  10
188.36172
  20
279.58142
  0
VERTEX
  10
186.65674
  20
280.26996
  0
VERTEX
  10
184.96771
  20
281.04395
  0
VERTEX
  10
183.29578
  20
281.90259
  0
VERTEX
  10
181.64227
  20
282.84515
  0
VERTEX
  10
180.0083
  20
283.87079
  0
VERTEX
  10
178.39514
  20
284.9787
  0
VERTEX
  10
176.80396
  20
286.16812
  0
VERTEX
  10
175.23602
  20
287.43823
  0
VERTEX
  10
173.6925
  20
288.78824
  0
VERTEX
  10
172.17456
  20
290.21735
  0
VERTEX
  10
170.68347
  20
291.72476
  0
VERTEX
  10
169.22046
  20
293.30969
  0
VERTEX
  10
167.78668
  20
294.97131
  0
VERTEX
  10
165.2804
  20
292.46503
  0
VERTEX
  10
161.03778
  20
296.70767
  0
VERTEX
  10
164.10986
  20
299.77979
  0
VERTEX
  10
163.49268
  20
300.67279
  0
VERTEX
  10
162.88373
  20
301.58051
  0
VERTEX
  10
162.70343
  20
301.74722
  0
VERTEX
  10
162.5249
  20
301.90442
  0
VERTEX
  10
162.34808
  20
302.052
  0
VERTEX
  10
162.17297
  20
302.18994
  0
VERTEX
  10
161.99963
  20
302.31824
  0
VERTEX
  10
161.82806
  20
302.43692
  0
VERTEX
  10
161.6582
  20
302.5459
  0
VERTEX
  10
161.49005
  20
302.6452
  0
VERTEX
  10
161.32373
  20
302.73477
  0
VERTEX
  10
161.15912
  20
302.81464
  0
VERTEX
  10
160.99622
  20
302.88474
  0
VERTEX
  10
160.83514
  20
302.9451
  0
VERTEX
  10
160.67578
  20
302.99573
  0
VERTEX
  10
160.51819
  20
303.03662
  0
VERTEX
  10
160.3623
  20
303.06775
  0
VERTEX
  10
160.20813
  20
303.08926
  0
VERTEX
  10
160.05573
  20
303.1011
  0
VERTEX
  10
159.90497
  20
303.10339
  0
VERTEX
  10
159.75592
  20
303.09619
  0
VERTEX
  10
159.60858
  20
303.07962
  0
VERTEX
  10
159.46283
  20
303.05377
  0
VERTEX
  10
159.31866
  20
303.01877
  0
VERTEX
  10
159.17609
  20
302.97482
  0
VERTEX
  10
159.03503
  20
302.92215
  0
VERTEX
  10
158.89545
  20
302.8609
  0
VERTEX
  10
158.75726
  20
302.79138
  0
VERTEX
  10
158.62042
  20
302.71387
  0
VERTEX
  10
158.48492
  20
302.62866
  0
VERTEX
  10
158.35059
  20
302.53613
  0
VERTEX
  10
158.21741
  20
302.43668
  0
VERTEX
  10
158.08527
  20
302.33069
  0
VERTEX
  10
157.95404
  20
302.21863
  0
VERTEX
  10
157.69415
  20
301.978
  0
VERTEX
  10
157.43683
  20
301.71878
  0
VERTEX
  10
157.18127
  20
301.44504
  0
VERTEX
  10
156.92657
  20
301.16107
  0
VERTEX
  10
156.67175
  20
300.87125
  0
VERTEX
  10
156.41602
  20
300.57996
  0
VERTEX
  10
156.15833
  20
300.29153
  0
VERTEX
  10
155.89795
  20
300.01016
  0
VERTEX
  10
155.63397
  20
299.73981
  0
VERTEX
  10
155.36566
  20
299.48413
  0
VERTEX
  10
155.09229
  20
299.24643
  0
VERTEX
  10
154.81335
  20
299.0296
  0
VERTEX
  10
154.67163
  20
298.92975
  0
VERTEX
  10
154.52838
  20
298.83594
  0
VERTEX
  10
154.38342
  20
298.74841
  0
VERTEX
  10
154.23688
  20
298.66742
  0
VERTEX
  10
154.08862
  20
298.59299
  0
VERTEX
  10
153.93866
  20
298.52539
  0
VERTEX
  10
153.78699
  20
298.46466
  0
VERTEX
  10
153.63348
  20
298.41098
  0
VERTEX
  10
153.47827
  20
298.36438
  0
VERTEX
  10
153.32123
  20
298.32495
  0
VERTEX
  10
153.16241
  20
298.29276
  0
VERTEX
  10
153.00183
  20
298.26782
  0
VERTEX
  10
152.83942
  20
298.25018
  0
VERTEX
  10
152.67517
  20
298.23984
  0
VERTEX
  10
152.50909
  20
298.23682
  0
VERTEX
  10
152.34125
  20
298.24118
  0
VERTEX
  10
152.17157
  20
298.25284
  0
VERTEX
  10
152.00012
  20
298.27182
  0
VERTEX
  10
151.82684
  20
298.2981
  0
VERTEX
  10
151.65179
  20
298.3317
  0
VERTEX
  10
151.47491
  20
298.37256
  0
VERTEX
  10
151.29626
  20
298.42072
  0
VERTEX
  10
151.11584
  20
298.47614
  0
VERTEX
  10
150.93365
  20
298.53882
  0
VERTEX
  10
151.90222
  20
296.97226
  0
VERTEX
  10
152.89063
  20
295.43912
  0
VERTEX
  10
153.89868
  20
293.93976
  0
VERTEX
  10
154.92578
  20
292.47449
  0
VERTEX
  10
155.97168
  20
291.04367
  0
VERTEX
  10
157.03589
  20
289.64758
  0
VERTEX
  10
158.11804
  20
288.28662
  0
VERTEX
  10
159.21777
  20
286.96106
  0
VERTEX
  10
160.33459
  20
285.67126
  0
VERTEX
  10
161.46814
  20
284.41751
  0
VERTEX
  10
162.61804
  20
283.2002
  0
VERTEX
  10
163.78381
  20
282.01959
  0
VERTEX
  10
164.96515
  20
280.8761
  0
VERTEX
  10
166.16156
  20
279.76996
  0
VERTEX
  10
167.37268
  20
278.70154
  0
VERTEX
  10
168.59814
  20
277.6712
  0
VERTEX
  10
169.83752
  20
276.67926
  0
VERTEX
  10
171.09039
  20
275.72601
  0
VERTEX
  10
172.35638
  20
274.8118
  0
VERTEX
  10
173.63513
  20
273.93698
  0
VERTEX
  10
174.92615
  20
273.10187
  0
VERTEX
  10
176.22906
  20
272.30676
  0
VERTEX
  10
177.54346
  20
271.55206
  0
VERTEX
  10
178.86902
  20
270.83801
  0
VERTEX
  10
180.20526
  20
270.16501
  0
VERTEX
  10
181.55176
  20
269.53333
  0
VERTEX
  10
182.9082
  20
268.94336
  0
VERTEX
  10
184.27417
  20
268.39539
  0
VERTEX
  10
185.64917
  20
267.88977
  0
VERTEX
  10
187.03296
  20
267.42682
  0
VERTEX
  10
188.42493
  20
267.00687
  0
VERTEX
  10
189.82483
  20
266.63025
  0
VERTEX
  10
190.12085
  20
266.57104
  0
VERTEX
  10
190.41907
  20
266.54205
  0
VERTEX
  10
190.71722
  20
266.54285
  0
VERTEX
  10
191.01312
  20
266.57315
  0
VERTEX
  10
191.30463
  20
266.63257
  0
VERTEX
  10
191.58942
  20
266.72083
  0
VERTEX
  10
191.86536
  20
266.83755
  0
VERTEX
  10
192.13019
  20
266.98242
  0
VERTEX
  10
192.37915
  20
267.15314
  0
VERTEX
  10
192.60803
  20
267.34647
  0
VERTEX
  10
192.81555
  20
267.56061
  0
VERTEX
  10
193.00037
  20
267.7937
  0
VERTEX
  10
193.16119
  20
268.04395
  0
VERTEX
  10
193.29672
  20
268.30951
  0
VERTEX
  10
193.40564
  20
268.58862
  0
VERTEX
  10
193.48672
  20
268.87939
  0
VERTEX
  10
193.64343
  20
269.37286
  0
VERTEX
  10
193.8768
  20
269.82245
  0
VERTEX
  10
194.17834
  20
270.22137
  0
VERTEX
  10
194.53961
  20
270.5629
  0
VERTEX
  10
194.95221
  20
270.84027
  0
VERTEX
  10
195.40765
  20
271.04675
  0
VERTEX
  10
195.89752
  20
271.1756
  0
VERTEX
  10
196.41336
  20
271.22003
  0
VERTEX
  10
205.70682
  20
271.22003
  0
VERTEX
  10
206.22266
  20
271.1756
  0
VERTEX
  10
206.71252
  20
271.04675
  0
VERTEX
  10
207.16797
  20
270.84027
  0
VERTEX
  10
207.58057
  20
270.5629
  0
VERTEX
  10
207.94183
  20
270.22137
  0
VERTEX
  10
208.24338
  20
269.82245
  0
VERTEX
  10
208.47675
  20
269.37286
  0
VERTEX
  10
208.63345
  20
268.87939
  0
VERTEX
  10
208.71454
  20
268.58862
  0
VERTEX
  10
208.82349
  20
268.30951
  0
VERTEX
  10
208.95905
  20
268.04395
  0
VERTEX
  10
209.11987
  20
267.7937
  0
VERTEX
  10
209.30469
  20
267.56061
  0
VERTEX
  10
209.51218
  20
267.34647
  0
VERTEX
  10
209.74103
  20
267.15314
  0
VERTEX
  10
209.98999
  20
266.98242
  0
VERTEX
  10
210.25482
  20
266.83755
  0
VERTEX
  10
210.53076
  20
266.72083
  0
VERTEX
  10
210.81555
  20
266.63257
  0
VERTEX
  10
211.10706
  20
266.57315
  0
VERTEX
  10
211.40295
  20
266.54285
  0
VERTEX
  10
211.70114
  20
266.54205
  0
VERTEX
  10
211.99933
  20
266.57104
  0
VERTEX
  10
212.29535
  20
266.63025
  0
VERTEX
  10
213.67569
  20
267.00128
  0
VERTEX
  10
215.04962
  20
267.41492
  0
VERTEX
  10
216.41669
  20
267.87085
  0
VERTEX
  10
217.77649
  20
268.36884
  0
VERTEX
  10
219.12857
  20
268.90875
  0
VERTEX
  10
220.47256
  20
269.49033
  0
VERTEX
  10
221.80798
  20
270.11334
  0
VERTEX
  10
223.13449
  20
270.77759
  0
VERTEX
  10
224.4516
  20
271.48282
  0
VERTEX
  10
225.75888
  20
272.22885
  0
VERTEX
  10
227.05597
  20
273.01544
  0
VERTEX
  10
228.34235
  20
273.84238
  0
VERTEX
  10
229.61768
  20
274.70944
  0
VERTEX
  10
230.88147
  20
275.61642
  0
VERTEX
  10
232.13336
  20
276.56311
  0
VERTEX
  10
233.37292
  20
277.54922
  0
SEQEND
  0
POLYLINE
  62
0
  70
1
  0
VERTEX
  10
282.45657
  20
185.0293
  0
VERTEX
  10
282.43115
  20
184.77734
  0
VERTEX
  10
282.35834
  20
184.54272
  0
VERTEX
  10
282.2431
  20
184.33038
  0
VERTEX
  10
282.09045
  20
184.14539
  0
VERTEX
  10
281.90546
  20
183.99274
  0
VERTEX
  10
281.69312
  20
183.8775
  0
VERTEX
  10
281.4585
  20
183.80469
  0
VERTEX
  10
281.20657
  20
183.7793
  0
VERTEX
  10
280.95465
  20
183.80469
  0
VERTEX
  10
280.72003
  20
183.8775
  0
VERTEX
  10
280.50769
  20
183.99274
  0
VERTEX
  10
280.32269
  20
184.14539
  0
VERTEX
  10
280.17004
  20
184.33038
  0
VERTEX
  10
280.05481
  20
184.54272
  0
VERTEX
  10
279.98199
  20
184.77734
  0
VERTEX
  10
279.95657
  20
185.0293
  0
VERTEX
  10
279.98199
  20
185.28125
  0
VERTEX
  10
280.05481
  20
185.51587
  0
VERTEX
  10
280.17004
  20
185.72821
  0
VERTEX
  10
280.32269
  20
185.91321
  0
VERTEX
  10
280.50769
  20
186.06586
  0
VERTEX
  10
280.72003
  20
186.18109
  0
VERTEX
  10
280.95465
  20
186.25391
  0
VERTEX
  10
281.20657
  20
186.2793
  0
VERTEX
  10
281.4585
  20
186.25391
  0
VERTEX
  10
281.69312
  20
186.18109
  0
VERTEX
  10
281.90546
  20
186.06586
  0
VERTEX
  10
282.09045
  20
185.91321
  0
VERTEX
  10
282.2431
  20
185.72821
  0
VERTEX
  10
282.35834
  20
185.51587
  0
VERTEX
  10
282.43115
  20
185.28125
  0
VERTEX
  10
282.45657
  20
185.0293
  0
SEQEND
  0
POLYLINE
  62
0
  70
1
  0
VERTEX
  10
293.37067
  20
170.57141
  0
VERTEX
  10
293.23178
  20
170.59039
  0
VERTEX
  10
293.0943
  20
170.60153
  0
VERTEX
  10
292.95819
  20
170.60489
  0
VERTEX
  10
292.82346
  20
170.60052
  0
VERTEX
  10
292.69009
  20
170.58853
  0
VERTEX
  10
292.55804
  20
170.56894
  0
VERTEX
  10
292.42731
  20
170.54187
  0
VERTEX
  10
292.29788
  20
170.50745
  0
VERTEX
  10
292.16968
  20
170.46576
  0
VERTEX
  10
292.04272
  20
170.41702
  0
VERTEX
  10
291.91699
  20
170.36136
  0
VERTEX
  10
291.79239
  20
170.29898
  0
VERTEX
  10
291.54645
  20
170.15488
  0
VERTEX
  10
291.3045
  20
169.98663
  0
VERTEX
  10
291.0661
  20
169.79654
  0
VERTEX
  10
290.83069
  20
169.5871
  0
VERTEX
  10
290.59769
  20
169.36108
  0
VERTEX
  10
290.36649
  20
169.12152
  0
VERTEX
  10
290.13644
  20
168.8714
  0
VERTEX
  10
289.90689
  20
168.61389
  0
VERTEX
  10
289.44656
  20
168.08963
  0
VERTEX
  10
289.21448
  20
167.82928
  0
VERTEX
  10
288.98022
  20
167.57419
  0
VERTEX
  10
288.74323
  20
167.32736
  0
VERTEX
  10
288.5029
  20
167.09155
  0
VERTEX
  10
288.2587
  20
166.86923
  0
VERTEX
  10
288.01019
  20
166.66272
  0
VERTEX
  10
287.75699
  20
166.47394
  0
VERTEX
  10
287.49875
  20
166.30447
  0
VERTEX
  10
287.2352
  20
166.15564
  0
VERTEX
  10
286.96616
  20
166.02844
  0
VERTEX
  10
286.69147
  20
165.92374
  0
VERTEX
  10
286.41101
  20
165.84198
  0
VERTEX
  10
286.12476
  20
165.7836
  0
VERTEX
  10
285.83261
  20
165.74893
  0
VERTEX
  10
285.53461
  20
165.73804
  0
VERTEX
  10
285.23071
  20
165.75095
  0
VERTEX
  10
284.92096
  20
165.78766
  0
VERTEX
  10
284.60535
  20
165.84811
  0
VERTEX
  10
284.28394
  20
165.93225
  0
VERTEX
  10
283.9567
  20
166.04001
  0
VERTEX
  10
282.42859
  20
168.65204
  0
VERTEX
  10
280.96692
  20
171.32837
  0
VERTEX
  10
279.57214
  20
174.06628
  0
VERTEX
  10
278.24457
  20
176.86298
  0
VERTEX
  10
276.98462
  20
179.71567
  0
VERTEX
  10
275.79266
  20
182.62158
  0
VERTEX
  10
274.66913
  20
185.57788
  0
VERTEX
  10
273.61432
  20
188.58185
  0
VERTEX
  10
272.62869
  20
191.63062
  0
VERTEX
  10
271.71259
  20
194.72153
  0
VERTEX
  10
270.86639
  20
197.85168
  0
VERTEX
  10
270.09048
  20
201.01831
  0
VERTEX
  10
269.38528
  20
204.21863
  0
VERTEX
  10
268.75119
  20
207.44986
  0
VERTEX
  10
268.18854
  20
210.70923
  0
VERTEX
  10
267.69775
  20
213.99396
  0
VERTEX
  10
267.27917
  20
217.30121
  0
VERTEX
  10
266.93323
  20
220.62823
  0
VERTEX
  10
266.66028
  20
223.97223
  0
VERTEX
  10
266.46069
  20
227.33044
  0
VERTEX
  10
266.33487
  20
230.70004
  0
VERTEX
  10
266.2832
  20
234.07828
  0
VERTEX
  10
266.30609
  20
237.46228
  0
VERTEX
  10
266.40387
  20
240.8494
  0
VERTEX
  10
266.57703
  20
244.23676
  0
VERTEX
  10
266.82581
  20
247.62155
  0
VERTEX
  10
267.15067
  20
251.00105
  0
VERTEX
  10
267.55197
  20
254.37244
  0
VERTEX
  10
268.03015
  20
257.73294
  0
VERTEX
  10
268.58554
  20
261.07977
  0
VERTEX
  10
269.21857
  20
264.4101
  0
VERTEX
  10
269.92957
  20
267.72119
  0
VERTEX
  10
270.18375
  20
268.66083
  0
VERTEX
  10
270.4415
  20
269.58167
  0
VERTEX
  10
270.70288
  20
270.48364
  0
VERTEX
  10
270.96786
  20
271.36639
  0
VERTEX
  10
271.23657
  20
272.22961
  0
VERTEX
  10
271.50909
  20
273.07285
  0
VERTEX
  10
271.78555
  20
273.89545
  0
VERTEX
  10
272.06604
  20
274.69684
  0
VERTEX
  10
272.35071
  20
275.4762
  0
VERTEX
  10
272.63971
  20
276.23279
  0
VERTEX
  10
272.9332
  20
276.96576
  0
VERTEX
  10
273.23138
  20
277.67413
  0
VERTEX
  10
273.38226
  20
278.01889
  0
VERTEX
  10
273.53436
  20
278.35715
  0
VERTEX
  10
273.68774
  20
278.68884
  0
VERTEX
  10
273.84238
  20
279.01385
  0
VERTEX
  10
273.99829
  20
279.33209
  0
VERTEX
  10
274.15552
  20
279.64349
  0
VERTEX
  10
274.31409
  20
279.94791
  0
VERTEX
  10
274.47397
  20
280.2453
  0
VERTEX
  10
274.63522
  20
280.53555
  0
VERTEX
  10
274.79785
  20
280.81866
  0
VERTEX
  10
274.96182
  20
281.09454
  0
VERTEX
  10
275.12717
  20
281.36322
  0
VERTEX
  10
275.29391
  20
281.6246
  0
VERTEX
  10
275.46204
  20
281.87872
  0
VERTEX
  10
275.63153
  20
282.12561
  0
VERTEX
  10
275.80243
  20
282.36523
  0
VERTEX
  10
275.97467
  20
282.59766
  0
VERTEX
  10
276.14828
  20
282.82294
  0
VERTEX
  10
276.32324
  20
283.04114
  0
VERTEX
  10
276.49954
  20
283.25226
  0
VERTEX
  10
276.67719
  20
283.45639
  0
VERTEX
  10
276.85611
  20
283.65363
  0
VERTEX
  10
277.03638
  20
283.84396
  0
VERTEX
  10
277.21793
  20
284.02753
  0
VERTEX
  10
277.40076
  20
284.20435
  0
VERTEX
  10
277.58484
  20
284.37451
  0
VERTEX
  10
277.7702
  20
284.53802
  0
VERTEX
  10
277.95679
  20
284.69507
  0
VERTEX
  10
278.14462
  20
284.84558
  0
VERTEX
  10
278.33368
  20
284.98969
  0
VERTEX
  10
278.52396
  20
285.12738
  0
VERTEX
  10
278.71542
  20
285.25873
  0
VERTEX
  10
278.90811
  20
285.38373
  0
VERTEX
  10
279.10199
  20
285.5025
  0
VERTEX
  10
279.29706
  20
285.61499
  0
VERTEX
  10
279.49332
  20
285.72119
  0
VERTEX
  10
279.49332
  20
279.72119
  0
VERTEX
  10
280.83142
  20
279.72119
  0
VERTEX
  10
280.83142
  20
267.72119
  0
VERTEX
  10
282.16949
  20
267.72119
  0
VERTEX
  10
281.61465
  20
265.35345
  0
VERTEX
  10
281.10141
  20
262.96198
  0
VERTEX
  10
280.63007
  20
260.54816
  0
VERTEX
  10
280.2009
  20
258.11343
  0
VERTEX
  10
279.11273
  20
259.2016
  0
VERTEX
  10
274.87009
  20
254.95895
  0
VERTEX
  10
279.16556
  20
250.66348
  0
VERTEX
  10
278.95911
  20
248.68716
  0
VERTEX
  10
278.78003
  20
246.70465
  0
VERTEX
  10
278.62836
  20
244.71671
  0
VERTEX
  10
278.50421
  20
242.72406
  0
VERTEX
  10
278.40756
  20
240.72742
  0
VERTEX
  10
278.3385
  20
238.7276
  0
VERTEX
  10
278.297
  20
236.72522
  0
VERTEX
  10
278.28317
  20
234.72119
  0
VERTEX
  10
278.29877
  20
232.53418
  0
VERTEX
  10
278.34534
  20
230.35205
  0
VERTEX
  10
278.42285
  20
228.17548
  0
VERTEX
  10
278.53107
  20
226.00507
  0
VERTEX
  10
278.66983
  20
223.84161
  0
VERTEX
  10
278.83899
  20
221.68576
  0
VERTEX
  10
279.03839
  20
219.53821
  0
VERTEX
  10
279.26785
  20
217.3996
  0
VERTEX
  10
279.52716
  20
215.27069
  0
VERTEX
  10
279.81628
  20
213.15216
  0
VERTEX
  10
280.13495
  20
211.04474
  0
VERTEX
  10
280.48303
  20
208.94904
  0
VERTEX
  10
280.86038
  20
206.86578
  0
VERTEX
  10
281.26682
  20
204.79565
  0
VERTEX
  10
281.70215
  20
202.73944
  0
VERTEX
  10
282.16626
  20
200.69769
  0
VERTEX
  10
282.65897
  20
198.6712
  0
VERTEX
  10
283.18011
  20
196.66061
  0
VERTEX
  10
283.72952
  20
194.66663
  0
VERTEX
  10
284.30707
  20
192.68994
  0
VERTEX
  10
284.91254
  20
190.73126
  0
VERTEX
  10
285.54578
  20
188.79126
  0
VERTEX
  10
286.20667
  20
186.87067
  0
VERTEX
  10
286.89499
  20
184.97009
  0
VERTEX
  10
287.6106
  20
183.09033
  0
VERTEX
  10
288.35339
  20
181.23199
  0
VERTEX
  10
289.12311
  20
179.39578
  0
VERTEX
  10
289.91968
  20
177.58246
  0
VERTEX
  10
290.74286
  20
175.79266
  0
VERTEX
  10
291.59253
  20
174.0271
  0
VERTEX
  10
292.46854
  20
172.28644
  0
VERTEX
  10
293.37067
  20
170.57141
  0
SEQEND
  0
POLYLINE
  62
0
  70
1
  0
VERTEX
  10
139.79047
  20
189.93011
  0
VERTEX
  10
139.76508
  20
189.67816
  0
VERTEX
  10
139.6922
  20
189.44354
  0
VERTEX
  10
139.5769
  20
189.2312
  0
VERTEX
  10
139.42432
  20
189.0462
  0
VERTEX
  10
139.23938
  20
188.89355
  0
VERTEX
  10
139.02698
  20
188.77832
  0
VERTEX
  10
138.79236
  20
188.70551
  0
VERTEX
  10
138.54047
  20
188.68011
  0
VERTEX
  10
138.28857
  20
188.70551
  0
VERTEX
  10
138.05396
  20
188.77832
  0
VERTEX
  10
137.84155
  20
188.89355
  0
VERTEX
  10
137.65662
  20
189.0462
  0
VERTEX
  10
137.50403
  20
189.2312
  0
VERTEX
  10
137.38873
  20
189.44354
  0
VERTEX
  10
137.31586
  20
189.67816
  0
VERTEX
  10
137.29047
  20
189.93011
  0
VERTEX
  10
137.31586
  20
190.18207
  0
VERTEX
  10
137.38873
  20
190.41669
  0
VERTEX
  10
137.50403
  20
190.62903
  0
VERTEX
  10
137.65662
  20
190.81403
  0
VERTEX
  10
137.84155
  20
190.96667
  0
VERTEX
  10
138.05396
  20
191.08191
  0
VERTEX
  10
138.28857
  20
191.15472
  0
VERTEX
  10
138.54047
  20
191.18011
  0
VERTEX
  10
138.79236
  20
191.15472
  0
VERTEX
  10
139.02698
  20
191.08191
  0
VERTEX
  10
139.23938
  20
190.96667
  0
VERTEX
  10
139.42432
  20
190.81403
  0
VERTEX
  10
139.5769
  20
190.62903
  0
VERTEX
  10
139.6922
  20
190.41669
  0
VERTEX
  10
139.76508
  20
190.18207
  0
VERTEX
  10
139.79047
  20
189.93011
  0
SEQEND
  0
POLYLINE
  62
0
  70
1
  0
VERTEX
  10
34.037292
  20
189.93011
  0
VERTEX
  10
34.011902
  20
189.67816
  0
VERTEX
  10
33.939026
  20
189.44354
  0
VERTEX
  10
33.82373
  20
189.2312
  0
VERTEX
  10
33.671143
  20
189.0462
  0
VERTEX
  10
33.486206
  20
188.89355
  0
VERTEX
  10
33.273804
  20
188.77832
  0
VERTEX
  10
33.039185
  20
188.70551
  0
VERTEX
  10
32.787292
  20
188.68011
  0
VERTEX
  10
32.5354
  20
188.70551
  0
VERTEX
  10
32.300781
  20
188.77832
  0
VERTEX
  10
32.088379
  20
188.89355
  0
VERTEX
  10
31.903442
  20
189.0462
  0
VERTEX
  10
31.750854
  20
189.2312
  0
VERTEX
  10
31.635559
  20
189.44354
  0
VERTEX
  10
31.562683
  20
189.67816
  0
VERTEX
  10
31.537292
  20
189.93011
  0
VERTEX
  10
31.562683
  20
190.18207
  0
VERTEX
  10
31.635559
  20
190.41669
  0
VERTEX
  10
31.750854
  20
190.62903
  0
VERTEX
  10
31.903442
  20
190.81403
  0
VERTEX
  10
32.088379
  20
190.96667
  0
VERTEX
  10
32.300781
  20
191.08191
  0
VERTEX
  10
32.5354
  20
191.15472
  0
VERTEX
  10
32.787292
  20
191.18011
  0
VERTEX
  10
33.039185
  20
191.15472
  0
VERTEX
  10
33.273804
  20
191.08191
  0
VERTEX
  10
33.486206
  20
190.96667
  0
VERTEX
  10
33.671143
  20
190.81403
  0
VERTEX
  10
33.82373
  20
190.62903
  0
VERTEX
  10
33.939026
  20
190.41669
  0
VERTEX
  10
34.011902
  20
190.18207
  0
VERTEX
  10
34.037292
  20
189.93011
  0
SEQEND
  0
POLYLINE
  62
0
  70
1
  0
VERTEX
  10
31.074036
  20
284.62204
  0
VERTEX
  10
140.25372
  20
284.62204
  0
VERTEX
  10
140.25372
  20
290.62204
  0
VERTEX
  10
140.45001
  20
290.51581
  0
VERTEX
  10
140.64502
  20
290.40332
  0
VERTEX
  10
140.83893
  20
290.28458
  0
VERTEX
  10
141.03162
  20
290.15955
  0
VERTEX
  10
141.22308
  20
290.0282
  0
VERTEX
  10
141.41333
  20
289.8905
  0
VERTEX
  10
141.60242
  20
289.7464
  0
VERTEX
  10
141.79022
  20
289.59589
  0
VERTEX
  10
141.97687
  20
289.43887
  0
VERTEX
  10
142.16217
  20
289.27533
  0
VERTEX
  10
142.34631
  20
289.10516
  0
VERTEX
  10
142.52911
  20
288.92834
  0
VERTEX
  10
142.71069
  20
288.74481
  0
VERTEX
  10
142.89093
  20
288.55444
  0
VERTEX
  10
143.06989
  20
288.35724
  0
VERTEX
  10
143.2475
  20
288.15308
  0
VERTEX
  10
143.42383
  20
287.94196
  0
VERTEX
  10
143.59875
  20
287.72379
  0
VERTEX
  10
143.7724
  20
287.4985
  0
VERTEX
  10
143.94458
  20
287.26605
  0
VERTEX
  10
144.11548
  20
287.02643
  0
VERTEX
  10
144.28497
  20
286.77954
  0
VERTEX
  10
144.45313
  20
286.52545
  0
VERTEX
  10
144.61987
  20
286.26404
  0
VERTEX
  10
144.78522
  20
285.99539
  0
VERTEX
  10
144.94922
  20
285.71948
  0
VERTEX
  10
145.11182
  20
285.4364
  0
VERTEX
  10
145.27307
  20
285.14612
  0
VERTEX
  10
145.43298
  20
284.84875
  0
VERTEX
  10
145.59149
  20
284.54431
  0
VERTEX
  10
145.74872
  20
284.23294
  0
VERTEX
  10
145.90466
  20
283.9147
  0
VERTEX
  10
146.05933
  20
283.58966
  0
VERTEX
  10
146.21265
  20
283.258
  0
VERTEX
  10
146.36481
  20
282.91974
  0
VERTEX
  10
146.51569
  20
282.57498
  0
VERTEX
  10
146.81384
  20
281.86658
  0
VERTEX
  10
147.10736
  20
281.13364
  0
VERTEX
  10
147.39636
  20
280.37704
  0
VERTEX
  10
147.68103
  20
279.59766
  0
VERTEX
  10
147.96149
  20
278.7963
  0
VERTEX
  10
148.23792
  20
277.97369
  0
VERTEX
  10
148.5105
  20
277.13049
  0
VERTEX
  10
148.77917
  20
276.26724
  0
VERTEX
  10
149.04419
  20
275.38446
  0
VERTEX
  10
149.30554
  20
274.48251
  0
VERTEX
  10
149.56329
  20
273.56165
  0
VERTEX
  10
149.81744
  20
272.62207
  0
VERTEX
  10
150.25262
  20
270.64191
  0
VERTEX
  10
150.65967
  20
268.65573
  0
VERTEX
  10
151.03864
  20
266.66412
  0
VERTEX
  10
151.38965
  20
264.66769
  0
VERTEX
  10
151.71283
  20
262.66696
  0
VERTEX
  10
152.00836
  20
260.66248
  0
VERTEX
  10
152.27631
  20
258.65485
  0
VERTEX
  10
152.51678
  20
256.64459
  0
VERTEX
  10
152.72992
  20
254.63232
  0
VERTEX
  10
152.91577
  20
252.61861
  0
VERTEX
  10
153.07452
  20
250.60397
  0
VERTEX
  10
153.20636
  20
248.58905
  0
VERTEX
  10
153.31128
  20
246.57433
  0
VERTEX
  10
153.38947
  20
244.56042
  0
VERTEX
  10
153.44098
  20
242.54788
  0
VERTEX
  10
153.46594
  20
240.53729
  0
VERTEX
  10
153.4646
  20
238.52917
  0
VERTEX
  10
153.43689
  20
236.52417
  0
VERTEX
  10
153.38306
  20
234.52277
  0
VERTEX
  10
153.30316
  20
232.52557
  0
VERTEX
  10
153.19733
  20
230.53314
  0
VERTEX
  10
153.06567
  20
228.54608
  0
VERTEX
  10
152.90833
  20
226.56488
  0
VERTEX
  10
152.72546
  20
224.59015
  0
VERTEX
  10
152.51715
  20
222.62244
  0
VERTEX
  10
152.28345
  20
220.66235
  0
VERTEX
  10
152.02454
  20
218.71045
  0
VERTEX
  10
151.74048
  20
216.76727
  0
VERTEX
  10
151.43152
  20
214.8334
  0
VERTEX
  10
151.09766
  20
212.90942
  0
VERTEX
  10
150.73901
  20
210.99585
  0
VERTEX
  10
150.35583
  20
209.09326
  0
VERTEX
  10
149.94812
  20
207.20227
  0
VERTEX
  10
149.51593
  20
205.32336
  0
VERTEX
  10
149.05951
  20
203.45721
  0
VERTEX
  10
148.57898
  20
201.60431
  0
VERTEX
  10
148.07434
  20
199.76526
  0
VERTEX
  10
147.54578
  20
197.94055
  0
VERTEX
  10
146.99347
  20
196.13083
  0
VERTEX
  10
146.41748
  20
194.33667
  0
VERTEX
  10
145.81793
  20
192.55859
  0
VERTEX
  10
145.19489
  20
190.79718
  0
VERTEX
  10
144.54846
  20
189.05301
  0
VERTEX
  10
143.87891
  20
187.3266
  0
VERTEX
  10
143.18628
  20
185.61859
  0
VERTEX
  10
142.47058
  20
183.9295
  0
VERTEX
  10
141.73218
  20
182.25995
  0
VERTEX
  10
140.97089
  20
180.61041
  0
VERTEX
  10
140.18701
  20
178.98151
  0
VERTEX
  10
139.38068
  20
177.37381
  0
VERTEX
  10
138.55194
  20
175.7879
  0
VERTEX
  10
137.70093
  20
174.2243
  0
VERTEX
  10
136.82776
  20
172.68359
  0
VERTEX
  10
135.93256
  20
171.16635
  0
VERTEX
  10
135.01538
  20
169.67316
  0
VERTEX
  10
134.07654
  20
168.20453
  0
VERTEX
  10
133.11591
  20
166.76108
  0
VERTEX
  10
132.13379
  20
165.34335
  0
VERTEX
  10
131.13025
  20
163.95197
  0
VERTEX
  10
130.10535
  20
162.5874
  0
VERTEX
  10
129.05927
  20
161.25027
  0
VERTEX
  10
127.99213
  20
159.94113
  0
VERTEX
  10
126.90399
  20
158.66055
  0
VERTEX
  10
125.79492
  20
157.40912
  0
VERTEX
  10
124.66925
  20
156.19174
  0
VERTEX
  10
123.53137
  20
155.013
  0
VERTEX
  10
122.38171
  20
153.87292
  0
VERTEX
  10
121.22058
  20
152.77151
  0
VERTEX
  10
120.0484
  20
151.70874
  0
VERTEX
  10
118.86554
  20
150.68457
  0
VERTEX
  10
117.67242
  20
149.6991
  0
VERTEX
  10
116.46942
  20
148.75226
  0
VERTEX
  10
115.2569
  20
147.84406
  0
VERTEX
  10
114.0354
  20
146.97452
  0
VERTEX
  10
112.80518
  20
146.14362
  0
VERTEX
  10
111.56671
  20
145.35138
  0
VERTEX
  10
110.32031
  20
144.59778
  0
VERTEX
  10
109.06641
  20
143.88281
  0
VERTEX
  10
107.80542
  20
143.20651
  0
VERTEX
  10
106.53772
  20
142.56885
  0
VERTEX
  10
105.26367
  20
141.96982
  0
VERTEX
  10
103.98376
  20
141.40942
  0
VERTEX
  10
102.69824
  20
140.8877
  0
VERTEX
  10
101.40765
  20
140.40463
  0
VERTEX
  10
100.1123
  20
139.96021
  0
VERTEX
  10
98.812622
  20
139.55438
  0
VERTEX
  10
97.509033
  20
139.18726
  0
VERTEX
  10
96.201843
  20
138.85876
  0
VERTEX
  10
94.891602
  20
138.56891
  0
VERTEX
  10
93.578491
  20
138.31769
  0
VERTEX
  10
92.263
  20
138.10516
  0
VERTEX
  10
90.945557
  20
137.93124
  0
VERTEX
  10
89.626526
  20
137.79596
  0
VERTEX
  10
88.306335
  20
137.69934
  0
VERTEX
  10
86.985352
  20
137.64139
  0
VERTEX
  10
85.66394
  20
137.62207
  0
VERTEX
  10
84.342529
  20
137.64139
  0
VERTEX
  10
83.021545
  20
137.69934
  0
VERTEX
  10
81.701355
  20
137.79596
  0
VERTEX
  10
80.382324
  20
137.93124
  0
VERTEX
  10
79.06488
  20
138.10516
  0
VERTEX
  10
77.74939
  20
138.31769
  0
VERTEX
  10
76.436279
  20
138.56891
  0
VERTEX
  10
75.126038
  20
138.85876
  0
VERTEX
  10
73.818848
  20
139.18726
  0
VERTEX
  10
72.515259
  20
139.55438
  0
VERTEX
  10
71.215576
  20
139.96017
  0
VERTEX
  10
69.920227
  20
140.4046
  0
VERTEX
  10
68.629639
  20
140.88766
  0
VERTEX
  10
67.344116
  20
141.40936
  0
VERTEX
  10
66.064209
  20
141.96976
  0
VERTEX
  10
64.790161
  20
142.56879
  0
VERTEX
  10
63.522461
  20
143.20645
  0
VERTEX
  10
62.261475
  20
143.88275
  0
VERTEX
  10
61.007568
  20
144.59772
  0
VERTEX
  10
59.761169
  20
145.35135
  0
VERTEX
  10
58.522705
  20
146.14362
  0
VERTEX
  10
57.292419
  20
146.97449
  0
VERTEX
  10
56.070862
  20
147.84406
  0
VERTEX
  10
54.858398
  20
148.75226
  0
VERTEX
  10
53.655396
  20
149.6991
  0
VERTEX
  10
52.46228
  20
150.68457
  0
VERTEX
  10
51.27948
  20
151.70874
  0
VERTEX
  10
50.107239
  20
152.77151
  0
VERTEX
  10
48.946106
  20
153.87292
  0
VERTEX
  10
47.796387
  20
155.013
  0
VERTEX
  10
46.658508
  20
156.19174
  0
VERTEX
  10
45.532837
  20
157.40909
  0
VERTEX
  10
44.423767
  20
158.66052
  0
VERTEX
  10
43.335632
  20
159.9411
  0
VERTEX
  10
42.268494
  20
161.25021
  0
VERTEX
  10
41.222412
  20
162.58734
  0
VERTEX
  10
40.19751
  20
163.9519
  0
VERTEX
  10
39.19397
  20
165.34332
  0
VERTEX
  10
38.211853
  20
166.76105
  0
VERTEX
  10
37.251221
  20
168.2045
  0
VERTEX
  10
36.312378
  20
169.6731
  0
VERTEX
  10
35.395203
  20
171.16632
  0
VERTEX
  10
34.5
  20
172.68353
  0
VERTEX
  10
33.626831
  20
174.22424
  0
VERTEX
  10
32.775818
  20
175.78784
  0
VERTEX
  10
31.947083
  20
177.37378
  0
VERTEX
  10
31.140747
  20
178.98151
  0
VERTEX
  10
30.356873
  20
180.61038
  0
VERTEX
  10
29.595581
  20
182.25989
  0
VERTEX
  10
28.857178
  20
183.9295
  0
VERTEX
  10
28.141479
  20
185.61859
  0
VERTEX
  10
27.448853
  20
187.3266
  0
VERTEX
  10
26.779297
  20
189.05301
  0
VERTEX
  10
26.132874
  20
190.79718
  0
VERTEX
  10
25.509827
  20
192.55859
  0
VERTEX
  10
24.910278
  20
194.33667
  0
VERTEX
  10
24.33429
  20
196.13083
  0
VERTEX
  10
23.781982
  20
197.94055
  0
VERTEX
  10
23.253418
  20
199.76526
  0
VERTEX
  10
22.748779
  20
201.60431
  0
VERTEX
  10
22.26825
  20
203.45721
  0
VERTEX
  10
21.811829
  20
205.32336
  0
VERTEX
  10
21.379639
  20
207.20227
  0
VERTEX
  10
20.971924
  20
209.09326
  0
VERTEX
  10
20.588745
  20
210.99585
  0
VERTEX
  10
20.230103
  20
212.90942
  0
VERTEX
  10
19.89624
  20
214.8334
  0
VERTEX
  10
19.58728
  20
216.76727
  0
VERTEX
  10
19.303223
  20
218.71045
  0
VERTEX
  10
19.044312
  20
220.66235
  0
VERTEX
  10
18.810608
  20
222.62244
  0
VERTEX
  10
18.602295
  20
224.59015
  0
VERTEX
  10
18.419434
  20
226.56488
  0
VERTEX
  10
18.262085
  20
228.54605
  0
VERTEX
  10
18.130432
  20
230.53314
  0
VERTEX
  10
18.024597
  20
232.52554
  0
VERTEX
  10
17.944702
  20
234.52274
  0
VERTEX
  10
17.890869
  20
236.52414
  0
VERTEX
  10
17.863159
  20
238.52917
  0
VERTEX
  10
17.861816
  20
240.53726
  0
VERTEX
  10
17.88678
  20
242.54788
  0
VERTEX
  10
17.938293
  20
244.56041
  0
VERTEX
  10
18.016479
  20
246.57431
  0
VERTEX
  10
18.121399
  20
248.58904
  0
VERTEX
  10
18.253235
  20
250.60397
  0
VERTEX
  10
18.411987
  20
252.61861
  0
VERTEX
  10
18.597839
  20
254.63232
  0
VERTEX
  10
18.810974
  20
256.64459
  0
VERTEX
  10
19.051453
  20
258.65485
  0
VERTEX
  10
19.319397
  20
260.66248
  0
VERTEX
  10
19.614929
  20
262.66696
  0
VERTEX
  10
19.93811
  20
264.66769
  0
VERTEX
  10
20.289124
  20
266.66412
  0
VERTEX
  10
20.668091
  20
268.6557
  0
VERTEX
  10
21.075134
  20
270.64185
  0
VERTEX
  10
21.510315
  20
272.62204
  0
VERTEX
  10
21.764465
  20
273.56165
  0
VERTEX
  10
22.022217
  20
274.48251
  0
VERTEX
  10
22.283569
  20
275.38446
  0
VERTEX
  10
22.548584
  20
276.26724
  0
VERTEX
  10
22.817322
  20
277.13046
  0
VERTEX
  10
23.089844
  20
277.97369
  0
VERTEX
  10
23.366272
  20
278.7963
  0
VERTEX
  10
23.646729
  20
279.59766
  0
VERTEX
  10
23.931396
  20
280.37704
  0
VERTEX
  10
24.220398
  20
281.13364
  0
VERTEX
  10
24.513916
  20
281.86658
  0
VERTEX
  10
24.812073
  20
282.57498
  0
VERTEX
  10
24.962952
  20
282.91974
  0
VERTEX
  10
25.115112
  20
283.258
  0
VERTEX
  10
25.268433
  20
283.58966
  0
VERTEX
  10
25.423096
  20
283.9147
  0
VERTEX
  10
25.578979
  20
284.23294
  0
VERTEX
  10
25.736267
  20
284.54431
  0
VERTEX
  10
25.894775
  20
284.84875
  0
VERTEX
  10
26.054688
  20
285.14612
  0
VERTEX
  10
26.215942
  20
285.4364
  0
VERTEX
  10
26.37854
  20
285.71948
  0
VERTEX
  10
26.542542
  20
285.99539
  0
VERTEX
  10
26.707886
  20
286.26404
  0
VERTEX
  10
26.874634
  20
286.52545
  0
VERTEX
  10
27.042786
  20
286.77954
  0
VERTEX
  10
27.21228
  20
287.02643
  0
VERTEX
  10
27.383118
  20
287.26605
  0
VERTEX
  10
27.555359
  20
287.4985
  0
VERTEX
  10
27.729004
  20
287.72379
  0
VERTEX
  10
27.903931
  20
287.94196
  0
VERTEX
  10
28.080261
  20
288.15308
  0
VERTEX
  10
28.257874
  20
288.35724
  0
VERTEX
  10
28.436829
  20
288.55444
  0
VERTEX
  10
28.617065
  20
288.74481
  0
VERTEX
  10
28.798645
  20
288.92834
  0
VERTEX
  10
28.981445
  20
289.10516
  0
VERTEX
  10
29.165588
  20
289.27533
  0
VERTEX
  10
29.350891
  20
289.43887
  0
VERTEX
  10
29.537476
  20
289.59589
  0
VERTEX
  10
29.725342
  20
289.7464
  0
VERTEX
  10
29.914429
  20
289.8905
  0
VERTEX
  10
30.104675
  20
290.0282
  0
VERTEX
  10
30.296143
  20
290.15955
  0
VERTEX
  10
30.488831
  20
290.28458
  0
VERTEX
  10
30.682678
  20
290.40332
  0
VERTEX
  10
30.877808
  20
290.51581
  0
VERTEX
  10
31.074036
  20
290.62204
  0
VERTEX
  10
31.074036
  20
284.62204
  0
SEQEND
  0
POLYLINE
  62
0
  70
1
  0
VERTEX
  10
533.15283
  20
421.86606
  0
VERTEX
  10
533.1377
  20
420.66589
  0
VERTEX
  10
533.09235
  20
419.47318
  0
VERTEX
  10
533.01727
  20
418.28833
  0
VERTEX
  10
532.91278
  20
417.11169
  0
VERTEX
  10
532.7793
  20
415.94366
  0
VERTEX
  10
532.61707
  20
414.78458
  0
VERTEX
  10
532.42657
  20
413.6348
  0
VERTEX
  10
532.20813
  20
412.49469
  0
VERTEX
  10
531.96216
  20
411.36462
  0
VERTEX
  10
531.6889
  20
410.245
  0
VERTEX
  10
531.38885
  20
409.13611
  0
VERTEX
  10
531.06232
  20
408.03839
  0
VERTEX
  10
530.70966
  20
406.95215
  0
VERTEX
  10
530.33124
  20
405.87781
  0
VERTEX
  10
529.92749
  20
404.81567
  0
VERTEX
  10
529.49866
  20
403.76617
  0
VERTEX
  10
529.04517
  20
402.72961
  0
VERTEX
  10
528.56744
  20
401.70639
  0
VERTEX
  10
528.0658
  20
400.69687
  0
VERTEX
  10
527.54053
  20
399.70142
  0
VERTEX
  10
526.99213
  20
398.72037
  0
VERTEX
  10
526.4209
  20
397.75412
  0
VERTEX
  10
525.82715
  20
396.80304
  0
VERTEX
  10
525.21143
  20
395.86749
  0
VERTEX
  10
524.57385
  20
394.94781
  0
VERTEX
  10
523.91498
  20
394.04437
  0
VERTEX
  10
523.23505
  20
393.15756
  0
VERTEX
  10
522.53455
  20
392.28775
  0
VERTEX
  10
521.81372
  20
391.43527
  0
VERTEX
  10
521.073
  20
390.60052
  0
VERTEX
  10
520.31274
  20
389.78384
  0
VERTEX
  10
519.53333
  20
388.9856
  0
VERTEX
  10
518.73511
  20
388.20618
  0
VERTEX
  10
517.9184
  20
387.44592
  0
VERTEX
  10
517.08362
  20
386.70523
  0
VERTEX
  10
516.2312
  20
385.98441
  0
VERTEX
  10
515.36133
  20
385.28387
  0
VERTEX
  10
514.47455
  20
384.60397
  0
VERTEX
  10
513.57117
  20
383.94507
  0
VERTEX
  10
512.65149
  20
383.30756
  0
VERTEX
  10
511.71588
  20
382.69174
  0
VERTEX
  10
510.76483
  20
382.09802
  0
VERTEX
  10
509.79858
  20
381.52679
  0
VERTEX
  10
508.81754
  20
380.97836
  0
VERTEX
  10
507.82208
  20
380.45313
  0
VERTEX
  10
506.81256
  20
379.95148
  0
VERTEX
  10
505.78931
  20
379.47372
  0
VERTEX
  10
504.75275
  20
379.02026
  0
VERTEX
  10
503.70325
  20
378.59146
  0
VERTEX
  10
502.64111
  20
378.18768
  0
VERTEX
  10
501.56677
  20
377.80927
  0
VERTEX
  10
500.48053
  20
377.4566
  0
VERTEX
  10
499.38281
  20
377.13007
  0
VERTEX
  10
498.27393
  20
376.83002
  0
VERTEX
  10
497.1543
  20
376.55676
  0
VERTEX
  10
496.02423
  20
376.31079
  0
VERTEX
  10
494.88412
  20
376.09235
  0
VERTEX
  10
493.73438
  20
375.90186
  0
VERTEX
  10
492.57526
  20
375.73965
  0
VERTEX
  10
491.40723
  20
375.60614
  0
VERTEX
  10
490.23059
  20
375.50165
  0
VERTEX
  10
489.04575
  20
375.42657
  0
VERTEX
  10
487.85306
  20
375.38126
  0
VERTEX
  10
486.65286
  20
375.36606
  0
VERTEX
  10
485.45267
  20
375.38126
  0
VERTEX
  10
484.25998
  20
375.42657
  0
VERTEX
  10
483.07513
  20
375.50165
  0
VERTEX
  10
481.8985
  20
375.60614
  0
VERTEX
  10
480.73047
  20
375.73965
  0
VERTEX
  10
479.57135
  20
375.90186
  0
VERTEX
  10
478.4216
  20
376.09235
  0
VERTEX
  10
477.28149
  20
376.31079
  0
VERTEX
  10
476.15143
  20
376.55676
  0
VERTEX
  10
475.0318
  20
376.83002
  0
VERTEX
  10
473.92291
  20
377.13007
  0
VERTEX
  10
472.8252
  20
377.4566
  0
VERTEX
  10
471.73895
  20
377.80927
  0
VERTEX
  10
470.66461
  20
378.18768
  0
VERTEX
  10
469.60248
  20
378.59146
  0
VERTEX
  10
468.55298
  20
379.02026
  0
VERTEX
  10
467.51642
  20
379.47372
  0
VERTEX
  10
466.49316
  20
379.95148
  0
VERTEX
  10
465.48364
  20
380.45313
  0
VERTEX
  10
464.48819
  20
380.97836
  0
VERTEX
  10
463.50714
  20
381.52679
  0
VERTEX
  10
462.54089
  20
382.09802
  0
VERTEX
  10
461.58984
  20
382.69174
  0
VERTEX
  10
460.65427
  20
383.30756
  0
VERTEX
  10
459.73459
  20
383.94507
  0
VERTEX
  10
458.83118
  20
384.60397
  0
VERTEX
  10
457.94437
  20
385.28387
  0
VERTEX
  10
457.07455
  20
385.98441
  0
VERTEX
  10
456.22208
  20
386.70523
  0
VERTEX
  10
455.38733
  20
387.44592
  0
VERTEX
  10
454.57065
  20
388.20618
  0
VERTEX
  10
453.7724
  20
388.9856
  0
VERTEX
  10
452.99298
  20
389.78384
  0
VERTEX
  10
452.23273
  20
390.60052
  0
VERTEX
  10
451.492
  20
391.43527
  0
VERTEX
  10
450.77118
  20
392.28775
  0
VERTEX
  10
450.07068
  20
393.15756
  0
VERTEX
  10
449.39075
  20
394.04437
  0
VERTEX
  10
448.73187
  20
394.94781
  0
VERTEX
  10
448.09433
  20
395.86749
  0
VERTEX
  10
447.47855
  20
396.80304
  0
VERTEX
  10
446.88483
  20
397.75412
  0
VERTEX
  10
446.3136
  20
398.72037
  0
VERTEX
  10
445.76517
  20
399.70142
  0
VERTEX
  10
445.23996
  20
400.69687
  0
VERTEX
  10
444.73828
  20
401.70639
  0
VERTEX
  10
444.26053
  20
402.72961
  0
VERTEX
  10
443.80707
  20
403.76617
  0
VERTEX
  10
443.37823
  20
404.81567
  0
VERTEX
  10
442.97446
  20
405.87781
  0
VERTEX
  10
442.59604
  20
406.95215
  0
VERTEX
  10
442.24341
  20
408.03839
  0
VERTEX
  10
441.91684
  20
409.13611
  0
VERTEX
  10
441.61679
  20
410.245
  0
VERTEX
  10
441.34357
  20
411.36462
  0
VERTEX
  10
441.0976
  20
412.49469
  0
VERTEX
  10
440.87915
  20
413.6348
  0
VERTEX
  10
440.68866
  20
414.78458
  0
VERTEX
  10
440.52643
  20
415.94366
  0
VERTEX
  10
440.39294
  20
417.11169
  0
VERTEX
  10
440.28845
  20
418.28833
  0
VERTEX
  10
440.21338
  20
419.47318
  0
VERTEX
  10
440.16806
  20
420.66589
  0
VERTEX
  10
440.15286
  20
421.86606
  0
VERTEX
  10
440.16806
  20
423.06625
  0
VERTEX
  10
440.21338
  20
424.25897
  0
VERTEX
  10
440.28845
  20
425.44379
  0
VERTEX
  10
440.39294
  20
426.62042
  0
VERTEX
  10
440.52643
  20
427.78845
  0
VERTEX
  10
440.68866
  20
428.94757
  0
VERTEX
  10
440.87915
  20
430.09735
  0
VERTEX
  10
441.0976
  20
431.23743
  0
VERTEX
  10
441.34357
  20
432.36749
  0
VERTEX
  10
441.61679
  20
433.48715
  0
VERTEX
  10
441.91684
  20
434.59601
  0
VERTEX
  10
442.24341
  20
435.69376
  0
VERTEX
  10
442.59604
  20
436.77997
  0
VERTEX
  10
442.97446
  20
437.85434
  0
VERTEX
  10
443.37823
  20
438.91644
  0
VERTEX
  10
443.80707
  20
439.96597
  0
VERTEX
  10
444.26053
  20
441.0025
  0
VERTEX
  10
444.73828
  20
442.02576
  0
VERTEX
  10
445.23996
  20
443.03528
  0
VERTEX
  10
445.76517
  20
444.03073
  0
VERTEX
  10
446.3136
  20
445.01178
  0
VERTEX
  10
446.88483
  20
445.978
  0
VERTEX
  10
447.47855
  20
446.92908
  0
VERTEX
  10
448.09433
  20
447.86465
  0
VERTEX
  10
448.73187
  20
448.78433
  0
VERTEX
  10
449.39075
  20
449.68774
  0
VERTEX
  10
450.07068
  20
450.57455
  0
VERTEX
  10
450.77118
  20
451.4444
  0
VERTEX
  10
451.492
  20
452.29688
  0
VERTEX
  10
452.23273
  20
453.13162
  0
VERTEX
  10
452.99298
  20
453.9483
  0
VERTEX
  10
453.7724
  20
454.74652
  0
VERTEX
  10
454.57065
  20
455.52594
  0
VERTEX
  10
455.38733
  20
456.28619
  0
VERTEX
  10
456.22208
  20
457.02692
  0
VERTEX
  10
457.07455
  20
457.74774
  0
VERTEX
  10
457.94437
  20
458.44827
  0
VERTEX
  10
458.83118
  20
459.12817
  0
VERTEX
  10
459.73459
  20
459.78705
  0
VERTEX
  10
460.65427
  20
460.42459
  0
VERTEX
  10
461.58984
  20
461.04041
  0
VERTEX
  10
462.54089
  20
461.63409
  0
VERTEX
  10
463.50714
  20
462.20535
  0
VERTEX
  10
464.48819
  20
462.75378
  0
VERTEX
  10
465.48364
  20
463.27899
  0
VERTEX
  10
466.49316
  20
463.78067
  0
VERTEX
  10
467.51642
  20
464.25842
  0
VERTEX
  10
468.55298
  20
464.71185
  0
VERTEX
  10
469.60248
  20
465.14069
  0
VERTEX
  10
470.66461
  20
465.54446
  0
VERTEX
  10
471.73895
  20
465.92285
  0
VERTEX
  10
472.8252
  20
466.27551
  0
VERTEX
  10
473.92291
  20
466.60205
  0
VERTEX
  10
475.0318
  20
466.90213
  0
VERTEX
  10
476.15143
  20
467.17535
  0
VERTEX
  10
477.28149
  20
467.42136
  0
VERTEX
  10
478.4216
  20
467.6398
  0
VERTEX
  10
479.57135
  20
467.83029
  0
VERTEX
  10
480.73047
  20
467.99246
  0
VERTEX
  10
481.8985
  20
468.12598
  0
VERTEX
  10
483.07513
  20
468.23047
  0
VERTEX
  10
484.25998
  20
468.30557
  0
VERTEX
  10
485.45267
  20
468.35089
  0
VERTEX
  10
486.65286
  20
468.36606
  0
VERTEX
  10
487.85306
  20
468.35089
  0
VERTEX
  10
489.04575
  20
468.30557
  0
VERTEX
  10
490.23059
  20
468.23047
  0
VERTEX
  10
491.40723
  20
468.12598
  0
VERTEX
  10
492.57526
  20
467.99246
  0
VERTEX
  10
493.73438
  20
467.83029
  0
VERTEX
  10
494.88412
  20
467.6398
  0
VERTEX
  10
496.02423
  20
467.42136
  0
VERTEX
  10
497.1543
  20
467.17535
  0
VERTEX
  10
498.27393
  20
466.90213
  0
VERTEX
  10
499.38281
  20
466.60205
  0
VERTEX
  10
500.48053
  20
466.27551
  0
VERTEX
  10
501.56677
  20
465.92285
  0
VERTEX
  10
502.64111
  20
465.54446
  0
VERTEX
  10
503.70325
  20
465.14069
  0
VERTEX
  10
504.75275
  20
464.71185
  0
VERTEX
  10
505.78931
  20
464.25842
  0
VERTEX
  10
506.81256
  20
463.78067
  0
VERTEX
  10
507.82208
  20
463.27899
  0
VERTEX
  10
508.81754
  20
462.75378
  0
VERTEX
  10
509.79858
  20
462.20535
  0
VERTEX
  10
510.76483
  20
461.63409
  0
VERTEX
  10
511.71588
  20
461.04041
  0
VERTEX
  10
512.65149
  20
460.42459
  0
VERTEX
  10
513.57117
  20
459.78705
  0
VERTEX
  10
514.47455
  20
459.12817
  0
VERTEX
  10
515.36133
  20
458.44827
  0
VERTEX
  10
516.2312
  20
457.74774
  0
VERTEX
  10
517.08362
  20
457.02692
  0
VERTEX
  10
517.9184
  20
456.28619
  0
VERTEX
  10
518.73511
  20
455.52594
  0
VERTEX
  10
519.53333
  20
454.74652
  0
VERTEX
  10
520.31274
  20
453.9483
  0
VERTEX
  10
521.073
  20
453.13162
  0
VERTEX
  10
521.81372
  20
452.29688
  0
VERTEX
  10
522.53455
  20
451.4444
  0
VERTEX
  10
523.23505
  20
450.57455
  0
VERTEX
  10
523.91498
  20
449.68774
  0
VERTEX
  10
524.57385
  20
448.78433
  0
VERTEX
  10
525.21143
  20
447.86465
  0
VERTEX
  10
525.82715
  20
446.92908
  0
VERTEX
  10
526.4209
  20
445.978
  0
VERTEX
  10
526.99213
  20
445.01178
  0
VERTEX
  10
527.54053
  20
444.03073
  0
VERTEX
  10
528.0658
  20
443.03528
  0
VERTEX
  10
528.56744
  20
442.02576
  0
VERTEX
  10
529.04517
  20
441.0025
  0
VERTEX
  10
529.49866
  20
439.96597
  0
VERTEX
  10
529.92749
  20
438.91644
  0
VERTEX
  10
530.33124
  20
437.85434
  0
VERTEX
  10
530.70966
  20
436.77997
  0
VERTEX
  10
531.06232
  20
435.69376
  0
VERTEX
  10
531.38885
  20
434.59601
  0
VERTEX
  10
531.6889
  20
433.48715
  0
VERTEX
  10
531.96216
  20
432.36749
  0
VERTEX
  10
532.20813
  20
431.23743
  0
VERTEX
  10
532.42657
  20
430.09735
  0
VERTEX
  10
532.61707
  20
428.94757
  0
VERTEX
  10
532.7793
  20
427.78845
  0
VERTEX
  10
532.91278
  20
426.62042
  0
VERTEX
  10
533.01727
  20
425.44379
  0
VERTEX
  10
533.09235
  20
424.25897
  0
VERTEX
  10
533.1377
  20
423.06625
  0
VERTEX
  10
533.15283
  20
421.86606
  0
SEQEND
  0
POLYLINE
  62
0
  70
1
  0
VERTEX
  10
541.24268
  20
313.00891
  0
VERTEX
  10
432.06302
  20
313.00891
  0
VERTEX
  10
432.06302
  20
493.00891
  0
VERTEX
  10
541.24268
  20
493.00891
  0
VERTEX
  10
541.24268
  20
313.00891
  0
SEQEND
  0
POLYLINE
  62
0
  70
1
  0
VERTEX
  10
484.21924
  20
328.2196
  0
VERTEX
  10
484.47015
  20
330.7287
  0
VERTEX
  10
483.59741
  20
330.7287
  0
VERTEX
  10
483.34653
  20
328.2196
  0
VERTEX
  10
483.73926
  20
327.78326
  0
VERTEX
  10
484.21924
  20
328.2196
  0
SEQEND
  0
POLYLINE
  62
0
  70
1
  0
VERTEX
  10
482.40833
  20
331.81961
  0
VERTEX
  10
482.35626
  20
331.80045
  0
VERTEX
  10
482.30466
  20
331.78076
  0
VERTEX
  10
482.27917
  20
331.7706
  0
VERTEX
  10
482.25397
  20
331.7601
  0
VERTEX
  10
482.22906
  20
331.74924
  0
VERTEX
  10
482.20459
  20
331.73792
  0
VERTEX
  10
482.1806
  20
331.72614
  0
VERTEX
  10
482.15723
  20
331.71387
  0
VERTEX
  10
482.13452
  20
331.70099
  0
VERTEX
  10
482.11249
  20
331.68753
  0
VERTEX
  10
482.09116
  20
331.67337
  0
VERTEX
  10
482.07062
  20
331.65845
  0
VERTEX
  10
482.05084
  20
331.64276
  0
VERTEX
  10
482.03192
  20
331.62616
  0
VERTEX
  10
482.01385
  20
331.60867
  0
VERTEX
  10
481.99658
  20
331.59033
  0
VERTEX
  10
481.98004
  20
331.57114
  0
VERTEX
  10
481.9642
  20
331.55121
  0
VERTEX
  10
481.94897
  20
331.53058
  0
VERTEX
  10
481.93433
  20
331.50928
  0
VERTEX
  10
481.92023
  20
331.48743
  0
VERTEX
  10
481.90662
  20
331.46506
  0
VERTEX
  10
481.8934
  20
331.4422
  0
VERTEX
  10
481.88055
  20
331.41895
  0
VERTEX
  10
481.86804
  20
331.39536
  0
VERTEX
  10
481.85577
  20
331.37146
  0
VERTEX
  10
481.83185
  20
331.32306
  0
VERTEX
  10
481.80835
  20
331.27417
  0
VERTEX
  10
482.64835
  20
330.9469
  0
VERTEX
  10
485.25562
  20
330.9469
  0
VERTEX
  10
485.67017
  20
331.81961
  0
VERTEX
  10
482.40833
  20
331.81961
  0
SEQEND
  0
POLYLINE
  62
0
  70
1
  0
VERTEX
  10
481.49197
  20
328.2196
  0
VERTEX
  10
481.68835
  20
328.0014
  0
VERTEX
  10
482.40833
  20
328.65598
  0
VERTEX
  10
482.6156
  20
330.7287
  0
VERTEX
  10
481.77563
  20
331.05597
  0
VERTEX
  10
481.49197
  20
328.2196
  0
SEQEND
  0
POLYLINE
  62
0
  70
1
  0
VERTEX
  10
481.42651
  20
327.56506
  0
VERTEX
  10
481.12106
  20
324.5105
  0
VERTEX
  10
481.13849
  20
324.44879
  0
VERTEX
  10
481.15692
  20
324.388
  0
VERTEX
  10
481.16687
  20
324.35825
  0
VERTEX
  10
481.17749
  20
324.3291
  0
VERTEX
  10
481.18884
  20
324.30063
  0
VERTEX
  10
481.20114
  20
324.27301
  0
VERTEX
  10
481.20767
  20
324.25952
  0
VERTEX
  10
481.21442
  20
324.2464
  0
VERTEX
  10
481.22125
  20
324.23392
  0
VERTEX
  10
481.22815
  20
324.22208
  0
VERTEX
  10
481.23508
  20
324.21085
  0
VERTEX
  10
481.24207
  20
324.2002
  0
VERTEX
  10
481.24915
  20
324.19006
  0
VERTEX
  10
481.25623
  20
324.18048
  0
VERTEX
  10
481.2634
  20
324.17139
  0
VERTEX
  10
481.27063
  20
324.16275
  0
VERTEX
  10
481.27789
  20
324.15454
  0
VERTEX
  10
481.28519
  20
324.14673
  0
VERTEX
  10
481.29993
  20
324.1322
  0
VERTEX
  10
481.31488
  20
324.1189
  0
VERTEX
  10
481.33026
  20
324.10638
  0
VERTEX
  10
481.34625
  20
324.09448
  0
VERTEX
  10
481.36282
  20
324.08307
  0
VERTEX
  10
481.37994
  20
324.07211
  0
VERTEX
  10
481.39752
  20
324.06165
  0
VERTEX
  10
481.41559
  20
324.05154
  0
VERTEX
  10
481.43402
  20
324.04184
  0
VERTEX
  10
481.45288
  20
324.03247
  0
VERTEX
  10
481.49152
  20
324.01459
  0
VERTEX
  10
481.53113
  20
323.99756
  0
VERTEX
  10
481.57138
  20
323.98117
  0
VERTEX
  10
481.61197
  20
323.96506
  0
VERTEX
  10
482.02652
  20
324.83777
  0
VERTEX
  10
482.25562
  20
327.12869
  0
VERTEX
  10
481.6665
  20
327.78326
  0
VERTEX
  10
481.42651
  20
327.56506
  0
SEQEND
  0
POLYLINE
  62
0
  70
1
  0
VERTEX
  10
491.27744
  20
327.89233
  0
VERTEX
  10
490.8847
  20
328.3287
  0
VERTEX
  10
488.04834
  20
328.3287
  0
VERTEX
  10
487.56836
  20
327.89233
  0
VERTEX
  10
487.96106
  20
327.45596
  0
VERTEX
  10
490.79742
  20
327.45596
  0
VERTEX
  10
491.27744
  20
327.89233
  0
SEQEND
  0
POLYLINE
  62
0
  70
1
  0
VERTEX
  10
487.1647
  20
328.2196
  0
VERTEX
  10
487.36108
  20
328.0014
  0
VERTEX
  10
488.08105
  20
328.65598
  0
VERTEX
  10
488.28833
  20
330.7287
  0
VERTEX
  10
487.44833
  20
331.05597
  0
VERTEX
  10
487.1647
  20
328.2196
  0
SEQEND
  0
POLYLINE
  62
0
  70
1
  0
VERTEX
  10
487.09924
  20
327.56506
  0
VERTEX
  10
487.33923
  20
327.78326
  0
VERTEX
  10
487.92834
  20
327.12869
  0
VERTEX
  10
487.72107
  20
325.05597
  0
VERTEX
  10
486.81561
  20
324.7287
  0
VERTEX
  10
487.09924
  20
327.56506
  0
SEQEND
  0
POLYLINE
  62
0
  70
1
  0
VERTEX
  10
487.47015
  20
331.27417
  0
VERTEX
  10
488.31015
  20
330.9469
  0
VERTEX
  10
490.92834
  20
330.9469
  0
VERTEX
  10
491.40833
  20
331.38324
  0
VERTEX
  10
491.01563
  20
331.81961
  0
VERTEX
  10
487.52472
  20
331.81961
  0
VERTEX
  10
487.47015
  20
331.27417
  0
SEQEND
  0
POLYLINE
  62
0
  70
1
  0
VERTEX
  10
491.68106
  20
327.56506
  0
VERTEX
  10
491.48471
  20
327.78326
  0
VERTEX
  10
490.76471
  20
327.12869
  0
VERTEX
  10
490.53561
  20
324.83777
  0
VERTEX
  10
490.83014
  20
324.5105
  0
VERTEX
  10
491.43018
  20
325.05597
  0
VERTEX
  10
491.68106
  20
327.56506
  0
SEQEND
  0
POLYLINE
  62
0
  70
1
  0
VERTEX
  10
491.14651
  20
330.9469
  0
VERTEX
  10
490.91742
  20
328.65598
  0
VERTEX
  10
491.50653
  20
328.0014
  0
VERTEX
  10
491.74652
  20
328.2196
  0
VERTEX
  10
491.99744
  20
330.7287
  0
VERTEX
  10
491.50653
  20
331.27417
  0
VERTEX
  10
491.14651
  20
330.9469
  0
SEQEND
  0
POLYLINE
  62
0
  70
1
  0
VERTEX
  10
490.21924
  20
323.96506
  0
VERTEX
  10
490.69925
  20
324.40143
  0
VERTEX
  10
490.30652
  20
324.83777
  0
VERTEX
  10
487.69925
  20
324.83777
  0
VERTEX
  10
486.79379
  20
324.5105
  0
VERTEX
  10
486.73926
  20
323.96506
  0
VERTEX
  10
490.21924
  20
323.96506
  0
SEQEND
  0
POLYLINE
  62
0
  70
1
  0
VERTEX
  10
486.07379
  20
328.2196
  0
VERTEX
  10
486.37924
  20
331.27417
  0
VERTEX
  10
486.36182
  20
331.33588
  0
VERTEX
  10
486.34338
  20
331.39667
  0
VERTEX
  10
486.33344
  20
331.42642
  0
VERTEX
  10
486.32285
  20
331.45557
  0
VERTEX
  10
486.31146
  20
331.48404
  0
VERTEX
  10
486.29919
  20
331.51166
  0
VERTEX
  10
486.29266
  20
331.52515
  0
VERTEX
  10
486.28589
  20
331.53827
  0
VERTEX
  10
486.27905
  20
331.55075
  0
VERTEX
  10
486.27219
  20
331.56259
  0
VERTEX
  10
486.26526
  20
331.57382
  0
VERTEX
  10
486.25824
  20
331.58447
  0
VERTEX
  10
486.25119
  20
331.5946
  0
VERTEX
  10
486.24408
  20
331.60419
  0
VERTEX
  10
486.23691
  20
331.61328
  0
VERTEX
  10
486.22971
  20
331.62192
  0
VERTEX
  10
486.22244
  20
331.63013
  0
VERTEX
  10
486.21515
  20
331.63794
  0
VERTEX
  10
486.20038
  20
331.65247
  0
VERTEX
  10
486.18542
  20
331.66577
  0
VERTEX
  10
486.17004
  20
331.67828
  0
VERTEX
  10
486.15405
  20
331.69019
  0
VERTEX
  10
486.13751
  20
331.7016
  0
VERTEX
  10
486.12039
  20
331.71255
  0
VERTEX
  10
486.10278
  20
331.72302
  0
VERTEX
  10
486.08472
  20
331.73312
  0
VERTEX
  10
486.06628
  20
331.74283
  0
VERTEX
  10
486.04742
  20
331.7522
  0
VERTEX
  10
486.00882
  20
331.77008
  0
VERTEX
  10
485.96921
  20
331.78711
  0
VERTEX
  10
485.92896
  20
331.8035
  0
VERTEX
  10
485.88834
  20
331.81961
  0
VERTEX
  10
485.47382
  20
330.9469
  0
VERTEX
  10
485.24469
  20
328.65598
  0
VERTEX
  10
485.8338
  20
328.0014
  0
VERTEX
  10
486.07379
  20
328.2196
  0
SEQEND
  0
POLYLINE
  62
0
  70
1
  0
VERTEX
  10
484.86288
  20
324.83777
  0
VERTEX
  10
485.09198
  20
327.12869
  0
VERTEX
  10
485.81198
  20
327.78326
  0
VERTEX
  10
486.00836
  20
327.56506
  0
VERTEX
  10
485.70288
  20
324.5105
  0
VERTEX
  10
485.67938
  20
324.46161
  0
VERTEX
  10
485.65546
  20
324.41321
  0
VERTEX
  10
485.64319
  20
324.38931
  0
VERTEX
  10
485.63068
  20
324.36572
  0
VERTEX
  10
485.61783
  20
324.34247
  0
VERTEX
  10
485.60461
  20
324.31961
  0
VERTEX
  10
485.591
  20
324.29724
  0
VERTEX
  10
485.57687
  20
324.27539
  0
VERTEX
  10
485.56226
  20
324.25409
  0
VERTEX
  10
485.54703
  20
324.23346
  0
VERTEX
  10
485.53119
  20
324.21353
  0
VERTEX
  10
485.51465
  20
324.19434
  0
VERTEX
  10
485.49738
  20
324.17599
  0
VERTEX
  10
485.47931
  20
324.15851
  0
VERTEX
  10
485.46039
  20
324.14191
  0
VERTEX
  10
485.44061
  20
324.12622
  0
VERTEX
  10
485.42007
  20
324.1113
  0
VERTEX
  10
485.39874
  20
324.09714
  0
VERTEX
  10
485.37671
  20
324.08368
  0
VERTEX
  10
485.354
  20
324.0708
  0
VERTEX
  10
485.3306
  20
324.05853
  0
VERTEX
  10
485.30661
  20
324.04675
  0
VERTEX
  10
485.28217
  20
324.03543
  0
VERTEX
  10
485.25726
  20
324.02457
  0
VERTEX
  10
485.23206
  20
324.0141
  0
VERTEX
  10
485.20657
  20
324.00391
  0
VERTEX
  10
485.15497
  20
323.98425
  0
VERTEX
  10
485.10291
  20
323.96506
  0
VERTEX
  10
484.86288
  20
324.83777
  0
SEQEND
  0
POLYLINE
  62
0
  70
1
  0
VERTEX
  10
298.46185
  20
358.2818
  0
VERTEX
  10
298.43765
  20
357.32462
  0
VERTEX
  10
298.36581
  20
356.38004
  0
VERTEX
  10
298.2475
  20
355.44919
  0
VERTEX
  10
298.08395
  20
354.53323
  0
VERTEX
  10
297.87628
  20
353.63336
  0
VERTEX
  10
297.62561
  20
352.7507
  0
VERTEX
  10
297.33319
  20
351.88647
  0
VERTEX
  10
297.00018
  20
351.04181
  0
VERTEX
  10
296.62769
  20
350.21793
  0
VERTEX
  10
296.21695
  20
349.41592
  0
VERTEX
  10
295.7691
  20
348.63702
  0
VERTEX
  10
295.28528
  20
347.88235
  0
VERTEX
  10
294.76669
  20
347.15314
  0
VERTEX
  10
294.21451
  20
346.45047
  0
VERTEX
  10
293.62991
  20
345.77557
  0
VERTEX
  10
293.01404
  20
345.12961
  0
VERTEX
  10
292.36804
  20
344.51373
  0
VERTEX
  10
291.69318
  20
343.92914
  0
VERTEX
  10
290.99051
  20
343.37695
  0
VERTEX
  10
290.26129
  20
342.85837
  0
VERTEX
  10
289.50665
  20
342.37457
  0
VERTEX
  10
288.72772
  20
341.9267
  0
VERTEX
  10
287.92572
  20
341.51596
  0
VERTEX
  10
287.10181
  20
341.14346
  0
VERTEX
  10
286.25717
  20
340.81042
  0
VERTEX
  10
285.39294
  20
340.51801
  0
VERTEX
  10
284.51031
  20
340.26736
  0
VERTEX
  10
283.61041
  20
340.05966
  0
VERTEX
  10
282.69446
  20
339.89609
  0
VERTEX
  10
281.76361
  20
339.7778
  0
VERTEX
  10
280.81903
  20
339.70599
  0
VERTEX
  10
279.86185
  20
339.68176
  0
VERTEX
  10
278.90466
  20
339.70599
  0
VERTEX
  10
277.96008
  20
339.7778
  0
VERTEX
  10
277.02924
  20
339.89609
  0
VERTEX
  10
276.11328
  20
340.05966
  0
VERTEX
  10
275.21338
  20
340.26736
  0
VERTEX
  10
274.33075
  20
340.51801
  0
VERTEX
  10
273.46652
  20
340.81042
  0
VERTEX
  10
272.62189
  20
341.14346
  0
VERTEX
  10
271.79797
  20
341.51596
  0
VERTEX
  10
270.99597
  20
341.9267
  0
VERTEX
  10
270.21704
  20
342.37457
  0
VERTEX
  10
269.4624
  20
342.85837
  0
VERTEX
  10
268.73318
  20
343.37695
  0
VERTEX
  10
268.03052
  20
343.92914
  0
VERTEX
  10
267.35565
  20
344.51373
  0
VERTEX
  10
266.70966
  20
345.12961
  0
VERTEX
  10
266.09378
  20
345.77557
  0
VERTEX
  10
265.50919
  20
346.45047
  0
VERTEX
  10
264.957
  20
347.15314
  0
VERTEX
  10
264.43842
  20
347.88235
  0
VERTEX
  10
263.95459
  20
348.63702
  0
VERTEX
  10
263.50674
  20
349.41592
  0
VERTEX
  10
263.09601
  20
350.21793
  0
VERTEX
  10
262.72351
  20
351.04181
  0
VERTEX
  10
262.3905
  20
351.88647
  0
VERTEX
  10
262.09808
  20
352.7507
  0
VERTEX
  10
261.84741
  20
353.63336
  0
VERTEX
  10
261.63974
  20
354.53323
  0
VERTEX
  10
261.4762
  20
355.44919
  0
VERTEX
  10
261.35788
  20
356.38004
  0
VERTEX
  10
261.28604
  20
357.32462
  0
VERTEX
  10
261.26184
  20
358.2818
  0
VERTEX
  10
261.28604
  20
359.23895
  0
VERTEX
  10
261.35788
  20
360.18353
  0
VERTEX
  10
261.4762
  20
361.11438
  0
VERTEX
  10
261.63974
  20
362.03033
  0
VERTEX
  10
261.84741
  20
362.93021
  0
VERTEX
  10
262.09808
  20
363.81287
  0
VERTEX
  10
262.3905
  20
364.67709
  0
VERTEX
  10
262.72351
  20
365.52173
  0
VERTEX
  10
263.09601
  20
366.34564
  0
VERTEX
  10
263.50674
  20
367.14764
  0
VERTEX
  10
263.95459
  20
367.92657
  0
VERTEX
  10
264.43842
  20
368.68121
  0
VERTEX
  10
264.957
  20
369.41043
  0
VERTEX
  10
265.50919
  20
370.1131
  0
VERTEX
  10
266.09378
  20
370.78799
  0
VERTEX
  10
266.70966
  20
371.43396
  0
VERTEX
  10
267.35565
  20
372.04984
  0
VERTEX
  10
268.03052
  20
372.63446
  0
VERTEX
  10
268.73318
  20
373.18661
  0
VERTEX
  10
269.4624
  20
373.7052
  0
VERTEX
  10
270.21704
  20
374.189
  0
VERTEX
  10
270.99597
  20
374.63687
  0
VERTEX
  10
271.79797
  20
375.04761
  0
VERTEX
  10
272.62189
  20
375.4201
  0
VERTEX
  10
273.46652
  20
375.75314
  0
VERTEX
  10
274.33075
  20
376.04556
  0
VERTEX
  10
275.21338
  20
376.2962
  0
VERTEX
  10
276.11328
  20
376.50391
  0
VERTEX
  10
277.02924
  20
376.66748
  0
VERTEX
  10
277.96008
  20
376.78577
  0
VERTEX
  10
278.90466
  20
376.8576
  0
VERTEX
  10
279.86185
  20
376.88177
  0
VERTEX
  10
280.81903
  20
376.8576
  0
VERTEX
  10
281.76361
  20
376.78577
  0
VERTEX
  10
282.69446
  20
376.66748
  0
VERTEX
  10
283.61041
  20
376.50391
  0
VERTEX
  10
284.51031
  20
376.2962
  0
VERTEX
  10
285.39294
  20
376.04556
  0
VERTEX
  10
286.25717
  20
375.75314
  0
VERTEX
  10
287.10181
  20
375.4201
  0
VERTEX
  10
287.92572
  20
375.04761
  0
VERTEX
  10
288.72772
  20
374.63687
  0
VERTEX
  10
289.50665
  20
374.189
  0
VERTEX
  10
290.26129
  20
373.7052
  0
VERTEX
  10
290.99051
  20
373.18661
  0
VERTEX
  10
291.69318
  20
372.63446
  0
VERTEX
  10
292.36804
  20
372.04984
  0
VERTEX
  10
293.01404
  20
371.43396
  0
VERTEX
  10
293.62991
  20
370.78799
  0
VERTEX
  10
294.21451
  20
370.1131
  0
VERTEX
  10
294.76669
  20
369.41043
  0
VERTEX
  10
295.28528
  20
368.68121
  0
VERTEX
  10
295.7691
  20
367.92657
  0
VERTEX
  10
296.21695
  20
367.14764
  0
VERTEX
  10
296.62769
  20
366.34564
  0
VERTEX
  10
297.00018
  20
365.52173
  0
VERTEX
  10
297.33319
  20
364.67709
  0
VERTEX
  10
297.62561
  20
363.81287
  0
VERTEX
  10
297.87628
  20
362.93021
  0
VERTEX
  10
298.08395
  20
362.03033
  0
VERTEX
  10
298.2475
  20
361.11438
  0
VERTEX
  10
298.36581
  20
360.18353
  0
VERTEX
  10
298.43765
  20
359.23895
  0
VERTEX
  10
298.46185
  20
358.2818
  0
SEQEND
  0
POLYLINE
  62
0
  70
1
  0
VERTEX
  10
251.96185
  20
358.2818
  0
VERTEX
  10
251.93765
  20
357.32462
  0
VERTEX
  10
251.86581
  20
356.38004
  0
VERTEX
  10
251.7475
  20
355.44919
  0
VERTEX
  10
251.58395
  20
354.53323
  0
VERTEX
  10
251.37628
  20
353.63336
  0
VERTEX
  10
251.12561
  20
352.7507
  0
VERTEX
  10
250.83319
  20
351.88647
  0
VERTEX
  10
250.50018
  20
351.04181
  0
VERTEX
  10
250.12769
  20
350.21793
  0
VERTEX
  10
249.71695
  20
349.41592
  0
VERTEX
  10
249.2691
  20
348.63702
  0
VERTEX
  10
248.78528
  20
347.88235
  0
VERTEX
  10
248.26669
  20
347.15314
  0
VERTEX
  10
247.71451
  20
346.45047
  0
VERTEX
  10
247.12991
  20
345.77557
  0
VERTEX
  10
246.51404
  20
345.12961
  0
VERTEX
  10
245.86804
  20
344.51373
  0
VERTEX
  10
245.19318
  20
343.92914
  0
VERTEX
  10
244.49051
  20
343.37695
  0
VERTEX
  10
243.76129
  20
342.85837
  0
VERTEX
  10
243.00665
  20
342.37457
  0
VERTEX
  10
242.22772
  20
341.9267
  0
VERTEX
  10
241.42572
  20
341.51596
  0
VERTEX
  10
240.60181
  20
341.14346
  0
VERTEX
  10
239.75717
  20
340.81042
  0
VERTEX
  10
238.89294
  20
340.51801
  0
VERTEX
  10
238.01031
  20
340.26736
  0
VERTEX
  10
237.11041
  20
340.05966
  0
VERTEX
  10
236.19446
  20
339.89609
  0
VERTEX
  10
235.26361
  20
339.7778
  0
VERTEX
  10
234.31903
  20
339.70599
  0
VERTEX
  10
233.36185
  20
339.68176
  0
VERTEX
  10
232.40466
  20
339.70599
  0
VERTEX
  10
231.46008
  20
339.7778
  0
VERTEX
  10
230.52924
  20
339.89609
  0
VERTEX
  10
229.61328
  20
340.05966
  0
VERTEX
  10
228.71338
  20
340.26736
  0
VERTEX
  10
227.83075
  20
340.51801
  0
VERTEX
  10
226.96652
  20
340.81042
  0
VERTEX
  10
226.12189
  20
341.14346
  0
VERTEX
  10
225.29797
  20
341.51596
  0
VERTEX
  10
224.49597
  20
341.9267
  0
VERTEX
  10
223.71704
  20
342.37457
  0
VERTEX
  10
222.9624
  20
342.85837
  0
VERTEX
  10
222.23318
  20
343.37695
  0
VERTEX
  10
221.53052
  20
343.92914
  0
VERTEX
  10
220.85565
  20
344.51373
  0
VERTEX
  10
220.20966
  20
345.12961
  0
VERTEX
  10
219.59378
  20
345.77557
  0
VERTEX
  10
219.00919
  20
346.45047
  0
VERTEX
  10
218.457
  20
347.15314
  0
VERTEX
  10
217.93842
  20
347.88235
  0
VERTEX
  10
217.45459
  20
348.63702
  0
VERTEX
  10
217.00674
  20
349.41592
  0
VERTEX
  10
216.59601
  20
350.21793
  0
VERTEX
  10
216.22351
  20
351.04181
  0
VERTEX
  10
215.8905
  20
351.88647
  0
VERTEX
  10
215.59808
  20
352.7507
  0
VERTEX
  10
215.34741
  20
353.63336
  0
VERTEX
  10
215.13974
  20
354.53323
  0
VERTEX
  10
214.9762
  20
355.44919
  0
VERTEX
  10
214.85788
  20
356.38004
  0
VERTEX
  10
214.78604
  20
357.32462
  0
VERTEX
  10
214.76184
  20
358.2818
  0
VERTEX
  10
214.78604
  20
359.23895
  0
VERTEX
  10
214.85788
  20
360.18353
  0
VERTEX
  10
214.9762
  20
361.11438
  0
VERTEX
  10
215.13974
  20
362.03033
  0
VERTEX
  10
215.34741
  20
362.93021
  0
VERTEX
  10
215.59808
  20
363.81287
  0
VERTEX
  10
215.8905
  20
364.67709
  0
VERTEX
  10
216.22351
  20
365.52173
  0
VERTEX
  10
216.59601
  20
366.34564
  0
VERTEX
  10
217.00674
  20
367.14764
  0
VERTEX
  10
217.45459
  20
367.92657
  0
VERTEX
  10
217.93842
  20
368.68121
  0
VERTEX
  10
218.457
  20
369.41043
  0
VERTEX
  10
219.00919
  20
370.1131
  0
VERTEX
  10
219.59378
  20
370.78799
  0
VERTEX
  10
220.20966
  20
371.43396
  0
VERTEX
  10
220.85565
  20
372.04984
  0
VERTEX
  10
221.53052
  20
372.63446
  0
VERTEX
  10
222.23318
  20
373.18661
  0
VERTEX
  10
222.9624
  20
373.7052
  0
VERTEX
  10
223.71704
  20
374.189
  0
VERTEX
  10
224.49597
  20
374.63687
  0
VERTEX
  10
225.29797
  20
375.04761
  0
VERTEX
  10
226.12189
  20
375.4201
  0
VERTEX
  10
226.96652
  20
375.75314
  0
VERTEX
  10
227.83075
  20
376.04556
  0
VERTEX
  10
228.71338
  20
376.2962
  0
VERTEX
  10
229.61328
  20
376.50391
  0
VERTEX
  10
230.52924
  20
376.66748
  0
VERTEX
  10
231.46008
  20
376.78577
  0
VERTEX
  10
232.40466
  20
376.8576
  0
VERTEX
  10
233.36185
  20
376.88177
  0
VERTEX
  10
234.31903
  20
376.8576
  0
VERTEX
  10
235.26361
  20
376.78577
  0
VERTEX
  10
236.19446
  20
376.66748
  0
VERTEX
  10
237.11041
  20
376.50391
  0
VERTEX
  10
238.01031
  20
376.2962
  0
VERTEX
  10
238.89294
  20
376.04556
  0
VERTEX
  10
239.75717
  20
375.75314
  0
VERTEX
  10
240.60181
  20
375.4201
  0
VERTEX
  10
241.42572
  20
375.04761
  0
VERTEX
  10
242.22772
  20
374.63687
  0
VERTEX
  10
243.00665
  20
374.189
  0
VERTEX
  10
243.76129
  20
373.7052
  0
VERTEX
  10
244.49051
  20
373.18661
  0
VERTEX
  10
245.19318
  20
372.63446
  0
VERTEX
  10
245.86804
  20
372.04984
  0
VERTEX
  10
246.51404
  20
371.43396
  0
VERTEX
  10
247.12991
  20
370.78799
  0
VERTEX
  10
247.71451
  20
370.1131
  0
VERTEX
  10
248.26669
  20
369.41043
  0
VERTEX
  10
248.78528
  20
368.68121
  0
VERTEX
  10
249.2691
  20
367.92657
  0
VERTEX
  10
249.71695
  20
367.14764
  0
VERTEX
  10
250.12769
  20
366.34564
  0
VERTEX
  10
250.50018
  20
365.52173
  0
VERTEX
  10
250.83319
  20
364.67709
  0
VERTEX
  10
251.12561
  20
363.81287
  0
VERTEX
  10
251.37628
  20
362.93021
  0
VERTEX
  10
251.58395
  20
362.03033
  0
VERTEX
  10
251.7475
  20
361.11438
  0
VERTEX
  10
251.86581
  20
360.18353
  0
VERTEX
  10
251.93765
  20
359.23895
  0
VERTEX
  10
251.96185
  20
358.2818
  0
SEQEND
  0
POLYLINE
  62
0
  70
1
  0
VERTEX
  10
294.11185
  20
425.03177
  0
VERTEX
  10
294.06305
  20
423.10205
  0
VERTEX
  10
293.91821
  20
421.19763
  0
VERTEX
  10
293.67975
  20
419.32092
  0
VERTEX
  10
293.34998
  20
417.47424
  0
VERTEX
  10
292.93124
  20
415.65994
  0
VERTEX
  10
292.4259
  20
413.88043
  0
VERTEX
  10
291.83633
  20
412.13803
  0
VERTEX
  10
291.16492
  20
410.43509
  0
VERTEX
  10
290.41394
  20
408.77399
  0
VERTEX
  10
289.58582
  20
407.15704
  0
VERTEX
  10
288.68286
  20
405.58667
  0
VERTEX
  10
287.70743
  20
404.06519
  0
VERTEX
  10
286.66193
  20
402.59494
  0
VERTEX
  10
285.54865
  20
401.17828
  0
VERTEX
  10
284.37
  20
399.81763
  0
VERTEX
  10
283.12833
  20
398.51526
  0
VERTEX
  10
281.82593
  20
397.27359
  0
VERTEX
  10
280.46527
  20
396.09497
  0
VERTEX
  10
279.04865
  20
394.98169
  0
VERTEX
  10
277.57843
  20
393.93619
  0
VERTEX
  10
276.05695
  20
392.96078
  0
VERTEX
  10
274.48654
  20
392.05783
  0
VERTEX
  10
272.8696
  20
391.22968
  0
VERTEX
  10
271.2085
  20
390.4787
  0
VERTEX
  10
269.50555
  20
389.80725
  0
VERTEX
  10
267.76315
  20
389.21771
  0
VERTEX
  10
265.98364
  20
388.71237
  0
VERTEX
  10
264.16937
  20
388.29364
  0
VERTEX
  10
262.32269
  20
387.96387
  0
VERTEX
  10
260.44598
  20
387.7254
  0
VERTEX
  10
258.54156
  20
387.58057
  0
VERTEX
  10
256.61185
  20
387.53177
  0
VERTEX
  10
254.68213
  20
387.58057
  0
VERTEX
  10
252.77771
  20
387.7254
  0
VERTEX
  10
250.901
  20
387.96387
  0
VERTEX
  10
249.05432
  20
388.29364
  0
VERTEX
  10
247.24005
  20
388.71237
  0
VERTEX
  10
245.46054
  20
389.21771
  0
VERTEX
  10
243.71814
  20
389.80725
  0
VERTEX
  10
242.0152
  20
390.4787
  0
VERTEX
  10
240.3541
  20
391.22968
  0
VERTEX
  10
238.73715
  20
392.05783
  0
VERTEX
  10
237.16675
  20
392.96078
  0
VERTEX
  10
235.64526
  20
393.93619
  0
VERTEX
  10
234.17505
  20
394.98169
  0
VERTEX
  10
232.75842
  20
396.09497
  0
VERTEX
  10
231.39777
  20
397.27359
  0
VERTEX
  10
230.09537
  20
398.51526
  0
VERTEX
  10
228.8537
  20
399.81763
  0
VERTEX
  10
227.67505
  20
401.17828
  0
VERTEX
  10
226.56177
  20
402.59494
  0
VERTEX
  10
225.51627
  20
404.06519
  0
VERTEX
  10
224.54083
  20
405.58667
  0
VERTEX
  10
223.63788
  20
407.15704
  0
VERTEX
  10
222.80975
  20
408.77399
  0
VERTEX
  10
222.05878
  20
410.43509
  0
VERTEX
  10
221.38736
  20
412.13803
  0
VERTEX
  10
220.79779
  20
413.88043
  0
VERTEX
  10
220.29245
  20
415.65994
  0
VERTEX
  10
219.87372
  20
417.47424
  0
VERTEX
  10
219.54395
  20
419.32092
  0
VERTEX
  10
219.30548
  20
421.19763
  0
VERTEX
  10
219.16064
  20
423.10205
  0
VERTEX
  10
219.11185
  20
425.03177
  0
VERTEX
  10
219.16064
  20
426.96152
  0
VERTEX
  10
219.30548
  20
428.86591
  0
VERTEX
  10
219.54395
  20
430.74265
  0
VERTEX
  10
219.87372
  20
432.58932
  0
VERTEX
  10
220.29245
  20
434.40359
  0
VERTEX
  10
220.79779
  20
436.18314
  0
VERTEX
  10
221.38736
  20
437.92554
  0
VERTEX
  10
222.05878
  20
439.62848
  0
VERTEX
  10
222.80975
  20
441.28958
  0
VERTEX
  10
223.63788
  20
442.90649
  0
VERTEX
  10
224.54083
  20
444.4769
  0
VERTEX
  10
225.51627
  20
445.99838
  0
VERTEX
  10
226.56177
  20
447.46863
  0
VERTEX
  10
227.67505
  20
448.88525
  0
VERTEX
  10
228.8537
  20
450.24591
  0
VERTEX
  10
230.09537
  20
451.54828
  0
VERTEX
  10
231.39777
  20
452.78995
  0
VERTEX
  10
232.75842
  20
453.9686
  0
VERTEX
  10
234.17505
  20
455.08185
  0
VERTEX
  10
235.64526
  20
456.12738
  0
VERTEX
  10
237.16675
  20
457.10278
  0
VERTEX
  10
238.73715
  20
458.00574
  0
VERTEX
  10
240.3541
  20
458.83386
  0
VERTEX
  10
242.0152
  20
459.58484
  0
VERTEX
  10
243.71814
  20
460.25629
  0
VERTEX
  10
245.46054
  20
460.84586
  0
VERTEX
  10
247.24005
  20
461.35117
  0
VERTEX
  10
249.05432
  20
461.7699
  0
VERTEX
  10
250.901
  20
462.0997
  0
VERTEX
  10
252.77771
  20
462.33817
  0
VERTEX
  10
254.68213
  20
462.48297
  0
VERTEX
  10
256.61185
  20
462.53177
  0
VERTEX
  10
258.54156
  20
462.48297
  0
VERTEX
  10
260.44598
  20
462.33817
  0
VERTEX
  10
262.32269
  20
462.0997
  0
VERTEX
  10
264.16937
  20
461.7699
  0
VERTEX
  10
265.98364
  20
461.35117
  0
VERTEX
  10
267.76315
  20
460.84586
  0
VERTEX
  10
269.50555
  20
460.25629
  0
VERTEX
  10
271.2085
  20
459.58484
  0
VERTEX
  10
272.8696
  20
458.83386
  0
VERTEX
  10
274.48654
  20
458.00574
  0
VERTEX
  10
276.05695
  20
457.10278
  0
VERTEX
  10
277.57843
  20
456.12738
  0
VERTEX
  10
279.04865
  20
455.08185
  0
VERTEX
  10
280.46527
  20
453.9686
  0
VERTEX
  10
281.82593
  20
452.78995
  0
VERTEX
  10
283.12833
  20
451.54828
  0
VERTEX
  10
284.37
  20
450.24591
  0
VERTEX
  10
285.54865
  20
448.88525
  0
VERTEX
  10
286.66193
  20
447.46863
  0
VERTEX
  10
287.70743
  20
445.99838
  0
VERTEX
  10
288.68286
  20
444.4769
  0
VERTEX
  10
289.58582
  20
442.90649
  0
VERTEX
  10
290.41394
  20
441.28958
  0
VERTEX
  10
291.16492
  20
439.62848
  0
VERTEX
  10
291.83633
  20
437.92554
  0
VERTEX
  10
292.4259
  20
436.18314
  0
VERTEX
  10
292.93124
  20
434.40359
  0
VERTEX
  10
293.34998
  20
432.58932
  0
VERTEX
  10
293.67975
  20
430.74265
  0
VERTEX
  10
293.91821
  20
428.86591
  0
VERTEX
  10
294.06305
  20
426.96152
  0
VERTEX
  10
294.11185
  20
425.03177
  0
SEQEND
  0
POLYLINE
  62
0
  70
1
  0
VERTEX
  10
203.36011
  20
490.17462
  0
VERTEX
  10
309.86359
  20
490.17462
  0
VERTEX
  10
309.86359
  20
322.17462
  0
VERTEX
  10
203.36011
  20
322.17462
  0
VERTEX
  10
203.36011
  20
490.17462
  0
SEQEND
  0
POLYLINE
  62
0
  70
1
  0
VERTEX
  10
414.5376
  20
359.33704
  0
VERTEX
  10
414.5134
  20
358.37985
  0
VERTEX
  10
414.44156
  20
357.43527
  0
VERTEX
  10
414.32324
  20
356.50443
  0
VERTEX
  10
414.1597
  20
355.58847
  0
VERTEX
  10
413.95203
  20
354.6886
  0
VERTEX
  10
413.70135
  20
353.80594
  0
VERTEX
  10
413.40894
  20
352.94171
  0
VERTEX
  10
413.07593
  20
352.09705
  0
VERTEX
  10
412.70343
  20
351.27316
  0
VERTEX
  10
412.29269
  20
350.47116
  0
VERTEX
  10
411.84485
  20
349.69226
  0
VERTEX
  10
411.36102
  20
348.93759
  0
VERTEX
  10
410.84244
  20
348.20837
  0
VERTEX
  10
410.29025
  20
347.50571
  0
VERTEX
  10
409.70566
  20
346.83081
  0
VERTEX
  10
409.08978
  20
346.18484
  0
VERTEX
  10
408.44379
  20
345.56897
  0
VERTEX
  10
407.76892
  20
344.98438
  0
VERTEX
  10
407.06625
  20
344.43219
  0
VERTEX
  10
406.33704
  20
343.9136
  0
VERTEX
  10
405.5824
  20
343.42981
  0
VERTEX
  10
404.80347
  20
342.98193
  0
VERTEX
  10
404.00146
  20
342.5712
  0
VERTEX
  10
403.17755
  20
342.1987
  0
VERTEX
  10
402.33292
  20
341.86566
  0
VERTEX
  10
401.46869
  20
341.57324
  0
VERTEX
  10
400.58606
  20
341.3226
  0
VERTEX
  10
399.68616
  20
341.1149
  0
VERTEX
  10
398.7702
  20
340.95132
  0
VERTEX
  10
397.83936
  20
340.83304
  0
VERTEX
  10
396.89478
  20
340.76123
  0
VERTEX
  10
395.93759
  20
340.737
  0
VERTEX
  10
394.98041
  20
340.76123
  0
VERTEX
  10
394.03583
  20
340.83304
  0
VERTEX
  10
393.10498
  20
340.95132
  0
VERTEX
  10
392.18903
  20
341.1149
  0
VERTEX
  10
391.28912
  20
341.3226
  0
VERTEX
  10
390.40649
  20
341.57324
  0
VERTEX
  10
389.54227
  20
341.86566
  0
VERTEX
  10
388.69763
  20
342.1987
  0
VERTEX
  10
387.87372
  20
342.5712
  0
VERTEX
  10
387.07172
  20
342.98193
  0
VERTEX
  10
386.29279
  20
343.42981
  0
VERTEX
  10
385.53815
  20
343.9136
  0
VERTEX
  10
384.80893
  20
344.43219
  0
VERTEX
  10
384.10626
  20
344.98438
  0
VERTEX
  10
383.4314
  20
345.56897
  0
VERTEX
  10
382.7854
  20
346.18484
  0
VERTEX
  10
382.16953
  20
346.83081
  0
VERTEX
  10
381.58493
  20
347.50571
  0
VERTEX
  10
381.03275
  20
348.20837
  0
VERTEX
  10
380.51416
  20
348.93759
  0
VERTEX
  10
380.03033
  20
349.69226
  0
VERTEX
  10
379.58249
  20
350.47116
  0
VERTEX
  10
379.17175
  20
351.27316
  0
VERTEX
  10
378.79926
  20
352.09705
  0
VERTEX
  10
378.46625
  20
352.94171
  0
VERTEX
  10
378.17383
  20
353.80594
  0
VERTEX
  10
377.92316
  20
354.6886
  0
VERTEX
  10
377.71548
  20
355.58847
  0
VERTEX
  10
377.55194
  20
356.50443
  0
VERTEX
  10
377.43362
  20
357.43527
  0
VERTEX
  10
377.36179
  20
358.37985
  0
VERTEX
  10
377.33759
  20
359.33704
  0
VERTEX
  10
377.36179
  20
360.29419
  0
VERTEX
  10
377.43362
  20
361.23877
  0
VERTEX
  10
377.55194
  20
362.16962
  0
VERTEX
  10
377.71548
  20
363.08557
  0
VERTEX
  10
377.92316
  20
363.98544
  0
VERTEX
  10
378.17383
  20
364.8681
  0
VERTEX
  10
378.46625
  20
365.73233
  0
VERTEX
  10
378.79926
  20
366.57697
  0
VERTEX
  10
379.17175
  20
367.40088
  0
VERTEX
  10
379.58249
  20
368.20288
  0
VERTEX
  10
380.03033
  20
368.98181
  0
VERTEX
  10
380.51416
  20
369.73645
  0
VERTEX
  10
381.03275
  20
370.4657
  0
VERTEX
  10
381.58493
  20
371.16833
  0
VERTEX
  10
382.16953
  20
371.84323
  0
VERTEX
  10
382.7854
  20
372.4892
  0
VERTEX
  10
383.4314
  20
373.10507
  0
VERTEX
  10
384.10626
  20
373.6897
  0
VERTEX
  10
384.80893
  20
374.24185
  0
VERTEX
  10
385.53815
  20
374.76044
  0
VERTEX
  10
386.29279
  20
375.24423
  0
VERTEX
  10
387.07172
  20
375.69211
  0
VERTEX
  10
387.87372
  20
376.10284
  0
VERTEX
  10
388.69763
  20
376.47534
  0
VERTEX
  10
389.54227
  20
376.80838
  0
VERTEX
  10
390.40649
  20
377.1008
  0
VERTEX
  10
391.28912
  20
377.35144
  0
VERTEX
  10
392.18903
  20
377.55914
  0
VERTEX
  10
393.10498
  20
377.72272
  0
VERTEX
  10
394.03583
  20
377.841
  0
VERTEX
  10
394.98041
  20
377.91284
  0
VERTEX
  10
395.93759
  20
377.93701
  0
VERTEX
  10
396.89478
  20
377.91284
  0
VERTEX
  10
397.83936
  20
377.841
  0
VERTEX
  10
398.7702
  20
377.72272
  0
VERTEX
  10
399.68616
  20
377.55914
  0
VERTEX
  10
400.58606
  20
377.35144
  0
VERTEX
  10
401.46869
  20
377.1008
  0
VERTEX
  10
402.33292
  20
376.80838
  0
VERTEX
  10
403.17755
  20
376.47534
  0
VERTEX
  10
404.00146
  20
376.10284
  0
VERTEX
  10
404.80347
  20
375.69211
  0
VERTEX
  10
405.5824
  20
375.24423
  0
VERTEX
  10
406.33704
  20
374.76044
  0
VERTEX
  10
407.06625
  20
374.24185
  0
VERTEX
  10
407.76892
  20
373.6897
  0
VERTEX
  10
408.44379
  20
373.10507
  0
VERTEX
  10
409.08978
  20
372.4892
  0
VERTEX
  10
409.70566
  20
371.84323
  0
VERTEX
  10
410.29025
  20
371.16833
  0
VERTEX
  10
410.84244
  20
370.4657
  0
VERTEX
  10
411.36102
  20
369.73645
  0
VERTEX
  10
411.84485
  20
368.98181
  0
VERTEX
  10
412.29269
  20
368.20288
  0
VERTEX
  10
412.70343
  20
367.40088
  0
VERTEX
  10
413.07593
  20
366.57697
  0
VERTEX
  10
413.40894
  20
365.73233
  0
VERTEX
  10
413.70135
  20
364.8681
  0
VERTEX
  10
413.95203
  20
363.98544
  0
VERTEX
  10
414.1597
  20
363.08557
  0
VERTEX
  10
414.32324
  20
362.16962
  0
VERTEX
  10
414.44156
  20
361.23877
  0
VERTEX
  10
414.5134
  20
360.29419
  0
VERTEX
  10
414.5376
  20
359.33704
  0
SEQEND
  0
POLYLINE
  62
0
  70
1
  0
VERTEX
  10
368.0376
  20
359.33704
  0
VERTEX
  10
368.0134
  20
358.37985
  0
VERTEX
  10
367.94156
  20
357.43527
  0
VERTEX
  10
367.82324
  20
356.50443
  0
VERTEX
  10
367.6597
  20
355.58847
  0
VERTEX
  10
367.45203
  20
354.6886
  0
VERTEX
  10
367.20135
  20
353.80594
  0
VERTEX
  10
366.90894
  20
352.94171
  0
VERTEX
  10
366.57593
  20
352.09705
  0
VERTEX
  10
366.20343
  20
351.27316
  0
VERTEX
  10
365.79269
  20
350.47116
  0
VERTEX
  10
365.34485
  20
349.69226
  0
VERTEX
  10
364.86102
  20
348.93759
  0
VERTEX
  10
364.34244
  20
348.20837
  0
VERTEX
  10
363.79025
  20
347.50571
  0
VERTEX
  10
363.20566
  20
346.83081
  0
VERTEX
  10
362.58978
  20
346.18484
  0
VERTEX
  10
361.94379
  20
345.56897
  0
VERTEX
  10
361.26892
  20
344.98438
  0
VERTEX
  10
360.56625
  20
344.43219
  0
VERTEX
  10
359.83704
  20
343.9136
  0
VERTEX
  10
359.0824
  20
343.42981
  0
VERTEX
  10
358.30347
  20
342.98193
  0
VERTEX
  10
357.50146
  20
342.5712
  0
VERTEX
  10
356.67755
  20
342.1987
  0
VERTEX
  10
355.83292
  20
341.86566
  0
VERTEX
  10
354.96869
  20
341.57324
  0
VERTEX
  10
354.08606
  20
341.3226
  0
VERTEX
  10
353.18616
  20
341.1149
  0
VERTEX
  10
352.2702
  20
340.95132
  0
VERTEX
  10
351.33936
  20
340.83304
  0
VERTEX
  10
350.39478
  20
340.76123
  0
VERTEX
  10
349.43759
  20
340.737
  0
VERTEX
  10
348.48041
  20
340.76123
  0
VERTEX
  10
347.53583
  20
340.83304
  0
VERTEX
  10
346.60498
  20
340.95132
  0
VERTEX
  10
345.68903
  20
341.1149
  0
VERTEX
  10
344.78912
  20
341.3226
  0
VERTEX
  10
343.90649
  20
341.57324
  0
VERTEX
  10
343.04227
  20
341.86566
  0
VERTEX
  10
342.19763
  20
342.1987
  0
VERTEX
  10
341.37372
  20
342.5712
  0
VERTEX
  10
340.57172
  20
342.98193
  0
VERTEX
  10
339.79279
  20
343.42981
  0
VERTEX
  10
339.03815
  20
343.9136
  0
VERTEX
  10
338.30893
  20
344.43219
  0
VERTEX
  10
337.60626
  20
344.98438
  0
VERTEX
  10
336.9314
  20
345.56897
  0
VERTEX
  10
336.2854
  20
346.18484
  0
VERTEX
  10
335.66953
  20
346.83081
  0
VERTEX
  10
335.08493
  20
347.50571
  0
VERTEX
  10
334.53275
  20
348.20837
  0
VERTEX
  10
334.01416
  20
348.93759
  0
VERTEX
  10
333.53033
  20
349.69226
  0
VERTEX
  10
333.08249
  20
350.47116
  0
VERTEX
  10
332.67175
  20
351.27316
  0
VERTEX
  10
332.29926
  20
352.09705
  0
VERTEX
  10
331.96625
  20
352.94171
  0
VERTEX
  10
331.67383
  20
353.80594
  0
VERTEX
  10
331.42316
  20
354.6886
  0
VERTEX
  10
331.21548
  20
355.58847
  0
VERTEX
  10
331.05194
  20
356.50443
  0
VERTEX
  10
330.93362
  20
357.43527
  0
VERTEX
  10
330.86179
  20
358.37985
  0
VERTEX
  10
330.83759
  20
359.33704
  0
VERTEX
  10
330.86179
  20
360.29419
  0
VERTEX
  10
330.93362
  20
361.23877
  0
VERTEX
  10
331.05194
  20
362.16962
  0
VERTEX
  10
331.21548
  20
363.08557
  0
VERTEX
  10
331.42316
  20
363.98544
  0
VERTEX
  10
331.67383
  20
364.8681
  0
VERTEX
  10
331.96625
  20
365.73233
  0
VERTEX
  10
332.29926
  20
366.57697
  0
VERTEX
  10
332.67175
  20
367.40088
  0
VERTEX
  10
333.08249
  20
368.20288
  0
VERTEX
  10
333.53033
  20
368.98181
  0
VERTEX
  10
334.01416
  20
369.73645
  0
VERTEX
  10
334.53275
  20
370.4657
  0
VERTEX
  10
335.08493
  20
371.16833
  0
VERTEX
  10
335.66953
  20
371.84323
  0
VERTEX
  10
336.2854
  20
372.4892
  0
VERTEX
  10
336.9314
  20
373.10507
  0
VERTEX
  10
337.60626
  20
373.6897
  0
VERTEX
  10
338.30893
  20
374.24185
  0
VERTEX
  10
339.03815
  20
374.76044
  0
VERTEX
  10
339.79279
  20
375.24423
  0
VERTEX
  10
340.57172
  20
375.69211
  0
VERTEX
  10
341.37372
  20
376.10284
  0
VERTEX
  10
342.19763
  20
376.47534
  0
VERTEX
  10
343.04227
  20
376.80838
  0
VERTEX
  10
343.90649
  20
377.1008
  0
VERTEX
  10
344.78912
  20
377.35144
  0
VERTEX
  10
345.68903
  20
377.55914
  0
VERTEX
  10
346.60498
  20
377.72272
  0
VERTEX
  10
347.53583
  20
377.841
  0
VERTEX
  10
348.48041
  20
377.91284
  0
VERTEX
  10
349.43759
  20
377.93701
  0
VERTEX
  10
350.39478
  20
377.91284
  0
VERTEX
  10
351.33936
  20
377.841
  0
VERTEX
  10
352.2702
  20
377.72272
  0
VERTEX
  10
353.18616
  20
377.55914
  0
VERTEX
  10
354.08606
  20
377.35144
  0
VERTEX
  10
354.96869
  20
377.1008
  0
VERTEX
  10
355.83292
  20
376.80838
  0
VERTEX
  10
356.67755
  20
376.47534
  0
VERTEX
  10
357.50146
  20
376.10284
  0
VERTEX
  10
358.30347
  20
375.69211
  0
VERTEX
  10
359.0824
  20
375.24423
  0
VERTEX
  10
359.83704
  20
374.76044
  0
VERTEX
  10
360.56625
  20
374.24185
  0
VERTEX
  10
361.26892
  20
373.6897
  0
VERTEX
  10
361.94379
  20
373.10507
  0
VERTEX
  10
362.58978
  20
372.4892
  0
VERTEX
  10
363.20566
  20
371.84323
  0
VERTEX
  10
363.79025
  20
371.16833
  0
VERTEX
  10
364.34244
  20
370.4657
  0
VERTEX
  10
364.86102
  20
369.73645
  0
VERTEX
  10
365.34485
  20
368.98181
  0
VERTEX
  10
365.79269
  20
368.20288
  0
VERTEX
  10
366.20343
  20
367.40088
  0
VERTEX
  10
366.57593
  20
366.57697
  0
VERTEX
  10
366.90894
  20
365.73233
  0
VERTEX
  10
367.20135
  20
364.8681
  0
VERTEX
  10
367.45203
  20
363.98544
  0
VERTEX
  10
367.6597
  20
363.08557
  0
VERTEX
  10
367.82324
  20
362.16962
  0
VERTEX
  10
367.94156
  20
361.23877
  0
VERTEX
  10
368.0134
  20
360.29419
  0
VERTEX
  10
368.0376
  20
359.33704
  0
SEQEND
  0
POLYLINE
  62
0
  70
1
  0
VERTEX
  10
411.73096
  20
451.34302
  0
VERTEX
  10
410.97705
  20
450.91345
  0
VERTEX
  10
410.19965
  20
450.55515
  0
VERTEX
  10
409.40323
  20
450.26758
  0
VERTEX
  10
408.59222
  20
450.05029
  0
VERTEX
  10
407.77106
  20
449.90271
  0
VERTEX
  10
406.94421
  20
449.8244
  0
VERTEX
  10
406.11615
  20
449.81482
  0
VERTEX
  10
405.2912
  20
449.87347
  0
VERTEX
  10
404.47394
  20
449.99991
  0
VERTEX
  10
403.6687
  20
450.19354
  0
VERTEX
  10
402.88004
  20
450.45395
  0
VERTEX
  10
402.11234
  20
450.78058
  0
VERTEX
  10
401.37006
  20
451.17297
  0
VERTEX
  10
400.65762
  20
451.63058
  0
VERTEX
  10
399.97949
  20
452.15292
  0
VERTEX
  10
399.34009
  20
452.7395
  0
VERTEX
  10
398.75351
  20
453.37891
  0
VERTEX
  10
398.23114
  20
454.05704
  0
VERTEX
  10
397.77356
  20
454.76947
  0
VERTEX
  10
397.38116
  20
455.51178
  0
VERTEX
  10
397.05453
  20
456.27948
  0
VERTEX
  10
396.79413
  20
457.06818
  0
VERTEX
  10
396.60049
  20
457.87335
  0
VERTEX
  10
396.47406
  20
458.69064
  0
VERTEX
  10
396.41537
  20
459.51556
  0
VERTEX
  10
396.42499
  20
460.34366
  0
VERTEX
  10
396.5033
  20
461.1705
  0
VERTEX
  10
396.65085
  20
461.99164
  0
VERTEX
  10
396.86816
  20
462.80267
  0
VERTEX
  10
397.15573
  20
463.59909
  0
VERTEX
  10
397.51404
  20
464.37646
  0
VERTEX
  10
397.94357
  20
465.13037
  0
VERTEX
  10
396.49005
  20
466.03333
  0
VERTEX
  10
395.0123
  20
466.87802
  0
VERTEX
  10
393.51202
  20
467.66449
  0
VERTEX
  10
391.99075
  20
468.39267
  0
VERTEX
  10
390.45016
  20
469.06259
  0
VERTEX
  10
388.89185
  20
469.67426
  0
VERTEX
  10
387.31738
  20
470.22769
  0
VERTEX
  10
385.72839
  20
470.72287
  0
VERTEX
  10
384.12646
  20
471.15976
  0
VERTEX
  10
382.51331
  20
471.53842
  0
VERTEX
  10
380.8905
  20
471.85883
  0
VERTEX
  10
379.25958
  20
472.12097
  0
VERTEX
  10
377.62225
  20
472.32486
  0
VERTEX
  10
375.98004
  20
472.47049
  0
VERTEX
  10
374.33459
  20
472.55789
  0
VERTEX
  10
372.68759
  20
472.58701
  0
VERTEX
  10
371.04059
  20
472.55789
  0
VERTEX
  10
369.39514
  20
472.47049
  0
VERTEX
  10
367.75293
  20
472.32486
  0
VERTEX
  10
366.1156
  20
472.12097
  0
VERTEX
  10
364.48468
  20
471.85883
  0
VERTEX
  10
362.86188
  20
471.53842
  0
VERTEX
  10
361.24872
  20
471.15976
  0
VERTEX
  10
359.64679
  20
470.72287
  0
VERTEX
  10
358.0578
  20
470.22769
  0
VERTEX
  10
356.48334
  20
469.67426
  0
VERTEX
  10
354.92502
  20
469.06259
  0
VERTEX
  10
353.38443
  20
468.39267
  0
VERTEX
  10
351.86316
  20
467.66449
  0
VERTEX
  10
350.36288
  20
466.87802
  0
VERTEX
  10
348.88513
  20
466.03333
  0
VERTEX
  10
347.43161
  20
465.13037
  0
VERTEX
  10
347.86115
  20
464.37646
  0
VERTEX
  10
348.21945
  20
463.59909
  0
VERTEX
  10
348.50702
  20
462.80267
  0
VERTEX
  10
348.72433
  20
461.99164
  0
VERTEX
  10
348.87189
  20
461.1705
  0
VERTEX
  10
348.9502
  20
460.34366
  0
VERTEX
  10
348.95981
  20
459.51556
  0
VERTEX
  10
348.90112
  20
458.69064
  0
VERTEX
  10
348.77469
  20
457.87335
  0
VERTEX
  10
348.58105
  20
457.06815
  0
VERTEX
  10
348.32065
  20
456.27948
  0
VERTEX
  10
347.99402
  20
455.51178
  0
VERTEX
  10
347.60162
  20
454.76947
  0
VERTEX
  10
347.14404
  20
454.05704
  0
VERTEX
  10
346.62167
  20
453.37891
  0
VERTEX
  10
346.0351
  20
452.7395
  0
VERTEX
  10
345.39569
  20
452.15292
  0
VERTEX
  10
344.71756
  20
451.63058
  0
VERTEX
  10
344.00513
  20
451.17297
  0
VERTEX
  10
343.26285
  20
450.78058
  0
VERTEX
  10
342.49515
  20
450.45395
  0
VERTEX
  10
341.70648
  20
450.19354
  0
VERTEX
  10
340.90125
  20
449.99991
  0
VERTEX
  10
340.08398
  20
449.87347
  0
VERTEX
  10
339.25903
  20
449.81482
  0
VERTEX
  10
338.43097
  20
449.8244
  0
VERTEX
  10
337.60413
  20
449.90271
  0
VERTEX
  10
336.78296
  20
450.05029
  0
VERTEX
  10
335.97195
  20
450.26758
  0
VERTEX
  10
335.17554
  20
450.55515
  0
VERTEX
  10
334.39813
  20
450.91345
  0
VERTEX
  10
333.64423
  20
451.34302
  0
VERTEX
  10
332.74127
  20
449.8895
  0
VERTEX
  10
331.89655
  20
448.41174
  0
VERTEX
  10
331.11011
  20
446.91147
  0
VERTEX
  10
330.38196
  20
445.3902
  0
VERTEX
  10
329.71204
  20
443.84961
  0
VERTEX
  10
329.10034
  20
442.29126
  0
VERTEX
  10
328.54694
  20
440.7168
  0
VERTEX
  10
328.05179
  20
439.12781
  0
VERTEX
  10
327.61487
  20
437.52591
  0
VERTEX
  10
327.23621
  20
435.91275
  0
VERTEX
  10
326.91583
  20
434.28992
  0
VERTEX
  10
326.65366
  20
432.659
  0
VERTEX
  10
326.44974
  20
431.02167
  0
VERTEX
  10
326.30411
  20
429.37946
  0
VERTEX
  10
326.21674
  20
427.73404
  0
VERTEX
  10
326.18762
  20
426.08704
  0
VERTEX
  10
326.21674
  20
424.44
  0
VERTEX
  10
326.30411
  20
422.79459
  0
VERTEX
  10
326.44974
  20
421.1524
  0
VERTEX
  10
326.65366
  20
419.51501
  0
VERTEX
  10
326.91583
  20
417.88412
  0
VERTEX
  10
327.23621
  20
416.26129
  0
VERTEX
  10
327.61487
  20
414.64813
  0
VERTEX
  10
328.05179
  20
413.04623
  0
VERTEX
  10
328.54694
  20
411.45728
  0
VERTEX
  10
329.10034
  20
409.88278
  0
VERTEX
  10
329.71204
  20
408.32446
  0
VERTEX
  10
330.38196
  20
406.78384
  0
VERTEX
  10
331.11011
  20
405.26257
  0
VERTEX
  10
331.89655
  20
403.76227
  0
VERTEX
  10
332.74127
  20
402.28455
  0
VERTEX
  10
333.64423
  20
400.83102
  0
VERTEX
  10
334.39813
  20
401.26059
  0
VERTEX
  10
335.17554
  20
401.6189
  0
VERTEX
  10
335.97195
  20
401.90646
  0
VERTEX
  10
336.78296
  20
402.12378
  0
VERTEX
  10
337.60413
  20
402.27133
  0
VERTEX
  10
338.43097
  20
402.34964
  0
VERTEX
  10
339.25903
  20
402.35922
  0
VERTEX
  10
340.08398
  20
402.30054
  0
VERTEX
  10
340.90125
  20
402.17413
  0
VERTEX
  10
341.70648
  20
401.98047
  0
VERTEX
  10
342.49515
  20
401.72009
  0
VERTEX
  10
343.26285
  20
401.39346
  0
VERTEX
  10
344.00513
  20
401.0011
  0
VERTEX
  10
344.71756
  20
400.54346
  0
VERTEX
  10
345.39569
  20
400.02112
  0
VERTEX
  10
346.0351
  20
399.43454
  0
VERTEX
  10
346.62167
  20
398.79514
  0
VERTEX
  10
347.14404
  20
398.117
  0
VERTEX
  10
347.60162
  20
397.40457
  0
VERTEX
  10
347.99402
  20
396.66226
  0
VERTEX
  10
348.32065
  20
395.89456
  0
VERTEX
  10
348.58105
  20
395.1059
  0
VERTEX
  10
348.77469
  20
394.30069
  0
VERTEX
  10
348.90112
  20
393.4834
  0
VERTEX
  10
348.95981
  20
392.65851
  0
VERTEX
  10
348.9502
  20
391.83038
  0
VERTEX
  10
348.87189
  20
391.00354
  0
VERTEX
  10
348.72433
  20
390.18237
  0
VERTEX
  10
348.50702
  20
389.37137
  0
VERTEX
  10
348.21945
  20
388.57495
  0
VERTEX
  10
347.86115
  20
387.79755
  0
VERTEX
  10
347.43161
  20
387.04364
  0
VERTEX
  10
348.88513
  20
386.14069
  0
VERTEX
  10
350.36288
  20
385.29599
  0
VERTEX
  10
351.86316
  20
384.50955
  0
VERTEX
  10
353.38443
  20
383.78137
  0
VERTEX
  10
354.92502
  20
383.11145
  0
VERTEX
  10
356.48334
  20
382.49976
  0
VERTEX
  10
358.0578
  20
381.94635
  0
VERTEX
  10
359.64679
  20
381.45117
  0
VERTEX
  10
361.24872
  20
381.01425
  0
VERTEX
  10
362.86188
  20
380.63562
  0
VERTEX
  10
364.48468
  20
380.31519
  0
VERTEX
  10
366.1156
  20
380.05304
  0
VERTEX
  10
367.75293
  20
379.84915
  0
VERTEX
  10
369.39514
  20
379.70352
  0
VERTEX
  10
371.04059
  20
379.61615
  0
VERTEX
  10
372.68759
  20
379.58701
  0
VERTEX
  10
374.33459
  20
379.61615
  0
VERTEX
  10
375.98004
  20
379.70352
  0
VERTEX
  10
377.62225
  20
379.84915
  0
VERTEX
  10
379.25958
  20
380.05304
  0
VERTEX
  10
380.8905
  20
380.31519
  0
VERTEX
  10
382.51331
  20
380.63562
  0
VERTEX
  10
384.12646
  20
381.01425
  0
VERTEX
  10
385.72839
  20
381.45117
  0
VERTEX
  10
387.31738
  20
381.94635
  0
VERTEX
  10
388.89185
  20
382.49976
  0
VERTEX
  10
390.45016
  20
383.11145
  0
VERTEX
  10
391.99075
  20
383.78137
  0
VERTEX
  10
393.51202
  20
384.50955
  0
VERTEX
  10
395.0123
  20
385.29599
  0
VERTEX
  10
396.49005
  20
386.14069
  0
VERTEX
  10
397.94357
  20
387.04364
  0
VERTEX
  10
397.51404
  20
387.79755
  0
VERTEX
  10
397.15573
  20
388.57495
  0
VERTEX
  10
396.86816
  20
389.37137
  0
VERTEX
  10
396.65085
  20
390.18237
  0
VERTEX
  10
396.5033
  20
391.00354
  0
VERTEX
  10
396.42499
  20
391.83038
  0
VERTEX
  10
396.41537
  20
392.65848
  0
VERTEX
  10
396.47406
  20
393.4834
  0
VERTEX
  10
396.60049
  20
394.30066
  0
VERTEX
  10
396.79413
  20
395.1059
  0
VERTEX
  10
397.05453
  20
395.89456
  0
VERTEX
  10
397.38116
  20
396.66226
  0
VERTEX
  10
397.77356
  20
397.40454
  0
VERTEX
  10
398.23114
  20
398.117
  0
VERTEX
  10
398.75351
  20
398.79514
  0
VERTEX
  10
399.34009
  20
399.43451
  0
VERTEX
  10
399.97949
  20
400.02112
  0
VERTEX
  10
400.65762
  20
400.54346
  0
VERTEX
  10
401.37006
  20
401.00107
  0
VERTEX
  10
402.11234
  20
401.39343
  0
VERTEX
  10
402.88004
  20
401.72009
  0
VERTEX
  10
403.6687
  20
401.98047
  0
VERTEX
  10
404.47394
  20
402.17413
  0
VERTEX
  10
405.2912
  20
402.30054
  0
VERTEX
  10
406.11615
  20
402.35919
  0
VERTEX
  10
406.94421
  20
402.34964
  0
VERTEX
  10
407.77106
  20
402.2713
  0
VERTEX
  10
408.59222
  20
402.12375
  0
VERTEX
  10
409.40323
  20
401.90643
  0
VERTEX
  10
410.19965
  20
401.6189
  0
VERTEX
  10
410.97705
  20
401.26056
  0
VERTEX
  10
411.73096
  20
400.83102
  0
VERTEX
  10
412.63391
  20
402.28455
  0
VERTEX
  10
413.47864
  20
403.76227
  0
VERTEX
  10
414.26508
  20
405.26257
  0
VERTEX
  10
414.99323
  20
406.78384
  0
VERTEX
  10
415.66315
  20
408.32446
  0
VERTEX
  10
416.27484
  20
409.88278
  0
VERTEX
  10
416.82825
  20
411.45728
  0
VERTEX
  10
417.32339
  20
413.04623
  0
VERTEX
  10
417.76031
  20
414.64813
  0
VERTEX
  10
418.13898
  20
416.26129
  0
VERTEX
  10
418.45935
  20
417.88412
  0
VERTEX
  10
418.72153
  20
419.51501
  0
VERTEX
  10
418.92545
  20
421.1524
  0
VERTEX
  10
419.07108
  20
422.79459
  0
VERTEX
  10
419.15845
  20
424.44
  0
VERTEX
  10
419.18756
  20
426.08704
  0
VERTEX
  10
419.15845
  20
427.73404
  0
VERTEX
  10
419.07108
  20
429.37946
  0
VERTEX
  10
418.92545
  20
431.02167
  0
VERTEX
  10
418.72153
  20
432.659
  0
VERTEX
  10
418.45935
  20
434.28992
  0
VERTEX
  10
418.13898
  20
435.91275
  0
VERTEX
  10
417.76031
  20
437.52591
  0
VERTEX
  10
417.32339
  20
439.12781
  0
VERTEX
  10
416.82825
  20
440.7168
  0
VERTEX
  10
416.27484
  20
442.29126
  0
VERTEX
  10
415.66315
  20
443.84961
  0
VERTEX
  10
414.99323
  20
445.3902
  0
VERTEX
  10
414.26508
  20
446.91147
  0
VERTEX
  10
413.47864
  20
448.41174
  0
VERTEX
  10
412.63391
  20
449.8895
  0
VERTEX
  10
411.73096
  20
451.34302
  0
SEQEND
  0
POLYLINE
  62
0
  70
1
  0
VERTEX
  10
425.93933
  20
323.22986
  0
VERTEX
  10
319.43585
  20
323.22986
  0
VERTEX
  10
319.43585
  20
491.22986
  0
VERTEX
  10
425.93933
  20
491.22986
  0
VERTEX
  10
425.93933
  20
323.22986
  0
SEQEND
  0
POLYLINE
  62
0
  0
VERTEX
  10
625.71655
  20
356.17126
  0
VERTEX
  10
625.68237
  20
357.12845
  0
VERTEX
  10
625.58075
  20
358.07303
  0
VERTEX
  10
625.41345
  20
359.00388
  0
VERTEX
  10
625.18213
  20
359.91983
  0
VERTEX
  10
624.88843
  20
360.8197
  0
VERTEX
  10
624.534
  20
361.70236
  0
VERTEX
  10
624.12042
  20
362.56659
  0
VERTEX
  10
623.64941
  20
363.41125
  0
VERTEX
  10
623.12268
  20
364.23514
  0
VERTEX
  10
622.54175
  20
365.03714
  0
VERTEX
  10
621.90839
  20
365.81604
  0
VERTEX
  10
621.22418
  20
366.57071
  0
VERTEX
  10
620.49084
  20
367.29993
  0
VERTEX
  10
619.70996
  20
368.00259
  0
VERTEX
  10
618.88318
  20
368.67749
  0
VERTEX
  10
618.01221
  20
369.32346
  0
VERTEX
  10
617.09863
  20
369.93933
  0
VERTEX
  10
616.14423
  20
370.52393
  0
VERTEX
  10
615.15051
  20
371.07611
  0
VERTEX
  10
614.11926
  20
371.5947
  0
VERTEX
  10
613.052
  20
372.07849
  0
VERTEX
  10
611.95044
  20
372.52637
  0
VERTEX
  10
610.81622
  20
372.93713
  0
VERTEX
  10
609.65106
  20
373.3096
  0
VERTEX
  10
608.45654
  20
373.64264
  0
VERTEX
  10
607.23431
  20
373.93506
  0
VERTEX
  10
605.98608
  20
374.1857
  0
VERTEX
  10
604.71344
  20
374.3934
  0
VERTEX
  10
603.41809
  20
374.55695
  0
VERTEX
  10
602.10168
  20
374.67523
  0
VERTEX
  10
600.76581
  20
374.74707
  0
VERTEX
  10
599.41217
  20
374.77127
  0
VERTEX
  10
598.05859
  20
374.74707
  0
VERTEX
  10
596.72272
  20
374.67523
  0
VERTEX
  10
595.40631
  20
374.55695
  0
VERTEX
  10
594.11096
  20
374.3934
  0
VERTEX
  10
592.83832
  20
374.1857
  0
VERTEX
  10
591.59009
  20
373.93506
  0
VERTEX
  10
590.36786
  20
373.64264
  0
VERTEX
  10
589.17334
  20
373.3096
  0
VERTEX
  10
588.00818
  20
372.93713
  0
VERTEX
  10
586.87396
  20
372.52637
  0
VERTEX
  10
585.7724
  20
372.07849
  0
VERTEX
  10
584.70514
  20
371.5947
  0
VERTEX
  10
583.67383
  20
371.07611
  0
VERTEX
  10
582.68018
  20
370.52393
  0
VERTEX
  10
581.72571
  20
369.93933
  0
VERTEX
  10
580.81219
  20
369.32346
  0
VERTEX
  10
579.94122
  20
368.67749
  0
VERTEX
  10
579.11444
  20
368.00259
  0
VERTEX
  10
578.33356
  20
367.29993
  0
VERTEX
  10
577.60022
  20
366.57071
  0
VERTEX
  10
576.91602
  20
365.81604
  0
VERTEX
  10
576.28259
  20
365.03714
  0
VERTEX
  10
575.70172
  20
364.23514
  0
VERTEX
  10
575.17493
  20
363.41125
  0
VERTEX
  10
574.70398
  20
362.56659
  0
VERTEX
  10
574.29041
  20
361.70236
  0
VERTEX
  10
573.93597
  20
360.8197
  0
VERTEX
  10
573.64221
  20
359.91983
  0
VERTEX
  10
573.41089
  20
359.00388
  0
VERTEX
  10
573.24365
  20
358.07303
  0
VERTEX
  10
573.14203
  20
357.12845
  0
VERTEX
  10
573.10779
  20
356.17126
  0
VERTEX
  10
573.14203
  20
355.21411
  0
VERTEX
  10
573.24365
  20
354.26953
  0
VERTEX
  10
573.41089
  20
353.33868
  0
VERTEX
  10
573.64221
  20
352.42273
  0
VERTEX
  10
573.93597
  20
351.52286
  0
VERTEX
  10
574.29041
  20
350.6402
  0
VERTEX
  10
574.70398
  20
349.77597
  0
VERTEX
  10
575.17493
  20
348.9313
  0
VERTEX
  10
575.70172
  20
348.10739
  0
VERTEX
  10
576.28259
  20
347.30539
  0
VERTEX
  10
576.91602
  20
346.52649
  0
VERTEX
  10
577.60022
  20
345.77182
  0
VERTEX
  10
578.33356
  20
345.0426
  0
VERTEX
  10
579.11444
  20
344.33994
  0
VERTEX
  10
579.94122
  20
343.66504
  0
VERTEX
  10
580.81219
  20
343.01907
  0
VERTEX
  10
581.72571
  20
342.4032
  0
VERTEX
  10
582.68018
  20
341.8186
  0
VERTEX
  10
583.67383
  20
341.26642
  0
VERTEX
  10
584.70514
  20
340.74783
  0
VERTEX
  10
585.7724
  20
340.26404
  0
VERTEX
  10
586.87396
  20
339.81616
  0
VERTEX
  10
588.00818
  20
339.40543
  0
VERTEX
  10
589.17334
  20
339.03296
  0
VERTEX
  10
590.36786
  20
338.69992
  0
VERTEX
  10
591.59009
  20
338.4075
  0
VERTEX
  10
592.83832
  20
338.15686
  0
VERTEX
  10
594.11096
  20
337.94916
  0
VERTEX
  10
595.40631
  20
337.78558
  0
VERTEX
  10
596.72272
  20
337.6673
  0
VERTEX
  10
598.05859
  20
337.59546
  0
VERTEX
  10
599.41217
  20
337.57129
  0
VERTEX
  10
600.76581
  20
337.59549
  0
VERTEX
  10
602.10168
  20
337.66733
  0
VERTEX
  10
603.41809
  20
337.78561
  0
VERTEX
  10
604.71344
  20
337.94919
  0
VERTEX
  10
605.98608
  20
338.15689
  0
VERTEX
  10
607.23431
  20
338.40753
  0
VERTEX
  10
608.45654
  20
338.69995
  0
VERTEX
  10
609.65106
  20
339.03296
  0
VERTEX
  10
610.81622
  20
339.40546
  0
VERTEX
  10
611.95044
  20
339.81622
  0
VERTEX
  10
613.05194
  20
340.26407
  0
VERTEX
  10
614.1192
  20
340.74786
  0
VERTEX
  10
615.15051
  20
341.26645
  0
VERTEX
  10
616.14423
  20
341.8186
  0
VERTEX
  10
617.09863
  20
342.40323
  0
VERTEX
  10
618.01221
  20
343.0191
  0
VERTEX
  10
618.88318
  20
343.66507
  0
VERTEX
  10
619.70996
  20
344.33997
  0
VERTEX
  10
620.49084
  20
345.04263
  0
VERTEX
  10
621.22418
  20
345.77185
  0
VERTEX
  10
621.90839
  20
346.52649
  0
VERTEX
  10
622.54175
  20
347.30542
  0
VERTEX
  10
623.12268
  20
348.10742
  0
VERTEX
  10
623.64941
  20
348.93134
  0
VERTEX
  10
624.12042
  20
349.77597
  0
VERTEX
  10
624.534
  20
350.6402
  0
VERTEX
  10
624.88843
  20
351.52286
  0
VERTEX
  10
625.18213
  20
352.42273
  0
VERTEX
  10
625.41345
  20
353.33868
  0
VERTEX
  10
625.58075
  20
354.26953
  0
VERTEX
  10
625.68237
  20
355.21411
  0
VERTEX
  10
625.71655
  20
356.17126
  0
SEQEND
  0
POLYLINE
  62
0
  70
1
  0
VERTEX
  10
688.89276
  20
488.06415
  0
VERTEX
  10
688.89276
  20
320.06415
  0
VERTEX
  10
638.29266
  20
320.06415
  0
VERTEX
  10
638.29266
  20
332.06415
  0
VERTEX
  10
632.29266
  20
332.06415
  0
VERTEX
  10
632.29266
  20
320.06415
  0
VERTEX
  10
554.55273
  20
320.06415
  0
VERTEX
  10
554.55273
  20
488.06415
  0
VERTEX
  10
632.29266
  20
488.06415
  0
VERTEX
  10
632.29266
  20
476.06415
  0
VERTEX
  10
638.29266
  20
476.06415
  0
VERTEX
  10
638.29266
  20
488.06415
  0
VERTEX
  10
688.89276
  20
488.06415
  0
SEQEND
  0
POLYLINE
  62
0
  70
1
  0
VERTEX
  10
668.08636
  20
337.6857
  0
VERTEX
  10
668.08636
  20
374.65686
  0
VERTEX
  10
666.2088
  20
374.75705
  0
VERTEX
  10
664.34314
  20
374.76251
  0
VERTEX
  10
662.49542
  20
374.67529
  0
VERTEX
  10
660.67188
  20
374.49756
  0
VERTEX
  10
658.87848
  20
374.23132
  0
VERTEX
  10
657.1214
  20
373.87872
  0
VERTEX
  10
655.40686
  20
373.44183
  0
VERTEX
  10
653.74078
  20
372.92273
  0
VERTEX
  10
652.12946
  20
372.32349
  0
VERTEX
  10
650.57892
  20
371.64624
  0
VERTEX
  10
649.82837
  20
371.27896
  0
VERTEX
  10
649.09528
  20
370.89301
  0
VERTEX
  10
648.38043
  20
370.48859
  0
VERTEX
  10
647.68469
  20
370.06592
  0
VERTEX
  10
647.00867
  20
369.62531
  0
VERTEX
  10
646.35321
  20
369.16705
  0
VERTEX
  10
645.71906
  20
368.69135
  0
VERTEX
  10
645.10699
  20
368.19849
  0
VERTEX
  10
644.51782
  20
367.68875
  0
VERTEX
  10
643.95221
  20
367.16235
  0
VERTEX
  10
643.41101
  20
366.61957
  0
VERTEX
  10
642.8949
  20
366.06067
  0
VERTEX
  10
642.40735
  20
365.48907
  0
VERTEX
  10
641.95123
  20
364.90851
  0
VERTEX
  10
641.52661
  20
364.31952
  0
VERTEX
  10
641.13342
  20
363.72278
  0
VERTEX
  10
640.77173
  20
363.11877
  0
VERTEX
  10
640.44147
  20
362.50821
  0
VERTEX
  10
640.14264
  20
361.8916
  0
VERTEX
  10
639.87531
  20
361.26962
  0
VERTEX
  10
639.6394
  20
360.64282
  0
VERTEX
  10
639.43494
  20
360.01184
  0
VERTEX
  10
639.2619
  20
359.37726
  0
VERTEX
  10
639.12036
  20
358.73965
  0
VERTEX
  10
639.01031
  20
358.09967
  0
VERTEX
  10
638.93164
  20
357.45786
  0
VERTEX
  10
638.88446
  20
356.81488
  0
VERTEX
  10
638.86877
  20
356.17126
  0
VERTEX
  10
638.88446
  20
355.52765
  0
VERTEX
  10
638.93164
  20
354.88467
  0
VERTEX
  10
639.01031
  20
354.24289
  0
VERTEX
  10
639.12036
  20
353.60291
  0
VERTEX
  10
639.2619
  20
352.9653
  0
VERTEX
  10
639.43494
  20
352.33072
  0
VERTEX
  10
639.6394
  20
351.69971
  0
VERTEX
  10
639.87531
  20
351.07294
  0
VERTEX
  10
640.14264
  20
350.45093
  0
VERTEX
  10
640.44147
  20
349.83435
  0
VERTEX
  10
640.77173
  20
349.22375
  0
VERTEX
  10
641.13342
  20
348.61978
  0
VERTEX
  10
641.52661
  20
348.02301
  0
VERTEX
  10
641.95123
  20
347.43402
  0
VERTEX
  10
642.40735
  20
346.85345
  0
VERTEX
  10
642.8949
  20
346.28189
  0
VERTEX
  10
643.41095
  20
345.72299
  0
VERTEX
  10
643.95221
  20
345.18021
  0
VERTEX
  10
644.51782
  20
344.65381
  0
VERTEX
  10
645.10699
  20
344.14407
  0
VERTEX
  10
645.71906
  20
343.65121
  0
VERTEX
  10
646.35321
  20
343.17554
  0
VERTEX
  10
647.00867
  20
342.71722
  0
VERTEX
  10
647.68469
  20
342.27664
  0
VERTEX
  10
648.38043
  20
341.854
  0
VERTEX
  10
649.09528
  20
341.44955
  0
VERTEX
  10
649.82831
  20
341.0636
  0
VERTEX
  10
650.57892
  20
340.69635
  0
VERTEX
  10
652.12946
  20
340.01907
  0
VERTEX
  10
653.74078
  20
339.41983
  0
VERTEX
  10
655.40686
  20
338.90073
  0
VERTEX
  10
657.1214
  20
338.46381
  0
VERTEX
  10
658.87848
  20
338.11121
  0
VERTEX
  10
660.67188
  20
337.845
  0
VERTEX
  10
662.49542
  20
337.66724
  0
VERTEX
  10
664.34314
  20
337.58008
  0
VERTEX
  10
666.2088
  20
337.58551
  0
VERTEX
  10
668.08636
  20
337.6857
  0
SEQEND
  0
POLYLINE
  62
0
  70
1
  0
VERTEX
  10
668.08636
  20
395.25079
  0
VERTEX
  10
668.08636
  20
450.59174
  0
VERTEX
  10
667.08612
  20
451.22275
  0
VERTEX
  10
666.06952
  20
451.8327
  0
VERTEX
  10
665.03711
  20
452.42163
  0
VERTEX
  10
663.98944
  20
452.98953
  0
VERTEX
  10
661.85059
  20
454.06235
  0
VERTEX
  10
659.65735
  20
455.05121
  0
VERTEX
  10
657.41425
  20
455.95624
  0
VERTEX
  10
655.12567
  20
456.77753
  0
VERTEX
  10
652.79614
  20
457.51514
  0
VERTEX
  10
650.42999
  20
458.16922
  0
VERTEX
  10
648.03174
  20
458.73981
  0
VERTEX
  10
645.6059
  20
459.22702
  0
VERTEX
  10
643.15674
  20
459.63098
  0
VERTEX
  10
640.6889
  20
459.95172
  0
VERTEX
  10
638.20667
  20
460.18939
  0
VERTEX
  10
635.7146
  20
460.34406
  0
VERTEX
  10
633.21716
  20
460.4158
  0
VERTEX
  10
630.71869
  20
460.40475
  0
VERTEX
  10
628.22369
  20
460.31097
  0
VERTEX
  10
625.73663
  20
460.13455
  0
VERTEX
  10
623.26196
  20
459.87561
  0
VERTEX
  10
620.80408
  20
459.53424
  0
VERTEX
  10
618.36743
  20
459.1105
  0
VERTEX
  10
615.95654
  20
458.60452
  0
VERTEX
  10
613.57581
  20
458.01639
  0
VERTEX
  10
611.22974
  20
457.34619
  0
VERTEX
  10
608.92261
  20
456.59399
  0
VERTEX
  10
606.65906
  20
455.75995
  0
VERTEX
  10
604.44342
  20
454.84409
  0
VERTEX
  10
602.28021
  20
453.84656
  0
VERTEX
  10
601.2196
  20
453.31717
  0
VERTEX
  10
600.17383
  20
452.7674
  0
VERTEX
  10
599.14331
  20
452.19727
  0
VERTEX
  10
598.12872
  20
451.60675
  0
VERTEX
  10
597.13055
  20
450.99591
  0
VERTEX
  10
596.14941
  20
450.36469
  0
VERTEX
  10
595.18579
  20
449.71317
  0
VERTEX
  10
594.24023
  20
449.04132
  0
VERTEX
  10
593.3186
  20
448.35309
  0
VERTEX
  10
592.42621
  20
447.65265
  0
VERTEX
  10
591.56305
  20
446.94043
  0
VERTEX
  10
590.72919
  20
446.2168
  0
VERTEX
  10
589.92456
  20
445.48218
  0
VERTEX
  10
589.14917
  20
444.73691
  0
VERTEX
  10
588.40308
  20
443.98141
  0
VERTEX
  10
587.68622
  20
443.21613
  0
VERTEX
  10
586.99866
  20
442.44135
  0
VERTEX
  10
586.34033
  20
441.65753
  0
VERTEX
  10
585.71124
  20
440.86508
  0
VERTEX
  10
585.11145
  20
440.06439
  0
VERTEX
  10
584.54089
  20
439.2558
  0
VERTEX
  10
583.99963
  20
438.43973
  0
VERTEX
  10
583.48755
  20
437.61661
  0
VERTEX
  10
583.00482
  20
436.78677
  0
VERTEX
  10
582.55127
  20
435.95068
  0
VERTEX
  10
582.12701
  20
435.10864
  0
VERTEX
  10
581.73206
  20
434.26114
  0
VERTEX
  10
581.36633
  20
433.40851
  0
VERTEX
  10
581.02985
  20
432.55115
  0
VERTEX
  10
580.7226
  20
431.68948
  0
VERTEX
  10
580.44464
  20
430.82385
  0
VERTEX
  10
580.19592
  20
429.95471
  0
VERTEX
  10
579.9765
  20
429.08243
  0
VERTEX
  10
579.78632
  20
428.20737
  0
VERTEX
  10
579.62537
  20
427.32996
  0
VERTEX
  10
579.49371
  20
426.45059
  0
VERTEX
  10
579.39136
  20
425.56964
  0
VERTEX
  10
579.31818
  20
424.6875
  0
VERTEX
  10
579.27429
  20
423.8046
  0
VERTEX
  10
579.25964
  20
422.92126
  0
VERTEX
  10
579.27429
  20
422.03796
  0
VERTEX
  10
579.31818
  20
421.15506
  0
VERTEX
  10
579.3913
  20
420.27292
  0
VERTEX
  10
579.49371
  20
419.39197
  0
VERTEX
  10
579.62537
  20
418.5126
  0
VERTEX
  10
579.78632
  20
417.63519
  0
VERTEX
  10
579.9765
  20
416.76013
  0
VERTEX
  10
580.19592
  20
415.88785
  0
VERTEX
  10
580.44464
  20
415.01868
  0
VERTEX
  10
580.7226
  20
414.15308
  0
VERTEX
  10
581.02979
  20
413.29138
  0
VERTEX
  10
581.36627
  20
412.43405
  0
VERTEX
  10
581.73206
  20
411.58142
  0
VERTEX
  10
582.12701
  20
410.73389
  0
VERTEX
  10
582.55127
  20
409.89188
  0
VERTEX
  10
583.00476
  20
409.05579
  0
VERTEX
  10
583.48755
  20
408.22595
  0
VERTEX
  10
583.99957
  20
407.40283
  0
VERTEX
  10
584.54089
  20
406.58676
  0
VERTEX
  10
585.11145
  20
405.7782
  0
VERTEX
  10
585.71124
  20
404.97748
  0
VERTEX
  10
586.34033
  20
404.185
  0
VERTEX
  10
586.99866
  20
403.40118
  0
VERTEX
  10
587.68622
  20
402.62643
  0
VERTEX
  10
588.40308
  20
401.86111
  0
VERTEX
  10
589.14917
  20
401.10565
  0
VERTEX
  10
589.92456
  20
400.36038
  0
VERTEX
  10
590.72913
  20
399.62573
  0
VERTEX
  10
591.56305
  20
398.9021
  0
VERTEX
  10
592.42615
  20
398.18988
  0
VERTEX
  10
593.3186
  20
397.48947
  0
VERTEX
  10
594.24023
  20
396.80124
  0
VERTEX
  10
595.18579
  20
396.12939
  0
VERTEX
  10
596.14941
  20
395.47784
  0
VERTEX
  10
597.13055
  20
394.84665
  0
VERTEX
  10
598.12872
  20
394.23578
  0
VERTEX
  10
599.14331
  20
393.64529
  0
VERTEX
  10
600.17383
  20
393.07513
  0
VERTEX
  10
601.2196
  20
392.52539
  0
VERTEX
  10
602.28021
  20
391.996
  0
VERTEX
  10
604.44342
  20
390.99847
  0
VERTEX
  10
606.65906
  20
390.08261
  0
VERTEX
  10
608.92261
  20
389.24854
  0
VERTEX
  10
611.22968
  20
388.49637
  0
VERTEX
  10
613.57581
  20
387.82617
  0
VERTEX
  10
615.95654
  20
387.23804
  0
VERTEX
  10
618.36743
  20
386.73203
  0
VERTEX
  10
620.80408
  20
386.30829
  0
VERTEX
  10
623.26196
  20
385.96692
  0
VERTEX
  10
625.73663
  20
385.70798
  0
VERTEX
  10
628.22369
  20
385.53156
  0
VERTEX
  10
630.71869
  20
385.43781
  0
VERTEX
  10
633.21716
  20
385.42676
  0
VERTEX
  10
635.7146
  20
385.4985
  0
VERTEX
  10
638.20667
  20
385.65317
  0
VERTEX
  10
640.6889
  20
385.89081
  0
VERTEX
  10
643.15674
  20
386.21158
  0
VERTEX
  10
645.60583
  20
386.61554
  0
VERTEX
  10
648.03174
  20
387.10275
  0
VERTEX
  10
650.42999
  20
387.67334
  0
VERTEX
  10
652.79614
  20
388.32739
  0
VERTEX
  10
655.12567
  20
389.06503
  0
VERTEX
  10
657.41425
  20
389.88632
  0
VERTEX
  10
659.65735
  20
390.79132
  0
VERTEX
  10
661.85059
  20
391.78021
  0
VERTEX
  10
663.98944
  20
392.85303
  0
VERTEX
  10
665.03711
  20
393.4209
  0
VERTEX
  10
666.06952
  20
394.00983
  0
VERTEX
  10
667.08612
  20
394.61981
  0
VERTEX
  10
668.08636
  20
395.25079
  0
SEQEND
  0
POLYLINE
  62
0
  70
1
  0
VERTEX
  10
113.43945
  20
325.00897
  0
VERTEX
  10
113.43945
  20
319.00897
  0
VERTEX
  10
197.17938
  20
319.00897
  0
VERTEX
  10
197.17938
  20
487.00897
  0
VERTEX
  10
119.43945
  20
487.00897
  0
VERTEX
  10
119.43945
  20
481.00897
  0
VERTEX
  10
113.43945
  20
481.00897
  0
VERTEX
  10
113.43945
  20
475.00897
  0
VERTEX
  10
119.43945
  20
475.00897
  0
VERTEX
  10
119.43951
  20
459.36609
  0
VERTEX
  10
120.80835
  20
459.35385
  0
VERTEX
  10
122.16858
  20
459.31732
  0
VERTEX
  10
123.5199
  20
459.25674
  0
VERTEX
  10
124.86182
  20
459.17249
  0
VERTEX
  10
126.19397
  20
459.06482
  0
VERTEX
  10
127.51587
  20
458.93402
  0
VERTEX
  10
128.82715
  20
458.7804
  0
VERTEX
  10
130.1275
  20
458.60422
  0
VERTEX
  10
132.69324
  20
458.18549
  0
VERTEX
  10
135.20984
  20
457.68018
  0
VERTEX
  10
137.67395
  20
457.09061
  0
VERTEX
  10
140.08234
  20
456.41916
  0
VERTEX
  10
142.43152
  20
455.66818
  0
VERTEX
  10
144.7182
  20
454.84003
  0
VERTEX
  10
145.83704
  20
454.39777
  0
VERTEX
  10
146.93903
  20
453.93707
  0
VERTEX
  10
148.02368
  20
453.45828
  0
VERTEX
  10
149.09076
  20
452.96167
  0
VERTEX
  10
150.13965
  20
452.44754
  0
VERTEX
  10
151.16998
  20
451.91617
  0
VERTEX
  10
152.18134
  20
451.36786
  0
VERTEX
  10
153.17334
  20
450.80292
  0
VERTEX
  10
154.14557
  20
450.22162
  0
VERTEX
  10
155.0976
  20
449.62427
  0
VERTEX
  10
156.02905
  20
449.01117
  0
VERTEX
  10
156.93945
  20
448.3826
  0
VERTEX
  10
157.82837
  20
447.73883
  0
VERTEX
  10
158.69543
  20
447.08023
  0
VERTEX
  10
159.54022
  20
446.40704
  0
VERTEX
  10
160.3623
  20
445.71957
  0
VERTEX
  10
161.16125
  20
445.0181
  0
VERTEX
  10
161.93677
  20
444.30292
  0
VERTEX
  10
162.68823
  20
443.57437
  0
VERTEX
  10
163.41528
  20
442.8327
  0
VERTEX
  10
164.11761
  20
442.07819
  0
VERTEX
  10
164.79474
  20
441.31119
  0
VERTEX
  10
165.44629
  20
440.53198
  0
VERTEX
  10
166.07178
  20
439.74081
  0
VERTEX
  10
166.67078
  20
438.93802
  0
VERTEX
  10
167.24292
  20
438.12387
  0
VERTEX
  10
167.78772
  20
437.29871
  0
VERTEX
  10
168.30493
  20
436.46277
  0
VERTEX
  10
168.79395
  20
435.61639
  0
VERTEX
  10
169.25452
  20
434.75983
  0
VERTEX
  10
169.68604
  20
433.89343
  0
VERTEX
  10
170.08826
  20
433.01743
  0
VERTEX
  10
170.46069
  20
432.13214
  0
VERTEX
  10
170.80286
  20
431.23792
  0
VERTEX
  10
171.11444
  20
430.33496
  0
VERTEX
  10
171.39502
  20
429.42365
  0
VERTEX
  10
171.64417
  20
428.50421
  0
VERTEX
  10
171.86145
  20
427.57697
  0
VERTEX
  10
172.04639
  20
426.64221
  0
VERTEX
  10
172.19867
  20
425.70026
  0
VERTEX
  10
172.31787
  20
424.75134
  0
VERTEX
  10
172.4035
  20
423.79584
  0
VERTEX
  10
172.4552
  20
422.83398
  0
VERTEX
  10
172.47247
  20
421.86609
  0
VERTEX
  10
172.4552
  20
420.89819
  0
VERTEX
  10
172.4035
  20
419.93634
  0
VERTEX
  10
172.31787
  20
418.98083
  0
VERTEX
  10
172.19867
  20
418.03192
  0
VERTEX
  10
172.04639
  20
417.08997
  0
VERTEX
  10
171.86145
  20
416.15521
  0
VERTEX
  10
171.64417
  20
415.22797
  0
VERTEX
  10
171.39502
  20
414.30853
  0
VERTEX
  10
171.11444
  20
413.39722
  0
VERTEX
  10
170.80286
  20
412.49426
  0
VERTEX
  10
170.46069
  20
411.60001
  0
VERTEX
  10
170.08826
  20
410.71472
  0
VERTEX
  10
169.68604
  20
409.83875
  0
VERTEX
  10
169.25452
  20
408.97235
  0
VERTEX
  10
168.79395
  20
408.11578
  0
VERTEX
  10
168.30487
  20
407.26941
  0
VERTEX
  10
167.7876
  20
406.43347
  0
VERTEX
  10
167.2428
  20
405.60831
  0
VERTEX
  10
166.67065
  20
404.79416
  0
VERTEX
  10
166.07166
  20
403.99136
  0
VERTEX
  10
165.44617
  20
403.2002
  0
VERTEX
  10
164.79468
  20
402.42096
  0
VERTEX
  10
164.11755
  20
401.65399
  0
VERTEX
  10
163.41522
  20
400.89948
  0
VERTEX
  10
162.68811
  20
400.15784
  0
VERTEX
  10
161.93665
  20
399.42926
  0
VERTEX
  10
161.16125
  20
398.71408
  0
VERTEX
  10
160.3623
  20
398.01263
  0
VERTEX
  10
159.54022
  20
397.32513
  0
VERTEX
  10
158.69543
  20
396.65195
  0
VERTEX
  10
157.82837
  20
395.99335
  0
VERTEX
  10
156.93945
  20
395.34961
  0
VERTEX
  10
156.02905
  20
394.72101
  0
VERTEX
  10
155.0976
  20
394.10791
  0
VERTEX
  10
154.14557
  20
393.51056
  0
VERTEX
  10
153.17334
  20
392.92926
  0
VERTEX
  10
152.18134
  20
392.36432
  0
VERTEX
  10
151.16992
  20
391.81604
  0
VERTEX
  10
150.13953
  20
391.28467
  0
VERTEX
  10
149.0907
  20
390.77051
  0
VERTEX
  10
148.02368
  20
390.2739
  0
VERTEX
  10
146.93896
  20
389.7951
  0
VERTEX
  10
145.83691
  20
389.33441
  0
VERTEX
  10
144.71808
  20
388.89215
  0
VERTEX
  10
142.4314
  20
388.06403
  0
VERTEX
  10
140.08228
  20
387.31305
  0
VERTEX
  10
137.67395
  20
386.6416
  0
VERTEX
  10
135.20984
  20
386.05203
  0
VERTEX
  10
132.69324
  20
385.54669
  0
VERTEX
  10
130.12744
  20
385.12796
  0
VERTEX
  10
128.82715
  20
384.95181
  0
VERTEX
  10
127.51581
  20
384.79819
  0
VERTEX
  10
126.19385
  20
384.66739
  0
VERTEX
  10
124.86169
  20
384.55969
  0
VERTEX
  10
123.51978
  20
384.47546
  0
VERTEX
  10
122.16846
  20
384.41492
  0
VERTEX
  10
120.80823
  20
384.37836
  0
VERTEX
  10
119.43945
  20
384.36609
  0
VERTEX
  10
119.43945
  20
325.00897
  0
VERTEX
  10
113.43945
  20
325.00897
  0
SEQEND
  0
POLYLINE
  62
0
  0
VERTEX
  10
178.62433
  20
355.11609
  0
VERTEX
  10
178.59009
  20
356.07327
  0
VERTEX
  10
178.48853
  20
357.01785
  0
VERTEX
  10
178.32129
  20
357.9487
  0
VERTEX
  10
178.08997
  20
358.86465
  0
VERTEX
  10
177.79626
  20
359.76453
  0
VERTEX
  10
177.44177
  20
360.64719
  0
VERTEX
  10
177.02826
  20
361.51141
  0
VERTEX
  10
176.55725
  20
362.35608
  0
VERTEX
  10
176.03052
  20
363.17996
  0
VERTEX
  10
175.44958
  20
363.98196
  0
VERTEX
  10
174.81616
  20
364.76086
  0
VERTEX
  10
174.13196
  20
365.51553
  0
VERTEX
  10
173.39856
  20
366.24475
  0
VERTEX
  10
172.61768
  20
366.94742
  0
VERTEX
  10
171.79089
  20
367.62231
  0
VERTEX
  10
170.91992
  20
368.26828
  0
VERTEX
  10
170.00635
  20
368.88416
  0
VERTEX
  10
169.052
  20
369.46875
  0
VERTEX
  10
168.05829
  20
370.02094
  0
VERTEX
  10
167.02698
  20
370.53952
  0
VERTEX
  10
165.95972
  20
371.02332
  0
VERTEX
  10
164.85822
  20
371.47119
  0
VERTEX
  10
163.724
  20
371.88193
  0
VERTEX
  10
162.55884
  20
372.25443
  0
VERTEX
  10
161.36432
  20
372.58746
  0
VERTEX
  10
160.14215
  20
372.87988
  0
VERTEX
  10
158.89392
  20
373.13052
  0
VERTEX
  10
157.62122
  20
373.33823
  0
VERTEX
  10
156.32581
  20
373.50177
  0
VERTEX
  10
155.0094
  20
373.62006
  0
VERTEX
  10
153.67358
  20
373.69189
  0
VERTEX
  10
152.31995
  20
373.71609
  0
VERTEX
  10
150.96631
  20
373.69189
  0
VERTEX
  10
149.63049
  20
373.62006
  0
VERTEX
  10
148.31409
  20
373.50177
  0
VERTEX
  10
147.01868
  20
373.33823
  0
VERTEX
  10
145.74597
  20
373.13052
  0
VERTEX
  10
144.49774
  20
372.87988
  0
VERTEX
  10
143.27557
  20
372.58746
  0
VERTEX
  10
142.08105
  20
372.25443
  0
VERTEX
  10
140.91589
  20
371.88193
  0
VERTEX
  10
139.78168
  20
371.47119
  0
VERTEX
  10
138.68018
  20
371.02332
  0
VERTEX
  10
137.61292
  20
370.53952
  0
VERTEX
  10
136.5816
  20
370.02094
  0
VERTEX
  10
135.58789
  20
369.46875
  0
VERTEX
  10
134.63354
  20
368.88416
  0
VERTEX
  10
133.71997
  20
368.26828
  0
VERTEX
  10
132.849
  20
367.62231
  0
VERTEX
  10
132.02222
  20
366.94742
  0
VERTEX
  10
131.24133
  20
366.24475
  0
VERTEX
  10
130.50793
  20
365.51553
  0
VERTEX
  10
129.82373
  20
364.76086
  0
VERTEX
  10
129.19031
  20
363.98196
  0
VERTEX
  10
128.60938
  20
363.17996
  0
VERTEX
  10
128.08264
  20
362.35608
  0
VERTEX
  10
127.61163
  20
361.51141
  0
VERTEX
  10
127.19812
  20
360.64719
  0
VERTEX
  10
126.84363
  20
359.76453
  0
VERTEX
  10
126.54993
  20
358.86465
  0
VERTEX
  10
126.3186
  20
357.9487
  0
VERTEX
  10
126.15137
  20
357.01785
  0
VERTEX
  10
126.0498
  20
356.07327
  0
VERTEX
  10
126.01556
  20
355.11609
  0
VERTEX
  10
126.0498
  20
354.15894
  0
VERTEX
  10
126.15137
  20
353.21436
  0
VERTEX
  10
126.3186
  20
352.28351
  0
VERTEX
  10
126.54993
  20
351.36755
  0
VERTEX
  10
126.84363
  20
350.46768
  0
VERTEX
  10
127.19812
  20
349.58502
  0
VERTEX
  10
127.61163
  20
348.72079
  0
VERTEX
  10
128.08264
  20
347.87613
  0
VERTEX
  10
128.60938
  20
347.05222
  0
VERTEX
  10
129.19031
  20
346.25021
  0
VERTEX
  10
129.82373
  20
345.47131
  0
VERTEX
  10
130.50793
  20
344.71664
  0
VERTEX
  10
131.24133
  20
343.98743
  0
VERTEX
  10
132.02222
  20
343.28476
  0
VERTEX
  10
132.849
  20
342.60986
  0
VERTEX
  10
133.71997
  20
341.9639
  0
VERTEX
  10
134.63354
  20
341.34802
  0
VERTEX
  10
135.58789
  20
340.76343
  0
VERTEX
  10
136.5816
  20
340.21124
  0
VERTEX
  10
137.61292
  20
339.69266
  0
VERTEX
  10
138.68018
  20
339.20886
  0
VERTEX
  10
139.78168
  20
338.76099
  0
VERTEX
  10
140.91589
  20
338.35025
  0
VERTEX
  10
142.08105
  20
337.97778
  0
VERTEX
  10
143.27557
  20
337.64474
  0
VERTEX
  10
144.49774
  20
337.35233
  0
VERTEX
  10
145.74597
  20
337.10168
  0
VERTEX
  10
147.01868
  20
336.89398
  0
VERTEX
  10
148.31409
  20
336.73041
  0
VERTEX
  10
149.63049
  20
336.61212
  0
VERTEX
  10
150.96631
  20
336.54028
  0
VERTEX
  10
152.31995
  20
336.51611
  0
VERTEX
  10
153.67358
  20
336.54031
  0
VERTEX
  10
155.0094
  20
336.61215
  0
VERTEX
  10
156.32581
  20
336.73044
  0
VERTEX
  10
157.62122
  20
336.89401
  0
VERTEX
  10
158.89392
  20
337.10172
  0
VERTEX
  10
160.14215
  20
337.35236
  0
VERTEX
  10
161.36432
  20
337.64478
  0
VERTEX
  10
162.55884
  20
337.97778
  0
VERTEX
  10
163.724
  20
338.35028
  0
VERTEX
  10
164.85822
  20
338.76105
  0
VERTEX
  10
165.95972
  20
339.20889
  0
VERTEX
  10
167.02698
  20
339.69269
  0
VERTEX
  10
168.05829
  20
340.21127
  0
VERTEX
  10
169.052
  20
340.76343
  0
VERTEX
  10
170.00635
  20
341.34805
  0
VERTEX
  10
170.91992
  20
341.96393
  0
VERTEX
  10
171.79089
  20
342.60989
  0
VERTEX
  10
172.61768
  20
343.28479
  0
VERTEX
  10
173.39856
  20
343.98746
  0
VERTEX
  10
174.13196
  20
344.71667
  0
VERTEX
  10
174.81616
  20
345.47131
  0
VERTEX
  10
175.44958
  20
346.25024
  0
VERTEX
  10
176.03052
  20
347.05225
  0
VERTEX
  10
176.55725
  20
347.87616
  0
VERTEX
  10
177.02826
  20
348.72079
  0
VERTEX
  10
177.44177
  20
349.58502
  0
VERTEX
  10
177.79626
  20
350.46768
  0
VERTEX
  10
178.08997
  20
351.36755
  0
VERTEX
  10
178.32129
  20
352.28351
  0
VERTEX
  10
178.48853
  20
353.21436
  0
VERTEX
  10
178.59009
  20
354.15894
  0
VERTEX
  10
178.62433
  20
355.11609
  0
SEQEND
  0
ENDSEC
  0
EOF
