  0
SECTION
  2
HEADER
  9
$ACADVER
  1
AC1014
  9
$ACADMAINTVER
 70
     9
  9
$DWGCODEPAGE
  3
ANSI_1252
  9
$INSBASE
 10
0.0
 20
0.0
 30
0.0
  9
$EXTMIN
 10
-0.2246560158124637
 20
19.9083983349
 30
0.0
  9
$EXTMAX
 10
198.2027936818
 20
107.2784416142167
 30
0.0
  9
$LIMMIN
 10
0.0
 20
0.0
  9
$LIMMAX
 10
200.0
 20
200.0
  9
$ORTHOMODE
 70
     0
  9
$REGENMODE
 70
     1
  9
$FILLMODE
 70
     1
  9
$QTEXTMODE
 70
     0
  9
$MIRRTEXT
 70
     1
  9
$DRAGMODE
 70
     2
  9
$LTSCALE
 40
1.0
  9
$OSMODE
 70
 13311
  9
$ATTMODE
 70
     1
  9
$TEXTSIZE
 40
2.5
  9
$TRACEWID
 40
1.0
  9
$TEXTSTYLE
  7
STANDARD
  9
$CLAYER
  8
0
  9
$CELTYPE
  6
BYLAYER
  9
$CECOLOR
 62
   256
  9
$CELTSCALE
 40
1.0
  9
$DELOBJ
 70
     1
  9
$DISPSILH
 70
     0
  9
$DIMSCALE
 40
1.0
  9
$DIMASZ
 40
3.302
  9
$DIMEXO
 40
1.0
  9
$DIMDLI
 40
3.75
  9
$DIMRND
 40
0.0
  9
$DIMDLE
 40
0.0
  9
$DIMEXE
 40
1.0
  9
$DIMTP
 40
0.0
  9
$DIMTM
 40
0.0
  9
$DIMTXT
 40
3.5
  9
$DIMCEN
 40
2.5
  9
$DIMTSZ
 40
0.0
  9
$DIMTOL
 70
     0
  9
$DIMLIM
 70
     0
  9
$DIMTIH
 70
     1
  9
$DIMTOH
 70
     1
  9
$DIMSE1
 70
     0
  9
$DIMSE2
 70
     0
  9
$DIMTAD
 70
     1
  9
$DIMZIN
 70
     0
  9
$DIMBLK
  1

  9
$DIMASO
 70
     1
  9
$DIMSHO
 70
     1
  9
$DIMPOST
  1

  9
$DIMAPOST
  1

  9
$DIMALT
 70
     0
  9
$DIMALTD
 70
     3
  9
$DIMALTF
 40
0.0393700787
  9
$DIMLFAC
 40
1.0
  9
$DIMTOFL
 70
     1
  9
$DIMTVP
 40
0.0
  9
$DIMTIX
 70
     0
  9
$DIMSOXD
 70
     0
  9
$DIMSAH
 70
     0
  9
$DIMBLK1
  1

  9
$DIMBLK2
  1

  9
$DIMSTYLE
  2
ISO-25
  9
$DIMCLRD
 70
     0
  9
$DIMCLRE
 70
     0
  9
$DIMCLRT
 70
     0
  9
$DIMTFAC
 40
1.0
  9
$DIMGAP
 40
1.524
  9
$DIMJUST
 70
     0
  9
$DIMSD1
 70
     0
  9
$DIMSD2
 70
     0
  9
$DIMTOLJ
 70
     1
  9
$DIMTZIN
 70
     0
  9
$DIMALTZ
 70
     0
  9
$DIMALTTZ
 70
     0
  9
$DIMFIT
 70
     5
  9
$DIMUPT
 70
     0
  9
$DIMUNIT
 70
     2
  9
$DIMDEC
 70
     2
  9
$DIMTDEC
 70
     2
  9
$DIMALTU
 70
     2
  9
$DIMALTTD
 70
     2
  9
$DIMTXSTY
  7
STANDARD
  9
$DIMAUNIT
 70
     0
  9
$LUNITS
 70
     2
  9
$LUPREC
 70
     2
  9
$SKETCHINC
 40
1.0
  9
$FILLETRAD
 40
1.0
  9
$AUNITS
 70
     0
  9
$AUPREC
 70
     2
  9
$MENU
  1
.
  9
$ELEVATION
 40
0.0
  9
$PELEVATION
 40
0.0
  9
$THICKNESS
 40
0.0
  9
$LIMCHECK
 70
     0
  9
$CHAMFERA
 40
10.0
  9
$CHAMFERB
 40
10.0
  9
$CHAMFERC
 40
1.0
  9
$CHAMFERD
 40
0.0
  9
$SKPOLY
 70
     0
  9
$TDCREATE
 40
2455593.220419248
  9
$TDUPDATE
 40
2457031.985234375
  9
$TDINDWG
 40
0.0249976273
  9
$TDUSRTIMER
 40
2457031.983476273
  9
$USRTIMER
 70
     1
  9
$ANGBASE
 50
0.0
  9
$ANGDIR
 70
     0
  9
$PDMODE
 70
     0
  9
$PDSIZE
 40
-1.0
  9
$PLINEWID
 40
0.0
  9
$COORDS
 70
     1
  9
$SPLFRAME
 70
     0
  9
$SPLINETYPE
 70
     6
  9
$SPLINESEGS
 70
     8
  9
$ATTDIA
 70
     0
  9
$ATTREQ
 70
     1
  9
$HANDLING
 70
     1
  9
$HANDSEED
  5
B25
  9
$SURFTAB1
 70
     6
  9
$SURFTAB2
 70
     6
  9
$SURFTYPE
 70
     6
  9
$SURFU
 70
     6
  9
$SURFV
 70
     6
  9
$UCSNAME
  2

  9
$UCSORG
 10
0.0
 20
0.0
 30
0.0
  9
$UCSXDIR
 10
1.0
 20
0.0
 30
0.0
  9
$UCSYDIR
 10
0.0
 20
1.0
 30
0.0
  9
$PUCSNAME
  2

  9
$PUCSORG
 10
0.0
 20
0.0
 30
0.0
  9
$PUCSXDIR
 10
1.0
 20
0.0
 30
0.0
  9
$PUCSYDIR
 10
0.0
 20
1.0
 30
0.0
  9
$USERI1
 70
     0
  9
$USERI2
 70
     0
  9
$USERI3
 70
     0
  9
$USERI4
 70
     0
  9
$USERI5
 70
     0
  9
$USERR1
 40
0.0
  9
$USERR2
 40
0.0
  9
$USERR3
 40
0.0
  9
$USERR4
 40
0.0
  9
$USERR5
 40
0.0
  9
$WORLDVIEW
 70
     1
  9
$SHADEDGE
 70
     3
  9
$SHADEDIF
 70
    70
  9
$TILEMODE
 70
     1
  9
$MAXACTVP
 70
    64
  9
$PINSBASE
 10
0.0
 20
0.0
 30
0.0
  9
$PLIMCHECK
 70
     0
  9
$PEXTMIN
 10
1.000000000000000E+20
 20
1.000000000000000E+20
 30
1.000000000000000E+20
  9
$PEXTMAX
 10
-1.000000000000000E+20
 20
-1.000000000000000E+20
 30
-1.000000000000000E+20
  9
$PLIMMIN
 10
0.0
 20
0.0
  9
$PLIMMAX
 10
0.0
 20
0.0
  9
$UNITMODE
 70
     0
  9
$VISRETAIN
 70
     1
  9
$PLINEGEN
 70
     0
  9
$PSLTSCALE
 70
     1
  9
$TREEDEPTH
 70
  3020
  9
$PICKSTYLE
 70
     1
  9
$CMLSTYLE
  2
STANDARD
  9
$CMLJUST
 70
     0
  9
$CMLSCALE
 40
1.0
  9
$PROXYGRAPHICS
 70
     1
  9
$MEASUREMENT
 70
     0
  0
ENDSEC
  0
SECTION
  2
CLASSES
  0
CLASS
  1
ACDBDICTIONARYWDFLT
  2
AcDbDictionaryWithDefault
  3
ObjectDBX Classes
 90
        0
280
     0
281
     0
  0
CLASS
  1
MATERIAL
  2
AcDbMaterial
  3
ObjectDBX Classes
 90
     1153
280
     0
281
     0
  0
CLASS
  1
SCALE
  2
AcDbScale
  3
ObjectDBX Classes
 90
     1153
280
     0
281
     0
  0
CLASS
  1
VISUALSTYLE
  2
AcDbVisualStyle
  3
ObjectDBX Classes
 90
     4095
280
     0
281
     0
  0
CLASS
  1
TABLESTYLE
  2
AcDbTableStyle
  3
ObjectDBX Classes
 90
     4095
280
     0
281
     0
  0
CLASS
  1
RASTERVARIABLES
  2
AcDbRasterVariables
  3
ISM
 90
        0
280
     0
281
     0
  0
CLASS
  1
DICTIONARYVAR
  2
AcDbDictionaryVar
  3
ObjectDBX Classes
 90
        0
280
     0
281
     0
  0
CLASS
  1
XRECORD
  2
AcDbXrecord
  3
AutoCAD 2000
 90
        0
280
     0
281
     0
  0
CLASS
  1
LWPOLYLINE
  2
AcDbPolyline
  3
AutoCAD 2000
 90
        0
280
     0
281
     1
  0
CLASS
  1
HATCH
  2
AcDbHatch
  3
AutoCAD 2000
 90
        0
280
     0
281
     1
  0
ENDSEC
  0
SECTION
  2
TABLES
  0
TABLE
  2
VPORT
  5
3DA
330
0
100
AcDbSymbolTable
 70
     1
  0
VPORT
  5
3F1
330
3DA
100
AcDbSymbolTableRecord
100
AcDbViewportTableRecord
  2
*ACTIVE
 70
     0
 10
0.0
 20
0.0
 11
1.0
 21
1.0
 12
169.78842693125
 22
19.08586233070595
 13
0.0
 23
0.0
 14
10.0
 24
10.0
 15
10.0
 25
10.0
 16
0.0
 26
0.0
 36
1.0
 17
0.0
 27
0.0
 37
0.0
 40
250.0000000000001
 41
2.063613231552163
 42
50.0
 43
0.0
 44
0.0
 50
0.0
 51
0.0
 71
    16
 72
  2000
 73
     1
 74
     3
 75
     0
 76
     0
 77
     0
 78
     0
  0
ENDTAB
  0
TABLE
  2
LTYPE
  5
3D7
330
0
100
AcDbSymbolTable
 70
     6
  0
LTYPE
  5
3E5
330
3D7
100
AcDbSymbolTableRecord
100
AcDbLinetypeTableRecord
  2
BYBLOCK
 70
     0
  3

 72
    65
 73
     0
 40
0.0
  0
LTYPE
  5
3E6
330
3D7
100
AcDbSymbolTableRecord
100
AcDbLinetypeTableRecord
  2
BYLAYER
 70
     0
  3

 72
    65
 73
     0
 40
0.0
  0
LTYPE
  5
3E7
330
3D7
100
AcDbSymbolTableRecord
100
AcDbLinetypeTableRecord
  2
CONTINUOUS
 70
     0
  3
Solid line
 72
    65
 73
     0
 40
0.0
  0
LTYPE
  5
3F3
330
3D7
100
AcDbSymbolTableRecord
100
AcDbLinetypeTableRecord
  2
HIDDEN
 70
     0
  3
Hidden __ __ __ __ __ __ __ __ __ __ __ __ __ __
 72
    65
 73
     2
 40
1.905
 49
1.27
 74
     0
 49
-0.635
 74
     0
  0
LTYPE
  5
3F4
330
3D7
100
AcDbSymbolTableRecord
100
AcDbLinetypeTableRecord
  2
PHANTOM
 70
     0
  3
Phantom ______  __  __  ______  __  __  ______
 72
    65
 73
     6
 40
12.7
 49
6.35
 74
     0
 49
-1.27
 74
     0
 49
1.27
 74
     0
 49
-1.27
 74
     0
 49
1.27
 74
     0
 49
-1.27
 74
     0
  0
LTYPE
  5
3F5
330
3D7
100
AcDbSymbolTableRecord
100
AcDbLinetypeTableRecord
  2
CENTER
 70
     0
  3
Center ____ _ ____ _ ____ _ ____ _ ____ _ ____
 72
    65
 73
     4
 40
10.16
 49
6.35
 74
     0
 49
-1.27
 74
     0
 49
1.27
 74
     0
 49
-1.27
 74
     0
  0
LTYPE
  5
3F6
330
3D7
100
AcDbSymbolTableRecord
100
AcDbLinetypeTableRecord
  2
CENTERX2
 70
     0
  3
Center (2x) ________  __  ________  __  _____
 72
    65
 73
     4
 40
20.32
 49
12.7
 74
     0
 49
-2.54
 74
     0
 49
2.54
 74
     0
 49
-2.54
 74
     0
  0
LTYPE
  5
3F7
330
3D7
100
AcDbSymbolTableRecord
100
AcDbLinetypeTableRecord
  2
DOT2
 70
     0
  3
Dot (.5x) ........................................
 72
    65
 73
     2
 40
0.635
 49
0.0
 74
     0
 49
-0.635
 74
     0
  0
ENDTAB
  0
TABLE
  2
LAYER
  5
3D4
330
0
100
AcDbSymbolTable
 70
     1
  0
LAYER
  5
3E2
330
3D4
100
AcDbSymbolTableRecord
100
AcDbLayerTableRecord
  2
0
 70
     0
 62
     7
  6
CONTINUOUS
  0
ENDTAB
  0
TABLE
  2
STYLE
  5
3D5
330
0
100
AcDbSymbolTable
 70
     1
  0
STYLE
  5
3E3
330
3D5
100
AcDbSymbolTableRecord
100
AcDbTextStyleTableRecord
  2
STANDARD
 70
     0
 40
0.0
 41
1.0
 50
0.0
 71
     0
 42
2.5
  3
txt
  4

  0
ENDTAB
  0
TABLE
  2
VIEW
  5
3D8
330
0
100
AcDbSymbolTable
 70
     0
  0
ENDTAB
  0
TABLE
  2
UCS
  5
3D9
330
0
100
AcDbSymbolTable
 70
     0
  0
ENDTAB
  0
TABLE
  2
APPID
  5
3DB
330
0
100
AcDbSymbolTable
 70
     1
  0
APPID
  5
3E4
330
3DB
100
AcDbSymbolTableRecord
100
AcDbRegAppTableRecord
  2
ACAD
 70
     0
  0
ENDTAB
  0
TABLE
  2
DIMSTYLE
  5
3DC
330
0
100
AcDbSymbolTable
 70
     1
  0
DIMSTYLE
105
3FF
330
3DC
100
AcDbSymbolTableRecord
100
AcDbDimStyleTableRecord
  2
ISO-25
 70
     0
  3

  4

  5

  6

  7

 40
1.0
 41
2.5
 42
0.625
 43
3.75
 44
1.25
 45
0.0
 46
0.0
 47
0.0
 48
0.0
140
2.5
141
2.5
142
0.0
143
0.0393700787
144
1.0
145
0.0
146
1.0
147
0.625
 71
     0
 72
     0
 73
     0
 74
     0
 75
     0
 76
     0
 77
     1
 78
     8
170
     0
171
     3
172
     1
173
     0
174
     0
175
     0
176
     0
177
     0
178
     0
270
     2
271
     4
272
     4
273
     2
274
     2
340
3E3
275
     0
280
     0
281
     0
282
     0
283
     1
284
     0
285
     0
286
     0
287
     3
288
     0
  0
ENDTAB
  0
TABLE
  2
BLOCK_RECORD
  5
3D3
330
0
100
AcDbSymbolTable
 70
     1
  0
BLOCK_RECORD
  5
3EE
330
3D3
100
AcDbSymbolTableRecord
100
AcDbBlockTableRecord
  2
*MODEL_SPACE
  0
BLOCK_RECORD
  5
3EC
330
3D3
100
AcDbSymbolTableRecord
100
AcDbBlockTableRecord
  2
*PAPER_SPACE
  0
ENDTAB
  0
ENDSEC
  0
SECTION
  2
BLOCKS
  0
BLOCK
  5
400
330
3EE
100
AcDbEntity
  8
0
100
AcDbBlockBegin
  2
*MODEL_SPACE
 70
     0
 10
0.0
 20
0.0
 30
0.0
  3
*MODEL_SPACE
  1

  0
ENDBLK
  5
21
330
3EE
100
AcDbEntity
  8
0
100
AcDbBlockEnd
  0
BLOCK
  5
401
330
3EC
100
AcDbEntity
 67
     1
  8
0
100
AcDbBlockBegin
  2
*PAPER_SPACE
 70
     0
 10
0.0
 20
0.0
 30
0.0
  3
*PAPER_SPACE
  1

  0
ENDBLK
  5
1D
330
3EC
100
AcDbEntity
 67
     1
  8
0
100
AcDbBlockEnd
  0
ENDSEC
  0
SECTION
  2
ENTITIES
  0
LINE
  5
220
330
3EE
100
AcDbEntity
  8
0
  6
CONTINUOUS
 62
     7
100
AcDbLine
 10
194.1089050336
 20
72.6982493817
 30
0.0
 11
197.1089050336
 21
72.6982493817
 31
0.0
  0
LINE
  5
221
330
3EE
100
AcDbEntity
  8
0
  6
CONTINUOUS
 62
     7
100
AcDbLine
 10
197.1089050336
 20
67.6982493817
 30
0.0
 11
197.1089050336
 21
72.6982493817
 31
0.0
  0
LINE
  5
222
330
3EE
100
AcDbEntity
  8
0
  6
CONTINUOUS
 62
     7
100
AcDbLine
 10
194.1089050336
 20
67.6982493817
 30
0.0
 11
197.1089050336
 21
67.6982493817
 31
0.0
  0
LINE
  5
223
330
3EE
100
AcDbEntity
  8
0
  6
CONTINUOUS
 62
     7
100
AcDbLine
 10
194.1089050336
 20
61.6982493817
 30
0.0
 11
194.1089050336
 21
67.6982493817
 31
0.0
  0
LINE
  5
224
330
3EE
100
AcDbEntity
  8
0
  6
CONTINUOUS
 62
     7
100
AcDbLine
 10
197.1089050336
 20
61.6982493817
 30
0.0
 11
194.1089050336
 21
61.6982493817
 31
0.0
  0
LINE
  5
225
330
3EE
100
AcDbEntity
  8
0
  6
CONTINUOUS
 62
     7
100
AcDbLine
 10
197.1089050336
 20
55.6982493817
 30
0.0
 11
197.1089050336
 21
61.6982493817
 31
0.0
  0
LINE
  5
226
330
3EE
100
AcDbEntity
  8
0
  6
CONTINUOUS
 62
     7
100
AcDbLine
 10
194.1089050336
 20
55.6982493817
 30
0.0
 11
197.1089050336
 21
55.6982493817
 31
0.0
  0
LINE
  5
227
330
3EE
100
AcDbEntity
  8
0
  6
CONTINUOUS
 62
     7
100
AcDbLine
 10
194.1089050336
 20
49.6982493817
 30
0.0
 11
194.1089050336
 21
55.6982493817
 31
0.0
  0
LINE
  5
228
330
3EE
100
AcDbEntity
  8
0
  6
CONTINUOUS
 62
     7
100
AcDbLine
 10
197.1089050336
 20
49.6982493817
 30
0.0
 11
194.1089050336
 21
49.6982493817
 31
0.0
  0
LINE
  5
229
330
3EE
100
AcDbEntity
  8
0
  6
CONTINUOUS
 62
     7
100
AcDbLine
 10
197.1089050336
 20
43.6982493817
 30
0.0
 11
197.1089050336
 21
49.6982493817
 31
0.0
  0
LINE
  5
22A
330
3EE
100
AcDbEntity
  8
0
  6
CONTINUOUS
 62
     7
100
AcDbLine
 10
191.1089050336
 20
43.6982493817
 30
0.0
 11
197.1089050336
 21
43.6982493817
 31
0.0
  0
LINE
  5
22B
330
3EE
100
AcDbEntity
  8
0
  6
CONTINUOUS
 62
     7
100
AcDbLine
 10
191.1089050336
 20
46.6982493817
 30
0.0
 11
191.1089050336
 21
43.6982493817
 31
0.0
  0
LINE
  5
22C
330
3EE
100
AcDbEntity
  8
0
  6
CONTINUOUS
 62
     7
100
AcDbLine
 10
185.1089050336
 20
46.6982493817
 30
0.0
 11
191.1089050336
 21
46.6982493817
 31
0.0
  0
LINE
  5
22D
330
3EE
100
AcDbEntity
  8
0
  6
CONTINUOUS
 62
     7
100
AcDbLine
 10
185.1089050336
 20
43.6982493817
 30
0.0
 11
185.1089050336
 21
46.6982493817
 31
0.0
  0
LINE
  5
22E
330
3EE
100
AcDbEntity
  8
0
  6
CONTINUOUS
 62
     7
100
AcDbLine
 10
179.1089050336
 20
43.6982493817
 30
0.0
 11
185.1089050336
 21
43.6982493817
 31
0.0
  0
LINE
  5
22F
330
3EE
100
AcDbEntity
  8
0
  6
CONTINUOUS
 62
     7
100
AcDbLine
 10
179.1089050336
 20
46.6982493817
 30
0.0
 11
179.1089050336
 21
43.6982493817
 31
0.0
  0
LINE
  5
230
330
3EE
100
AcDbEntity
  8
0
  6
CONTINUOUS
 62
     7
100
AcDbLine
 10
173.1089050336
 20
46.6982493817
 30
0.0
 11
179.1089050336
 21
46.6982493817
 31
0.0
  0
LINE
  5
231
330
3EE
100
AcDbEntity
  8
0
  6
CONTINUOUS
 62
     7
100
AcDbLine
 10
173.1089050336
 20
43.6982493817
 30
0.0
 11
173.1089050336
 21
46.6982493817
 31
0.0
  0
LINE
  5
232
330
3EE
100
AcDbEntity
  8
0
  6
CONTINUOUS
 62
     7
100
AcDbLine
 10
167.1089050336
 20
43.6982493817
 30
0.0
 11
173.1089050336
 21
43.6982493817
 31
0.0
  0
LINE
  5
233
330
3EE
100
AcDbEntity
  8
0
  6
CONTINUOUS
 62
     7
100
AcDbLine
 10
167.1089050336
 20
46.6982493817
 30
0.0
 11
167.1089050336
 21
43.6982493817
 31
0.0
  0
LINE
  5
234
330
3EE
100
AcDbEntity
  8
0
  6
CONTINUOUS
 62
     7
100
AcDbLine
 10
161.1089050336
 20
46.6982493817
 30
0.0
 11
167.1089050336
 21
46.6982493817
 31
0.0
  0
LINE
  5
235
330
3EE
100
AcDbEntity
  8
0
  6
CONTINUOUS
 62
     7
100
AcDbLine
 10
161.1089050336
 20
43.6982493817
 30
0.0
 11
161.1089050336
 21
46.6982493817
 31
0.0
  0
LINE
  5
236
330
3EE
100
AcDbEntity
  8
0
  6
CONTINUOUS
 62
     7
100
AcDbLine
 10
154.1089050336
 20
43.6982493817
 30
0.0
 11
161.1089050336
 21
43.6982493817
 31
0.0
  0
LINE
  5
237
330
3EE
100
AcDbEntity
  8
0
  6
CONTINUOUS
 62
     7
100
AcDbLine
 10
154.1089050336
 20
46.6982493817
 30
0.0
 11
154.1089050336
 21
43.6982493817
 31
0.0
  0
ARC
  5
238
330
3EE
100
AcDbEntity
  8
0
  6
CONTINUOUS
 62
     7
100
AcDbCircle
 10
157.1089050336
 20
46.6982493817
 30
0.0
 40
3.000000000000028
100
AcDbArc
 50
90.0
 51
180.0
  0
LINE
  5
239
330
3EE
100
AcDbEntity
  8
0
  6
CONTINUOUS
 62
     7
100
AcDbLine
 10
157.1089050336
 20
49.6982493817
 30
0.0
 11
188.1089050336
 21
49.6982493817
 31
0.0
  0
ARC
  5
23A
330
3EE
100
AcDbEntity
  8
0
  6
CONTINUOUS
 62
     7
100
AcDbCircle
 10
188.1089050336
 20
52.6982493817
 30
0.0
 40
3.0
100
AcDbArc
 50
270.0
 51
0.0
  0
LINE
  5
23B
330
3EE
100
AcDbEntity
  8
0
  6
CONTINUOUS
 62
     7
100
AcDbLine
 10
191.1089050336
 20
52.6982493817
 30
0.0
 11
191.1089050336
 21
97.6982493817
 31
0.0
  0
ARC
  5
23C
330
3EE
100
AcDbEntity
  8
0
  6
CONTINUOUS
 62
     7
100
AcDbCircle
 10
188.1089050336
 20
97.6982493817
 30
0.0
 40
3.0
100
AcDbArc
 50
0.0
 51
90.0
  0
LINE
  5
23D
330
3EE
100
AcDbEntity
  8
0
  6
CONTINUOUS
 62
     7
100
AcDbLine
 10
188.1089050336
 20
100.6982493817
 30
0.0
 11
157.1089050336
 21
100.6982493817
 31
0.0
  0
ARC
  5
23E
330
3EE
100
AcDbEntity
  8
0
  6
CONTINUOUS
 62
     7
100
AcDbCircle
 10
157.1089050336
 20
103.6982493817
 30
0.0
 40
3.000000000000028
100
AcDbArc
 50
180.0
 51
270.0
  0
LINE
  5
23F
330
3EE
100
AcDbEntity
  8
0
  6
CONTINUOUS
 62
     7
100
AcDbLine
 10
154.1089050336
 20
106.6982493817
 30
0.0
 11
154.1089050336
 21
103.6982493817
 31
0.0
  0
LINE
  5
240
330
3EE
100
AcDbEntity
  8
0
  6
CONTINUOUS
 62
     7
100
AcDbLine
 10
161.1089050336
 20
106.6982493817
 30
0.0
 11
154.1089050336
 21
106.6982493817
 31
0.0
  0
LINE
  5
241
330
3EE
100
AcDbEntity
  8
0
  6
CONTINUOUS
 62
     7
100
AcDbLine
 10
161.1089050336
 20
106.6982493817
 30
0.0
 11
161.1089050336
 21
103.6982493817
 31
0.0
  0
LINE
  5
242
330
3EE
100
AcDbEntity
  8
0
  6
CONTINUOUS
 62
     7
100
AcDbLine
 10
161.1089050336
 20
103.6982493817
 30
0.0
 11
167.1089050336
 21
103.6982493817
 31
0.0
  0
LINE
  5
243
330
3EE
100
AcDbEntity
  8
0
  6
CONTINUOUS
 62
     7
100
AcDbLine
 10
167.1089050336
 20
103.6982493817
 30
0.0
 11
167.1089050336
 21
106.6982493817
 31
0.0
  0
LINE
  5
244
330
3EE
100
AcDbEntity
  8
0
  6
CONTINUOUS
 62
     7
100
AcDbLine
 10
173.1089050336
 20
106.6982493817
 30
0.0
 11
167.1089050336
 21
106.6982493817
 31
0.0
  0
LINE
  5
245
330
3EE
100
AcDbEntity
  8
0
  6
CONTINUOUS
 62
     7
100
AcDbLine
 10
173.1089050336
 20
106.6982493817
 30
0.0
 11
173.1089050336
 21
103.6982493817
 31
0.0
  0
LINE
  5
246
330
3EE
100
AcDbEntity
  8
0
  6
CONTINUOUS
 62
     7
100
AcDbLine
 10
173.1089050336
 20
103.6982493817
 30
0.0
 11
179.1089050336
 21
103.6982493817
 31
0.0
  0
LINE
  5
247
330
3EE
100
AcDbEntity
  8
0
  6
CONTINUOUS
 62
     7
100
AcDbLine
 10
179.1089050336
 20
103.6982493817
 30
0.0
 11
179.1089050336
 21
106.6982493817
 31
0.0
  0
LINE
  5
248
330
3EE
100
AcDbEntity
  8
0
  6
CONTINUOUS
 62
     7
100
AcDbLine
 10
185.1089050336
 20
106.6982493817
 30
0.0
 11
179.1089050336
 21
106.6982493817
 31
0.0
  0
LINE
  5
249
330
3EE
100
AcDbEntity
  8
0
  6
CONTINUOUS
 62
     7
100
AcDbLine
 10
185.1089050336
 20
106.6982493817
 30
0.0
 11
185.1089050336
 21
103.6982493817
 31
0.0
  0
LINE
  5
24A
330
3EE
100
AcDbEntity
  8
0
  6
CONTINUOUS
 62
     7
100
AcDbLine
 10
185.1089050336
 20
103.6982493817
 30
0.0
 11
191.1089050336
 21
103.6982493817
 31
0.0
  0
LINE
  5
24B
330
3EE
100
AcDbEntity
  8
0
  6
CONTINUOUS
 62
     7
100
AcDbLine
 10
191.1089050336
 20
103.6982493817
 30
0.0
 11
191.1089050336
 21
106.6982493817
 31
0.0
  0
LINE
  5
24C
330
3EE
100
AcDbEntity
  8
0
  6
CONTINUOUS
 62
     7
100
AcDbLine
 10
197.1089050336
 20
106.6982493817
 30
0.0
 11
191.1089050336
 21
106.6982493817
 31
0.0
  0
LINE
  5
24D
330
3EE
100
AcDbEntity
  8
0
  6
CONTINUOUS
 62
     7
100
AcDbLine
 10
197.1089050336
 20
100.6982493817
 30
0.0
 11
197.1089050336
 21
106.6982493817
 31
0.0
  0
LINE
  5
24E
330
3EE
100
AcDbEntity
  8
0
  6
CONTINUOUS
 62
     7
100
AcDbLine
 10
197.1089050336
 20
100.6982493817
 30
0.0
 11
194.1089050336
 21
100.6982493817
 31
0.0
  0
LINE
  5
24F
330
3EE
100
AcDbEntity
  8
0
  6
CONTINUOUS
 62
     7
100
AcDbLine
 10
194.1089050336
 20
100.6982493817
 30
0.0
 11
194.1089050336
 21
94.6982493817
 31
0.0
  0
LINE
  5
250
330
3EE
100
AcDbEntity
  8
0
  6
CONTINUOUS
 62
     7
100
AcDbLine
 10
194.1089050336
 20
94.6982493817
 30
0.0
 11
197.1089050336
 21
94.6982493817
 31
0.0
  0
LINE
  5
251
330
3EE
100
AcDbEntity
  8
0
  6
CONTINUOUS
 62
     7
100
AcDbLine
 10
197.1089050336
 20
88.6982493817
 30
0.0
 11
197.1089050336
 21
94.6982493817
 31
0.0
  0
LINE
  5
252
330
3EE
100
AcDbEntity
  8
0
  6
CONTINUOUS
 62
     7
100
AcDbLine
 10
197.1089050336
 20
88.6982493817
 30
0.0
 11
194.1089050336
 21
88.6982493817
 31
0.0
  0
LINE
  5
253
330
3EE
100
AcDbEntity
  8
0
  6
CONTINUOUS
 62
     7
100
AcDbLine
 10
194.1089050336
 20
88.6982493817
 30
0.0
 11
194.1089050336
 21
82.6982493817
 31
0.0
  0
LINE
  5
254
330
3EE
100
AcDbEntity
  8
0
  6
CONTINUOUS
 62
     7
100
AcDbLine
 10
194.1089050336
 20
82.6982493817
 30
0.0
 11
197.1089050336
 21
82.6982493817
 31
0.0
  0
LINE
  5
255
330
3EE
100
AcDbEntity
  8
0
  6
CONTINUOUS
 62
     7
100
AcDbLine
 10
197.1089050336
 20
77.6982493817
 30
0.0
 11
194.1089050336
 21
77.6982493817
 31
0.0
  0
LINE
  5
256
330
3EE
100
AcDbEntity
  8
0
  6
CONTINUOUS
 62
     7
100
AcDbLine
 10
194.1089050336
 20
77.6982493817
 30
0.0
 11
194.1089050336
 21
72.6982493817
 31
0.0
  0
LINE
  5
257
330
3EE
100
AcDbEntity
  8
0
  6
CONTINUOUS
 62
     7
100
AcDbLine
 10
197.1089050336
 20
77.6982493817
 30
0.0
 11
197.1089050336
 21
82.6982493817
 31
0.0
  0
LINE
  5
258
330
3EE
100
AcDbEntity
  8
0
  6
CONTINUOUS
 62
     7
100
AcDbLine
 10
152.8896252079
 20
56.9389550939
 30
0.0
 11
152.8896252079
 21
53.9389550939
 31
0.0
  0
LINE
  5
259
330
3EE
100
AcDbEntity
  8
0
  6
CONTINUOUS
 62
     7
100
AcDbLine
 10
147.8896252079
 20
53.9389550939
 30
0.0
 11
152.8896252079
 21
53.9389550939
 31
0.0
  0
LINE
  5
25A
330
3EE
100
AcDbEntity
  8
0
  6
CONTINUOUS
 62
     7
100
AcDbLine
 10
147.8896252079
 20
56.9389550939
 30
0.0
 11
147.8896252079
 21
53.9389550939
 31
0.0
  0
LINE
  5
25B
330
3EE
100
AcDbEntity
  8
0
  6
CONTINUOUS
 62
     7
100
AcDbLine
 10
141.8896252079
 20
56.9389550939
 30
0.0
 11
147.8896252079
 21
56.9389550939
 31
0.0
  0
LINE
  5
25C
330
3EE
100
AcDbEntity
  8
0
  6
CONTINUOUS
 62
     7
100
AcDbLine
 10
141.8896252079
 20
53.9389550939
 30
0.0
 11
141.8896252079
 21
56.9389550939
 31
0.0
  0
LINE
  5
25D
330
3EE
100
AcDbEntity
  8
0
  6
CONTINUOUS
 62
     7
100
AcDbLine
 10
135.8896252079
 20
53.9389550939
 30
0.0
 11
141.8896252079
 21
53.9389550939
 31
0.0
  0
LINE
  5
25E
330
3EE
100
AcDbEntity
  8
0
  6
CONTINUOUS
 62
     7
100
AcDbLine
 10
135.8896252079
 20
56.9389550939
 30
0.0
 11
135.8896252079
 21
53.9389550939
 31
0.0
  0
LINE
  5
25F
330
3EE
100
AcDbEntity
  8
0
  6
CONTINUOUS
 62
     7
100
AcDbLine
 10
129.8896252079
 20
56.9389550939
 30
0.0
 11
135.8896252079
 21
56.9389550939
 31
0.0
  0
LINE
  5
260
330
3EE
100
AcDbEntity
  8
0
  6
CONTINUOUS
 62
     7
100
AcDbLine
 10
129.8896252079
 20
53.9389550939
 30
0.0
 11
129.8896252079
 21
56.9389550939
 31
0.0
  0
LINE
  5
261
330
3EE
100
AcDbEntity
  8
0
  6
CONTINUOUS
 62
     7
100
AcDbLine
 10
123.8896252079
 20
53.9389550939
 30
0.0
 11
129.8896252079
 21
53.9389550939
 31
0.0
  0
LINE
  5
262
330
3EE
100
AcDbEntity
  8
0
  6
CONTINUOUS
 62
     7
100
AcDbLine
 10
123.8896252079
 20
59.9389550939
 30
0.0
 11
123.8896252079
 21
53.9389550939
 31
0.0
  0
LINE
  5
263
330
3EE
100
AcDbEntity
  8
0
  6
CONTINUOUS
 62
     7
100
AcDbLine
 10
126.8896252079
 20
59.9389550939
 30
0.0
 11
123.8896252079
 21
59.9389550939
 31
0.0
  0
LINE
  5
264
330
3EE
100
AcDbEntity
  8
0
  6
CONTINUOUS
 62
     7
100
AcDbLine
 10
126.8896252079
 20
65.9389550939
 30
0.0
 11
126.8896252079
 21
59.9389550939
 31
0.0
  0
LINE
  5
265
330
3EE
100
AcDbEntity
  8
0
  6
CONTINUOUS
 62
     7
100
AcDbLine
 10
123.8896252079
 20
65.9389550939
 30
0.0
 11
126.8896252079
 21
65.9389550939
 31
0.0
  0
LINE
  5
266
330
3EE
100
AcDbEntity
  8
0
  6
CONTINUOUS
 62
     7
100
AcDbLine
 10
123.8896252079
 20
71.9389550939
 30
0.0
 11
123.8896252079
 21
65.9389550939
 31
0.0
  0
LINE
  5
267
330
3EE
100
AcDbEntity
  8
0
  6
CONTINUOUS
 62
     7
100
AcDbLine
 10
126.8896252079
 20
71.9389550939
 30
0.0
 11
123.8896252079
 21
71.9389550939
 31
0.0
  0
LINE
  5
268
330
3EE
100
AcDbEntity
  8
0
  6
CONTINUOUS
 62
     7
100
AcDbLine
 10
126.8896252079
 20
77.9389550939
 30
0.0
 11
126.8896252079
 21
71.9389550939
 31
0.0
  0
LINE
  5
269
330
3EE
100
AcDbEntity
  8
0
  6
CONTINUOUS
 62
     7
100
AcDbLine
 10
123.8896252079
 20
77.9389550939
 30
0.0
 11
126.8896252079
 21
77.9389550939
 31
0.0
  0
LINE
  5
26A
330
3EE
100
AcDbEntity
  8
0
  6
CONTINUOUS
 62
     7
100
AcDbLine
 10
123.8896252079
 20
83.9389550939
 30
0.0
 11
123.8896252079
 21
77.9389550939
 31
0.0
  0
LINE
  5
26B
330
3EE
100
AcDbEntity
  8
0
  6
CONTINUOUS
 62
     7
100
AcDbLine
 10
126.8896252079
 20
83.9389550939
 30
0.0
 11
123.8896252079
 21
83.9389550939
 31
0.0
  0
LINE
  5
26C
330
3EE
100
AcDbEntity
  8
0
  6
CONTINUOUS
 62
     7
100
AcDbLine
 10
126.8896252079
 20
89.9389550939
 30
0.0
 11
126.8896252079
 21
83.9389550939
 31
0.0
  0
LINE
  5
26D
330
3EE
100
AcDbEntity
  8
0
  6
CONTINUOUS
 62
     7
100
AcDbLine
 10
123.8896252079
 20
89.9389550939
 30
0.0
 11
126.8896252079
 21
89.9389550939
 31
0.0
  0
LINE
  5
26E
330
3EE
100
AcDbEntity
  8
0
  6
CONTINUOUS
 62
     7
100
AcDbLine
 10
123.8896252079
 20
96.9389550939
 30
0.0
 11
123.8896252079
 21
89.9389550939
 31
0.0
  0
LINE
  5
26F
330
3EE
100
AcDbEntity
  8
0
  6
CONTINUOUS
 62
     7
100
AcDbLine
 10
126.8896252079
 20
96.9389550939
 30
0.0
 11
123.8896252079
 21
96.9389550939
 31
0.0
  0
ARC
  5
270
330
3EE
100
AcDbEntity
  8
0
  6
CONTINUOUS
 62
     7
100
AcDbCircle
 10
126.8896252079
 20
93.9389550939
 30
0.0
 40
3.0
100
AcDbArc
 50
0.0
 51
90.0
  0
LINE
  5
271
330
3EE
100
AcDbEntity
  8
0
  6
CONTINUOUS
 62
     7
100
AcDbLine
 10
129.8896252079
 20
93.9389550939
 30
0.0
 11
129.8896252079
 21
62.9389550939
 31
0.0
  0
ARC
  5
272
330
3EE
100
AcDbEntity
  8
0
  6
CONTINUOUS
 62
     7
100
AcDbCircle
 10
132.8896252079
 20
62.9389550939
 30
0.0
 40
3.0
100
AcDbArc
 50
180.0
 51
270.0
  0
LINE
  5
273
330
3EE
100
AcDbEntity
  8
0
  6
CONTINUOUS
 62
     7
100
AcDbLine
 10
132.8896252079
 20
59.9389550939
 30
0.0
 11
177.8896252079
 21
59.9389550939
 31
0.0
  0
ARC
  5
274
330
3EE
100
AcDbEntity
  8
0
  6
CONTINUOUS
 62
     7
100
AcDbCircle
 10
177.8896252079
 20
62.9389550939
 30
0.0
 40
3.0
100
AcDbArc
 50
270.0
 51
0.0
  0
LINE
  5
275
330
3EE
100
AcDbEntity
  8
0
  6
CONTINUOUS
 62
     7
100
AcDbLine
 10
180.8896252079
 20
62.9389550939
 30
0.0
 11
180.8896252079
 21
93.9389550939
 31
0.0
  0
ARC
  5
276
330
3EE
100
AcDbEntity
  8
0
  6
CONTINUOUS
 62
     7
100
AcDbCircle
 10
183.8896252079
 20
93.9389550939
 30
0.0
 40
3.0
100
AcDbArc
 50
90.0
 51
180.0
  0
LINE
  5
277
330
3EE
100
AcDbEntity
  8
0
  6
CONTINUOUS
 62
     7
100
AcDbLine
 10
186.8896252079
 20
96.9389550939
 30
0.0
 11
183.8896252079
 21
96.9389550939
 31
0.0
  0
LINE
  5
278
330
3EE
100
AcDbEntity
  8
0
  6
CONTINUOUS
 62
     7
100
AcDbLine
 10
186.8896252079
 20
89.9389550939
 30
0.0
 11
186.8896252079
 21
96.9389550939
 31
0.0
  0
LINE
  5
279
330
3EE
100
AcDbEntity
  8
0
  6
CONTINUOUS
 62
     7
100
AcDbLine
 10
186.8896252079
 20
89.9389550939
 30
0.0
 11
183.8896252079
 21
89.9389550939
 31
0.0
  0
LINE
  5
27A
330
3EE
100
AcDbEntity
  8
0
  6
CONTINUOUS
 62
     7
100
AcDbLine
 10
183.8896252079
 20
89.9389550939
 30
0.0
 11
183.8896252079
 21
83.9389550939
 31
0.0
  0
LINE
  5
27B
330
3EE
100
AcDbEntity
  8
0
  6
CONTINUOUS
 62
     7
100
AcDbLine
 10
183.8896252079
 20
83.9389550939
 30
0.0
 11
186.8896252079
 21
83.9389550939
 31
0.0
  0
LINE
  5
27C
330
3EE
100
AcDbEntity
  8
0
  6
CONTINUOUS
 62
     7
100
AcDbLine
 10
186.8896252079
 20
77.9389550939
 30
0.0
 11
186.8896252079
 21
83.9389550939
 31
0.0
  0
LINE
  5
27D
330
3EE
100
AcDbEntity
  8
0
  6
CONTINUOUS
 62
     7
100
AcDbLine
 10
186.8896252079
 20
77.9389550939
 30
0.0
 11
183.8896252079
 21
77.9389550939
 31
0.0
  0
LINE
  5
27E
330
3EE
100
AcDbEntity
  8
0
  6
CONTINUOUS
 62
     7
100
AcDbLine
 10
183.8896252079
 20
77.9389550939
 30
0.0
 11
183.8896252079
 21
71.9389550939
 31
0.0
  0
LINE
  5
27F
330
3EE
100
AcDbEntity
  8
0
  6
CONTINUOUS
 62
     7
100
AcDbLine
 10
183.8896252079
 20
71.9389550939
 30
0.0
 11
186.8896252079
 21
71.9389550939
 31
0.0
  0
LINE
  5
280
330
3EE
100
AcDbEntity
  8
0
  6
CONTINUOUS
 62
     7
100
AcDbLine
 10
186.8896252079
 20
65.9389550939
 30
0.0
 11
186.8896252079
 21
71.9389550939
 31
0.0
  0
LINE
  5
281
330
3EE
100
AcDbEntity
  8
0
  6
CONTINUOUS
 62
     7
100
AcDbLine
 10
186.8896252079
 20
65.9389550939
 30
0.0
 11
183.8896252079
 21
65.9389550939
 31
0.0
  0
LINE
  5
282
330
3EE
100
AcDbEntity
  8
0
  6
CONTINUOUS
 62
     7
100
AcDbLine
 10
183.8896252079
 20
65.9389550939
 30
0.0
 11
183.8896252079
 21
59.9389550939
 31
0.0
  0
LINE
  5
283
330
3EE
100
AcDbEntity
  8
0
  6
CONTINUOUS
 62
     7
100
AcDbLine
 10
183.8896252079
 20
59.9389550939
 30
0.0
 11
186.8896252079
 21
59.9389550939
 31
0.0
  0
LINE
  5
284
330
3EE
100
AcDbEntity
  8
0
  6
CONTINUOUS
 62
     7
100
AcDbLine
 10
186.8896252079
 20
53.9389550939
 30
0.0
 11
186.8896252079
 21
59.9389550939
 31
0.0
  0
LINE
  5
285
330
3EE
100
AcDbEntity
  8
0
  6
CONTINUOUS
 62
     7
100
AcDbLine
 10
180.8896252079
 20
53.9389550939
 30
0.0
 11
186.8896252079
 21
53.9389550939
 31
0.0
  0
LINE
  5
286
330
3EE
100
AcDbEntity
  8
0
  6
CONTINUOUS
 62
     7
100
AcDbLine
 10
180.8896252079
 20
53.9389550939
 30
0.0
 11
180.8896252079
 21
56.9389550939
 31
0.0
  0
LINE
  5
287
330
3EE
100
AcDbEntity
  8
0
  6
CONTINUOUS
 62
     7
100
AcDbLine
 10
180.8896252079
 20
56.9389550939
 30
0.0
 11
174.8896252079
 21
56.9389550939
 31
0.0
  0
LINE
  5
288
330
3EE
100
AcDbEntity
  8
0
  6
CONTINUOUS
 62
     7
100
AcDbLine
 10
174.8896252079
 20
56.9389550939
 30
0.0
 11
174.8896252079
 21
53.9389550939
 31
0.0
  0
LINE
  5
289
330
3EE
100
AcDbEntity
  8
0
  6
CONTINUOUS
 62
     7
100
AcDbLine
 10
168.8896252079
 20
53.9389550939
 30
0.0
 11
174.8896252079
 21
53.9389550939
 31
0.0
  0
LINE
  5
28A
330
3EE
100
AcDbEntity
  8
0
  6
CONTINUOUS
 62
     7
100
AcDbLine
 10
168.8896252079
 20
53.9389550939
 30
0.0
 11
168.8896252079
 21
56.9389550939
 31
0.0
  0
LINE
  5
28B
330
3EE
100
AcDbEntity
  8
0
  6
CONTINUOUS
 62
     7
100
AcDbLine
 10
168.8896252079
 20
56.9389550939
 30
0.0
 11
162.8896252079
 21
56.9389550939
 31
0.0
  0
LINE
  5
28C
330
3EE
100
AcDbEntity
  8
0
  6
CONTINUOUS
 62
     7
100
AcDbLine
 10
162.8896252079
 20
56.9389550939
 30
0.0
 11
162.8896252079
 21
53.9389550939
 31
0.0
  0
LINE
  5
28D
330
3EE
100
AcDbEntity
  8
0
  6
CONTINUOUS
 62
     7
100
AcDbLine
 10
157.8896252079
 20
53.9389550939
 30
0.0
 11
157.8896252079
 21
56.9389550939
 31
0.0
  0
LINE
  5
28E
330
3EE
100
AcDbEntity
  8
0
  6
CONTINUOUS
 62
     7
100
AcDbLine
 10
157.8896252079
 20
56.9389550939
 30
0.0
 11
152.8896252079
 21
56.9389550939
 31
0.0
  0
LINE
  5
28F
330
3EE
100
AcDbEntity
  8
0
  6
CONTINUOUS
 62
     7
100
AcDbLine
 10
157.8896252079
 20
53.9389550939
 30
0.0
 11
162.8896252079
 21
53.9389550939
 31
0.0
  0
LINE
  5
290
330
3EE
100
AcDbEntity
  8
0
  6
CONTINUOUS
 62
     7
100
AcDbLine
 10
7.3704176928
 20
52.4046152537
 30
0.0
 11
58.3704176928
 21
52.4046152537
 31
0.0
  0
LINE
  5
291
330
3EE
100
AcDbEntity
  8
0
  6
CONTINUOUS
 62
     7
100
AcDbLine
 10
7.3704176928
 20
52.4046152537
 30
0.0
 11
7.3704176928
 21
54.2046152537
 31
0.0
  0
LINE
  5
292
330
3EE
100
AcDbEntity
  8
0
  6
CONTINUOUS
 62
     7
100
AcDbLine
 10
7.3704176928
 20
54.2046152537
 30
0.0
 11
1.3704176928
 21
54.2046152537
 31
0.0
  0
LINE
  5
293
330
3EE
100
AcDbEntity
  8
0
  6
CONTINUOUS
 62
     7
100
AcDbLine
 10
1.3704176928
 20
56.0046152537
 30
0.0
 11
1.3704176928
 21
54.2046152537
 31
0.0
  0
LINE
  5
294
330
3EE
100
AcDbEntity
  8
0
  6
CONTINUOUS
 62
     7
100
AcDbLine
 10
1.3704176928
 20
56.0046152537
 30
0.0
 11
7.3704176928
 21
56.0046152537
 31
0.0
  0
LINE
  5
295
330
3EE
100
AcDbEntity
  8
0
  6
CONTINUOUS
 62
     7
100
AcDbLine
 10
7.3704176928
 20
56.0046152537
 30
0.0
 11
7.3704176928
 21
57.8046152537
 31
0.0
  0
LINE
  5
296
330
3EE
100
AcDbEntity
  8
0
  6
CONTINUOUS
 62
     7
100
AcDbLine
 10
7.3704176928
 20
57.8046152537
 30
0.0
 11
1.3704176928
 21
57.8046152537
 31
0.0
  0
LINE
  5
297
330
3EE
100
AcDbEntity
  8
0
  6
CONTINUOUS
 62
     7
100
AcDbLine
 10
1.3704176928
 20
59.6046152537
 30
0.0
 11
1.3704176928
 21
57.8046152537
 31
0.0
  0
LINE
  5
298
330
3EE
100
AcDbEntity
  8
0
  6
CONTINUOUS
 62
     7
100
AcDbLine
 10
1.3704176928
 20
59.6046152537
 30
0.0
 11
7.3704176928
 21
59.6046152537
 31
0.0
  0
LINE
  5
299
330
3EE
100
AcDbEntity
  8
0
  6
CONTINUOUS
 62
     7
100
AcDbLine
 10
7.3704176928
 20
59.6046152537
 30
0.0
 11
7.3704176928
 21
61.4046152537
 31
0.0
  0
LINE
  5
29A
330
3EE
100
AcDbEntity
  8
0
  6
CONTINUOUS
 62
     7
100
AcDbLine
 10
58.3704176928
 20
61.4046152537
 30
0.0
 11
7.3704176928
 21
61.4046152537
 31
0.0
  0
LINE
  5
29B
330
3EE
100
AcDbEntity
  8
0
  6
CONTINUOUS
 62
     7
100
AcDbLine
 10
58.3704176928
 20
59.6046152537
 30
0.0
 11
58.3704176928
 21
61.4046152537
 31
0.0
  0
LINE
  5
29C
330
3EE
100
AcDbEntity
  8
0
  6
CONTINUOUS
 62
     7
100
AcDbLine
 10
64.3704176928
 20
59.6046152537
 30
0.0
 11
58.3704176928
 21
59.6046152537
 31
0.0
  0
LINE
  5
29D
330
3EE
100
AcDbEntity
  8
0
  6
CONTINUOUS
 62
     7
100
AcDbLine
 10
64.3704176928
 20
57.8046152537
 30
0.0
 11
64.3704176928
 21
59.6046152537
 31
0.0
  0
LINE
  5
29E
330
3EE
100
AcDbEntity
  8
0
  6
CONTINUOUS
 62
     7
100
AcDbLine
 10
58.3704176928
 20
57.8046152537
 30
0.0
 11
64.3704176928
 21
57.8046152537
 31
0.0
  0
LINE
  5
29F
330
3EE
100
AcDbEntity
  8
0
  6
CONTINUOUS
 62
     7
100
AcDbLine
 10
58.3704176928
 20
56.0046152537
 30
0.0
 11
58.3704176928
 21
57.8046152537
 31
0.0
  0
LINE
  5
2A0
330
3EE
100
AcDbEntity
  8
0
  6
CONTINUOUS
 62
     7
100
AcDbLine
 10
64.3704176928
 20
56.0046152537
 30
0.0
 11
58.3704176928
 21
56.0046152537
 31
0.0
  0
LINE
  5
2A1
330
3EE
100
AcDbEntity
  8
0
  6
CONTINUOUS
 62
     7
100
AcDbLine
 10
58.3704176928
 20
54.2046152537
 30
0.0
 11
64.3704176928
 21
54.2046152537
 31
0.0
  0
LINE
  5
2A2
330
3EE
100
AcDbEntity
  8
0
  6
CONTINUOUS
 62
     7
100
AcDbLine
 10
58.3704176928
 20
52.4046152537
 30
0.0
 11
58.3704176928
 21
54.2046152537
 31
0.0
  0
LINE
  5
2A3
330
3EE
100
AcDbEntity
  8
0
  6
CONTINUOUS
 62
     7
100
AcDbLine
 10
34.3704176928
 20
57.8046152537
 30
0.0
 11
34.3704176928
 21
59.6046152537
 31
0.0
  0
LINE
  5
2A4
330
3EE
100
AcDbEntity
  8
0
  6
CONTINUOUS
 62
     7
100
AcDbLine
 10
34.3704176928
 20
59.6046152537
 30
0.0
 11
31.3704176928
 21
59.6046152537
 31
0.0
  0
LINE
  5
2A5
330
3EE
100
AcDbEntity
  8
0
  6
CONTINUOUS
 62
     7
100
AcDbLine
 10
31.3704176928
 20
59.6046152537
 30
0.0
 11
31.3704176928
 21
57.8046152537
 31
0.0
  0
LINE
  5
2A6
330
3EE
100
AcDbEntity
  8
0
  6
CONTINUOUS
 62
     7
100
AcDbLine
 10
31.3704176928
 20
57.8046152537
 30
0.0
 11
34.3704176928
 21
57.8046152537
 31
0.0
  0
LINE
  5
2A7
330
3EE
100
AcDbEntity
  8
0
  6
CONTINUOUS
 62
     7
100
AcDbLine
 10
31.3704176928
 20
56.0046152537
 30
0.0
 11
31.3704176928
 21
54.2046152537
 31
0.0
  0
LINE
  5
2A8
330
3EE
100
AcDbEntity
  8
0
  6
CONTINUOUS
 62
     7
100
AcDbLine
 10
31.3704176928
 20
54.2046152537
 30
0.0
 11
34.3704176928
 21
54.2046152537
 31
0.0
  0
LINE
  5
2A9
330
3EE
100
AcDbEntity
  8
0
  6
CONTINUOUS
 62
     7
100
AcDbLine
 10
34.3704176928
 20
54.2046152537
 30
0.0
 11
34.3704176928
 21
56.0046152537
 31
0.0
  0
LINE
  5
2AA
330
3EE
100
AcDbEntity
  8
0
  6
CONTINUOUS
 62
     7
100
AcDbLine
 10
34.3704176928
 20
56.0046152537
 30
0.0
 11
31.3704176928
 21
56.0046152537
 31
0.0
  0
LINE
  5
2AB
330
3EE
100
AcDbEntity
  8
0
  6
CONTINUOUS
 62
     7
100
AcDbLine
 10
64.3704176928
 20
54.2046152537
 30
0.0
 11
64.3704176928
 21
56.0046152537
 31
0.0
  0
LINE
  5
2AC
330
3EE
100
AcDbEntity
  8
0
  6
CONTINUOUS
 62
     7
100
AcDbLine
 10
7.3704176928
 20
41.8135639164
 30
0.0
 11
58.3704176928
 21
41.8135639164
 31
0.0
  0
LINE
  5
2AD
330
3EE
100
AcDbEntity
  8
0
  6
CONTINUOUS
 62
     7
100
AcDbLine
 10
7.3704176928
 20
41.8135639164
 30
0.0
 11
7.3704176928
 21
43.6135639164
 31
0.0
  0
LINE
  5
2AE
330
3EE
100
AcDbEntity
  8
0
  6
CONTINUOUS
 62
     7
100
AcDbLine
 10
7.3704176928
 20
43.6135639164
 30
0.0
 11
1.3704176928
 21
43.6135639164
 31
0.0
  0
LINE
  5
2AF
330
3EE
100
AcDbEntity
  8
0
  6
CONTINUOUS
 62
     7
100
AcDbLine
 10
1.3704176928
 20
45.4135639164
 30
0.0
 11
1.3704176928
 21
43.6135639164
 31
0.0
  0
LINE
  5
2B0
330
3EE
100
AcDbEntity
  8
0
  6
CONTINUOUS
 62
     7
100
AcDbLine
 10
1.3704176928
 20
45.4135639164
 30
0.0
 11
7.3704176928
 21
45.4135639164
 31
0.0
  0
LINE
  5
2B1
330
3EE
100
AcDbEntity
  8
0
  6
CONTINUOUS
 62
     7
100
AcDbLine
 10
7.3704176928
 20
45.4135639164
 30
0.0
 11
7.3704176928
 21
47.2135639164
 31
0.0
  0
LINE
  5
2B2
330
3EE
100
AcDbEntity
  8
0
  6
CONTINUOUS
 62
     7
100
AcDbLine
 10
7.3704176928
 20
47.2135639164
 30
0.0
 11
1.3704176928
 21
47.2135639164
 31
0.0
  0
LINE
  5
2B3
330
3EE
100
AcDbEntity
  8
0
  6
CONTINUOUS
 62
     7
100
AcDbLine
 10
1.3704176928
 20
49.0135639164
 30
0.0
 11
1.3704176928
 21
47.2135639164
 31
0.0
  0
LINE
  5
2B4
330
3EE
100
AcDbEntity
  8
0
  6
CONTINUOUS
 62
     7
100
AcDbLine
 10
1.3704176928
 20
49.0135639164
 30
0.0
 11
7.3704176928
 21
49.0135639164
 31
0.0
  0
LINE
  5
2B5
330
3EE
100
AcDbEntity
  8
0
  6
CONTINUOUS
 62
     7
100
AcDbLine
 10
7.3704176928
 20
49.0135639164
 30
0.0
 11
7.3704176928
 21
50.8135639164
 31
0.0
  0
LINE
  5
2B6
330
3EE
100
AcDbEntity
  8
0
  6
CONTINUOUS
 62
     7
100
AcDbLine
 10
58.3704176928
 20
50.8135639164
 30
0.0
 11
7.3704176928
 21
50.8135639164
 31
0.0
  0
LINE
  5
2B7
330
3EE
100
AcDbEntity
  8
0
  6
CONTINUOUS
 62
     7
100
AcDbLine
 10
58.3704176928
 20
49.0135639164
 30
0.0
 11
58.3704176928
 21
50.8135639164
 31
0.0
  0
LINE
  5
2B8
330
3EE
100
AcDbEntity
  8
0
  6
CONTINUOUS
 62
     7
100
AcDbLine
 10
64.3704176928
 20
49.0135639164
 30
0.0
 11
58.3704176928
 21
49.0135639164
 31
0.0
  0
LINE
  5
2B9
330
3EE
100
AcDbEntity
  8
0
  6
CONTINUOUS
 62
     7
100
AcDbLine
 10
64.3704176928
 20
47.2135639164
 30
0.0
 11
64.3704176928
 21
49.0135639164
 31
0.0
  0
LINE
  5
2BA
330
3EE
100
AcDbEntity
  8
0
  6
CONTINUOUS
 62
     7
100
AcDbLine
 10
58.3704176928
 20
47.2135639164
 30
0.0
 11
64.3704176928
 21
47.2135639164
 31
0.0
  0
LINE
  5
2BB
330
3EE
100
AcDbEntity
  8
0
  6
CONTINUOUS
 62
     7
100
AcDbLine
 10
58.3704176928
 20
45.4135639164
 30
0.0
 11
58.3704176928
 21
47.2135639164
 31
0.0
  0
LINE
  5
2BC
330
3EE
100
AcDbEntity
  8
0
  6
CONTINUOUS
 62
     7
100
AcDbLine
 10
64.3704176928
 20
45.4135639164
 30
0.0
 11
58.3704176928
 21
45.4135639164
 31
0.0
  0
LINE
  5
2BD
330
3EE
100
AcDbEntity
  8
0
  6
CONTINUOUS
 62
     7
100
AcDbLine
 10
58.3704176928
 20
43.6135639164
 30
0.0
 11
64.3704176928
 21
43.6135639164
 31
0.0
  0
LINE
  5
2BE
330
3EE
100
AcDbEntity
  8
0
  6
CONTINUOUS
 62
     7
100
AcDbLine
 10
58.3704176928
 20
41.8135639164
 30
0.0
 11
58.3704176928
 21
43.6135639164
 31
0.0
  0
LINE
  5
2BF
330
3EE
100
AcDbEntity
  8
0
  6
CONTINUOUS
 62
     7
100
AcDbLine
 10
34.3704176928
 20
47.2135639164
 30
0.0
 11
34.3704176928
 21
49.0135639164
 31
0.0
  0
LINE
  5
2C0
330
3EE
100
AcDbEntity
  8
0
  6
CONTINUOUS
 62
     7
100
AcDbLine
 10
34.3704176928
 20
49.0135639164
 30
0.0
 11
31.3704176928
 21
49.0135639164
 31
0.0
  0
LINE
  5
2C1
330
3EE
100
AcDbEntity
  8
0
  6
CONTINUOUS
 62
     7
100
AcDbLine
 10
31.3704176928
 20
49.0135639164
 30
0.0
 11
31.3704176928
 21
47.2135639164
 31
0.0
  0
LINE
  5
2C2
330
3EE
100
AcDbEntity
  8
0
  6
CONTINUOUS
 62
     7
100
AcDbLine
 10
31.3704176928
 20
47.2135639164
 30
0.0
 11
34.3704176928
 21
47.2135639164
 31
0.0
  0
LINE
  5
2C3
330
3EE
100
AcDbEntity
  8
0
  6
CONTINUOUS
 62
     7
100
AcDbLine
 10
31.3704176928
 20
45.4135639164
 30
0.0
 11
31.3704176928
 21
43.6135639164
 31
0.0
  0
LINE
  5
2C4
330
3EE
100
AcDbEntity
  8
0
  6
CONTINUOUS
 62
     7
100
AcDbLine
 10
31.3704176928
 20
43.6135639164
 30
0.0
 11
34.3704176928
 21
43.6135639164
 31
0.0
  0
LINE
  5
2C5
330
3EE
100
AcDbEntity
  8
0
  6
CONTINUOUS
 62
     7
100
AcDbLine
 10
34.3704176928
 20
43.6135639164
 30
0.0
 11
34.3704176928
 21
45.4135639164
 31
0.0
  0
LINE
  5
2C6
330
3EE
100
AcDbEntity
  8
0
  6
CONTINUOUS
 62
     7
100
AcDbLine
 10
34.3704176928
 20
45.4135639164
 30
0.0
 11
31.3704176928
 21
45.4135639164
 31
0.0
  0
LINE
  5
2C7
330
3EE
100
AcDbEntity
  8
0
  6
CONTINUOUS
 62
     7
100
AcDbLine
 10
64.3704176928
 20
43.6135639164
 30
0.0
 11
64.3704176928
 21
45.4135639164
 31
0.0
  0
LINE
  5
2C8
330
3EE
100
AcDbEntity
  8
0
  6
CONTINUOUS
 62
     7
100
AcDbLine
 10
7.3704176928
 20
31.2225125792
 30
0.0
 11
58.3704176928
 21
31.2225125792
 31
0.0
  0
LINE
  5
2C9
330
3EE
100
AcDbEntity
  8
0
  6
CONTINUOUS
 62
     7
100
AcDbLine
 10
7.3704176928
 20
31.2225125792
 30
0.0
 11
7.3704176928
 21
33.0225125792
 31
0.0
  0
LINE
  5
2CA
330
3EE
100
AcDbEntity
  8
0
  6
CONTINUOUS
 62
     7
100
AcDbLine
 10
7.3704176928
 20
33.0225125792
 30
0.0
 11
1.3704176928
 21
33.0225125792
 31
0.0
  0
LINE
  5
2CB
330
3EE
100
AcDbEntity
  8
0
  6
CONTINUOUS
 62
     7
100
AcDbLine
 10
1.3704176928
 20
34.8225125792
 30
0.0
 11
1.3704176928
 21
33.0225125792
 31
0.0
  0
LINE
  5
2CC
330
3EE
100
AcDbEntity
  8
0
  6
CONTINUOUS
 62
     7
100
AcDbLine
 10
1.3704176928
 20
34.8225125792
 30
0.0
 11
7.3704176928
 21
34.8225125792
 31
0.0
  0
LINE
  5
2CD
330
3EE
100
AcDbEntity
  8
0
  6
CONTINUOUS
 62
     7
100
AcDbLine
 10
7.3704176928
 20
34.8225125792
 30
0.0
 11
7.3704176928
 21
36.6225125792
 31
0.0
  0
LINE
  5
2CE
330
3EE
100
AcDbEntity
  8
0
  6
CONTINUOUS
 62
     7
100
AcDbLine
 10
7.3704176928
 20
36.6225125792
 30
0.0
 11
1.3704176928
 21
36.6225125792
 31
0.0
  0
LINE
  5
2CF
330
3EE
100
AcDbEntity
  8
0
  6
CONTINUOUS
 62
     7
100
AcDbLine
 10
1.3704176928
 20
38.4225125792
 30
0.0
 11
1.3704176928
 21
36.6225125792
 31
0.0
  0
LINE
  5
2D0
330
3EE
100
AcDbEntity
  8
0
  6
CONTINUOUS
 62
     7
100
AcDbLine
 10
1.3704176928
 20
38.4225125792
 30
0.0
 11
7.3704176928
 21
38.4225125792
 31
0.0
  0
LINE
  5
2D1
330
3EE
100
AcDbEntity
  8
0
  6
CONTINUOUS
 62
     7
100
AcDbLine
 10
7.3704176928
 20
38.4225125792
 30
0.0
 11
7.3704176928
 21
40.2225125792
 31
0.0
  0
LINE
  5
2D2
330
3EE
100
AcDbEntity
  8
0
  6
CONTINUOUS
 62
     7
100
AcDbLine
 10
58.3704176928
 20
40.2225125792
 30
0.0
 11
7.3704176928
 21
40.2225125792
 31
0.0
  0
LINE
  5
2D3
330
3EE
100
AcDbEntity
  8
0
  6
CONTINUOUS
 62
     7
100
AcDbLine
 10
58.3704176928
 20
38.4225125792
 30
0.0
 11
58.3704176928
 21
40.2225125792
 31
0.0
  0
LINE
  5
2D4
330
3EE
100
AcDbEntity
  8
0
  6
CONTINUOUS
 62
     7
100
AcDbLine
 10
64.3704176928
 20
38.4225125792
 30
0.0
 11
58.3704176928
 21
38.4225125792
 31
0.0
  0
LINE
  5
2D5
330
3EE
100
AcDbEntity
  8
0
  6
CONTINUOUS
 62
     7
100
AcDbLine
 10
64.3704176928
 20
36.6225125792
 30
0.0
 11
64.3704176928
 21
38.4225125792
 31
0.0
  0
LINE
  5
2D6
330
3EE
100
AcDbEntity
  8
0
  6
CONTINUOUS
 62
     7
100
AcDbLine
 10
58.3704176928
 20
36.6225125792
 30
0.0
 11
64.3704176928
 21
36.6225125792
 31
0.0
  0
LINE
  5
2D7
330
3EE
100
AcDbEntity
  8
0
  6
CONTINUOUS
 62
     7
100
AcDbLine
 10
58.3704176928
 20
34.8225125792
 30
0.0
 11
58.3704176928
 21
36.6225125792
 31
0.0
  0
LINE
  5
2D8
330
3EE
100
AcDbEntity
  8
0
  6
CONTINUOUS
 62
     7
100
AcDbLine
 10
64.3704176928
 20
34.8225125792
 30
0.0
 11
58.3704176928
 21
34.8225125792
 31
0.0
  0
LINE
  5
2D9
330
3EE
100
AcDbEntity
  8
0
  6
CONTINUOUS
 62
     7
100
AcDbLine
 10
58.3704176928
 20
33.0225125792
 30
0.0
 11
64.3704176928
 21
33.0225125792
 31
0.0
  0
LINE
  5
2DA
330
3EE
100
AcDbEntity
  8
0
  6
CONTINUOUS
 62
     7
100
AcDbLine
 10
58.3704176928
 20
31.2225125792
 30
0.0
 11
58.3704176928
 21
33.0225125792
 31
0.0
  0
LINE
  5
2DB
330
3EE
100
AcDbEntity
  8
0
  6
CONTINUOUS
 62
     7
100
AcDbLine
 10
34.3704176928
 20
36.6225125792
 30
0.0
 11
34.3704176928
 21
38.4225125792
 31
0.0
  0
LINE
  5
2DC
330
3EE
100
AcDbEntity
  8
0
  6
CONTINUOUS
 62
     7
100
AcDbLine
 10
34.3704176928
 20
38.4225125792
 30
0.0
 11
31.3704176928
 21
38.4225125792
 31
0.0
  0
LINE
  5
2DD
330
3EE
100
AcDbEntity
  8
0
  6
CONTINUOUS
 62
     7
100
AcDbLine
 10
31.3704176928
 20
38.4225125792
 30
0.0
 11
31.3704176928
 21
36.6225125792
 31
0.0
  0
LINE
  5
2DE
330
3EE
100
AcDbEntity
  8
0
  6
CONTINUOUS
 62
     7
100
AcDbLine
 10
31.3704176928
 20
36.6225125792
 30
0.0
 11
34.3704176928
 21
36.6225125792
 31
0.0
  0
LINE
  5
2DF
330
3EE
100
AcDbEntity
  8
0
  6
CONTINUOUS
 62
     7
100
AcDbLine
 10
31.3704176928
 20
34.8225125792
 30
0.0
 11
31.3704176928
 21
33.0225125792
 31
0.0
  0
LINE
  5
2E0
330
3EE
100
AcDbEntity
  8
0
  6
CONTINUOUS
 62
     7
100
AcDbLine
 10
31.3704176928
 20
33.0225125792
 30
0.0
 11
34.3704176928
 21
33.0225125792
 31
0.0
  0
LINE
  5
2E1
330
3EE
100
AcDbEntity
  8
0
  6
CONTINUOUS
 62
     7
100
AcDbLine
 10
34.3704176928
 20
33.0225125792
 30
0.0
 11
34.3704176928
 21
34.8225125792
 31
0.0
  0
LINE
  5
2E2
330
3EE
100
AcDbEntity
  8
0
  6
CONTINUOUS
 62
     7
100
AcDbLine
 10
34.3704176928
 20
34.8225125792
 30
0.0
 11
31.3704176928
 21
34.8225125792
 31
0.0
  0
LINE
  5
2E3
330
3EE
100
AcDbEntity
  8
0
  6
CONTINUOUS
 62
     7
100
AcDbLine
 10
64.3704176928
 20
33.0225125792
 30
0.0
 11
64.3704176928
 21
34.8225125792
 31
0.0
  0
LINE
  5
2E4
330
3EE
100
AcDbEntity
  8
0
  6
CONTINUOUS
 62
     7
100
AcDbLine
 10
138.6303309202
 20
66.8363723032
 30
0.0
 11
132.6303309202
 21
66.8363723032
 31
0.0
  0
LINE
  5
2E5
330
3EE
100
AcDbEntity
  8
0
  6
CONTINUOUS
 62
     7
100
AcDbLine
 10
138.6303309202
 20
68.6363723032
 30
0.0
 11
138.6303309202
 21
66.8363723032
 31
0.0
  0
LINE
  5
2E6
330
3EE
100
AcDbEntity
  8
0
  6
CONTINUOUS
 62
     7
100
AcDbLine
 10
132.6303309202
 20
68.6363723032
 30
0.0
 11
138.6303309202
 21
68.6363723032
 31
0.0
  0
LINE
  5
2E7
330
3EE
100
AcDbEntity
  8
0
  6
CONTINUOUS
 62
     7
100
AcDbLine
 10
138.6303309202
 20
70.4363723032
 30
0.0
 11
132.6303309202
 21
70.4363723032
 31
0.0
  0
LINE
  5
2E8
330
3EE
100
AcDbEntity
  8
0
  6
CONTINUOUS
 62
     7
100
AcDbLine
 10
138.6303309202
 20
72.2363723032
 30
0.0
 11
138.6303309202
 21
70.4363723032
 31
0.0
  0
LINE
  5
2E9
330
3EE
100
AcDbEntity
  8
0
  6
CONTINUOUS
 62
     7
100
AcDbLine
 10
172.6303309202
 20
70.4363723032
 30
0.0
 11
172.6303309202
 21
72.2363723032
 31
0.0
  0
LINE
  5
2EA
330
3EE
100
AcDbEntity
  8
0
  6
CONTINUOUS
 62
     7
100
AcDbLine
 10
178.6303309202
 20
70.4363723032
 30
0.0
 11
172.6303309202
 21
70.4363723032
 31
0.0
  0
LINE
  5
2EB
330
3EE
100
AcDbEntity
  8
0
  6
CONTINUOUS
 62
     7
100
AcDbLine
 10
172.6303309202
 20
68.6363723032
 30
0.0
 11
178.6303309202
 21
68.6363723032
 31
0.0
  0
LINE
  5
2EC
330
3EE
100
AcDbEntity
  8
0
  6
CONTINUOUS
 62
     7
100
AcDbLine
 10
172.6303309202
 20
66.8363723032
 30
0.0
 11
172.6303309202
 21
68.6363723032
 31
0.0
  0
LINE
  5
2ED
330
3EE
100
AcDbEntity
  8
0
  6
CONTINUOUS
 62
     7
100
AcDbLine
 10
178.6303309202
 20
66.8363723032
 30
0.0
 11
172.6303309202
 21
66.8363723032
 31
0.0
  0
LINE
  5
2EE
330
3EE
100
AcDbEntity
  8
0
  6
CONTINUOUS
 62
     7
100
AcDbLine
 10
172.6303309202
 20
65.0363723032
 30
0.0
 11
178.6303309202
 21
65.0363723032
 31
0.0
  0
LINE
  5
2EF
330
3EE
100
AcDbEntity
  8
0
  6
CONTINUOUS
 62
     7
100
AcDbLine
 10
172.6303309202
 20
63.2363723032
 30
0.0
 11
172.6303309202
 21
65.0363723032
 31
0.0
  0
LINE
  5
2F0
330
3EE
100
AcDbEntity
  8
0
  6
CONTINUOUS
 62
     7
100
AcDbLine
 10
138.6303309202
 20
65.0363723032
 30
0.0
 11
138.6303309202
 21
63.2363723032
 31
0.0
  0
LINE
  5
2F1
330
3EE
100
AcDbEntity
  8
0
  6
CONTINUOUS
 62
     7
100
AcDbLine
 10
132.6303309202
 20
65.0363723032
 30
0.0
 11
138.6303309202
 21
65.0363723032
 31
0.0
  0
LINE
  5
2F2
330
3EE
100
AcDbEntity
  8
0
  6
CONTINUOUS
 62
     7
100
AcDbLine
 10
138.6303309202
 20
63.2363723032
 30
0.0
 11
172.6303309202
 21
63.2363723032
 31
0.0
  0
LINE
  5
2F3
330
3EE
100
AcDbEntity
  8
0
  6
CONTINUOUS
 62
     7
100
AcDbLine
 10
132.6303309202
 20
66.8363723032
 30
0.0
 11
132.6303309202
 21
65.0363723032
 31
0.0
  0
LINE
  5
2F4
330
3EE
100
AcDbEntity
  8
0
  6
CONTINUOUS
 62
     7
100
AcDbLine
 10
172.6303309202
 20
72.2363723032
 30
0.0
 11
138.6303309202
 21
72.2363723032
 31
0.0
  0
LINE
  5
2F5
330
3EE
100
AcDbEntity
  8
0
  6
CONTINUOUS
 62
     7
100
AcDbLine
 10
178.6303309202
 20
65.0363723032
 30
0.0
 11
178.6303309202
 21
66.8363723032
 31
0.0
  0
LINE
  5
2F6
330
3EE
100
AcDbEntity
  8
0
  6
CONTINUOUS
 62
     7
100
AcDbLine
 10
178.6303309202
 20
68.6363723032
 30
0.0
 11
178.6303309202
 21
70.4363723032
 31
0.0
  0
LINE
  5
2F7
330
3EE
100
AcDbEntity
  8
0
  6
CONTINUOUS
 62
     7
100
AcDbLine
 10
132.6303309202
 20
70.4363723032
 30
0.0
 11
132.6303309202
 21
68.6363723032
 31
0.0
  0
LINE
  5
328
330
3EE
100
AcDbEntity
  8
0
  6
CONTINUOUS
 62
     7
100
AcDbLine
 10
70.1583771989
 20
43.3683838728
 30
0.0
 11
70.1583771989
 21
40.3683838728
 31
0.0
  0
ARC
  5
329
330
3EE
100
AcDbEntity
  8
0
  6
CONTINUOUS
 62
     7
100
AcDbCircle
 10
70.1583771989
 20
43.3683838728
 30
0.0
 40
3.0
100
AcDbArc
 50
180.0
 51
270.0
  0
LINE
  5
32A
330
3EE
100
AcDbEntity
  8
0
  6
CONTINUOUS
 62
     7
100
AcDbLine
 10
73.1583771989
 20
48.6683838728
 30
0.0
 11
67.1583771989
 21
48.6683838728
 31
0.0
  0
LINE
  5
32B
330
3EE
100
AcDbEntity
  8
0
  6
CONTINUOUS
 62
     7
100
AcDbLine
 10
73.1583771989
 20
50.4683838728
 30
0.0
 11
73.1583771989
 21
48.6683838728
 31
0.0
  0
LINE
  5
32C
330
3EE
100
AcDbEntity
  8
0
  6
CONTINUOUS
 62
     7
100
AcDbLine
 10
67.1583771989
 20
50.4683838728
 30
0.0
 11
73.1583771989
 21
50.4683838728
 31
0.0
  0
LINE
  5
32D
330
3EE
100
AcDbEntity
  8
0
  6
CONTINUOUS
 62
     7
100
AcDbLine
 10
73.1583771989
 20
52.2683838728
 30
0.0
 11
67.1583771989
 21
52.2683838728
 31
0.0
  0
LINE
  5
32E
330
3EE
100
AcDbEntity
  8
0
  6
CONTINUOUS
 62
     7
100
AcDbLine
 10
73.1583771989
 20
54.0683838728
 30
0.0
 11
73.1583771989
 21
52.2683838728
 31
0.0
  0
LINE
  5
32F
330
3EE
100
AcDbEntity
  8
0
  6
CONTINUOUS
 62
     7
100
AcDbLine
 10
67.1583771989
 20
54.0683838728
 30
0.0
 11
73.1583771989
 21
54.0683838728
 31
0.0
  0
ARC
  5
330
330
3EE
100
AcDbEntity
  8
0
  6
CONTINUOUS
 62
     7
100
AcDbCircle
 10
70.1583771989
 20
59.3683838728
 30
0.0
 40
3.0
100
AcDbArc
 50
90.0
 51
180.0
  0
LINE
  5
331
330
3EE
100
AcDbEntity
  8
0
  6
CONTINUOUS
 62
     7
100
AcDbLine
 10
70.1583771989
 20
62.3683838728
 30
0.0
 11
70.1583771989
 21
59.3683838728
 31
0.0
  0
LINE
  5
332
330
3EE
100
AcDbEntity
  8
0
  6
CONTINUOUS
 62
     7
100
AcDbLine
 10
70.1583771989
 20
59.3683838728
 30
0.0
 11
77.1583771989
 21
59.3683838728
 31
0.0
  0
LINE
  5
333
330
3EE
100
AcDbEntity
  8
0
  6
CONTINUOUS
 62
     7
100
AcDbLine
 10
77.1583771989
 20
59.3683838728
 30
0.0
 11
77.1583771989
 21
62.3683838728
 31
0.0
  0
LINE
  5
334
330
3EE
100
AcDbEntity
  8
0
  6
CONTINUOUS
 62
     7
100
AcDbLine
 10
83.1583771989
 20
62.3683838728
 30
0.0
 11
83.1583771989
 21
59.3683838728
 31
0.0
  0
LINE
  5
335
330
3EE
100
AcDbEntity
  8
0
  6
CONTINUOUS
 62
     7
100
AcDbLine
 10
83.1583771989
 20
59.3683838728
 30
0.0
 11
89.1583771989
 21
59.3683838728
 31
0.0
  0
LINE
  5
336
330
3EE
100
AcDbEntity
  8
0
  6
CONTINUOUS
 62
     7
100
AcDbLine
 10
89.1583771989
 20
59.3683838728
 30
0.0
 11
89.1583771989
 21
62.3683838728
 31
0.0
  0
LINE
  5
337
330
3EE
100
AcDbEntity
  8
0
  6
CONTINUOUS
 62
     7
100
AcDbLine
 10
95.1583771989
 20
62.3683838728
 30
0.0
 11
95.1583771989
 21
59.3683838728
 31
0.0
  0
LINE
  5
338
330
3EE
100
AcDbEntity
  8
0
  6
CONTINUOUS
 62
     7
100
AcDbLine
 10
95.1583771989
 20
59.3683838728
 30
0.0
 11
101.1583771989
 21
59.3683838728
 31
0.0
  0
LINE
  5
339
330
3EE
100
AcDbEntity
  8
0
  6
CONTINUOUS
 62
     7
100
AcDbLine
 10
101.1583771989
 20
59.3683838728
 30
0.0
 11
101.1583771989
 21
62.3683838728
 31
0.0
  0
LINE
  5
33A
330
3EE
100
AcDbEntity
  8
0
  6
CONTINUOUS
 62
     7
100
AcDbLine
 10
107.1583771989
 20
62.3683838728
 30
0.0
 11
107.1583771989
 21
59.3683838728
 31
0.0
  0
LINE
  5
33B
330
3EE
100
AcDbEntity
  8
0
  6
CONTINUOUS
 62
     7
100
AcDbLine
 10
107.1583771989
 20
59.3683838728
 30
0.0
 11
113.1583771989
 21
59.3683838728
 31
0.0
  0
LINE
  5
33C
330
3EE
100
AcDbEntity
  8
0
  6
CONTINUOUS
 62
     7
100
AcDbLine
 10
107.1583771989
 20
54.0683838728
 30
0.0
 11
113.1583771989
 21
54.0683838728
 31
0.0
  0
LINE
  5
33D
330
3EE
100
AcDbEntity
  8
0
  6
CONTINUOUS
 62
     7
100
AcDbLine
 10
107.1583771989
 20
52.2683838728
 30
0.0
 11
107.1583771989
 21
54.0683838728
 31
0.0
  0
LINE
  5
33E
330
3EE
100
AcDbEntity
  8
0
  6
CONTINUOUS
 62
     7
100
AcDbLine
 10
113.1583771989
 20
52.2683838728
 30
0.0
 11
107.1583771989
 21
52.2683838728
 31
0.0
  0
LINE
  5
33F
330
3EE
100
AcDbEntity
  8
0
  6
CONTINUOUS
 62
     7
100
AcDbLine
 10
107.1583771989
 20
50.4683838728
 30
0.0
 11
113.1583771989
 21
50.4683838728
 31
0.0
  0
LINE
  5
340
330
3EE
100
AcDbEntity
  8
0
  6
CONTINUOUS
 62
     7
100
AcDbLine
 10
107.1583771989
 20
48.6683838728
 30
0.0
 11
107.1583771989
 21
50.4683838728
 31
0.0
  0
LINE
  5
341
330
3EE
100
AcDbEntity
  8
0
  6
CONTINUOUS
 62
     7
100
AcDbLine
 10
113.1583771989
 20
48.6683838728
 30
0.0
 11
107.1583771989
 21
48.6683838728
 31
0.0
  0
LINE
  5
342
330
3EE
100
AcDbEntity
  8
0
  6
CONTINUOUS
 62
     7
100
AcDbLine
 10
113.1583771989
 20
43.3683838728
 30
0.0
 11
107.1583771989
 21
43.3683838728
 31
0.0
  0
LINE
  5
343
330
3EE
100
AcDbEntity
  8
0
  6
CONTINUOUS
 62
     7
100
AcDbLine
 10
107.1583771989
 20
43.3683838728
 30
0.0
 11
107.1583771989
 21
40.3683838728
 31
0.0
  0
LINE
  5
344
330
3EE
100
AcDbEntity
  8
0
  6
CONTINUOUS
 62
     7
100
AcDbLine
 10
101.1583771989
 20
40.3683838728
 30
0.0
 11
101.1583771989
 21
43.3683838728
 31
0.0
  0
LINE
  5
345
330
3EE
100
AcDbEntity
  8
0
  6
CONTINUOUS
 62
     7
100
AcDbLine
 10
101.1583771989
 20
43.3683838728
 30
0.0
 11
95.1583771989
 21
43.3683838728
 31
0.0
  0
LINE
  5
346
330
3EE
100
AcDbEntity
  8
0
  6
CONTINUOUS
 62
     7
100
AcDbLine
 10
95.1583771989
 20
43.3683838728
 30
0.0
 11
95.1583771989
 21
40.3683838728
 31
0.0
  0
LINE
  5
347
330
3EE
100
AcDbEntity
  8
0
  6
CONTINUOUS
 62
     7
100
AcDbLine
 10
89.1583771989
 20
40.3683838728
 30
0.0
 11
89.1583771989
 21
43.3683838728
 31
0.0
  0
LINE
  5
348
330
3EE
100
AcDbEntity
  8
0
  6
CONTINUOUS
 62
     7
100
AcDbLine
 10
89.1583771989
 20
43.3683838728
 30
0.0
 11
83.1583771989
 21
43.3683838728
 31
0.0
  0
LINE
  5
349
330
3EE
100
AcDbEntity
  8
0
  6
CONTINUOUS
 62
     7
100
AcDbLine
 10
83.1583771989
 20
43.3683838728
 30
0.0
 11
83.1583771989
 21
40.3683838728
 31
0.0
  0
LINE
  5
34A
330
3EE
100
AcDbEntity
  8
0
  6
CONTINUOUS
 62
     7
100
AcDbLine
 10
77.1583771989
 20
40.3683838728
 30
0.0
 11
77.1583771989
 21
43.3683838728
 31
0.0
  0
LINE
  5
34B
330
3EE
100
AcDbEntity
  8
0
  6
CONTINUOUS
 62
     7
100
AcDbLine
 10
77.1583771989
 20
43.3683838728
 30
0.0
 11
70.1583771989
 21
43.3683838728
 31
0.0
  0
LINE
  5
34C
330
3EE
100
AcDbEntity
  8
0
  6
CONTINUOUS
 62
     7
100
AcDbLine
 10
77.1583771989
 20
40.3683838728
 30
0.0
 11
83.1583771989
 21
40.3683838728
 31
0.0
  0
LINE
  5
34D
330
3EE
100
AcDbEntity
  8
0
  6
CONTINUOUS
 62
     7
100
AcDbLine
 10
67.1583771989
 20
48.6683838728
 30
0.0
 11
67.1583771989
 21
43.3683838728
 31
0.0
  0
LINE
  5
34E
330
3EE
100
AcDbEntity
  8
0
  6
CONTINUOUS
 62
     7
100
AcDbLine
 10
107.1583771989
 20
62.3683838728
 30
0.0
 11
101.1583771989
 21
62.3683838728
 31
0.0
  0
LINE
  5
34F
330
3EE
100
AcDbEntity
  8
0
  6
CONTINUOUS
 62
     7
100
AcDbLine
 10
113.1583771989
 20
53.5683838728
 30
0.0
 11
113.1583771989
 21
58.8683838728
 31
0.0
  0
LINE
  5
350
330
3EE
100
AcDbEntity
  8
0
  6
CONTINUOUS
 62
     7
100
AcDbLine
 10
67.1583771989
 20
58.8683838728
 30
0.0
 11
67.1583771989
 21
53.5683838728
 31
0.0
  0
LINE
  5
351
330
3EE
100
AcDbEntity
  8
0
  6
CONTINUOUS
 62
     7
100
AcDbLine
 10
67.1583771989
 20
52.2683838728
 30
0.0
 11
67.1583771989
 21
50.4683838728
 31
0.0
  0
LINE
  5
352
330
3EE
100
AcDbEntity
  8
0
  6
CONTINUOUS
 62
     7
100
AcDbLine
 10
113.1583771989
 20
43.3683838728
 30
0.0
 11
113.1583771989
 21
48.6683838728
 31
0.0
  0
LINE
  5
353
330
3EE
100
AcDbEntity
  8
0
  6
CONTINUOUS
 62
     7
100
AcDbLine
 10
113.1583771989
 20
50.4683838728
 30
0.0
 11
113.1583771989
 21
52.2683838728
 31
0.0
  0
LINE
  5
354
330
3EE
100
AcDbEntity
  8
0
  6
CONTINUOUS
 62
     7
100
AcDbLine
 10
83.1583771989
 20
62.3683838728
 30
0.0
 11
77.1583771989
 21
62.3683838728
 31
0.0
  0
LINE
  5
355
330
3EE
100
AcDbEntity
  8
0
  6
CONTINUOUS
 62
     7
100
AcDbLine
 10
95.1583771989
 20
62.3683838728
 30
0.0
 11
89.1583771989
 21
62.3683838728
 31
0.0
  0
LINE
  5
356
330
3EE
100
AcDbEntity
  8
0
  6
CONTINUOUS
 62
     7
100
AcDbLine
 10
101.1583771989
 20
40.3683838728
 30
0.0
 11
107.1583771989
 21
40.3683838728
 31
0.0
  0
LINE
  5
357
330
3EE
100
AcDbEntity
  8
0
  6
CONTINUOUS
 62
     7
100
AcDbLine
 10
89.1583771989
 20
40.3683838728
 30
0.0
 11
95.1583771989
 21
40.3683838728
 31
0.0
  0
LINE
  5
358
330
3EE
100
AcDbEntity
  8
0
  6
CONTINUOUS
 62
     7
100
AcDbLine
 10
112.9176714867
 20
33.3782783059
 30
0.0
 11
106.9176714867
 21
33.3782783059
 31
0.0
  0
LINE
  5
359
330
3EE
100
AcDbEntity
  8
0
  6
CONTINUOUS
 62
     7
100
AcDbLine
 10
106.9176714867
 20
33.3782783059
 30
0.0
 11
106.9176714867
 21
31.5782783059
 31
0.0
  0
LINE
  5
35A
330
3EE
100
AcDbEntity
  8
0
  6
CONTINUOUS
 62
     7
100
AcDbLine
 10
106.9176714867
 20
31.5782783059
 30
0.0
 11
112.9176714867
 21
31.5782783059
 31
0.0
  0
LINE
  5
35B
330
3EE
100
AcDbEntity
  8
0
  6
CONTINUOUS
 62
     7
100
AcDbLine
 10
66.9176714867
 20
31.5782783059
 30
0.0
 11
72.9176714867
 21
31.5782783059
 31
0.0
  0
LINE
  5
35C
330
3EE
100
AcDbEntity
  8
0
  6
CONTINUOUS
 62
     7
100
AcDbLine
 10
72.9176714867
 20
31.5782783059
 30
0.0
 11
72.9176714867
 21
33.3782783059
 31
0.0
  0
LINE
  5
35D
330
3EE
100
AcDbEntity
  8
0
  6
CONTINUOUS
 62
     7
100
AcDbLine
 10
72.9176714867
 20
33.3782783059
 30
0.0
 11
66.9176714867
 21
33.3782783059
 31
0.0
  0
LINE
  5
35E
330
3EE
100
AcDbEntity
  8
0
  6
CONTINUOUS
 62
     7
100
AcDbLine
 10
66.9176714867
 20
35.1782783059
 30
0.0
 11
72.9176714867
 21
35.1782783059
 31
0.0
  0
LINE
  5
35F
330
3EE
100
AcDbEntity
  8
0
  6
CONTINUOUS
 62
     7
100
AcDbLine
 10
72.9176714867
 20
35.1782783059
 30
0.0
 11
72.9176714867
 21
36.9782783059
 31
0.0
  0
LINE
  5
360
330
3EE
100
AcDbEntity
  8
0
  6
CONTINUOUS
 62
     7
100
AcDbLine
 10
72.9176714867
 20
36.9782783059
 30
0.0
 11
66.9176714867
 21
36.9782783059
 31
0.0
  0
LINE
  5
361
330
3EE
100
AcDbEntity
  8
0
  6
CONTINUOUS
 62
     7
100
AcDbLine
 10
112.9176714867
 20
36.9782783059
 30
0.0
 11
106.9176714867
 21
36.9782783059
 31
0.0
  0
LINE
  5
362
330
3EE
100
AcDbEntity
  8
0
  6
CONTINUOUS
 62
     7
100
AcDbLine
 10
106.9176714867
 20
36.9782783059
 30
0.0
 11
106.9176714867
 21
35.1782783059
 31
0.0
  0
LINE
  5
363
330
3EE
100
AcDbEntity
  8
0
  6
CONTINUOUS
 62
     7
100
AcDbLine
 10
106.9176714867
 20
35.1782783059
 30
0.0
 11
112.9176714867
 21
35.1782783059
 31
0.0
  0
LINE
  5
364
330
3EE
100
AcDbEntity
  8
0
  6
CONTINUOUS
 62
     7
100
AcDbLine
 10
66.9176714867
 20
29.7782783059
 30
0.0
 11
112.9176714867
 21
29.7782783059
 31
0.0
  0
LINE
  5
365
330
3EE
100
AcDbEntity
  8
0
  6
CONTINUOUS
 62
     7
100
AcDbLine
 10
66.9176714867
 20
38.7782783059
 30
0.0
 11
66.9176714867
 21
36.9782783059
 31
0.0
  0
LINE
  5
366
330
3EE
100
AcDbEntity
  8
0
  6
CONTINUOUS
 62
     7
100
AcDbLine
 10
112.9176714867
 20
38.7782783059
 30
0.0
 11
66.9176714867
 21
38.7782783059
 31
0.0
  0
LINE
  5
367
330
3EE
100
AcDbEntity
  8
0
  6
CONTINUOUS
 62
     7
100
AcDbLine
 10
112.9176714867
 20
29.7782783059
 30
0.0
 11
112.9176714867
 21
31.5782783059
 31
0.0
  0
LINE
  5
368
330
3EE
100
AcDbEntity
  8
0
  6
CONTINUOUS
 62
     7
100
AcDbLine
 10
66.9176714867
 20
35.1782783059
 30
0.0
 11
66.9176714867
 21
33.3782783059
 31
0.0
  0
LINE
  5
369
330
3EE
100
AcDbEntity
  8
0
  6
CONTINUOUS
 62
     7
100
AcDbLine
 10
66.9176714867
 20
31.5782783059
 30
0.0
 11
66.9176714867
 21
29.7782783059
 31
0.0
  0
LINE
  5
36A
330
3EE
100
AcDbEntity
  8
0
  6
CONTINUOUS
 62
     7
100
AcDbLine
 10
112.9176714867
 20
36.9782783059
 30
0.0
 11
112.9176714867
 21
38.7782783059
 31
0.0
  0
LINE
  5
36B
330
3EE
100
AcDbEntity
  8
0
  6
CONTINUOUS
 62
     7
100
AcDbLine
 10
112.9176714867
 20
33.3782783059
 30
0.0
 11
112.9176714867
 21
35.1782783059
 31
0.0
  0
LINE
  5
36C
330
3EE
100
AcDbEntity
  8
0
  6
CONTINUOUS
 62
     7
100
AcDbLine
 10
47.2050120532
 20
24.2314612419
 30
0.0
 11
41.2050120532
 21
24.2314612419
 31
0.0
  0
LINE
  5
36D
330
3EE
100
AcDbEntity
  8
0
  6
CONTINUOUS
 62
     7
100
AcDbLine
 10
41.2050120532
 20
24.2314612419
 30
0.0
 11
41.2050120532
 21
22.4314612419
 31
0.0
  0
LINE
  5
36E
330
3EE
100
AcDbEntity
  8
0
  6
CONTINUOUS
 62
     7
100
AcDbLine
 10
41.2050120532
 20
22.4314612419
 30
0.0
 11
47.2050120532
 21
22.4314612419
 31
0.0
  0
LINE
  5
36F
330
3EE
100
AcDbEntity
  8
0
  6
CONTINUOUS
 62
     7
100
AcDbLine
 10
1.2050120532
 20
22.4314612419
 30
0.0
 11
7.2050120532
 21
22.4314612419
 31
0.0
  0
LINE
  5
370
330
3EE
100
AcDbEntity
  8
0
  6
CONTINUOUS
 62
     7
100
AcDbLine
 10
7.2050120532
 20
22.4314612419
 30
0.0
 11
7.2050120532
 21
24.2314612419
 31
0.0
  0
LINE
  5
371
330
3EE
100
AcDbEntity
  8
0
  6
CONTINUOUS
 62
     7
100
AcDbLine
 10
7.2050120532
 20
24.2314612419
 30
0.0
 11
1.2050120532
 21
24.2314612419
 31
0.0
  0
LINE
  5
372
330
3EE
100
AcDbEntity
  8
0
  6
CONTINUOUS
 62
     7
100
AcDbLine
 10
1.2050120532
 20
26.0314612419
 30
0.0
 11
7.2050120532
 21
26.0314612419
 31
0.0
  0
LINE
  5
373
330
3EE
100
AcDbEntity
  8
0
  6
CONTINUOUS
 62
     7
100
AcDbLine
 10
7.2050120532
 20
26.0314612419
 30
0.0
 11
7.2050120532
 21
27.8314612419
 31
0.0
  0
LINE
  5
374
330
3EE
100
AcDbEntity
  8
0
  6
CONTINUOUS
 62
     7
100
AcDbLine
 10
7.2050120532
 20
27.8314612419
 30
0.0
 11
1.2050120532
 21
27.8314612419
 31
0.0
  0
LINE
  5
375
330
3EE
100
AcDbEntity
  8
0
  6
CONTINUOUS
 62
     7
100
AcDbLine
 10
47.2050120532
 20
27.8314612419
 30
0.0
 11
41.2050120532
 21
27.8314612419
 31
0.0
  0
LINE
  5
376
330
3EE
100
AcDbEntity
  8
0
  6
CONTINUOUS
 62
     7
100
AcDbLine
 10
41.2050120532
 20
27.8314612419
 30
0.0
 11
41.2050120532
 21
26.0314612419
 31
0.0
  0
LINE
  5
377
330
3EE
100
AcDbEntity
  8
0
  6
CONTINUOUS
 62
     7
100
AcDbLine
 10
41.2050120532
 20
26.0314612419
 30
0.0
 11
47.2050120532
 21
26.0314612419
 31
0.0
  0
LINE
  5
378
330
3EE
100
AcDbEntity
  8
0
  6
CONTINUOUS
 62
     7
100
AcDbLine
 10
1.2050120532
 20
20.6314612419
 30
0.0
 11
47.2050120532
 21
20.6314612419
 31
0.0
  0
LINE
  5
379
330
3EE
100
AcDbEntity
  8
0
  6
CONTINUOUS
 62
     7
100
AcDbLine
 10
1.2050120532
 20
29.6314612419
 30
0.0
 11
1.2050120532
 21
27.8314612419
 31
0.0
  0
LINE
  5
37A
330
3EE
100
AcDbEntity
  8
0
  6
CONTINUOUS
 62
     7
100
AcDbLine
 10
47.2050120532
 20
29.6314612419
 30
0.0
 11
1.2050120532
 21
29.6314612419
 31
0.0
  0
LINE
  5
37B
330
3EE
100
AcDbEntity
  8
0
  6
CONTINUOUS
 62
     7
100
AcDbLine
 10
47.2050120532
 20
20.6314612419
 30
0.0
 11
47.2050120532
 21
22.4314612419
 31
0.0
  0
LINE
  5
37C
330
3EE
100
AcDbEntity
  8
0
  6
CONTINUOUS
 62
     7
100
AcDbLine
 10
1.2050120532
 20
26.0314612419
 30
0.0
 11
1.2050120532
 21
24.2314612419
 31
0.0
  0
LINE
  5
37D
330
3EE
100
AcDbEntity
  8
0
  6
CONTINUOUS
 62
     7
100
AcDbLine
 10
1.2050120532
 20
22.4314612419
 30
0.0
 11
1.2050120532
 21
20.6314612419
 31
0.0
  0
LINE
  5
37E
330
3EE
100
AcDbEntity
  8
0
  6
CONTINUOUS
 62
     7
100
AcDbLine
 10
47.2050120532
 20
27.8314612419
 30
0.0
 11
47.2050120532
 21
29.6314612419
 31
0.0
  0
LINE
  5
37F
330
3EE
100
AcDbEntity
  8
0
  6
CONTINUOUS
 62
     7
100
AcDbLine
 10
47.2050120532
 20
24.2314612419
 30
0.0
 11
47.2050120532
 21
26.0314612419
 31
0.0
  0
LINE
  5
380
330
3EE
100
AcDbEntity
  8
0
  6
CONTINUOUS
 62
     7
100
AcDbLine
 10
165.2027936818
 20
31.8083983349
 30
0.0
 11
165.2027936818
 21
33.6083983349
 31
0.0
  0
LINE
  5
381
330
3EE
100
AcDbEntity
  8
0
  6
CONTINUOUS
 62
     7
100
AcDbLine
 10
168.2027936818
 20
31.8083983349
 30
0.0
 11
165.2027936818
 21
31.8083983349
 31
0.0
  0
LINE
  5
382
330
3EE
100
AcDbEntity
  8
0
  6
CONTINUOUS
 62
     7
100
AcDbLine
 10
168.2027936818
 20
33.6083983349
 30
0.0
 11
168.2027936818
 21
31.8083983349
 31
0.0
  0
LINE
  5
383
330
3EE
100
AcDbEntity
  8
0
  6
CONTINUOUS
 62
     7
100
AcDbLine
 10
165.2027936818
 20
33.6083983349
 30
0.0
 11
168.2027936818
 21
33.6083983349
 31
0.0
  0
LINE
  5
384
330
3EE
100
AcDbEntity
  8
0
  6
CONTINUOUS
 62
     7
100
AcDbLine
 10
165.2027936818
 20
28.2083983349
 30
0.0
 11
165.2027936818
 21
30.0083983349
 31
0.0
  0
LINE
  5
385
330
3EE
100
AcDbEntity
  8
0
  6
CONTINUOUS
 62
     7
100
AcDbLine
 10
168.2027936818
 20
28.2083983349
 30
0.0
 11
165.2027936818
 21
28.2083983349
 31
0.0
  0
LINE
  5
386
330
3EE
100
AcDbEntity
  8
0
  6
CONTINUOUS
 62
     7
100
AcDbLine
 10
168.2027936818
 20
30.0083983349
 30
0.0
 11
168.2027936818
 21
28.2083983349
 31
0.0
  0
LINE
  5
387
330
3EE
100
AcDbEntity
  8
0
  6
CONTINUOUS
 62
     7
100
AcDbLine
 10
165.2027936818
 20
30.0083983349
 30
0.0
 11
168.2027936818
 21
30.0083983349
 31
0.0
  0
LINE
  5
388
330
3EE
100
AcDbEntity
  8
0
  6
CONTINUOUS
 62
     7
100
AcDbLine
 10
186.2027936818
 20
22.9083983349
 30
0.0
 11
186.2027936818
 21
19.9083983349
 31
0.0
  0
LINE
  5
389
330
3EE
100
AcDbEntity
  8
0
  6
CONTINUOUS
 62
     7
100
AcDbLine
 10
180.2027936818
 20
22.9083983349
 30
0.0
 11
186.2027936818
 21
22.9083983349
 31
0.0
  0
LINE
  5
38A
330
3EE
100
AcDbEntity
  8
0
  6
CONTINUOUS
 62
     7
100
AcDbLine
 10
180.2027936818
 20
19.9083983349
 30
0.0
 11
180.2027936818
 21
22.9083983349
 31
0.0
  0
LINE
  5
38B
330
3EE
100
AcDbEntity
  8
0
  6
CONTINUOUS
 62
     7
100
AcDbLine
 10
174.2027936818
 20
19.9083983349
 30
0.0
 11
180.2027936818
 21
19.9083983349
 31
0.0
  0
LINE
  5
38C
330
3EE
100
AcDbEntity
  8
0
  6
CONTINUOUS
 62
     7
100
AcDbLine
 10
174.2027936818
 20
22.9083983349
 30
0.0
 11
174.2027936818
 21
19.9083983349
 31
0.0
  0
LINE
  5
38D
330
3EE
100
AcDbEntity
  8
0
  6
CONTINUOUS
 62
     7
100
AcDbLine
 10
169.2027936818
 20
22.9083983349
 30
0.0
 11
174.2027936818
 21
22.9083983349
 31
0.0
  0
LINE
  5
38E
330
3EE
100
AcDbEntity
  8
0
  6
CONTINUOUS
 62
     7
100
AcDbLine
 10
169.2027936818
 20
19.9083983349
 30
0.0
 11
169.2027936818
 21
22.9083983349
 31
0.0
  0
LINE
  5
38F
330
3EE
100
AcDbEntity
  8
0
  6
CONTINUOUS
 62
     7
100
AcDbLine
 10
164.2027936818
 20
22.9083983349
 30
0.0
 11
164.2027936818
 21
19.9083983349
 31
0.0
  0
LINE
  5
390
330
3EE
100
AcDbEntity
  8
0
  6
CONTINUOUS
 62
     7
100
AcDbLine
 10
159.2027936818
 20
22.9083983349
 30
0.0
 11
164.2027936818
 21
22.9083983349
 31
0.0
  0
LINE
  5
391
330
3EE
100
AcDbEntity
  8
0
  6
CONTINUOUS
 62
     7
100
AcDbLine
 10
159.2027936818
 20
19.9083983349
 30
0.0
 11
159.2027936818
 21
22.9083983349
 31
0.0
  0
LINE
  5
392
330
3EE
100
AcDbEntity
  8
0
  6
CONTINUOUS
 62
     7
100
AcDbLine
 10
153.2027936818
 20
22.9083983349
 30
0.0
 11
153.2027936818
 21
19.9083983349
 31
0.0
  0
LINE
  5
393
330
3EE
100
AcDbEntity
  8
0
  6
CONTINUOUS
 62
     7
100
AcDbLine
 10
147.2027936818
 20
22.9083983349
 30
0.0
 11
153.2027936818
 21
22.9083983349
 31
0.0
  0
LINE
  5
394
330
3EE
100
AcDbEntity
  8
0
  6
CONTINUOUS
 62
     7
100
AcDbLine
 10
147.2027936818
 20
19.9083983349
 30
0.0
 11
147.2027936818
 21
22.9083983349
 31
0.0
  0
LINE
  5
395
330
3EE
100
AcDbEntity
  8
0
  6
CONTINUOUS
 62
     7
100
AcDbLine
 10
141.2027936818
 20
19.9083983349
 30
0.0
 11
147.2027936818
 21
19.9083983349
 31
0.0
  0
LINE
  5
396
330
3EE
100
AcDbEntity
  8
0
  6
CONTINUOUS
 62
     7
100
AcDbLine
 10
141.2027936818
 20
22.9083983349
 30
0.0
 11
141.2027936818
 21
19.9083983349
 31
0.0
  0
LINE
  5
397
330
3EE
100
AcDbEntity
  8
0
  6
CONTINUOUS
 62
     7
100
AcDbLine
 10
138.2027936818
 20
26.4083983349
 30
0.0
 11
138.2027936818
 21
22.9083983349
 31
0.0
  0
LINE
  5
398
330
3EE
100
AcDbEntity
  8
0
  6
CONTINUOUS
 62
     7
100
AcDbLine
 10
141.2027936818
 20
26.4083983349
 30
0.0
 11
138.2027936818
 21
26.4083983349
 31
0.0
  0
LINE
  5
399
330
3EE
100
AcDbEntity
  8
0
  6
CONTINUOUS
 62
     7
100
AcDbLine
 10
141.2027936818
 20
28.2083983349
 30
0.0
 11
141.2027936818
 21
26.4083983349
 31
0.0
  0
LINE
  5
39A
330
3EE
100
AcDbEntity
  8
0
  6
CONTINUOUS
 62
     7
100
AcDbLine
 10
135.2027936818
 20
28.2083983349
 30
0.0
 11
141.2027936818
 21
28.2083983349
 31
0.0
  0
LINE
  5
39B
330
3EE
100
AcDbEntity
  8
0
  6
CONTINUOUS
 62
     7
100
AcDbLine
 10
141.2027936818
 20
30.0083983349
 30
0.0
 11
135.2027936818
 21
30.0083983349
 31
0.0
  0
LINE
  5
39C
330
3EE
100
AcDbEntity
  8
0
  6
CONTINUOUS
 62
     7
100
AcDbLine
 10
141.2027936818
 20
31.8083983349
 30
0.0
 11
141.2027936818
 21
30.0083983349
 31
0.0
  0
LINE
  5
39D
330
3EE
100
AcDbEntity
  8
0
  6
CONTINUOUS
 62
     7
100
AcDbLine
 10
135.2027936818
 20
31.8083983349
 30
0.0
 11
141.2027936818
 21
31.8083983349
 31
0.0
  0
LINE
  5
39E
330
3EE
100
AcDbEntity
  8
0
  6
CONTINUOUS
 62
     7
100
AcDbLine
 10
135.2027936818
 20
33.6083983349
 30
0.0
 11
135.2027936818
 21
31.8083983349
 31
0.0
  0
LINE
  5
39F
330
3EE
100
AcDbEntity
  8
0
  6
CONTINUOUS
 62
     7
100
AcDbLine
 10
141.2027936818
 20
33.6083983349
 30
0.0
 11
135.2027936818
 21
33.6083983349
 31
0.0
  0
LINE
  5
3A0
330
3EE
100
AcDbEntity
  8
0
  6
CONTINUOUS
 62
     7
100
AcDbLine
 10
141.2027936818
 20
35.4083983349
 30
0.0
 11
141.2027936818
 21
33.6083983349
 31
0.0
  0
LINE
  5
3A1
330
3EE
100
AcDbEntity
  8
0
  6
CONTINUOUS
 62
     7
100
AcDbLine
 10
138.2027936818
 20
35.4083983349
 30
0.0
 11
141.2027936818
 21
35.4083983349
 31
0.0
  0
LINE
  5
3A2
330
3EE
100
AcDbEntity
  8
0
  6
CONTINUOUS
 62
     7
100
AcDbLine
 10
138.2027936818
 20
38.9083983349
 30
0.0
 11
138.2027936818
 21
35.4083983349
 31
0.0
  0
LINE
  5
3A3
330
3EE
100
AcDbEntity
  8
0
  6
CONTINUOUS
 62
     7
100
AcDbLine
 10
141.2027936818
 20
41.9083983349
 30
0.0
 11
141.2027936818
 21
38.9083983349
 31
0.0
  0
LINE
  5
3A4
330
3EE
100
AcDbEntity
  8
0
  6
CONTINUOUS
 62
     7
100
AcDbLine
 10
147.2027936818
 20
38.9083983349
 30
0.0
 11
147.2027936818
 21
41.9083983349
 31
0.0
  0
LINE
  5
3A5
330
3EE
100
AcDbEntity
  8
0
  6
CONTINUOUS
 62
     7
100
AcDbLine
 10
153.2027936818
 20
38.9083983349
 30
0.0
 11
147.2027936818
 21
38.9083983349
 31
0.0
  0
LINE
  5
3A6
330
3EE
100
AcDbEntity
  8
0
  6
CONTINUOUS
 62
     7
100
AcDbLine
 10
153.2027936818
 20
41.9083983349
 30
0.0
 11
153.2027936818
 21
38.9083983349
 31
0.0
  0
LINE
  5
3A7
330
3EE
100
AcDbEntity
  8
0
  6
CONTINUOUS
 62
     7
100
AcDbLine
 10
159.2027936818
 20
38.9083983349
 30
0.0
 11
159.2027936818
 21
41.9083983349
 31
0.0
  0
LINE
  5
3A8
330
3EE
100
AcDbEntity
  8
0
  6
CONTINUOUS
 62
     7
100
AcDbLine
 10
164.2027936818
 20
38.9083983349
 30
0.0
 11
159.2027936818
 21
38.9083983349
 31
0.0
  0
LINE
  5
3A9
330
3EE
100
AcDbEntity
  8
0
  6
CONTINUOUS
 62
     7
100
AcDbLine
 10
164.2027936818
 20
41.9083983349
 30
0.0
 11
164.2027936818
 21
38.9083983349
 31
0.0
  0
LINE
  5
3AA
330
3EE
100
AcDbEntity
  8
0
  6
CONTINUOUS
 62
     7
100
AcDbLine
 10
169.2027936818
 20
41.9083983349
 30
0.0
 11
164.2027936818
 21
41.9083983349
 31
0.0
  0
LINE
  5
3AB
330
3EE
100
AcDbEntity
  8
0
  6
CONTINUOUS
 62
     7
100
AcDbLine
 10
169.2027936818
 20
38.9083983349
 30
0.0
 11
169.2027936818
 21
41.9083983349
 31
0.0
  0
LINE
  5
3AC
330
3EE
100
AcDbEntity
  8
0
  6
CONTINUOUS
 62
     7
100
AcDbLine
 10
174.2027936818
 20
38.9083983349
 30
0.0
 11
169.2027936818
 21
38.9083983349
 31
0.0
  0
LINE
  5
3AD
330
3EE
100
AcDbEntity
  8
0
  6
CONTINUOUS
 62
     7
100
AcDbLine
 10
174.2027936818
 20
41.9083983349
 30
0.0
 11
174.2027936818
 21
38.9083983349
 31
0.0
  0
LINE
  5
3AE
330
3EE
100
AcDbEntity
  8
0
  6
CONTINUOUS
 62
     7
100
AcDbLine
 10
180.2027936818
 20
38.9083983349
 30
0.0
 11
180.2027936818
 21
41.9083983349
 31
0.0
  0
LINE
  5
3AF
330
3EE
100
AcDbEntity
  8
0
  6
CONTINUOUS
 62
     7
100
AcDbLine
 10
186.2027936818
 20
38.9083983349
 30
0.0
 11
180.2027936818
 21
38.9083983349
 31
0.0
  0
LINE
  5
3B0
330
3EE
100
AcDbEntity
  8
0
  6
CONTINUOUS
 62
     7
100
AcDbLine
 10
186.2027936818
 20
41.9083983349
 30
0.0
 11
186.2027936818
 21
38.9083983349
 31
0.0
  0
LINE
  5
3B1
330
3EE
100
AcDbEntity
  8
0
  6
CONTINUOUS
 62
     7
100
AcDbLine
 10
192.2027936818
 20
38.9083983349
 30
0.0
 11
192.2027936818
 21
41.9083983349
 31
0.0
  0
LINE
  5
3B2
330
3EE
100
AcDbEntity
  8
0
  6
CONTINUOUS
 62
     7
100
AcDbLine
 10
195.2027936818
 20
35.4083983349
 30
0.0
 11
195.2027936818
 21
38.9083983349
 31
0.0
  0
LINE
  5
3B3
330
3EE
100
AcDbEntity
  8
0
  6
CONTINUOUS
 62
     7
100
AcDbLine
 10
192.2027936818
 20
35.4083983349
 30
0.0
 11
195.2027936818
 21
35.4083983349
 31
0.0
  0
LINE
  5
3B4
330
3EE
100
AcDbEntity
  8
0
  6
CONTINUOUS
 62
     7
100
AcDbLine
 10
192.2027936818
 20
33.6083983349
 30
0.0
 11
192.2027936818
 21
35.4083983349
 31
0.0
  0
LINE
  5
3B5
330
3EE
100
AcDbEntity
  8
0
  6
CONTINUOUS
 62
     7
100
AcDbLine
 10
198.2027936818
 20
33.6083983349
 30
0.0
 11
192.2027936818
 21
33.6083983349
 31
0.0
  0
LINE
  5
3B6
330
3EE
100
AcDbEntity
  8
0
  6
CONTINUOUS
 62
     7
100
AcDbLine
 10
192.2027936818
 20
31.8083983349
 30
0.0
 11
198.2027936818
 21
31.8083983349
 31
0.0
  0
LINE
  5
3B7
330
3EE
100
AcDbEntity
  8
0
  6
CONTINUOUS
 62
     7
100
AcDbLine
 10
192.2027936818
 20
30.0083983349
 30
0.0
 11
192.2027936818
 21
31.8083983349
 31
0.0
  0
LINE
  5
3B8
330
3EE
100
AcDbEntity
  8
0
  6
CONTINUOUS
 62
     7
100
AcDbLine
 10
198.2027936818
 20
30.0083983349
 30
0.0
 11
192.2027936818
 21
30.0083983349
 31
0.0
  0
LINE
  5
3B9
330
3EE
100
AcDbEntity
  8
0
  6
CONTINUOUS
 62
     7
100
AcDbLine
 10
192.2027936818
 20
28.2083983349
 30
0.0
 11
198.2027936818
 21
28.2083983349
 31
0.0
  0
LINE
  5
3BA
330
3EE
100
AcDbEntity
  8
0
  6
CONTINUOUS
 62
     7
100
AcDbLine
 10
192.2027936818
 20
26.4083983349
 30
0.0
 11
192.2027936818
 21
28.2083983349
 31
0.0
  0
LINE
  5
3BB
330
3EE
100
AcDbEntity
  8
0
  6
CONTINUOUS
 62
     7
100
AcDbLine
 10
195.2027936818
 20
26.4083983349
 30
0.0
 11
192.2027936818
 21
26.4083983349
 31
0.0
  0
LINE
  5
3BC
330
3EE
100
AcDbEntity
  8
0
  6
CONTINUOUS
 62
     7
100
AcDbLine
 10
195.2027936818
 20
22.9083983349
 30
0.0
 11
195.2027936818
 21
26.4083983349
 31
0.0
  0
LINE
  5
3BD
330
3EE
100
AcDbEntity
  8
0
  6
CONTINUOUS
 62
     7
100
AcDbLine
 10
192.2027936818
 20
19.9083983349
 30
0.0
 11
192.2027936818
 21
22.9083983349
 31
0.0
  0
LINE
  5
3BE
330
3EE
100
AcDbEntity
  8
0
  6
CONTINUOUS
 62
     7
100
AcDbLine
 10
186.2027936818
 20
19.9083983349
 30
0.0
 11
192.2027936818
 21
19.9083983349
 31
0.0
  0
LINE
  5
3BF
330
3EE
100
AcDbEntity
  8
0
  6
CONTINUOUS
 62
     7
100
AcDbLine
 10
159.2027936818
 20
41.9083983349
 30
0.0
 11
153.2027936818
 21
41.9083983349
 31
0.0
  0
LINE
  5
3C0
330
3EE
100
AcDbEntity
  8
0
  6
CONTINUOUS
 62
     7
100
AcDbLine
 10
198.2027936818
 20
31.8083983349
 30
0.0
 11
198.2027936818
 21
33.6083983349
 31
0.0
  0
LINE
  5
3C1
330
3EE
100
AcDbEntity
  8
0
  6
CONTINUOUS
 62
     7
100
AcDbLine
 10
198.2027936818
 20
28.2083983349
 30
0.0
 11
198.2027936818
 21
30.0083983349
 31
0.0
  0
LINE
  5
3C2
330
3EE
100
AcDbEntity
  8
0
  6
CONTINUOUS
 62
     7
100
AcDbLine
 10
135.2027936818
 20
30.0083983349
 30
0.0
 11
135.2027936818
 21
28.2083983349
 31
0.0
  0
LINE
  5
3C3
330
3EE
100
AcDbEntity
  8
0
  6
CONTINUOUS
 62
     7
100
AcDbLine
 10
147.2027936818
 20
41.9083983349
 30
0.0
 11
141.2027936818
 21
41.9083983349
 31
0.0
  0
LINE
  5
3C4
330
3EE
100
AcDbEntity
  8
0
  6
CONTINUOUS
 62
     7
100
AcDbLine
 10
192.2027936818
 20
41.9083983349
 30
0.0
 11
186.2027936818
 21
41.9083983349
 31
0.0
  0
LINE
  5
3C5
330
3EE
100
AcDbEntity
  8
0
  6
CONTINUOUS
 62
     7
100
AcDbLine
 10
180.2027936818
 20
41.9083983349
 30
0.0
 11
174.2027936818
 21
41.9083983349
 31
0.0
  0
LINE
  5
3C6
330
3EE
100
AcDbEntity
  8
0
  6
CONTINUOUS
 62
     7
100
AcDbLine
 10
164.2027936818
 20
19.9083983349
 30
0.0
 11
169.2027936818
 21
19.9083983349
 31
0.0
  0
LINE
  5
3C7
330
3EE
100
AcDbEntity
  8
0
  6
CONTINUOUS
 62
     7
100
AcDbLine
 10
153.2027936818
 20
19.9083983349
 30
0.0
 11
159.2027936818
 21
19.9083983349
 31
0.0
  0
LINE
  5
3C8
330
3EE
100
AcDbEntity
  8
0
  6
CONTINUOUS
 62
     7
100
AcDbLine
 10
141.2027936818
 20
38.9083983349
 30
0.0
 11
138.2027936818
 21
38.9083983349
 31
0.0
  0
LINE
  5
3C9
330
3EE
100
AcDbEntity
  8
0
  6
CONTINUOUS
 62
     7
100
AcDbLine
 10
195.2027936818
 20
38.9083983349
 30
0.0
 11
192.2027936818
 21
38.9083983349
 31
0.0
  0
LINE
  5
3CA
330
3EE
100
AcDbEntity
  8
0
  6
CONTINUOUS
 62
     7
100
AcDbLine
 10
138.2027936818
 20
22.9083983349
 30
0.0
 11
141.2027936818
 21
22.9083983349
 31
0.0
  0
LINE
  5
3CB
330
3EE
100
AcDbEntity
  8
0
  6
CONTINUOUS
 62
     7
100
AcDbLine
 10
192.2027936818
 20
22.9083983349
 30
0.0
 11
195.2027936818
 21
22.9083983349
 31
0.0
  0
LINE
  5
91F
330
3EE
100
AcDbEntity
  8
0
100
AcDbLine
 10
90.6583771989
 20
58.86838387280003
 30
0.0
 11
90.6583771989
 21
55.86838387280003
 31
0.0
  0
LINE
  5
920
330
3EE
100
AcDbEntity
  8
0
100
AcDbLine
 10
90.6583771989
 20
55.86838387280003
 30
0.0
 11
93.6583771989
 21
55.86838387280003
 31
0.0
  0
LINE
  5
921
330
3EE
100
AcDbEntity
  8
0
100
AcDbLine
 10
93.6583771989
 20
55.86838387280003
 30
0.0
 11
93.6583771989
 21
58.86838387280003
 31
0.0
  0
LINE
  5
922
330
3EE
100
AcDbEntity
  8
0
100
AcDbLine
 10
90.6583771989
 20
58.86838387280003
 30
0.0
 11
93.6583771989
 21
58.86838387280003
 31
0.0
  0
LINE
  5
923
330
3EE
100
AcDbEntity
  8
0
100
AcDbLine
 10
90.6583771989
 20
43.8683838728
 30
0.0
 11
90.6583771989
 21
46.8683838728
 31
0.0
  0
LINE
  5
924
330
3EE
100
AcDbEntity
  8
0
100
AcDbLine
 10
90.6583771989
 20
46.8683838728
 30
0.0
 11
93.6583771989
 21
46.8683838728
 31
0.0
  0
LINE
  5
925
330
3EE
100
AcDbEntity
  8
0
100
AcDbLine
 10
93.6583771989
 20
46.8683838728
 30
0.0
 11
93.6583771989
 21
43.8683838728
 31
0.0
  0
LINE
  5
926
330
3EE
100
AcDbEntity
  8
0
100
AcDbLine
 10
90.6583771989
 20
43.8683838728
 30
0.0
 11
93.6583771989
 21
43.8683838728
 31
0.0
  0
LINE
  5
9B6
330
3EE
100
AcDbEntity
  8
0
  6
CONTINUOUS
 62
     7
100
AcDbLine
 10
63.19550908613402
 20
64.27844161421663
 30
0.0
 11
120.195509086134
 21
64.27844161421663
 31
0.0
  0
LINE
  5
9B7
330
3EE
100
AcDbEntity
  8
0
  6
CONTINUOUS
 62
     7
100
AcDbLine
 10
120.195509086134
 20
107.2784416142166
 30
0.0
 11
63.19550908613402
 21
107.2784416142166
 31
0.0
  0
LWPOLYLINE
  5
9B8
330
3EE
100
AcDbEntity
  8
0
 62
     3
100
AcDbPolyline
 90
        8
 70
     1
 43
0.0
 10
114.4709006965984
 20
100.9771227752245
 10
114.4709006965984
 20
94.17863004209462
 42
-0.414213562373095
 10
113.4709006965984
 20
93.17863004209462
 10
101.8811664928321
 20
93.17863004209462
 42
-0.414213562373095
 10
100.8811664928321
 20
94.17863004209462
 10
100.8811664928321
 20
100.9771227752245
 42
-0.414213562373095
 10
101.8811664928321
 20
101.9771227752245
 10
113.4709006965984
 20
101.9771227752245
 42
-0.414213562373095
  0
LWPOLYLINE
  5
9B9
330
3EE
100
AcDbEntity
  8
0
100
AcDbPolyline
 90
        4
 70
     1
 43
0.0
 10
113.4709006965984
 20
100.9771227752245
 10
113.4709006965984
 20
94.17863004209462
 10
101.8811664928321
 20
94.17863004209462
 10
101.8811664928321
 20
100.9771227752245
  0
CIRCLE
  5
9BA
330
3EE
100
AcDbEntity
  8
0
 62
     3
100
AcDbCircle
 10
88.25360787280087
 20
83.99438134572748
 30
0.0
 40
14.29483123168747
  0
CIRCLE
  5
9BB
330
3EE
100
AcDbEntity
  8
0
 62
     3
100
AcDbCircle
 10
88.25360787280087
 20
83.99438134572748
 30
0.0
 40
11.948645305781
  0
CIRCLE
  5
9BC
330
3EE
100
AcDbEntity
  8
0
 62
     3
100
AcDbCircle
 10
88.25360787280087
 20
83.99438134572748
 30
0.0
 40
14.92593959879827
  0
ARC
  5
9BD
330
3EE
100
AcDbEntity
  8
0
 62
     3
100
AcDbCircle
 10
94.08816303665819
 20
67.09011173000215
 30
0.0
 40
20.41968158368914
100
AcDbArc
 50
73.46415169410322
 51
106.4715960744358
  0
ARC
  5
9BE
330
3EE
100
AcDbEntity
  8
0
100
AcDbCircle
 10
94.08816303665819
 20
67.09011173000215
 30
0.0
 40
20.41968158368914
100
AcDbArc
 50
106.4715960744358
 51
111.6129140791014
  0
ARC
  5
9BF
330
3EE
100
AcDbEntity
  8
0
 62
     3
100
AcDbCircle
 10
103.5889914939338
 20
74.79533930897622
 30
0.0
 40
20.41968158368913
100
AcDbArc
 50
113.4641516941034
 51
146.4715960744359
  0
ARC
  5
9C0
330
3EE
100
AcDbEntity
  8
0
100
AcDbCircle
 10
103.5889914939338
 20
74.79533930897622
 30
0.0
 40
20.41968158368913
100
AcDbArc
 50
146.4715960744359
 51
151.6129140791015
  0
ARC
  5
9C1
330
3EE
100
AcDbEntity
  8
0
 62
     3
100
AcDbCircle
 10
105.9142235210769
 20
86.80490089291041
 30
0.0
 40
20.41968158368913
100
AcDbArc
 50
153.4641516941033
 51
186.4715960744359
  0
ARC
  5
9C2
330
3EE
100
AcDbEntity
  8
0
100
AcDbCircle
 10
105.9142235210769
 20
86.80490089291041
 30
0.0
 40
20.41968158368913
100
AcDbArc
 50
186.4715960744359
 51
191.6129140791013
  0
ARC
  5
9C3
330
3EE
100
AcDbEntity
  8
0
 62
     3
100
AcDbCircle
 10
99.97585721051175
 20
97.49938914527223
 30
0.0
 40
20.41968158368914
100
AcDbArc
 50
193.4641516941031
 51
226.4715960744357
  0
ARC
  5
9C4
330
3EE
100
AcDbEntity
  8
0
100
AcDbCircle
 10
99.97585721051175
 20
97.49938914527223
 30
0.0
 40
20.41968158368914
100
AcDbArc
 50
226.4715960744357
 51
231.6129140791011
  0
ARC
  5
9C5
330
3EE
100
AcDbEntity
  8
0
 62
     3
100
AcDbCircle
 10
88.55252015654199
 20
101.874734156784
 30
0.0
 40
20.41968158368914
100
AcDbArc
 50
233.4641516941031
 51
266.471596074436
  0
ARC
  5
9C6
330
3EE
100
AcDbEntity
  8
0
100
AcDbCircle
 10
88.55252015654199
 20
101.874734156784
 30
0.0
 40
20.41968158368914
100
AcDbArc
 50
266.471596074436
 51
271.6129140791016
  0
ARC
  5
9C7
330
3EE
100
AcDbEntity
  8
0
 62
     3
100
AcDbCircle
 10
76.98931872296976
 20
97.883663370016
 30
0.0
 40
20.41968158368914
100
AcDbArc
 50
273.4641516941032
 51
306.4715960744358
  0
ARC
  5
9C8
330
3EE
100
AcDbEntity
  8
0
100
AcDbCircle
 10
76.98931872296976
 20
97.883663370016
 30
0.0
 40
20.41968158368914
100
AcDbArc
 50
306.4715960744358
 51
311.6129140791014
  0
ARC
  5
9C9
330
3EE
100
AcDbEntity
  8
0
 62
     3
100
AcDbCircle
 10
70.6968033712327
 20
87.39364316190802
 30
0.0
 40
20.41968158368914
100
AcDbArc
 50
313.4641516941033
 51
346.4715960744359
  0
ARC
  5
9CA
330
3EE
100
AcDbEntity
  8
0
100
AcDbCircle
 10
70.6968033712327
 20
87.39364316190802
 30
0.0
 40
20.41968158368914
100
AcDbArc
 50
346.4715960744359
 51
351.6129140791011
  0
ARC
  5
9CB
330
3EE
100
AcDbEntity
  8
0
 62
     3
100
AcDbCircle
 10
72.6193119679269
 20
75.31307057142223
 30
0.0
 40
20.41968158368914
100
AcDbArc
 50
353.464151694103
 51
26.47159607443594
  0
ARC
  5
9CC
330
3EE
100
AcDbEntity
  8
0
100
AcDbCircle
 10
72.6193119679269
 20
75.31307057142223
 30
0.0
 40
20.41968158368914
100
AcDbArc
 50
26.47159607443594
 51
31.6129140791013
  0
ARC
  5
9CD
330
3EE
100
AcDbEntity
  8
0
 62
     3
100
AcDbCircle
 10
81.85728137435606
 20
67.294579774256
 30
0.0
 40
20.41968158368914
100
AcDbArc
 50
33.46415169410347
 51
66.4715960744358
  0
ARC
  5
9CE
330
3EE
100
AcDbEntity
  8
0
100
AcDbCircle
 10
81.85728137435606
 20
67.294579774256
 30
0.0
 40
20.41968158368914
100
AcDbArc
 50
66.4715960744358
 51
71.61291407910124
  0
LINE
  5
9CF
330
3EE
100
AcDbEntity
  8
0
 62
     3
100
AcDbLine
 10
67.3402167686591
 20
100.118623120975
 30
0.0
 11
67.3402167686591
 21
105.118623120975
 31
0.0
  0
LINE
  5
9D0
330
3EE
100
AcDbEntity
  8
0
 62
     3
100
AcDbLine
 10
67.3402167686591
 20
100.118623120975
 30
0.0
 11
83.34021676865908
 21
100.118623120975
 31
0.0
  0
LINE
  5
9D1
330
3EE
100
AcDbEntity
  8
0
 62
     3
100
AcDbLine
 10
67.3402167686591
 20
101.118623120975
 30
0.0
 11
83.34021676865908
 21
101.118623120975
 31
0.0
  0
LINE
  5
9D2
330
3EE
100
AcDbEntity
  8
0
 62
     3
100
AcDbLine
 10
67.3402167686591
 20
102.118623120975
 30
0.0
 11
83.34021676865908
 21
102.118623120975
 31
0.0
  0
LINE
  5
9D3
330
3EE
100
AcDbEntity
  8
0
 62
     3
100
AcDbLine
 10
67.3402167686591
 20
103.118623120975
 30
0.0
 11
83.34021676865908
 21
103.118623120975
 31
0.0
  0
LINE
  5
9D4
330
3EE
100
AcDbEntity
  8
0
 62
     3
100
AcDbLine
 10
67.3402167686591
 20
104.118623120975
 30
0.0
 11
83.34021676865908
 21
104.118623120975
 31
0.0
  0
LINE
  5
9D5
330
3EE
100
AcDbEntity
  8
0
 62
     3
100
AcDbLine
 10
67.3402167686591
 20
105.118623120975
 30
0.0
 11
83.34021676865908
 21
105.118623120975
 31
0.0
  0
LINE
  5
9D6
330
3EE
100
AcDbEntity
  8
0
 62
     3
100
AcDbLine
 10
68.3402167686591
 20
100.118623120975
 30
0.0
 11
68.3402167686591
 21
105.118623120975
 31
0.0
  0
LINE
  5
9D7
330
3EE
100
AcDbEntity
  8
0
 62
     3
100
AcDbLine
 10
69.3402167686591
 20
100.118623120975
 30
0.0
 11
69.3402167686591
 21
105.118623120975
 31
0.0
  0
LINE
  5
9D8
330
3EE
100
AcDbEntity
  8
0
 62
     3
100
AcDbLine
 10
70.3402167686591
 20
100.118623120975
 30
0.0
 11
70.3402167686591
 21
105.118623120975
 31
0.0
  0
LINE
  5
9D9
330
3EE
100
AcDbEntity
  8
0
 62
     3
100
AcDbLine
 10
71.34021676865908
 20
100.118623120975
 30
0.0
 11
71.34021676865908
 21
105.118623120975
 31
0.0
  0
LINE
  5
9DA
330
3EE
100
AcDbEntity
  8
0
 62
     3
100
AcDbLine
 10
72.34021676865908
 20
100.118623120975
 30
0.0
 11
72.34021676865908
 21
105.118623120975
 31
0.0
  0
LINE
  5
9DB
330
3EE
100
AcDbEntity
  8
0
 62
     3
100
AcDbLine
 10
73.34021676865908
 20
100.118623120975
 30
0.0
 11
73.34021676865908
 21
105.118623120975
 31
0.0
  0
LINE
  5
9DC
330
3EE
100
AcDbEntity
  8
0
 62
     3
100
AcDbLine
 10
74.34021676865908
 20
100.118623120975
 30
0.0
 11
74.34021676865908
 21
105.118623120975
 31
0.0
  0
LINE
  5
9DD
330
3EE
100
AcDbEntity
  8
0
 62
     3
100
AcDbLine
 10
75.34021676865908
 20
100.118623120975
 30
0.0
 11
75.34021676865908
 21
105.118623120975
 31
0.0
  0
LINE
  5
9DE
330
3EE
100
AcDbEntity
  8
0
 62
     3
100
AcDbLine
 10
76.34021676865908
 20
100.118623120975
 30
0.0
 11
76.34021676865908
 21
105.118623120975
 31
0.0
  0
LINE
  5
9DF
330
3EE
100
AcDbEntity
  8
0
 62
     3
100
AcDbLine
 10
77.34021676865908
 20
100.118623120975
 30
0.0
 11
77.34021676865908
 21
105.118623120975
 31
0.0
  0
LINE
  5
9E0
330
3EE
100
AcDbEntity
  8
0
 62
     3
100
AcDbLine
 10
78.34021676865908
 20
100.118623120975
 30
0.0
 11
78.34021676865908
 21
105.118623120975
 31
0.0
  0
LINE
  5
9E1
330
3EE
100
AcDbEntity
  8
0
 62
     3
100
AcDbLine
 10
79.34021676865908
 20
100.118623120975
 30
0.0
 11
79.34021676865908
 21
105.118623120975
 31
0.0
  0
LINE
  5
9E2
330
3EE
100
AcDbEntity
  8
0
 62
     3
100
AcDbLine
 10
80.34021676865908
 20
100.118623120975
 30
0.0
 11
80.34021676865908
 21
105.118623120975
 31
0.0
  0
LINE
  5
9E3
330
3EE
100
AcDbEntity
  8
0
 62
     3
100
AcDbLine
 10
81.34021676865908
 20
100.118623120975
 30
0.0
 11
81.34021676865908
 21
105.118623120975
 31
0.0
  0
LINE
  5
9E4
330
3EE
100
AcDbEntity
  8
0
 62
     3
100
AcDbLine
 10
82.34021676865908
 20
100.118623120975
 30
0.0
 11
82.34021676865908
 21
105.118623120975
 31
0.0
  0
LINE
  5
9E5
330
3EE
100
AcDbEntity
  8
0
 62
     3
100
AcDbLine
 10
83.34021676865908
 20
100.118623120975
 30
0.0
 11
83.34021676865908
 21
105.118623120975
 31
0.0
  0
LINE
  5
9E6
330
3EE
100
AcDbEntity
  8
0
  6
CONTINUOUS
 62
     7
100
AcDbLine
 10
1.275345912124727
 20
64.27844161421666
 30
0.0
 11
58.27534591212473
 21
64.27844161421666
 31
0.0
  0
LINE
  5
9E7
330
3EE
100
AcDbEntity
  8
0
  6
CONTINUOUS
 62
     7
100
AcDbLine
 10
58.27534591212473
 20
107.2784416142167
 30
0.0
 11
1.275345912124727
 21
107.2784416142167
 31
0.0
  0
LINE
  5
9E8
330
3EE
100
AcDbEntity
  8
0
100
AcDbLine
 10
120.195509086134
 20
79.27844161421663
 30
0.0
 11
117.195509086134
 21
79.27844161421663
 31
0.0
  0
LINE
  5
9E9
330
3EE
100
AcDbEntity
  8
0
100
AcDbLine
 10
121.695509086134
 20
82.27844161421663
 30
0.0
 11
120.195509086134
 21
80.77844161421663
 31
0.0
  0
LINE
  5
9EA
330
3EE
100
AcDbEntity
  8
0
100
AcDbLine
 10
120.1866930525021
 20
83.77842866044716
 30
0.0
 11
121.695509086134
 21
82.27844161421663
 31
0.0
  0
LINE
  5
9EB
330
3EE
100
AcDbEntity
  8
0
100
AcDbLine
 10
120.195509086134
 20
80.77844161421663
 30
0.0
 11
118.695509086134
 21
80.77844161421663
 31
0.0
  0
LINE
  5
9EC
330
3EE
100
AcDbEntity
  8
0
100
AcDbLine
 10
118.695509086134
 20
80.77844161421663
 30
0.0
 11
118.695509086134
 21
95.77844161421663
 31
0.0
  0
LINE
  5
9ED
330
3EE
100
AcDbEntity
  8
0
100
AcDbLine
 10
118.695509086134
 20
95.77844161421663
 30
0.0
 11
117.195509086134
 21
95.77844161421663
 31
0.0
  0
LINE
  5
9EE
330
3EE
100
AcDbEntity
  8
0
100
AcDbLine
 10
117.195509086134
 20
95.77844161421663
 30
0.0
 11
117.195509086134
 21
80.77844161421663
 31
0.0
  0
LINE
  5
9EF
330
3EE
100
AcDbEntity
  8
0
100
AcDbLine
 10
117.195509086134
 20
80.77844161421663
 30
0.0
 11
117.195509086134
 21
79.27844161421663
 31
0.0
  0
LINE
  5
9F0
330
3EE
100
AcDbEntity
  8
0
100
AcDbLine
 10
63.19550908613402
 20
79.27844161421663
 30
0.0
 11
66.19550908613402
 21
79.27844161421663
 31
0.0
  0
LINE
  5
9F1
330
3EE
100
AcDbEntity
  8
0
100
AcDbLine
 10
61.69550908613402
 20
82.27844161421663
 30
0.0
 11
63.19550908613402
 21
80.77844161421663
 31
0.0
  0
LINE
  5
9F2
330
3EE
100
AcDbEntity
  8
0
100
AcDbLine
 10
63.20432511976594
 20
83.77842866044716
 30
0.0
 11
61.69550908613402
 21
82.27844161421663
 31
0.0
  0
LINE
  5
9F3
330
3EE
100
AcDbEntity
  8
0
100
AcDbLine
 10
63.19550908613402
 20
80.77844161421663
 30
0.0
 11
64.69550908613402
 21
80.77844161421663
 31
0.0
  0
LINE
  5
9F4
330
3EE
100
AcDbEntity
  8
0
100
AcDbLine
 10
64.69550908613402
 20
80.77844161421663
 30
0.0
 11
64.69550908613402
 21
95.77844161421663
 31
0.0
  0
LINE
  5
9F5
330
3EE
100
AcDbEntity
  8
0
100
AcDbLine
 10
64.69550908613402
 20
95.77844161421663
 30
0.0
 11
66.19550908613402
 21
95.77844161421663
 31
0.0
  0
LINE
  5
9F6
330
3EE
100
AcDbEntity
  8
0
100
AcDbLine
 10
66.19550908613402
 20
95.77844161421663
 30
0.0
 11
66.19550908613402
 21
80.77844161421663
 31
0.0
  0
LINE
  5
9F7
330
3EE
100
AcDbEntity
  8
0
100
AcDbLine
 10
66.19550908613402
 20
80.77844161421663
 30
0.0
 11
66.19550908613402
 21
79.27844161421663
 31
0.0
  0
LWPOLYLINE
  5
9F8
330
3EE
100
AcDbEntity
  8
0
 62
     3
100
AcDbPolyline
 90
        8
 70
     1
 43
0.0
 10
6.999952373723168
 20
100.9771227752245
 10
6.999952373723154
 20
94.17863004209465
 42
0.414213562373095
 10
7.999952373723154
 20
93.17863004209465
 10
19.58968657748944
 20
93.17863004209465
 42
0.414213562373095
 10
20.58968657748944
 20
94.17863004209465
 10
20.58968657748945
 20
100.9771227752245
 42
0.414213562373095
 10
19.58968657748945
 20
101.9771227752245
 10
7.999952373723168
 20
101.9771227752245
 42
0.414213562373095
  0
LWPOLYLINE
  5
9F9
330
3EE
100
AcDbEntity
  8
0
100
AcDbPolyline
 90
        4
 70
     1
 43
0.0
 10
7.999952373723168
 20
100.9771227752245
 10
7.999952373723154
 20
94.17863004209465
 10
19.58968657748944
 20
94.17863004209465
 10
19.58968657748945
 20
100.9771227752245
  0
LINE
  5
9FA
330
3EE
100
AcDbEntity
  8
0
100
AcDbLine
 10
1.275343984187536
 20
79.27844161421669
 30
0.0
 11
4.275343984187536
 21
79.27844161421669
 31
0.0
  0
LINE
  5
9FB
330
3EE
100
AcDbEntity
  8
0
100
AcDbLine
 10
-0.2246560158124637
 20
82.27844161421669
 30
0.0
 11
1.275343984187536
 21
80.77844161421669
 31
0.0
  0
LINE
  5
9FC
330
3EE
100
AcDbEntity
  8
0
100
AcDbLine
 10
1.284160017819453
 20
83.77842866044722
 30
0.0
 11
-0.2246560158124637
 21
82.27844161421669
 31
0.0
  0
LINE
  5
9FD
330
3EE
100
AcDbEntity
  8
0
100
AcDbLine
 10
1.275343984187536
 20
80.77844161421669
 30
0.0
 11
2.775343984187536
 21
80.77844161421669
 31
0.0
  0
LINE
  5
9FE
330
3EE
100
AcDbEntity
  8
0
100
AcDbLine
 10
2.775343984187536
 20
80.77844161421669
 30
0.0
 11
2.77534398418755
 21
95.77844161421669
 31
0.0
  0
LINE
  5
9FF
330
3EE
100
AcDbEntity
  8
0
100
AcDbLine
 10
2.77534398418755
 20
95.77844161421669
 30
0.0
 11
4.27534398418755
 21
95.77844161421669
 31
0.0
  0
LINE
  5
A00
330
3EE
100
AcDbEntity
  8
0
100
AcDbLine
 10
4.27534398418755
 20
95.77844161421669
 30
0.0
 11
4.275343984187536
 21
80.77844161421669
 31
0.0
  0
LINE
  5
A01
330
3EE
100
AcDbEntity
  8
0
100
AcDbLine
 10
4.275343984187536
 20
80.77844161421669
 30
0.0
 11
4.275343984187536
 21
79.27844161421669
 31
0.0
  0
LINE
  5
A02
330
3EE
100
AcDbEntity
  8
0
100
AcDbLine
 10
58.27534398418754
 20
79.27844161421666
 30
0.0
 11
55.27534398418754
 21
79.27844161421666
 31
0.0
  0
LINE
  5
A03
330
3EE
100
AcDbEntity
  8
0
100
AcDbLine
 10
59.77534398418754
 20
82.27844161421666
 30
0.0
 11
58.27534398418754
 21
80.77844161421666
 31
0.0
  0
LINE
  5
A04
330
3EE
100
AcDbEntity
  8
0
100
AcDbLine
 10
58.26652795055562
 20
83.77842866044719
 30
0.0
 11
59.77534398418754
 21
82.27844161421666
 31
0.0
  0
LINE
  5
A05
330
3EE
100
AcDbEntity
  8
0
100
AcDbLine
 10
58.27534398418754
 20
80.77844161421666
 30
0.0
 11
56.77534398418754
 21
80.77844161421666
 31
0.0
  0
LINE
  5
A06
330
3EE
100
AcDbEntity
  8
0
100
AcDbLine
 10
56.77534398418754
 20
80.77844161421666
 30
0.0
 11
56.77534398418754
 21
95.77844161421666
 31
0.0
  0
LINE
  5
A07
330
3EE
100
AcDbEntity
  8
0
100
AcDbLine
 10
56.77534398418754
 20
95.77844161421666
 30
0.0
 11
55.27534398418755
 21
95.77844161421666
 31
0.0
  0
LINE
  5
A08
330
3EE
100
AcDbEntity
  8
0
100
AcDbLine
 10
55.27534398418755
 20
95.77844161421666
 30
0.0
 11
55.27534398418754
 21
80.77844161421666
 31
0.0
  0
LINE
  5
A09
330
3EE
100
AcDbEntity
  8
0
100
AcDbLine
 10
55.27534398418754
 20
80.77844161421666
 30
0.0
 11
55.27534398418754
 21
79.27844161421666
 31
0.0
  0
LINE
  5
A0A
330
3EE
100
AcDbEntity
  8
0
 62
     3
100
AcDbLine
 10
48.94393095029273
 20
99.43157075456281
 30
0.0
 11
48.94393095029273
 21
95.60952965562555
 31
0.0
  0
LINE
  5
A0B
330
3EE
100
AcDbEntity
  8
0
 62
     3
100
AcDbLine
 10
46.94393095029273
 20
99.43157075456281
 30
0.0
 11
46.94393095029273
 21
95.60952965562555
 31
0.0
  0
ARC
  5
A0C
330
3EE
100
AcDbEntity
  8
0
 62
     3
100
AcDbCircle
 10
47.94393095029273
 20
91.02695396066972
 30
0.0
 40
4.0
100
AcDbArc
 50
113.5781784782022
 51
66.42182152179782
  0
ARC
  5
A0D
330
3EE
100
AcDbEntity
  8
0
 62
     3
100
AcDbCircle
 10
47.94393095029273
 20
99.43157075456281
 30
0.0
 40
1.0
100
AcDbArc
 50
0.0
 51
180.0
  0
CIRCLE
  5
A0E
330
3EE
100
AcDbEntity
  8
0
 62
     3
100
AcDbCircle
 10
47.94393095029273
 20
91.02695396066972
 30
0.0
 40
2.849286784184183
  0
ARC
  5
A0F
330
3EE
100
AcDbEntity
  8
0
 62
     3
100
AcDbCircle
 10
49.94393095029273
 20
95.60952965562555
 30
0.0
 40
1.0
100
AcDbArc
 50
180.0
 51
246.4218215217991
  0
ARC
  5
A10
330
3EE
100
AcDbEntity
  8
0
 62
     3
100
AcDbCircle
 10
45.94393095029273
 20
95.60952965562555
 30
0.0
 40
1.0
100
AcDbArc
 50
293.5781784782006
 51
0.0
  0
LINE
  5
A11
330
3EE
100
AcDbEntity
  8
0
 62
     3
100
AcDbLine
 10
47.69393095029273
 20
96.02695396066972
 30
0.0
 11
47.69393095029273
 21
99.43157075456281
 31
0.0
  0
ARC
  5
A12
330
3EE
100
AcDbEntity
  8
0
 62
     3
100
AcDbCircle
 10
47.94393095029273
 20
99.43157075456281
 30
0.0
 40
0.25
100
AcDbArc
 50
0.0
 51
180.0
  0
LINE
  5
A13
330
3EE
100
AcDbEntity
  8
0
 62
     3
100
AcDbLine
 10
48.19393095029273
 20
99.43157075456281
 30
0.0
 11
48.19393095029273
 21
96.02695396066972
 31
0.0
  0
ARC
  5
A14
330
3EE
100
AcDbEntity
  8
0
 62
     3
100
AcDbCircle
 10
47.94393095029273
 20
96.02695396066972
 30
0.0
 40
0.25
100
AcDbArc
 50
180.0
 51
0.0
  0
LWPOLYLINE
  5
A15
330
3EE
100
AcDbEntity
  8
0
 62
     3
100
AcDbPolyline
 90
        8
 70
     1
 43
0.0
 10
22.62141442964539
 20
100.9771227752245
 10
22.62141442964539
 20
94.17863004209465
 42
0.414213562373095
 10
23.62141442964539
 20
93.17863004209465
 10
41.61885768664282
 20
93.17863004209465
 42
0.414213562373095
 10
42.61885768664282
 20
94.17863004209465
 10
42.61885768664282
 20
100.9771227752245
 42
0.414213562373095
 10
41.61885768664282
 20
101.9771227752245
 10
23.62141442964539
 20
101.9771227752245
 42
0.414213562373095
  0
CIRCLE
  5
A16
330
3EE
100
AcDbEntity
  8
0
 62
     3
100
AcDbCircle
 10
27.89097575280061
 20
97.57787640865959
 30
0.0
 40
1.5
  0
CIRCLE
  5
A17
330
3EE
100
AcDbEntity
  8
0
 62
     3
100
AcDbCircle
 10
37.3492963634876
 20
97.57787640865959
 30
0.0
 40
1.5
  0
LWPOLYLINE
  5
A18
330
3EE
100
AcDbEntity
  8
0
 62
     3
100
AcDbPolyline
 90
        8
 70
     1
 43
0.0
 10
6.999952373723154
 20
90.37904511178212
 10
6.999952373723154
 20
67.89893111687118
 42
0.414213562373095
 10
7.999952373723154
 20
66.89893111687118
 10
41.6188576866428
 20
66.89893111687118
 42
0.414213562373095
 10
42.6188576866428
 20
67.89893111687118
 10
42.6188576866428
 20
90.37904511178212
 42
0.414213562373095
 10
41.6188576866428
 20
91.37904511178212
 10
7.999952373723154
 20
91.37904511178212
 42
0.414213562373095
  0
LINE
  5
A19
330
3EE
100
AcDbEntity
  8
0
100
AcDbLine
 10
120.195509086134
 20
107.2784416142166
 30
0.0
 11
120.1866930525021
 21
83.77842866044716
 31
0.0
  0
LINE
  5
A1A
330
3EE
100
AcDbEntity
  8
0
100
AcDbLine
 10
120.195509086134
 20
79.27844161421663
 30
0.0
 11
120.195509086134
 21
64.27844161421663
 31
0.0
  0
LINE
  5
A1B
330
3EE
100
AcDbEntity
  8
0
100
AcDbLine
 10
63.19550908613402
 20
107.2784416142166
 30
0.0
 11
63.20432511976594
 21
83.77842866044716
 31
0.0
  0
LINE
  5
A1C
330
3EE
100
AcDbEntity
  8
0
100
AcDbLine
 10
63.19550908613402
 20
79.27844161421663
 30
0.0
 11
63.19550908613402
 21
64.27844161421663
 31
0.0
  0
LINE
  5
A1D
330
3EE
100
AcDbEntity
  8
0
100
AcDbLine
 10
58.27534591212473
 20
107.2784416142167
 30
0.0
 11
58.26652795055562
 21
83.77842866044719
 31
0.0
  0
LINE
  5
A1E
330
3EE
100
AcDbEntity
  8
0
100
AcDbLine
 10
58.27534398418754
 20
79.27844161421666
 30
0.0
 11
58.27534398418754
 21
64.27844161421666
 31
0.0
  0
LINE
  5
A1F
330
3EE
100
AcDbEntity
  8
0
100
AcDbLine
 10
1.275345912124727
 20
107.2784416142167
 30
0.0
 11
1.284160017819453
 21
83.77842866044722
 31
0.0
  0
LINE
  5
A20
330
3EE
100
AcDbEntity
  8
0
100
AcDbLine
 10
1.275343984187536
 20
79.27844161421669
 30
0.0
 11
1.275343984187536
 21
64.27844161421666
 31
0.0
  0
LINE
  5
AEB
330
3EE
100
AcDbEntity
  8
0
  6
CONTINUOUS
 62
     7
100
AcDbLine
 10
135.6303309202
 20
78.61072476943292
 30
0.0
 11
135.6303309202
 21
75.61072476943292
 31
0.0
  0
ARC
  5
AEC
330
3EE
100
AcDbEntity
  8
0
  6
CONTINUOUS
 62
     7
100
AcDbCircle
 10
135.6303309202
 20
78.61072476943292
 30
0.0
 40
3.0
100
AcDbArc
 50
180.0
 51
270.0
  0
LINE
  5
AED
330
3EE
100
AcDbEntity
  8
0
  6
CONTINUOUS
 62
     7
100
AcDbLine
 10
138.6303309202
 20
83.91072476943292
 30
0.0
 11
132.6303309202
 21
83.91072476943292
 31
0.0
  0
LINE
  5
AEE
330
3EE
100
AcDbEntity
  8
0
  6
CONTINUOUS
 62
     7
100
AcDbLine
 10
138.6303309202
 20
85.71072476943291
 30
0.0
 11
138.6303309202
 21
83.91072476943292
 31
0.0
  0
LINE
  5
AEF
330
3EE
100
AcDbEntity
  8
0
  6
CONTINUOUS
 62
     7
100
AcDbLine
 10
132.6303309202
 20
85.71072476943291
 30
0.0
 11
138.6303309202
 21
85.71072476943291
 31
0.0
  0
LINE
  5
AF0
330
3EE
100
AcDbEntity
  8
0
  6
CONTINUOUS
 62
     7
100
AcDbLine
 10
138.6303309202
 20
87.51072476943293
 30
0.0
 11
132.6303309202
 21
87.51072476943293
 31
0.0
  0
LINE
  5
AF1
330
3EE
100
AcDbEntity
  8
0
  6
CONTINUOUS
 62
     7
100
AcDbLine
 10
138.6303309202
 20
89.31072476943291
 30
0.0
 11
138.6303309202
 21
87.51072476943293
 31
0.0
  0
LINE
  5
AF2
330
3EE
100
AcDbEntity
  8
0
  6
CONTINUOUS
 62
     7
100
AcDbLine
 10
132.6303309202
 20
89.31072476943291
 30
0.0
 11
138.6303309202
 21
89.31072476943291
 31
0.0
  0
ARC
  5
AF3
330
3EE
100
AcDbEntity
  8
0
  6
CONTINUOUS
 62
     7
100
AcDbCircle
 10
135.6303309202
 20
94.61072476943292
 30
0.0
 40
3.0
100
AcDbArc
 50
90.0
 51
180.0
  0
LINE
  5
AF4
330
3EE
100
AcDbEntity
  8
0
  6
CONTINUOUS
 62
     7
100
AcDbLine
 10
135.6303309202
 20
97.61072476943292
 30
0.0
 11
135.6303309202
 21
94.61072476943292
 31
0.0
  0
LINE
  5
AF5
330
3EE
100
AcDbEntity
  8
0
  6
CONTINUOUS
 62
     7
100
AcDbLine
 10
135.6303309202
 20
94.61072476943292
 30
0.0
 11
142.6303309202
 21
94.61072476943292
 31
0.0
  0
LINE
  5
AF6
330
3EE
100
AcDbEntity
  8
0
  6
CONTINUOUS
 62
     7
100
AcDbLine
 10
142.6303309202
 20
94.61072476943292
 30
0.0
 11
142.6303309202
 21
97.61072476943292
 31
0.0
  0
LINE
  5
AF7
330
3EE
100
AcDbEntity
  8
0
  6
CONTINUOUS
 62
     7
100
AcDbLine
 10
148.6303309202
 20
97.61072476943292
 30
0.0
 11
148.6303309202
 21
94.61072476943292
 31
0.0
  0
LINE
  5
AF8
330
3EE
100
AcDbEntity
  8
0
  6
CONTINUOUS
 62
     7
100
AcDbLine
 10
148.6303309202
 20
94.61072476943292
 30
0.0
 11
154.6303309202
 21
94.61072476943292
 31
0.0
  0
LINE
  5
AF9
330
3EE
100
AcDbEntity
  8
0
  6
CONTINUOUS
 62
     7
100
AcDbLine
 10
154.6303309202
 20
94.61072476943292
 30
0.0
 11
154.6303309202
 21
97.61072476943292
 31
0.0
  0
LINE
  5
AFA
330
3EE
100
AcDbEntity
  8
0
  6
CONTINUOUS
 62
     7
100
AcDbLine
 10
160.6303309202
 20
97.61072476943292
 30
0.0
 11
160.6303309202
 21
94.61072476943292
 31
0.0
  0
LINE
  5
AFB
330
3EE
100
AcDbEntity
  8
0
  6
CONTINUOUS
 62
     7
100
AcDbLine
 10
160.6303309202
 20
94.61072476943292
 30
0.0
 11
166.6303309202
 21
94.61072476943292
 31
0.0
  0
LINE
  5
AFC
330
3EE
100
AcDbEntity
  8
0
  6
CONTINUOUS
 62
     7
100
AcDbLine
 10
166.6303309202
 20
94.61072476943292
 30
0.0
 11
166.6303309202
 21
97.61072476943292
 31
0.0
  0
LINE
  5
AFD
330
3EE
100
AcDbEntity
  8
0
  6
CONTINUOUS
 62
     7
100
AcDbLine
 10
172.6303309202
 20
97.61072476943292
 30
0.0
 11
172.6303309202
 21
94.61072476943292
 31
0.0
  0
LINE
  5
AFE
330
3EE
100
AcDbEntity
  8
0
  6
CONTINUOUS
 62
     7
100
AcDbLine
 10
172.6303309202
 20
94.61072476943292
 30
0.0
 11
178.6303309202
 21
94.61072476943292
 31
0.0
  0
LINE
  5
AFF
330
3EE
100
AcDbEntity
  8
0
  6
CONTINUOUS
 62
     7
100
AcDbLine
 10
172.6303309202
 20
89.31072476943291
 30
0.0
 11
178.6303309202
 21
89.31072476943291
 31
0.0
  0
LINE
  5
B00
330
3EE
100
AcDbEntity
  8
0
  6
CONTINUOUS
 62
     7
100
AcDbLine
 10
172.6303309202
 20
87.51072476943293
 30
0.0
 11
172.6303309202
 21
89.31072476943291
 31
0.0
  0
LINE
  5
B01
330
3EE
100
AcDbEntity
  8
0
  6
CONTINUOUS
 62
     7
100
AcDbLine
 10
178.6303309202
 20
87.51072476943293
 30
0.0
 11
172.6303309202
 21
87.51072476943293
 31
0.0
  0
LINE
  5
B02
330
3EE
100
AcDbEntity
  8
0
  6
CONTINUOUS
 62
     7
100
AcDbLine
 10
172.6303309202
 20
85.71072476943291
 30
0.0
 11
178.6303309202
 21
85.71072476943291
 31
0.0
  0
LINE
  5
B03
330
3EE
100
AcDbEntity
  8
0
  6
CONTINUOUS
 62
     7
100
AcDbLine
 10
172.6303309202
 20
83.91072476943292
 30
0.0
 11
172.6303309202
 21
85.71072476943291
 31
0.0
  0
LINE
  5
B04
330
3EE
100
AcDbEntity
  8
0
  6
CONTINUOUS
 62
     7
100
AcDbLine
 10
178.6303309202
 20
83.91072476943292
 30
0.0
 11
172.6303309202
 21
83.91072476943292
 31
0.0
  0
LINE
  5
B05
330
3EE
100
AcDbEntity
  8
0
  6
CONTINUOUS
 62
     7
100
AcDbLine
 10
178.6303309202
 20
78.61072476943292
 30
0.0
 11
172.6303309202
 21
78.61072476943292
 31
0.0
  0
LINE
  5
B06
330
3EE
100
AcDbEntity
  8
0
  6
CONTINUOUS
 62
     7
100
AcDbLine
 10
172.6303309202
 20
78.61072476943292
 30
0.0
 11
172.6303309202
 21
75.61072476943292
 31
0.0
  0
LINE
  5
B07
330
3EE
100
AcDbEntity
  8
0
  6
CONTINUOUS
 62
     7
100
AcDbLine
 10
166.6303309202
 20
75.61072476943292
 30
0.0
 11
166.6303309202
 21
78.61072476943292
 31
0.0
  0
LINE
  5
B08
330
3EE
100
AcDbEntity
  8
0
  6
CONTINUOUS
 62
     7
100
AcDbLine
 10
166.6303309202
 20
78.61072476943292
 30
0.0
 11
160.6303309202
 21
78.61072476943292
 31
0.0
  0
LINE
  5
B09
330
3EE
100
AcDbEntity
  8
0
  6
CONTINUOUS
 62
     7
100
AcDbLine
 10
160.6303309202
 20
78.61072476943292
 30
0.0
 11
160.6303309202
 21
75.61072476943292
 31
0.0
  0
LINE
  5
B0A
330
3EE
100
AcDbEntity
  8
0
  6
CONTINUOUS
 62
     7
100
AcDbLine
 10
154.6303309202
 20
75.61072476943292
 30
0.0
 11
154.6303309202
 21
78.61072476943292
 31
0.0
  0
LINE
  5
B0B
330
3EE
100
AcDbEntity
  8
0
  6
CONTINUOUS
 62
     7
100
AcDbLine
 10
154.6303309202
 20
78.61072476943292
 30
0.0
 11
148.6303309202
 21
78.61072476943292
 31
0.0
  0
LINE
  5
B0C
330
3EE
100
AcDbEntity
  8
0
  6
CONTINUOUS
 62
     7
100
AcDbLine
 10
148.6303309202
 20
78.61072476943292
 30
0.0
 11
148.6303309202
 21
75.61072476943292
 31
0.0
  0
LINE
  5
B0D
330
3EE
100
AcDbEntity
  8
0
  6
CONTINUOUS
 62
     7
100
AcDbLine
 10
142.6303309202
 20
75.61072476943292
 30
0.0
 11
142.6303309202
 21
78.61072476943292
 31
0.0
  0
LINE
  5
B0E
330
3EE
100
AcDbEntity
  8
0
  6
CONTINUOUS
 62
     7
100
AcDbLine
 10
142.6303309202
 20
78.61072476943292
 30
0.0
 11
135.6303309202
 21
78.61072476943292
 31
0.0
  0
LINE
  5
B0F
330
3EE
100
AcDbEntity
  8
0
  6
CONTINUOUS
 62
     7
100
AcDbLine
 10
142.6303309202
 20
75.61072476943292
 30
0.0
 11
148.6303309202
 21
75.61072476943292
 31
0.0
  0
LINE
  5
B10
330
3EE
100
AcDbEntity
  8
0
  6
CONTINUOUS
 62
     7
100
AcDbLine
 10
132.6303309202
 20
83.91072476943292
 30
0.0
 11
132.6303309202
 21
78.61072476943292
 31
0.0
  0
LINE
  5
B11
330
3EE
100
AcDbEntity
  8
0
  6
CONTINUOUS
 62
     7
100
AcDbLine
 10
172.6303309202
 20
97.61072476943292
 30
0.0
 11
166.6303309202
 21
97.61072476943292
 31
0.0
  0
LINE
  5
B12
330
3EE
100
AcDbEntity
  8
0
  6
CONTINUOUS
 62
     7
100
AcDbLine
 10
178.6303309202
 20
88.81072476943291
 30
0.0
 11
178.6303309202
 21
94.11072476943292
 31
0.0
  0
LINE
  5
B13
330
3EE
100
AcDbEntity
  8
0
  6
CONTINUOUS
 62
     7
100
AcDbLine
 10
132.6303309202
 20
94.11072476943292
 30
0.0
 11
132.6303309202
 21
88.81072476943291
 31
0.0
  0
LINE
  5
B14
330
3EE
100
AcDbEntity
  8
0
  6
CONTINUOUS
 62
     7
100
AcDbLine
 10
132.6303309202
 20
87.51072476943293
 30
0.0
 11
132.6303309202
 21
85.71072476943291
 31
0.0
  0
LINE
  5
B15
330
3EE
100
AcDbEntity
  8
0
  6
CONTINUOUS
 62
     7
100
AcDbLine
 10
178.6303309202
 20
78.61072476943292
 30
0.0
 11
178.6303309202
 21
83.91072476943292
 31
0.0
  0
LINE
  5
B16
330
3EE
100
AcDbEntity
  8
0
  6
CONTINUOUS
 62
     7
100
AcDbLine
 10
178.6303309202
 20
85.71072476943291
 30
0.0
 11
178.6303309202
 21
87.51072476943293
 31
0.0
  0
LINE
  5
B17
330
3EE
100
AcDbEntity
  8
0
  6
CONTINUOUS
 62
     7
100
AcDbLine
 10
148.6303309202
 20
97.61072476943292
 30
0.0
 11
142.6303309202
 21
97.61072476943292
 31
0.0
  0
LINE
  5
B18
330
3EE
100
AcDbEntity
  8
0
  6
CONTINUOUS
 62
     7
100
AcDbLine
 10
160.6303309202
 20
97.61072476943292
 30
0.0
 11
154.6303309202
 21
97.61072476943292
 31
0.0
  0
LINE
  5
B19
330
3EE
100
AcDbEntity
  8
0
  6
CONTINUOUS
 62
     7
100
AcDbLine
 10
166.6303309202
 20
75.61072476943292
 30
0.0
 11
172.6303309202
 21
75.61072476943292
 31
0.0
  0
LINE
  5
B1A
330
3EE
100
AcDbEntity
  8
0
  6
CONTINUOUS
 62
     7
100
AcDbLine
 10
154.6303309202
 20
75.61072476943292
 30
0.0
 11
160.6303309202
 21
75.61072476943292
 31
0.0
  0
LINE
  5
B1B
330
3EE
100
AcDbEntity
  8
0
100
AcDbLine
 10
156.1303309202
 20
94.11072476943295
 30
0.0
 11
156.1303309202
 21
91.11072476943295
 31
0.0
  0
LINE
  5
B1C
330
3EE
100
AcDbEntity
  8
0
100
AcDbLine
 10
156.1303309202
 20
91.11072476943295
 30
0.0
 11
159.1303309202
 21
91.11072476943295
 31
0.0
  0
LINE
  5
B1D
330
3EE
100
AcDbEntity
  8
0
100
AcDbLine
 10
159.1303309202
 20
91.11072476943295
 30
0.0
 11
159.1303309202
 21
94.11072476943295
 31
0.0
  0
LINE
  5
B1E
330
3EE
100
AcDbEntity
  8
0
100
AcDbLine
 10
156.1303309202
 20
94.11072476943295
 30
0.0
 11
159.1303309202
 21
94.11072476943295
 31
0.0
  0
LINE
  5
B1F
330
3EE
100
AcDbEntity
  8
0
100
AcDbLine
 10
156.1303309202
 20
79.11072476943292
 30
0.0
 11
156.1303309202
 21
82.11072476943292
 31
0.0
  0
LINE
  5
B20
330
3EE
100
AcDbEntity
  8
0
100
AcDbLine
 10
156.1303309202
 20
82.11072476943292
 30
0.0
 11
159.1303309202
 21
82.11072476943292
 31
0.0
  0
LINE
  5
B21
330
3EE
100
AcDbEntity
  8
0
100
AcDbLine
 10
159.1303309202
 20
82.11072476943292
 30
0.0
 11
159.1303309202
 21
79.11072476943292
 31
0.0
  0
LINE
  5
B22
330
3EE
100
AcDbEntity
  8
0
100
AcDbLine
 10
156.1303309202
 20
79.11072476943292
 30
0.0
 11
159.1303309202
 21
79.11072476943292
 31
0.0
  0
ENDSEC
  0
SECTION
  2
OBJECTS
  0
DICTIONARY
  5
3DE
330
0
100
AcDbDictionary
  3
ACAD_GROUP
350
3DF
  3
ACAD_IMAGE_VARS
350
438
  3
ACAD_MLINESTYLE
350
3E8
  3
ACAD_SCALELIST
350
402
  3
ACDBVARIABLEDICTIONARY
350
A94
  3
APPDATA
350
437
  3
DWGPROPS
350
B23
  0
DICTIONARY
  5
3DF
102
{ACAD_REACTORS
330
3DE
102
}
330
3DE
100
AcDbDictionary
  0
RASTERVARIABLES
  5
438
102
{ACAD_REACTORS
330
3DE
102
}
330
3DE
100
AcDbRasterVariables
 90
        0
 70
     1
 71
     1
 72
     0
  0
DICTIONARY
  5
3E8
102
{ACAD_REACTORS
330
3DE
102
}
330
3DE
100
AcDbDictionary
  3
STANDARD
350
3E9
  0
DICTIONARY
  5
402
102
{ACAD_REACTORS
330
3DE
102
}
330
3DE
100
AcDbDictionary
  0
DICTIONARY
  5
A94
102
{ACAD_REACTORS
330
3DE
102
}
330
3DE
100
AcDbDictionary
  3
CANNOSCALE
350
B24
  0
DICTIONARY
  5
437
102
{ACAD_REACTORS
330
3DE
102
}
330
3DE
100
AcDbDictionary
  0
XRECORD
  5
B23
102
{ACAD_REACTORS
330
3DE
102
}
330
3DE
100
AcDbXrecord
  1
DWGPROPS COOKIE
  2

  3

  4

  6

  7

  8
Iain
  9

300
=
301
=
302
=
303
=
304
=
305
=
306
=
307
=
308
=
309
=
 40
0.0
 41
2455593.220419248
 42
2457031.985234375
  1

 90
        0
  0
MLINESTYLE
  5
3E9
102
{ACAD_REACTORS
330
3E8
102
}
330
3E8
100
AcDbMlineStyle
  2
Standard
 70
     0
  3

 62
   256
 51
90.0
 52
90.0
 71
     2
 49
0.5
 62
   256
  6
BYLAYER
 49
-0.5
 62
   256
  6
BYLAYER
  0
DICTIONARYVAR
  5
B24
102
{ACAD_REACTORS
330
A94
102
}
330
A94
100
DictionaryVariables
280
     0
  1
1:1
  0
ENDSEC
  0
EOF
