999
dxflib 3.17.0.0
  0
SECTION
  2
HEADER
  9
$ACADVER
  1
AC1015
  9
$HANDSEED
  5
FFFF
  9
$ANGBASE
 50
0.0
  9
$ANGDIR
 70
0
  9
$ATTMODE
 70
1
  9
$AUNITS
 70
0
  9
$AUPREC
 70
0
  9
$CECOLOR
 62
178
  9
$CELTSCALE
 40
1.0
  9
$CHAMFERA
 40
0.5
  9
$CHAMFERB
 40
0.5
  9
$CHAMFERC
 40
1.0
  9
$CHAMFERD
 40
0.0
  9
$CMLJUST
 70
0
  9
$CMLSCALE
 40
1.0
  9
$DIMADEC
 70
0
  9
$DIMALT
 70
0
  9
$DIMALTD
 70
2
  9
$DIMALTF
 40
25.3999999999999986
  9
$DIMALTRND
 40
0.0
  9
$DIMALTTD
 70
2
  9
$DIMALTTZ
 70
0
  9
$DIMALTU
 70
2
  9
$DIMALTZ
 70
0
  9
$DIMAPOST
  1

  9
$DIMASZ
 40
2.5
  9
$DIMATFIT
 70
3
  9
$DIMAUNIT
 70
0
  9
$DIMAZIN
 70
2
  9
$DIMBLK
  1

  9
$DIMBLK1
  1

  9
$DIMBLK2
  1

  9
$DIMCEN
 40
0.09
  9
$DIMCLRD
 70
178
  9
$DIMCLRE
 70
178
  9
$DIMDEC
 70
4
  9
$DIMDLE
 40
0.0
  9
$DIMDLI
 40
0.38
  9
$DIMDSEP
 70
46
  9
$DIMEXE
 40
1.25
  9
$DIMEXO
 40
0.625
  9
$DIMFRAC
 70
0
  9
$DIMGAP
 40
0.625
  9
$DIMJUST
 70
0
  9
$DIMLDRBLK
  1

  9
$DIMLFAC
 40
1.0
  9
$DIMLIM
 70
0
  9
$DIMLUNIT
 70
2
  9
$DIMLWD
 70
-2
  9
$DIMLWE
 70
-2
  9
$DIMPOST
  1

  9
$DIMRND
 40
0.0
  9
$DIMSAH
 70
0
  9
$DIMSCALE
 40
1.0
  9
$DIMSD1
 70
0
  9
$DIMSD2
 70
0
  9
$DIMSE1
 70
0
  9
$DIMSE2
 70
0
  9
$DIMSOXD
 70
0
  9
$DIMTAD
 70
0
  9
$DIMTDEC
 70
4
  9
$DIMTFAC
 40
1.0
  9
$DIMTIH
 70
1
  9
$DIMTIX
 70
0
  9
$DIMTM
 40
0.0
  9
$DIMTOFL
 70
0
  9
$DIMTOH
 70
1
  9
$DIMTOL
 70
0
  9
$DIMTOLJ
 70
1
  9
$DIMTP
 40
0.0
  9
$DIMTSZ
 40
0.0
  9
$DIMTVP
 40
0.0
  9
$DIMTXSTY
  7
Standard
  9
$DIMTXT
 40
4.0
  9
$DIMTZIN
 70
0
  9
$DIMUPT
 70
0
  9
$DIMZIN
 70
8
  9
$DISPSILH
 70
0
  9
$DWGCODEPAGE
  3
ANSI_1252
  9
$ELEVATION
 40
0.0
  9
$EXTMAX
 10
297.0000000000002274
 20
210.0
 30
0.0
  9
$EXTMIN
 10
0.0
 20
-0.0000000000000568
 30
0.0
  9
$FILLETRAD
 40
0.5
  9
$FILLMODE
 70
1
  9
$INSBASE
 10
0.0
 20
0.0
 30
0.0
  9
$INSUNITS
 70
4
  9
$LIMCHECK
 70
0
  9
$LIMMAX
 10
12.0
 20
9.0
  9
$LIMMIN
 10
0.0
 20
0.0
  9
$LTSCALE
 40
1.0
  9
$LUNITS
 70
2
  9
$LUPREC
 70
4
  9
$MAXACTVP
 70
64
  9
$MEASUREMENT
 70
1
  9
$MIRRTEXT
 70
0
  9
$ORTHOMODE
 70
0
  9
$PDMODE
 70
0
  9
$PDSIZE
 40
0.0
  9
$PELEVATION
 40
0.0
  9
$PEXTMAX
 10
-100000000000000000000.0
 20
-100000000000000000000.0
 30
-100000000000000000000.0
  9
$PEXTMIN
 10
100000000000000000000.0
 20
100000000000000000000.0
 30
100000000000000000000.0
  9
$PINSBASE
 10
0.0
 20
0.0
 30
0.0
  9
$PLIMCHECK
 70
0
  9
$PLIMMAX
 10
277.0
 20
202.5
  9
$PLIMMIN
 10
-20.0
 20
-7.5
  9
$PLINEGEN
 70
0
  9
$PLINEWID
 40
0.0
  9
$PROXYGRAPHICS
 70
1
  9
$PSLTSCALE
 70
1
  9
$PUCSNAME
  2

  9
$PUCSORG
 10
0.0
 20
0.0
 30
0.0
  9
$PUCSXDIR
 10
1.0
 20
0.0
 30
0.0
  9
$PUCSYDIR
 10
0.0
 20
1.0
 30
0.0
  9
$QTEXTMODE
 70
0
  9
$REGENMODE
 70
1
  9
$SHADEDGE
 70
3
  9
$SHADEDIF
 70
70
  9
$SKETCHINC
 40
0.1
  9
$SKPOLY
 70
0
  9
$SPLFRAME
 70
0
  9
$SPLINESEGS
 70
8
  9
$SPLINETYPE
 70
6
  9
$SURFTAB1
 70
6
  9
$SURFTAB2
 70
6
  9
$SURFTYPE
 70
6
  9
$SURFU
 70
6
  9
$SURFV
 70
6
  9
$TEXTSIZE
 40
0.2
  9
$TEXTSTYLE
  7
Standard
  9
$THICKNESS
 40
0.0
  9
$TILEMODE
 70
1
  9
$TRACEWID
 40
0.05
  9
$TREEDEPTH
 70
3020
  9
$UCSNAME
  2

  9
$UCSORG
 10
0.0
 20
0.0
 30
0.0
  9
$UCSXDIR
 10
1.0
 20
0.0
 30
0.0
  9
$UCSYDIR
 10
0.0
 20
1.0
 30
0.0
  9
$UNITMODE
 70
0
  9
$USERI1
 70
0
  9
$USERI2
 70
0
  9
$USERI3
 70
0
  9
$USERI4
 70
0
  9
$USERI5
 70
0
  9
$USERR1
 40
0.0
  9
$USERR2
 40
0.0
  9
$USERR3
 40
0.0
  9
$USERR4
 40
0.0
  9
$USERR5
 40
0.0
  9
$USRTIMER
 70
1
  9
$VISRETAIN
 70
1
  0
ENDSEC
  0
SECTION
  2
TABLES
  0
TABLE
  2
VPORT
  5
8
100
AcDbSymbolTable
 70
1
  0
VPORT
  5
30
100
AcDbSymbolTableRecord
100
AcDbViewportTableRecord
  2
*Active
 70
0
 10
0.0
 20
0.0
 11
1.0
 21
1.0
 12
286.3055555555554861
 22
148.5
 13
0.0
 23
0.0
 14
10.0
 24
10.0
 15
10.0
 25
10.0
 16
0.0
 26
0.0
 36
1.0
 17
0.0
 27
0.0
 37
0.0
 40
297.0
 41
1.92798353909465
 42
50.0
 43
0.0
 44
0.0
 50
0.0
 51
0.0
 71
0
 72
100
 73
1
 74
3
 75
1
 76
1
 77
0
 78
0
281
0
 65
1
110
0.0
120
0.0
130
0.0
111
1.0
121
0.0
131
0.0
112
0.0
122
1.0
132
0.0
 79
0
146
0.0
  0
ENDTAB
  0
TABLE
  2
LTYPE
  5
5
100
AcDbSymbolTable
 70
63
  0
LTYPE
  5
16
100
AcDbSymbolTableRecord
100
AcDbLinetypeTableRecord
  2
Continuous
 70
0
  3
Solid line
 72
65
 73
0
 40
0.0
  0
LTYPE
  5
31
100
AcDbSymbolTableRecord
100
AcDbLinetypeTableRecord
  2
FOUL
 70
0
  3
Foul ---- FW ---- FW ---- FW ----
 72
65
 73
2
 40
17.7800000000000011
 49
12.6999999999999993
 74
0
 49
-5.0800000000000001
 74
0
  0
LTYPE
  5
32
100
AcDbSymbolTableRecord
100
AcDbLinetypeTableRecord
  2
PHANTOM
 70
0
  3
Phantom ______  __  __  ______  __  __  ______ 
 72
65
 73
6
 40
63.5000000000000071
 49
31.75
 74
0
 49
-6.3499999999999996
 74
0
 49
6.3499999999999996
 74
0
 49
-6.3499999999999996
 74
0
 49
6.3499999999999996
 74
0
 49
-6.3499999999999996
 74
0
  0
LTYPE
  5
33
100
AcDbSymbolTableRecord
100
AcDbLinetypeTableRecord
  2
DOT2
 70
0
  3

 72
65
 73
2
 40
3.2000000000000002
 49
0.1
 74
0
 49
-3.1000000000000001
 74
0
  0
LTYPE
  5
34
100
AcDbSymbolTableRecord
100
AcDbLinetypeTableRecord
  2
SURFACE
 70
0
  3
Surface  ---- SW ---- SW ---- SW ----
 72
65
 73
2
 40
17.7800000000000011
 49
12.6999999999999993
 74
0
 49
-5.0800000000000001
 74
0
  0
LTYPE
  5
35
100
AcDbSymbolTableRecord
100
AcDbLinetypeTableRecord
  2
CUTRIGHT2
 70
0
  3
G42 reversed----\----\----\----
 72
65
 73
1
 40
5.0800000000000001
 49
5.0800000000000001
 74
0
  0
LTYPE
  5
36
100
AcDbSymbolTableRecord
100
AcDbLinetypeTableRecord
  2
DIVIDEX2
 70
0
  3

 72
65
 73
6
 40
59.9999999999999929
 49
24.0
 74
0
 49
-11.9000000000000004
 74
0
 49
0.15
 74
0
 49
-11.9000000000000004
 74
0
 49
0.15
 74
0
 49
-11.9000000000000004
 74
0
  0
LTYPE
  5
37
100
AcDbSymbolTableRecord
100
AcDbLinetypeTableRecord
  2
FENCELINE2
 70
0
  3
Fenceline square ----[]-----[]----[]-----[]----[]---
 72
65
 73
2
 40
8.8900000000000006
 49
6.3499999999999996
 74
0
 49
-2.54
 74
0
  0
LTYPE
  5
38
100
AcDbSymbolTableRecord
100
AcDbLinetypeTableRecord
  2
HIDDEN
 70
0
  3
Hidden __ __ __ __ __ __ __ __ __ __ __ __ __ __
 72
65
 73
2
 40
9.5249999999999986
 49
6.3499999999999996
 74
0
 49
-3.1749999999999998
 74
0
  0
LTYPE
  5
39
100
AcDbSymbolTableRecord
100
AcDbLinetypeTableRecord
  2
DASHDOT
 70
0
  3

 72
65
 73
4
 40
24.0
 49
12.0
 74
0
 49
-5.9500000000000002
 74
0
 49
0.1
 74
0
 49
-5.9500000000000002
 74
0
  0
LTYPE
  5
3A
100
AcDbSymbolTableRecord
100
AcDbLinetypeTableRecord
  2
DASHDOT2
 70
0
  3

 72
65
 73
4
 40
12.0
 49
6.0
 74
0
 49
-2.9500000000000002
 74
0
 49
0.1
 74
0
 49
-2.9500000000000002
 74
0
  0
LTYPE
  5
3B
100
AcDbSymbolTableRecord
100
AcDbLinetypeTableRecord
  2
BATTING
 70
0
  3
Batting SSSSSSSSSSSSSSSSSSSSSSSSSSSSSSSSSSSSSSSSSSSSSSS
 72
65
 73
2
 40
2.5425400000000002
 49
0.00254
 74
0
 49
-2.54
 74
0
  0
LTYPE
  5
15
100
AcDbSymbolTableRecord
100
AcDbLinetypeTableRecord
  2
ByLayer
 70
0
  3

 72
65
 73
0
 40
0.0
  0
LTYPE
  5
3C
100
AcDbSymbolTableRecord
100
AcDbLinetypeTableRecord
  2
DOT
 70
0
  3

 72
65
 73
2
 40
6.2999999999999998
 49
0.1
 74
0
 49
-6.2000000000000002
 74
0
  0
LTYPE
  5
3D
100
AcDbSymbolTableRecord
100
AcDbLinetypeTableRecord
  2
OVERHEAD_POWER
 70
0
  3
Overhead power ---- OHV ---- OHV ---- OHV ----
 72
65
 73
2
 40
19.0499999999999972
 49
12.6999999999999993
 74
0
 49
-6.3499999999999996
 74
0
  0
LTYPE
  5
3E
100
AcDbSymbolTableRecord
100
AcDbLinetypeTableRecord
  2
BORDER2
 70
0
  3

 72
65
 73
6
 40
21.0
 49
6.0
 74
0
 49
-3.0
 74
0
 49
6.0
 74
0
 49
-2.9500000000000002
 74
0
 49
0.1
 74
0
 49
-2.9500000000000002
 74
0
  0
LTYPE
  5
3F
100
AcDbSymbolTableRecord
100
AcDbLinetypeTableRecord
  2
ACAD_ISO05W100
 70
0
  3
ISO long-dash double-dot ____ .. ____ .. ____ . 
 72
65
 73
6
 40
33.0000000000000071
 49
24.0
 74
0
 49
-2.9500000000000002
 74
0
 49
0.1
 74
0
 49
-2.9000000000000004
 74
0
 49
0.1
 74
0
 49
-2.9500000000000002
 74
0
  0
LTYPE
  5
40
100
AcDbSymbolTableRecord
100
AcDbLinetypeTableRecord
  2
DASHEDX2
 70
0
  3

 72
65
 73
2
 40
36.0
 49
24.0
 74
0
 49
-12.0
 74
0
  0
LTYPE
  5
41
100
AcDbSymbolTableRecord
100
AcDbLinetypeTableRecord
  2
HIDDENX2
 70
0
  3
Hidden (2x) ____ ____ ____ ____ ____ ____ ____ 
 72
65
 73
2
 40
19.0499999999999972
 49
12.6999999999999993
 74
0
 49
-6.3499999999999996
 74
0
  0
LTYPE
  5
42
100
AcDbSymbolTableRecord
100
AcDbLinetypeTableRecord
  2
ACAD_ISO06W100
 70
0
  3
ISO long-dash triple-dot ____ ... ____ ... ____
 72
65
 73
8
 40
36.0000000000000071
 49
24.0
 74
0
 49
-2.9500000000000002
 74
0
 49
0.1
 74
0
 49
-2.9000000000000004
 74
0
 49
0.1
 74
0
 49
-2.9000000000000004
 74
0
 49
0.1
 74
0
 49
-2.9500000000000002
 74
0
  0
LTYPE
  5
43
100
AcDbSymbolTableRecord
100
AcDbLinetypeTableRecord
  2
BORDER
 70
0
  3

 72
65
 73
6
 40
42.0000000000000071
 49
12.0
 74
0
 49
-6.0
 74
0
 49
12.0
 74
0
 49
-5.9500000000000002
 74
0
 49
0.1
 74
0
 49
-5.9500000000000002
 74
0
  0
LTYPE
  5
44
100
AcDbSymbolTableRecord
100
AcDbLinetypeTableRecord
  2
DASHED2
 70
0
  3

 72
65
 73
2
 40
9.0
 49
6.0
 74
0
 49
-3.0
 74
0
  0
LTYPE
  5
45
100
AcDbSymbolTableRecord
100
AcDbLinetypeTableRecord
  2
ACAD_ISO10W100
 70
0
  3
ISO dash dot __ . __ . __ . __ . __ . __ . __ . 
 72
65
 73
4
 40
18.0
 49
12.0
 74
0
 49
-2.9500000000000002
 74
0
 49
0.1
 74
0
 49
-2.9500000000000002
 74
0
  0
LTYPE
  5
46
100
AcDbSymbolTableRecord
100
AcDbLinetypeTableRecord
  2
ACAD_ISO04W100
 70
0
  3
ISO long-dash dot ____ . ____ . ____ . ____ . _
 72
65
 73
4
 40
30.0
 49
24.0
 74
0
 49
-2.9500000000000002
 74
0
 49
0.1
 74
0
 49
-2.9500000000000002
 74
0
  0
LTYPE
  5
47
100
AcDbSymbolTableRecord
100
AcDbLinetypeTableRecord
  2
BORDERX2
 70
0
  3

 72
65
 73
6
 40
84.0
 49
24.0
 74
0
 49
-12.0
 74
0
 49
24.0
 74
0
 49
-11.9499999999999993
 74
0
 49
0.1
 74
0
 49
-11.9499999999999993
 74
0
  0
LTYPE
  5
48
100
AcDbSymbolTableRecord
100
AcDbLinetypeTableRecord
  2
TRACKS
 70
0
  3
Tracks -|-|-|-|-|-|-|-|-|-|-|-|-|-|-|-|-|-|-|-|-|-|-|-|-
 72
65
 73
1
 40
3.8100000000000001
 49
3.8100000000000001
 74
0
  0
LTYPE
  5
49
100
AcDbSymbolTableRecord
100
AcDbLinetypeTableRecord
  2
CUTLEFT2
 70
0
  3
G41 reversed----/----/----/----
 72
65
 73
1
 40
5.0800000000000001
 49
5.0800000000000001
 74
0
  0
LTYPE
  5
14
100
AcDbSymbolTableRecord
100
AcDbLinetypeTableRecord
  2
ByBlock
 70
0
  3

 72
65
 73
0
 40
0.0
  0
LTYPE
  5
4A
100
AcDbSymbolTableRecord
100
AcDbLinetypeTableRecord
  2
PHANTOMX2
 70
0
  3
Phantom (2x) ____________    ____    ____   _
 72
65
 73
6
 40
127.0000000000000142
 49
63.5
 74
0
 49
-12.6999999999999993
 74
0
 49
12.6999999999999993
 74
0
 49
-12.6999999999999993
 74
0
 49
12.6999999999999993
 74
0
 49
-12.6999999999999993
 74
0
  0
LTYPE
  5
4B
100
AcDbSymbolTableRecord
100
AcDbLinetypeTableRecord
  2
WATER
 70
0
  3
Water ---- W ---- W ---- W ----
 72
65
 73
2
 40
16.509999999999998
 49
12.6999999999999993
 74
0
 49
-3.8100000000000001
 74
0
  0
LTYPE
  5
4C
100
AcDbSymbolTableRecord
100
AcDbLinetypeTableRecord
  2
DRAINAGE
 70
0
  3
Drainage ---->---->---->----
 72
65
 73
1
 40
5.0800000000000001
 49
5.0800000000000001
 74
0
  0
LTYPE
  5
4D
100
AcDbSymbolTableRecord
100
AcDbLinetypeTableRecord
  2
ACAD_ISO07W100
 70
0
  3
ISO dot . . . . . . . . . . . . . . . . . . . . 
 72
65
 73
2
 40
3.0
 49
0.1
 74
0
 49
-2.8999999999999999
 74
0
  0
LTYPE
  5
4E
100
AcDbSymbolTableRecord
100
AcDbLinetypeTableRecord
  2
DASHDOTX2
 70
0
  3

 72
65
 73
4
 40
48.0
 49
24.0
 74
0
 49
-11.9499999999999993
 74
0
 49
0.1
 74
0
 49
-11.9499999999999993
 74
0
  0
LTYPE
  5
4F
100
AcDbSymbolTableRecord
100
AcDbLinetypeTableRecord
  2
DRAINAGE2
 70
0
  3
Drainage reversed----<----<----<----
 72
65
 73
1
 40
5.0800000000000001
 49
5.0800000000000001
 74
0
  0
LTYPE
  5
50
100
AcDbSymbolTableRecord
100
AcDbLinetypeTableRecord
  2
ACAD_ISO03W100
 70
0
  3
ISO dash space __    __    __    __    __    __
 72
65
 73
2
 40
30.0
 49
12.0
 74
0
 49
-18.0
 74
0
  0
LTYPE
  5
51
100
AcDbSymbolTableRecord
100
AcDbLinetypeTableRecord
  2
GAS_LINE
 70
0
  3
Gas line ----GAS----GAS----GAS----GAS----GAS----GAS--
 72
65
 73
2
 40
17.7800000000000011
 49
12.6999999999999993
 74
0
 49
-5.0800000000000001
 74
0
  0
LTYPE
  5
52
100
AcDbSymbolTableRecord
100
AcDbLinetypeTableRecord
  2
CUTLEFT
 70
0
  3
G41 ----\----\----\----
 72
65
 73
1
 40
5.0800000000000001
 49
5.0800000000000001
 74
0
  0
LTYPE
  5
53
100
AcDbSymbolTableRecord
100
AcDbLinetypeTableRecord
  2
FENCELINE1
 70
0
  3
Fenceline circle ----0-----0----0-----0----0-----0--
 72
65
 73
2
 40
8.8900000000000006
 49
6.3499999999999996
 74
0
 49
-2.54
 74
0
  0
LTYPE
  5
54
100
AcDbSymbolTableRecord
100
AcDbLinetypeTableRecord
  2
FOUL_RISING
 70
0
  3
Foul Water Rising ---- FWRM ---- FWRM ---- FWRM ----
 72
65
 73
2
 40
20.3200000000000003
 49
12.6999999999999993
 74
0
 49
-7.6200000000000001
 74
0
  0
LTYPE
  5
55
100
AcDbSymbolTableRecord
100
AcDbLinetypeTableRecord
  2
HIDDEN2
 70
0
  3
Hidden (.5x) _ _ _ _ _ _ _ _ _ _ _ _ _ _ _ _ _ 
 72
65
 73
2
 40
4.7624999999999993
 49
3.1749999999999998
 74
0
 49
-1.5874999999999999
 74
0
  0
LTYPE
  5
56
100
AcDbSymbolTableRecord
100
AcDbLinetypeTableRecord
  2
ACAD_ISO13W100
 70
0
  3
ISO double-dash double-dot __ __ . . __ __ . . _
 72
65
 73
8
 40
36.0000000000000071
 49
12.0
 74
0
 49
-3.0
 74
0
 49
12.0
 74
0
 49
-2.9500000000000002
 74
0
 49
0.1
 74
0
 49
-2.9000000000000004
 74
0
 49
0.1
 74
0
 49
-2.9500000000000002
 74
0
  0
LTYPE
  5
57
100
AcDbSymbolTableRecord
100
AcDbLinetypeTableRecord
  2
ACAD_ISO11W100
 70
0
  3
ISO double-dash dot __ __ . __ __ . __ __ . __ _
 72
65
 73
6
 40
33.0
 49
12.0
 74
0
 49
-3.0
 74
0
 49
12.0
 74
0
 49
-2.9500000000000002
 74
0
 49
0.1
 74
0
 49
-2.9500000000000002
 74
0
  0
LTYPE
  5
58
100
AcDbSymbolTableRecord
100
AcDbLinetypeTableRecord
  2
ACAD_ISO12W100
 70
0
  3
ISO dash double-dot __ . . __ . . __ . . __ . . 
 72
65
 73
6
 40
21.0
 49
12.0
 74
0
 49
-2.9500000000000002
 74
0
 49
0.1
 74
0
 49
-2.9000000000000004
 74
0
 49
0.1
 74
0
 49
-2.9500000000000002
 74
0
  0
LTYPE
  5
59
100
AcDbSymbolTableRecord
100
AcDbLinetypeTableRecord
  2
CENTER2
 70
0
  3

 72
65
 73
4
 40
25.0
 49
16.0
 74
0
 49
-3.0
 74
0
 49
3.0
 74
0
 49
-3.0
 74
0
  0
LTYPE
  5
5A
100
AcDbSymbolTableRecord
100
AcDbLinetypeTableRecord
  2
DIVIDE2
 70
0
  3

 72
65
 73
6
 40
15.0000000000000018
 49
6.0
 74
0
 49
-2.8999999999999999
 74
0
 49
0.15
 74
0
 49
-2.8999999999999999
 74
0
 49
0.15
 74
0
 49
-2.8999999999999999
 74
0
  0
LTYPE
  5
5B
100
AcDbSymbolTableRecord
100
AcDbLinetypeTableRecord
  2
LOW_VOLTAGE
 70
0
  3
Low Voltage ---- LV ---- LV ---- LV ----
 72
65
 73
2
 40
17.7800000000000011
 49
12.6999999999999993
 74
0
 49
-5.0800000000000001
 74
0
  0
LTYPE
  5
5C
100
AcDbSymbolTableRecord
100
AcDbLinetypeTableRecord
  2
HIGH_VOLTAGE
 70
0
  3
High Voltage  ---- HV ---- HV ---- HV ----
 72
65
 73
2
 40
17.7800000000000011
 49
12.6999999999999993
 74
0
 49
-5.0800000000000001
 74
0
  0
LTYPE
  5
5D
100
AcDbSymbolTableRecord
100
AcDbLinetypeTableRecord
  2
ELECTRIC
 70
0
  3
Electical ---- E ---- E ---- E ----
 72
65
 73
2
 40
16.509999999999998
 49
12.6999999999999993
 74
0
 49
-3.8100000000000001
 74
0
  0
LTYPE
  5
5E
100
AcDbSymbolTableRecord
100
AcDbLinetypeTableRecord
  2
DASHED
 70
0
  3

 72
65
 73
2
 40
18.0
 49
12.0
 74
0
 49
-6.0
 74
0
  0
LTYPE
  5
5F
100
AcDbSymbolTableRecord
100
AcDbLinetypeTableRecord
  2
DIVIDE
 70
0
  3

 72
65
 73
6
 40
29.9999999999999929
 49
12.0
 74
0
 49
-5.9000000000000004
 74
0
 49
0.15
 74
0
 49
-5.9000000000000004
 74
0
 49
0.15
 74
0
 49
-5.9000000000000004
 74
0
  0
LTYPE
  5
60
100
AcDbSymbolTableRecord
100
AcDbLinetypeTableRecord
  2
ACAD_ISO14W100
 70
0
  3
ISO dash triple-dot __ . . . __ . . . __ . . . _
 72
65
 73
8
 40
24.0000000000000036
 49
12.0
 74
0
 49
-2.9500000000000002
 74
0
 49
0.1
 74
0
 49
-2.9000000000000004
 74
0
 49
0.1
 74
0
 49
-2.9000000000000004
 74
0
 49
0.1
 74
0
 49
-2.9500000000000002
 74
0
  0
LTYPE
  5
61
100
AcDbSymbolTableRecord
100
AcDbLinetypeTableRecord
  2
ACAD_ISO02W100
 70
0
  3
ISO dash __ __ __ __ __ __ __ __ __ __ __ __ __
 72
65
 73
2
 40
15.0
 49
12.0
 74
0
 49
-3.0
 74
0
  0
LTYPE
  5
62
100
AcDbSymbolTableRecord
100
AcDbLinetypeTableRecord
  2
HOT_WATER_SUPPLY
 70
0
  3
Hot water supply ---- HW ---- HW ---- HW ----
 72
65
 73
2
 40
17.7800000000000011
 49
12.6999999999999993
 74
0
 49
-5.0800000000000001
 74
0
  0
LTYPE
  5
63
100
AcDbSymbolTableRecord
100
AcDbLinetypeTableRecord
  2
CENTERX2
 70
0
  3

 72
65
 73
4
 40
100.0
 49
64.0
 74
0
 49
-12.0
 74
0
 49
12.0
 74
0
 49
-12.0
 74
0
  0
LTYPE
  5
64
100
AcDbSymbolTableRecord
100
AcDbLinetypeTableRecord
  2
COMMUNICATION
 70
0
  3
Communication  ---- BT ---- BT ---- BT ----
 72
65
 73
2
 40
17.7800000000000011
 49
12.6999999999999993
 74
0
 49
-5.0800000000000001
 74
0
  0
LTYPE
  5
65
100
AcDbSymbolTableRecord
100
AcDbLinetypeTableRecord
  2
DOTX2
 70
0
  3

 72
65
 73
2
 40
12.5
 49
0.1
 74
0
 49
-12.4000000000000004
 74
0
  0
LTYPE
  5
66
100
AcDbSymbolTableRecord
100
AcDbLinetypeTableRecord
  2
PHANTOM2
 70
0
  3
Phantom (.5x) ___ _ _ ___ _ _ ___ _ _ ___ _ _
 72
65
 73
6
 40
31.7500000000000036
 49
15.875
 74
0
 49
-3.1749999999999998
 74
0
 49
3.1749999999999998
 74
0
 49
-3.1749999999999998
 74
0
 49
3.1749999999999998
 74
0
 49
-3.1749999999999998
 74
0
  0
LTYPE
  5
67
100
AcDbSymbolTableRecord
100
AcDbLinetypeTableRecord
  2
ACAD_ISO08W100
 70
0
  3
ISO long-dash short-dash ____ __ ____ __ ____ _
 72
65
 73
4
 40
36.0
 49
24.0
 74
0
 49
-3.0
 74
0
 49
6.0
 74
0
 49
-3.0
 74
0
  0
LTYPE
  5
68
100
AcDbSymbolTableRecord
100
AcDbLinetypeTableRecord
  2
CENTER
 70
0
  3

 72
65
 73
4
 40
50.0
 49
32.0
 74
0
 49
-6.0
 74
0
 49
6.0
 74
0
 49
-6.0
 74
0
  0
LTYPE
  5
69
100
AcDbSymbolTableRecord
100
AcDbLinetypeTableRecord
  2
ZIGZAG
 70
0
  3
Zig zag /\/\/\/\/\/\/\/\/\/\/\/\/\/\/\/\/\/\/\/\/\/\/\/
 72
65
 73
2
 40
5.0825399999999998
 49
0.00254
 74
0
 49
-5.0800000000000001
 74
0
  0
LTYPE
  5
6A
100
AcDbSymbolTableRecord
100
AcDbLinetypeTableRecord
  2
CUTRIGHT
 70
0
  3
G42 ----/----/-----/---
 72
65
 73
1
 40
5.0800000000000001
 49
5.0800000000000001
 74
0
  0
LTYPE
  5
6B
100
AcDbSymbolTableRecord
100
AcDbLinetypeTableRecord
  2
ACAD_ISO15W100
 70
0
  3
ISO double-dash triple-dot __ __ . . . __ __ . .
 72
65
 73
10
 40
39.0000000000000071
 49
12.0
 74
0
 49
-3.0
 74
0
 49
12.0
 74
0
 49
-2.9500000000000002
 74
0
 49
0.1
 74
0
 49
-2.9000000000000004
 74
0
 49
0.1
 74
0
 49
-2.9000000000000004
 74
0
 49
0.1
 74
0
 49
-2.9500000000000002
 74
0
  0
LTYPE
  5
6C
100
AcDbSymbolTableRecord
100
AcDbLinetypeTableRecord
  2
ACAD_ISO09W100
 70
0
  3
ISO long-dash double-short-dash ____ __ __ ____
 72
65
 73
6
 40
45.0
 49
24.0
 74
0
 49
-3.0
 74
0
 49
6.0
 74
0
 49
-3.0
 74
0
 49
6.0
 74
0
 49
-3.0
 74
0
  0
ENDTAB
  0
TABLE
  2
LAYER
  5
2
100
AcDbSymbolTable
 70
14
  0
LAYER
  5
6D
100
AcDbSymbolTableRecord
100
AcDbLayerTableRecord
  2
Title
 70
0
 62
7
420
16777215
  6
Continuous
370
25
390
F
  0
LAYER
  5
6E
100
AcDbSymbolTableRecord
100
AcDbLayerTableRecord
  2
8.Dimension line
 70
0
 62
252
420
10526884
  6
Continuous
370
0
390
F
  0
LAYER
  5
6F
100
AcDbSymbolTableRecord
100
AcDbLayerTableRecord
  2
7.Hatch
 70
0
 62
252
420
10526884
  6
Continuous
370
0
390
F
  0
LAYER
  5
70
100
AcDbSymbolTableRecord
100
AcDbLayerTableRecord
  2
Title block 2 (handy)
 70
1
 62
7
420
16777215
  6
Continuous
370
25
390
F
  0
LAYER
  5
71
100
AcDbSymbolTableRecord
100
AcDbLayerTableRecord
  2
Revision
 70
0
 62
7
420
16777215
  6
Continuous
370
25
390
F
  0
LAYER
  5
72
100
AcDbSymbolTableRecord
100
AcDbLayerTableRecord
  2
1.Outline
 70
0
 62
7
420
16777215
  6
Continuous
370
25
390
F
  0
LAYER
  5
73
100
AcDbSymbolTableRecord
100
AcDbLayerTableRecord
  2
Border
 70
0
 62
7
420
16777215
  6
Continuous
370
25
390
F
  0
LAYER
  5
74
100
AcDbSymbolTableRecord
100
AcDbLayerTableRecord
  2
9.Text
 70
0
 62
3
420
65280
  6
Continuous
370
18
390
F
  0
LAYER
  5
75
100
AcDbSymbolTableRecord
100
AcDbLayerTableRecord
  2
5.Thin line
 70
0
 62
9
420
12632256
  6
Continuous
370
0
390
F
  0
LAYER
  5
76
100
AcDbSymbolTableRecord
100
AcDbLayerTableRecord
  2
4.Note
 70
0
 62
4
420
65535
  6
Continuous
370
18
390
F
  0
LAYER
  5
77
100
AcDbSymbolTableRecord
100
AcDbLayerTableRecord
  2
6.Construction line
 70
0
 62
6
420
16711935
  6
Continuous
370
0
390
F
  0
LAYER
  5
78
100
AcDbSymbolTableRecord
100
AcDbLayerTableRecord
  2
2.Hidden
 70
0
 62
5
420
255
  6
DASHED
370
0
390
F
  0
LAYER
  5
79
100
AcDbSymbolTableRecord
100
AcDbLayerTableRecord
  2
3.Center
 70
0
 62
1
420
16711680
  6
CENTER
370
13
390
F
  0
LAYER
  5
10
100
AcDbSymbolTableRecord
100
AcDbLayerTableRecord
  2
0
 70
0
 62
7
420
16777215
  6
Continuous
370
25
390
F
  0
ENDTAB
  0
TABLE
  2
STYLE
  5
3
100
AcDbSymbolTable
 70
44
  0
STYLE
  5
7A
100
AcDbSymbolTableRecord
100
AcDbTextStyleTableRecord
  2
Standard
 70
0
 40
0.0
 41
1.0
 50
0.0
 71
0
 42
2.5
  3

  4

1001
ACAD
1000
txt
1071
0
  0
STYLE
  5
7B
100
AcDbSymbolTableRecord
100
AcDbTextStyleTableRecord
  2
textstyle0
 70
0
 40
0.0
 41
1.0
 50
0.0
 71
0
 42
1.905
  3

  4

1001
ACAD
1000
Comic Sans MS
1071
0
  0
STYLE
  5
7C
100
AcDbSymbolTableRecord
100
AcDbTextStyleTableRecord
  2
textstyle1
 70
0
 40
0.0
 41
1.0
 50
0.0
 71
0
 42
1.8
  3

  4

1001
ACAD
1000
Arial
1071
0
  0
STYLE
  5
7D
100
AcDbSymbolTableRecord
100
AcDbTextStyleTableRecord
  2
textstyle2
 70
0
 40
0.0
 41
1.0
 50
0.0
 71
0
 42
1.8
  3

  4

1001
ACAD
1000
Arial
1071
0
  0
STYLE
  5
7E
100
AcDbSymbolTableRecord
100
AcDbTextStyleTableRecord
  2
textstyle3
 70
0
 40
0.0
 41
1.0
 50
0.0
 71
0
 42
1.8
  3

  4

1001
ACAD
1000
Arial
1071
0
  0
STYLE
  5
7F
100
AcDbSymbolTableRecord
100
AcDbTextStyleTableRecord
  2
textstyle4
 70
0
 40
0.0
 41
1.0
 50
0.0
 71
0
 42
1.8
  3

  4

1001
ACAD
1000
Arial
1071
0
  0
STYLE
  5
80
100
AcDbSymbolTableRecord
100
AcDbTextStyleTableRecord
  2
textstyle5
 70
0
 40
0.0
 41
1.0
 50
0.0
 71
0
 42
1.8
  3

  4

1001
ACAD
1000
Arial
1071
0
  0
STYLE
  5
81
100
AcDbSymbolTableRecord
100
AcDbTextStyleTableRecord
  2
textstyle6
 70
0
 40
0.0
 41
1.0
 50
0.0
 71
0
 42
1.8
  3

  4

1001
ACAD
1000
Arial
1071
0
  0
STYLE
  5
82
100
AcDbSymbolTableRecord
100
AcDbTextStyleTableRecord
  2
textstyle7
 70
0
 40
0.0
 41
1.0
 50
0.0
 71
0
 42
1.8
  3

  4

1001
ACAD
1000
Arial
1071
0
  0
STYLE
  5
83
100
AcDbSymbolTableRecord
100
AcDbTextStyleTableRecord
  2
textstyle8
 70
0
 40
0.0
 41
1.0
 50
0.0
 71
0
 42
1.8
  3

  4

1001
ACAD
1000
Arial
1071
0
  0
STYLE
  5
84
100
AcDbSymbolTableRecord
100
AcDbTextStyleTableRecord
  2
textstyle9
 70
0
 40
0.0
 41
1.0
 50
0.0
 71
0
 42
1.8
  3

  4

1001
ACAD
1000
Arial
1071
0
  0
STYLE
  5
85
100
AcDbSymbolTableRecord
100
AcDbTextStyleTableRecord
  2
textstyle10
 70
0
 40
0.0
 41
1.0
 50
0.0
 71
0
 42
1.8
  3

  4

1001
ACAD
1000
Arial
1071
0
  0
STYLE
  5
86
100
AcDbSymbolTableRecord
100
AcDbTextStyleTableRecord
  2
textstyle11
 70
0
 40
0.0
 41
1.0
 50
0.0
 71
0
 42
1.8
  3

  4

1001
ACAD
1000
Arial
1071
0
  0
STYLE
  5
87
100
AcDbSymbolTableRecord
100
AcDbTextStyleTableRecord
  2
textstyle12
 70
0
 40
0.0
 41
1.0
 50
0.0
 71
0
 42
1.8
  3

  4

1001
ACAD
1000
Arial
1071
0
  0
STYLE
  5
88
100
AcDbSymbolTableRecord
100
AcDbTextStyleTableRecord
  2
textstyle13
 70
0
 40
0.0
 41
1.0
 50
0.0
 71
0
 42
3.0
  3

  4

1001
ACAD
1000
Century Gothic
1071
0
  0
STYLE
  5
89
100
AcDbSymbolTableRecord
100
AcDbTextStyleTableRecord
  2
textstyle14
 70
0
 40
0.0
 41
1.0
 50
0.0
 71
0
 42
3.0
  3

  4

1001
ACAD
1000
Century Gothic
1071
0
  0
STYLE
  5
8A
100
AcDbSymbolTableRecord
100
AcDbTextStyleTableRecord
  2
textstyle15
 70
0
 40
0.0
 41
1.0
 50
0.0
 71
0
 42
3.0
  3

  4

1001
ACAD
1000
Century Gothic
1071
0
  0
STYLE
  5
8B
100
AcDbSymbolTableRecord
100
AcDbTextStyleTableRecord
  2
textstyle16
 70
0
 40
0.0
 41
1.0
 50
0.0
 71
0
 42
3.0
  3

  4

1001
ACAD
1000
Century Gothic
1071
0
  0
STYLE
  5
8C
100
AcDbSymbolTableRecord
100
AcDbTextStyleTableRecord
  2
textstyle17
 70
0
 40
0.0
 41
1.0
 50
0.0
 71
0
 42
3.0
  3

  4

1001
ACAD
1000
Century Gothic
1071
0
  0
STYLE
  5
8D
100
AcDbSymbolTableRecord
100
AcDbTextStyleTableRecord
  2
textstyle18
 70
0
 40
0.0
 41
1.0
 50
0.0
 71
0
 42
1.8
  3

  4

1001
ACAD
1000
Arial
1071
0
  0
STYLE
  5
8E
100
AcDbSymbolTableRecord
100
AcDbTextStyleTableRecord
  2
textstyle19
 70
0
 40
0.0
 41
1.0
 50
0.0
 71
0
 42
1.8
  3

  4

1001
ACAD
1000
Arial
1071
0
  0
STYLE
  5
8F
100
AcDbSymbolTableRecord
100
AcDbTextStyleTableRecord
  2
textstyle20
 70
0
 40
0.0
 41
1.0
 50
0.0
 71
0
 42
1.8
  3

  4

1001
ACAD
1000
Arial
1071
0
  0
STYLE
  5
90
100
AcDbSymbolTableRecord
100
AcDbTextStyleTableRecord
  2
textstyle21
 70
0
 40
0.0
 41
1.0
 50
0.0
 71
0
 42
1.8
  3

  4

1001
ACAD
1000
Arial
1071
0
  0
STYLE
  5
91
100
AcDbSymbolTableRecord
100
AcDbTextStyleTableRecord
  2
textstyle22
 70
0
 40
0.0
 41
1.0
 50
0.0
 71
0
 42
1.8
  3

  4

1001
ACAD
1000
Arial
1071
0
  0
STYLE
  5
92
100
AcDbSymbolTableRecord
100
AcDbTextStyleTableRecord
  2
textstyle23
 70
0
 40
0.0
 41
1.0
 50
0.0
 71
0
 42
1.8
  3

  4

1001
ACAD
1000
Arial
1071
0
  0
STYLE
  5
93
100
AcDbSymbolTableRecord
100
AcDbTextStyleTableRecord
  2
textstyle24
 70
0
 40
0.0
 41
1.0
 50
0.0
 71
0
 42
3.0
  3

  4

1001
ACAD
1000
Century Gothic
1071
0
  0
STYLE
  5
94
100
AcDbSymbolTableRecord
100
AcDbTextStyleTableRecord
  2
textstyle25
 70
0
 40
0.0
 41
1.0
 50
0.0
 71
0
 42
3.0
  3

  4

1001
ACAD
1000
Century Gothic
1071
0
  0
STYLE
  5
95
100
AcDbSymbolTableRecord
100
AcDbTextStyleTableRecord
  2
textstyle26
 70
0
 40
0.0
 41
1.0
 50
0.0
 71
0
 42
3.0
  3

  4

1001
ACAD
1000
Century Gothic
1071
0
  0
STYLE
  5
96
100
AcDbSymbolTableRecord
100
AcDbTextStyleTableRecord
  2
textstyle27
 70
0
 40
0.0
 41
1.0
 50
0.0
 71
0
 42
3.0
  3

  4

1001
ACAD
1000
Century Gothic
1071
0
  0
STYLE
  5
97
100
AcDbSymbolTableRecord
100
AcDbTextStyleTableRecord
  2
textstyle28
 70
0
 40
0.0
 41
1.0
 50
0.0
 71
0
 42
3.0
  3

  4

1001
ACAD
1000
Century Gothic
1071
0
  0
STYLE
  5
98
100
AcDbSymbolTableRecord
100
AcDbTextStyleTableRecord
  2
textstyle29
 70
0
 40
0.0
 41
1.0
 50
0.0
 71
0
 42
3.0
  3

  4

1001
ACAD
1000
Century Gothic
1071
0
  0
STYLE
  5
99
100
AcDbSymbolTableRecord
100
AcDbTextStyleTableRecord
  2
textstyle30
 70
0
 40
0.0
 41
1.0
 50
0.0
 71
0
 42
3.0
  3

  4

1001
ACAD
1000
Century Gothic
1071
0
  0
STYLE
  5
9A
100
AcDbSymbolTableRecord
100
AcDbTextStyleTableRecord
  2
textstyle31
 70
0
 40
0.0
 41
1.0
 50
0.0
 71
0
 42
3.0
  3

  4

1001
ACAD
1000
Century Gothic
1071
0
  0
STYLE
  5
9B
100
AcDbSymbolTableRecord
100
AcDbTextStyleTableRecord
  2
textstyle32
 70
0
 40
0.0
 41
1.0
 50
0.0
 71
0
 42
3.0
  3

  4

1001
ACAD
1000
Century Gothic
1071
0
  0
STYLE
  5
9C
100
AcDbSymbolTableRecord
100
AcDbTextStyleTableRecord
  2
textstyle33
 70
0
 40
0.0
 41
1.0
 50
0.0
 71
0
 42
1.905
  3

  4

1001
ACAD
1000
Comic Sans MS
1071
0
  0
STYLE
  5
9D
100
AcDbSymbolTableRecord
100
AcDbTextStyleTableRecord
  2
textstyle34
 70
0
 40
0.0
 41
1.0
 50
0.0
 71
0
 42
1.905
  3

  4

1001
ACAD
1000
Comic Sans MS
1071
0
  0
STYLE
  5
9E
100
AcDbSymbolTableRecord
100
AcDbTextStyleTableRecord
  2
textstyle35
 70
0
 40
0.0
 41
1.0
 50
0.0
 71
0
 42
1.905
  3

  4

1001
ACAD
1000
Comic Sans MS
1071
0
  0
STYLE
  5
9F
100
AcDbSymbolTableRecord
100
AcDbTextStyleTableRecord
  2
textstyle36
 70
0
 40
0.0
 41
1.0
 50
0.0
 71
0
 42
1.905
  3

  4

1001
ACAD
1000
Comic Sans MS
1071
0
  0
STYLE
  5
A0
100
AcDbSymbolTableRecord
100
AcDbTextStyleTableRecord
  2
textstyle37
 70
0
 40
0.0
 41
1.0
 50
0.0
 71
0
 42
1.905
  3

  4

1001
ACAD
1000
Comic Sans MS
1071
0
  0
STYLE
  5
A1
100
AcDbSymbolTableRecord
100
AcDbTextStyleTableRecord
  2
textstyle38
 70
0
 40
0.0
 41
1.0
 50
0.0
 71
0
 42
1.905
  3

  4

1001
ACAD
1000
Comic Sans MS
1071
0
  0
STYLE
  5
A2
100
AcDbSymbolTableRecord
100
AcDbTextStyleTableRecord
  2
textstyle39
 70
0
 40
0.0
 41
1.0
 50
0.0
 71
0
 42
1.905
  3

  4

1001
ACAD
1000
Comic Sans MS
1071
0
  0
STYLE
  5
A3
100
AcDbSymbolTableRecord
100
AcDbTextStyleTableRecord
  2
textstyle40
 70
0
 40
0.0
 41
1.0
 50
0.0
 71
0
 42
1.905
  3

  4

1001
ACAD
1000
Comic Sans MS
1071
0
  0
STYLE
  5
A4
100
AcDbSymbolTableRecord
100
AcDbTextStyleTableRecord
  2
textstyle41
 70
0
 40
0.0
 41
1.0
 50
0.0
 71
0
 42
1.905
  3

  4

1001
ACAD
1000
Comic Sans MS
1071
0
  0
STYLE
  5
A5
100
AcDbSymbolTableRecord
100
AcDbTextStyleTableRecord
  2
textstyle42
 70
0
 40
0.0
 41
1.0
 50
0.0
 71
0
 42
1.905
  3

  4

1001
ACAD
1000
Comic Sans MS
1071
0
  0
ENDTAB
  0
TABLE
  2
VIEW
  5
6
100
AcDbSymbolTable
 70
0
  0
ENDTAB
  0
TABLE
  2
UCS
  5
7
100
AcDbSymbolTable
 70
0
  0
ENDTAB
  0
TABLE
  2
APPID
  5
9
100
AcDbSymbolTable
 70
1
  0
APPID
  5
12
100
AcDbSymbolTableRecord
100
AcDbRegAppTableRecord
  2
ACAD
 70
0
  0
APPID
  5
A6
100
AcDbSymbolTableRecord
100
AcDbRegAppTableRecord
  2
QCAD
 70
0
  0
ENDTAB
  0
TABLE
  2
DIMSTYLE
  5
A
100
AcDbSymbolTable
 70
1
100
AcDbDimStyleTable
 71
0
  0
DIMSTYLE
105
27
100
AcDbSymbolTableRecord
100
AcDbDimStyleTableRecord
  2
Standard
 41
2.5
 42
0.625
 43
3.75
 44
1.25
 70
0
 73
0
 74
0
 77
1
 78
8
140
4.0
141
2.5
143
0.03937007874016
147
0.625
171
3
172
1
271
2
272
2
274
3
278
44
283
0
284
8
340
7A
  0
ENDTAB
  0
TABLE
  2
BLOCK_RECORD
  5
1
100
AcDbSymbolTable
 70
1
  0
BLOCK_RECORD
  5
1F
100
AcDbSymbolTableRecord
100
AcDbBlockTableRecord
  2
*Model_Space
340
22
  0
BLOCK_RECORD
  5
1B
100
AcDbSymbolTableRecord
100
AcDbBlockTableRecord
  2
*Paper_Space
340
1E
  0
BLOCK_RECORD
  5
23
100
AcDbSymbolTableRecord
100
AcDbBlockTableRecord
  2
*Paper_Space0
340
26
  0
BLOCK_RECORD
  5
A7
100
AcDbSymbolTableRecord
100
AcDbBlockTableRecord
  2
Title
340
0
  0
BLOCK_RECORD
  5
A8
100
AcDbSymbolTableRecord
100
AcDbBlockTableRecord
  2
Title block 2 (handy)
340
0
  0
BLOCK_RECORD
  5
A9
100
AcDbSymbolTableRecord
100
AcDbBlockTableRecord
  2
Revision
340
0
  0
ENDTAB
  0
ENDSEC
  0
SECTION
  2
BLOCKS
  0
BLOCK
  5
20
100
AcDbEntity
  8
0
100
AcDbBlockBegin
  2
*Model_Space
 70
0
 10
0.0
 20
0.0
 30
0.0
  3
*Model_Space
  1

  0
ENDBLK
  5
21
100
AcDbEntity
  8
0
100
AcDbBlockEnd
  0
BLOCK
  5
1C
100
AcDbEntity
 67
1
  8
0
100
AcDbBlockBegin
  2
*Paper_Space
 70
0
 10
0.0
 20
0.0
 30
0.0
  3
*Paper_Space
  1

  0
ENDBLK
  5
1D
100
AcDbEntity
 67
1
  8
0
100
AcDbBlockEnd
  0
BLOCK
  5
24
100
AcDbEntity
  8
0
100
AcDbBlockBegin
  2
*Paper_Space0
 70
0
 10
0.0
 20
0.0
 30
0.0
  3
*Paper_Space0
  1

  0
ENDBLK
  5
25
100
AcDbEntity
  8
0
100
AcDbBlockEnd
  0
BLOCK
  5
AA
100
AcDbEntity
  8
0
100
AcDbBlockBegin
  2
Title
 70
0
 10
0.0
 20
0.0
 30
0.0
  3
Title
  1

  0
LINE
  5
AB
100
AcDbEntity
  8
Title
 62
256
370
-1
 48
1.0
  6
ByLayer
100
AcDbLine
 10
-155.0
 20
29.9999999999989804
 30
0.0
 11
-155.0
 21
35.9999999999988773
 31
0.0
  0
LINE
  5
AC
100
AcDbEntity
  8
Title
 62
256
370
-1
 48
1.0
  6
ByLayer
100
AcDbLine
 10
-170.0
 20
29.9999999999987388
 30
0.0
 11
-170.0
 21
35.9999999999988205
 31
0.0
  0
LINE
  5
AD
100
AcDbEntity
  8
Title
 62
256
370
-1
 48
1.0
  6
ByLayer
100
AcDbLine
 10
-137.9999999999998863
 20
29.99999999999865
 30
0.0
 11
-138.0
 21
35.9999999999993889
 31
0.0
  0
LINE
  5
AE
100
AcDbEntity
  8
Title
 62
256
370
-1
 48
1.0
  6
ByLayer
100
AcDbLine
 10
-49.9999999999999929
 20
29.9999999999993214
 30
0.0
 11
-49.9999999999999929
 21
35.99999999999865
 31
0.0
  0
MTEXT
  5
AF
100
AcDbEntity
  8
Title
 62
256
370
-1
 48
1.0
  6
ByLayer
100
AcDbMText
 10
-148.6949180353246902
 20
32.9999999999988489
 30
0.0
 40
1.8
 41
0.0
 71
5
 72
1
  1
Quantitiy
  7
textstyle2
 50
0.0
 73
1
 44
1.0
  0
MTEXT
  5
B0
100
AcDbEntity
  8
Title
 62
256
370
-1
 48
1.0
  6
ByLayer
100
AcDbMText
 10
-164.0480687203524894
 20
32.9999999999987566
 30
0.0
 40
1.8
 41
0.0
 71
5
 72
1
  1
Item ref
  7
textstyle3
 50
0.0
 73
1
 44
1.0
  0
MTEXT
  5
B1
100
AcDbEntity
  8
Title
 62
256
370
-1
 48
1.0
  6
ByLayer
100
AcDbMText
 10
-109.9853785422227048
 20
32.9999999999988489
 30
0.0
 40
1.8
 41
0.0
 71
5
 72
1
  1
Title/Name, destination, material, dimension etc
  7
textstyle4
 50
0.0
 73
1
 44
1.0
  0
MTEXT
  5
B2
100
AcDbEntity
  8
Title
 62
256
370
-1
 48
1.0
  6
ByLayer
100
AcDbMText
 10
-36.1922564199297128
 20
32.9999999999989129
 30
0.0
 40
1.8
 41
0.0
 71
5
 72
1
  1
Article No./Reference
  7
textstyle5
 50
0.0
 73
1
 44
1.0
  0
MTEXT
  5
B3
100
AcDbEntity
  8
Title
 62
256
370
-1
 48
1.0
  6
ByLayer
100
AcDbMText
 10
-161.238768807772999
 20
27.4999999999987494
 30
0.0
 40
1.8
 41
0.0
 71
5
 72
1
  1
Designed by
  7
textstyle6
 50
0.0
 73
1
 44
1.0
  0
MTEXT
  5
B4
100
AcDbEntity
  8
Title
 62
256
370
-1
 48
1.0
  6
ByLayer
100
AcDbMText
 10
-129.8791418766523975
 20
27.4999999999987388
 30
0.0
 40
1.8
 41
0.0
 71
5
 72
1
  1
Checked by
  7
textstyle7
 50
0.0
 73
1
 44
1.0
  0
MTEXT
  5
B5
100
AcDbEntity
  8
Title
 62
256
370
-1
 48
1.0
  6
ByLayer
100
AcDbMText
 10
-96.1675429256978305
 20
27.4999999999986784
 30
0.0
 40
1.8
 41
0.0
 71
5
 72
1
  1
Approved by - date
  7
textstyle8
 50
0.0
 73
1
 44
1.0
  0
MTEXT
  5
B6
100
AcDbEntity
  8
Title
 62
256
370
-1
 48
1.0
  6
ByLayer
100
AcDbMText
 10
-66.7678926777722381
 20
27.49999999999865
 30
0.0
 40
1.8
 41
0.0
 71
5
 72
1
  1
Filename
  7
textstyle18
 50
0.0
 73
1
 44
1.0
  0
MTEXT
  5
B7
100
AcDbEntity
  8
Title
 62
256
370
-1
 48
1.0
  6
ByLayer
100
AcDbMText
 10
-45.7961421675853799
 20
27.4999999999985896
 30
0.0
 40
1.8
 41
0.0
 71
5
 72
1
  1
Date
  7
textstyle19
 50
0.0
 73
1
 44
1.0
  0
MTEXT
  5
B8
100
AcDbEntity
  8
Title
 62
256
370
-1
 48
1.0
  6
ByLayer
100
AcDbMText
 10
-15.0245082414232805
 20
27.4999999999985114
 30
0.0
 40
1.8
 41
0.0
 71
5
 72
1
  1
Scale
  7
textstyle20
 50
0.0
 73
1
 44
1.0
  0
MTEXT
  5
B9
100
AcDbEntity
  8
Title
 62
256
370
-1
 48
1.0
  6
ByLayer
100
AcDbMText
 10
-29.3323380287471203
 20
7.4999999999998153
 30
0.0
 40
1.8
 41
0.0
 71
5
 72
1
  1
Edition
  7
textstyle21
 50
0.0
 73
1
 44
1.0
  0
MTEXT
  5
BA
100
AcDbEntity
  8
Title
 62
256
370
-1
 48
1.0
  6
ByLayer
100
AcDbMText
 10
-14.2405175681453091
 20
7.4999999999999289
 30
0.0
 40
1.8
 41
0.0
 71
5
 72
1
  1
Sheet
  7
textstyle22
 50
0.0
 73
1
 44
1.0
  0
MTEXT
  5
BB
100
AcDbEntity
  8
Title
 62
256
370
-1
 48
1.0
  6
ByLayer
100
AcDbMText
 10
-155.7508340948268994
 20
14.9999999999988098
 30
0.0
 40
1.8
 41
0.0
 71
5
 72
1
  1
Logo etc
  7
textstyle23
 50
0.0
 73
1
 44
1.0
  0
LINE
  5
BC
100
AcDbEntity
  8
Title
 62
256
370
-1
 48
1.0
  6
ByLayer
100
AcDbLine
 10
0.0000000000000071
 20
0.0
 30
0.0
 11
0.0000000000000071
 21
10.0
 31
0.0
  0
LINE
  5
BD
100
AcDbEntity
  8
Title
 62
256
370
-1
 48
1.0
  6
ByLayer
100
AcDbLine
 10
-170.0
 20
0.0000000000003695
 30
0.0
 11
0.0000000000000071
 21
0.0
 31
0.0
  0
LINE
  5
BE
100
AcDbEntity
  8
Title
 62
256
370
-1
 48
1.0
  6
ByLayer
100
AcDbLine
 10
0.0000000000000071
 20
0.0
 30
0.0
 11
0.0000000000000071
 21
35.9999999999989129
 31
0.0
  0
LINE
  5
BF
100
AcDbEntity
  8
Title
 62
256
370
-1
 48
1.0
  6
ByLayer
100
AcDbLine
 10
-95.0
 20
9.9999999999992468
 30
0.0
 11
0.0000000000000071
 21
10.0
 31
0.0
  0
LINE
  5
C0
100
AcDbEntity
  8
Title
 62
256
370
-1
 48
1.0
  6
ByLayer
100
AcDbLine
 10
-170.0
 20
19.9999999999990088
 30
0.0
 11
0.0000000000000071
 21
19.9999999999986784
 31
0.0
  0
LINE
  5
C1
100
AcDbEntity
  8
Title
 62
256
370
-1
 48
1.0
  6
ByLayer
100
AcDbLine
 10
-170.0
 20
29.9999999999987388
 30
0.0
 11
0.0000000000000071
 21
29.9999999999984794
 31
0.0
  0
LINE
  5
C2
100
AcDbEntity
  8
Title
 62
256
370
-1
 48
1.0
  6
ByLayer
100
AcDbLine
 10
-170.0
 20
0.0000000000003695
 30
0.0
 11
-170.0
 21
29.9999999999987388
 31
0.0
  0
LINE
  5
C3
100
AcDbEntity
  8
Title
 62
256
370
-1
 48
1.0
  6
ByLayer
100
AcDbLine
 10
-95.0
 20
-0.0000000000012506
 30
0.0
 11
-95.0
 21
19.9999999999987814
 31
0.0
  0
LINE
  5
C4
100
AcDbEntity
  8
Title
 62
256
370
-1
 48
1.0
  6
ByLayer
100
AcDbLine
 10
-19.9999999999999893
 20
-0.0000000000022311
 30
0.0
 11
-19.9999999999999893
 21
9.9999999999992042
 31
0.0
  0
LINE
  5
C5
100
AcDbEntity
  8
Title
 62
256
370
-1
 48
1.0
  6
ByLayer
100
AcDbLine
 10
-34.9999999999999929
 20
-0.0000000000026716
 30
0.0
 11
-34.9999999999999929
 21
9.9999999999992468
 31
0.0
  0
LINE
  5
C6
100
AcDbEntity
  8
Title
 62
256
370
-1
 48
1.0
  6
ByLayer
100
AcDbLine
 10
-19.9999999999999396
 20
19.9999999999985114
 30
0.0
 11
-19.9999999999999893
 21
29.9999999999985398
 31
0.0
  0
LINE
  5
C7
100
AcDbEntity
  8
Title
 62
256
370
-1
 48
1.0
  6
ByLayer
100
AcDbLine
 10
-49.9999999999999929
 20
19.9999999999986109
 30
0.0
 11
-49.9999999999999929
 21
29.9999999999993214
 31
0.0
  0
LINE
  5
C8
100
AcDbEntity
  8
Title
 62
256
370
-1
 48
1.0
  6
ByLayer
100
AcDbLine
 10
-75.0
 20
19.9999999999990195
 30
0.0
 11
-74.9999999999999432
 21
29.9999999999982698
 31
0.0
  0
LINE
  5
C9
100
AcDbEntity
  8
Title
 62
256
370
-1
 48
1.0
  6
ByLayer
100
AcDbLine
 10
-113.0
 20
19.99999999999865
 30
0.0
 11
-112.9999999999999005
 21
29.9999999999985612
 31
0.0
  0
LINE
  5
CA
100
AcDbEntity
  8
Title
 62
256
370
-1
 48
1.0
  6
ByLayer
100
AcDbLine
 10
-138.0
 20
19.9999999999990798
 30
0.0
 11
-137.9999999999998863
 21
29.99999999999865
 31
0.0
  0
LINE
  5
CB
100
AcDbEntity
  8
Title
 62
256
370
-1
 48
1.0
  6
ByLayer
100
AcDbLine
 10
-170.0
 20
35.9999999999988205
 30
0.0
 11
0.0000000000000071
 21
35.9999999999989129
 31
0.0
  0
ENDBLK
  5
CC
100
AcDbEntity
  8
0
100
AcDbBlockEnd
  0
BLOCK
  5
CD
100
AcDbEntity
  8
0
100
AcDbBlockBegin
  2
Title block 2 (handy)
 70
0
 10
0.0
 20
0.0
 30
0.0
  3
Title block 2 (handy)
  1

  0
MTEXT
  5
CE
100
AcDbEntity
  8
Title block 2 (handy)
 62
256
370
25
 48
1.0
  6
ByLayer
100
AcDbMText
 10
-76.9077570386120328
 20
44.646321084941313
 30
0.0
 40
3.0
 41
0.0
 71
1
 72
1
  1
Title
  7
textstyle32
 50
0.0
 73
1
 44
1.0
  0
MTEXT
  5
CF
100
AcDbEntity
  8
Title block 2 (handy)
 62
256
370
25
 48
1.0
  6
ByLayer
100
AcDbMText
 10
-52.9547901219556465
 20
39.269124430181293
 30
0.0
 40
3.0
 41
0.0
 71
1
 72
1
  1
Drawing Title
  7
textstyle24
 50
0.0
 73
1
 44
1.0
  0
MTEXT
  5
D0
100
AcDbEntity
  8
Title block 2 (handy)
 62
256
370
25
 48
1.0
  6
ByLayer
100
AcDbMText
 10
-57.1098966279061528
 20
58.5781487813637227
 30
0.0
 40
3.0
 41
0.0
 71
1
 72
1
  1
Customer name\pProject information
  7
textstyle25
 50
0.0
 73
1
 44
1.0
  0
MTEXT
  5
D1
100
AcDbEntity
  8
Title block 2 (handy)
 62
256
370
25
 48
1.0
  6
ByLayer
100
AcDbMText
 10
-48.3385508012275693
 20
6.9196917325774709
 30
0.0
 40
3.0
 41
0.0
 71
1
 72
1
  1
Drawing:
  7
textstyle26
 50
0.0
 73
1
 44
1.0
  0
MTEXT
  5
D2
100
AcDbEntity
  8
Title block 2 (handy)
 62
256
370
25
 48
1.0
  6
ByLayer
100
AcDbMText
 10
-76.1886274146415161
 20
29.6019112074618995
 30
0.0
 40
3.0
 41
0.0
 71
1
 72
1
  1
project no:
  7
textstyle27
 50
0.0
 73
1
 44
1.0
  0
MTEXT
  5
D3
100
AcDbEntity
  8
Title block 2 (handy)
 62
256
370
25
 48
1.0
  6
ByLayer
100
AcDbMText
 10
-66.8181380421533362
 20
24.2620561961368288
 30
0.0
 40
3.0
 41
0.0
 71
1
 72
1
  1
Scale:
  7
textstyle28
 50
0.0
 73
1
 44
1.0
  0
MTEXT
  5
D4
100
AcDbEntity
  8
Title block 2 (handy)
 62
256
370
25
 48
1.0
  6
ByLayer
100
AcDbMText
 10
-70.249349138005428
 20
19.4686010766595103
 30
0.0
 40
3.0
 41
0.0
 71
1
 72
1
  1
revision:
  7
textstyle29
 50
0.0
 73
1
 44
1.0
  0
MTEXT
  5
D5
100
AcDbEntity
  8
Title block 2 (handy)
 62
256
370
25
 48
1.0
  6
ByLayer
100
AcDbMText
 10
-65.1808811211471095
 20
14.4001330598009591
 30
0.0
 40
3.0
 41
0.0
 71
1
 72
1
  1
date:
  7
textstyle30
 50
0.0
 73
1
 44
1.0
  0
MTEXT
  5
D6
100
AcDbEntity
  8
Title block 2 (handy)
 62
256
370
25
 48
1.0
  6
ByLayer
100
AcDbMText
 10
-19.4237996102767205
 20
29.0281508545841191
 30
0.0
 40
3.0
 41
0.0
 71
1
 72
1
  1
xxx
  7
textstyle31
 50
0.0
 73
1
 44
1.0
  0
MTEXT
  5
D7
100
AcDbEntity
  8
Title block 2 (handy)
 62
256
370
25
 48
1.0
  6
ByLayer
100
AcDbMText
 10
-19.3419445066452589
 20
24.1168446366988114
 30
0.0
 40
3.0
 41
0.0
 71
1
 72
1
  1
xxx
  7
textstyle13
 50
0.0
 73
1
 44
1.0
  0
MTEXT
  5
D8
100
AcDbEntity
  8
Title block 2 (handy)
 62
256
370
25
 48
1.0
  6
ByLayer
100
AcDbMText
 10
-19.2600894030138114
 20
19.20553841881366
 30
0.0
 40
3.0
 41
0.0
 71
1
 72
1
  1
xxx
  7
textstyle14
 50
0.0
 73
1
 44
1.0
  0
MTEXT
  5
D9
100
AcDbEntity
  8
Title block 2 (handy)
 62
256
370
25
 48
1.0
  6
ByLayer
100
AcDbMText
 10
-19.1782342993824386
 20
14.1305219936630202
 30
0.0
 40
3.0
 41
0.0
 71
1
 72
1
  1
xxx
  7
textstyle15
 50
0.0
 73
1
 44
1.0
  0
LINE
  5
DA
100
AcDbEntity
  8
Title block 2 (handy)
 62
256
370
25
 48
1.0
  6
ByLayer
100
AcDbLine
 10
-80.0
 20
10.0
 30
0.0
 11
0.0
 21
10.0
 31
0.0
  0
LINE
  5
DB
100
AcDbEntity
  8
Title block 2 (handy)
 62
256
370
25
 48
1.0
  6
ByLayer
100
AcDbLine
 10
-80.0
 20
15.0
 30
0.0
 11
0.0
 21
15.0
 31
0.0
  0
LINE
  5
DC
100
AcDbEntity
  8
Title block 2 (handy)
 62
256
370
25
 48
1.0
  6
ByLayer
100
AcDbLine
 10
-80.0
 20
0.0
 30
0.0
 11
0.0
 21
0.0
 31
0.0
  0
LINE
  5
DD
100
AcDbEntity
  8
Title block 2 (handy)
 62
256
370
25
 48
1.0
  6
ByLayer
100
AcDbLine
 10
-80.0
 20
20.0
 30
0.0
 11
0.0
 21
20.0
 31
0.0
  0
LINE
  5
DE
100
AcDbEntity
  8
Title block 2 (handy)
 62
256
370
25
 48
1.0
  6
ByLayer
100
AcDbLine
 10
-80.0
 20
25.0
 30
0.0
 11
0.0
 21
25.0
 31
0.0
  0
LINE
  5
DF
100
AcDbEntity
  8
Title block 2 (handy)
 62
256
370
25
 48
1.0
  6
ByLayer
100
AcDbLine
 10
0.0
 20
0.0
 30
0.0
 11
0.0
 21
82.0
 31
0.0
  0
LINE
  5
E0
100
AcDbEntity
  8
Title block 2 (handy)
 62
256
370
25
 48
1.0
  6
ByLayer
100
AcDbLine
 10
-80.0
 20
30.0
 30
0.0
 11
0.0
 21
30.0
 31
0.0
  0
LINE
  5
E1
100
AcDbEntity
  8
Title block 2 (handy)
 62
256
370
25
 48
1.0
  6
ByLayer
100
AcDbLine
 10
-80.0
 20
0.0
 30
0.0
 11
-80.0
 21
71.9999999999999858
 31
0.0
  0
LINE
  5
E2
100
AcDbEntity
  8
Title block 2 (handy)
 62
256
370
25
 48
1.0
  6
ByLayer
100
AcDbLine
 10
-32.0
 20
30.0
 30
0.0
 11
-32.0
 21
10.0
 31
0.0
  0
LINE
  5
E3
100
AcDbEntity
  8
Title block 2 (handy)
 62
256
370
25
 48
1.0
  6
ByLayer
100
AcDbLine
 10
-70.0
 20
82.0
 30
0.0
 11
0.0
 21
82.0
 31
0.0
  0
LINE
  5
E4
100
AcDbEntity
  8
Title block 2 (handy)
 62
256
370
25
 48
1.0
  6
ByLayer
100
AcDbLine
 10
-80.0
 20
47.0
 30
0.0
 11
0.0
 21
47.0
 31
0.0
  0
LINE
  5
E5
100
AcDbEntity
  8
Title block 2 (handy)
 62
256
370
25
 48
1.0
  6
ByLayer
100
AcDbLine
 10
-80.0
 20
63.0
 30
0.0
 11
0.0
 21
63.0
 31
0.0
  0
ARC
  5
E6
100
AcDbEntity
  8
Title block 2 (handy)
 62
256
370
25
 48
1.0
  6
ByLayer
100
AcDbCircle
 10
-70.0
 20
71.9999999999999858
 30
0.0
 40
10.0
100
AcDbArc
 50
90.0
 51
180.0
  0
MTEXT
  5
E7
100
AcDbEntity
  8
Title block 2 (handy)
 62
256
370
25
 48
1.0
  6
ByLayer
100
AcDbMText
 10
-55.6433884493354469
 20
72.5099764777861964
 30
0.0
 40
3.0
 41
0.0
 71
1
 72
1
  1
Insert Logo here
  7
textstyle16
 50
0.0
 73
1
 44
1.0
  0
MTEXT
  5
E8
100
AcDbEntity
  8
Title block 2 (handy)
 62
256
370
25
 48
1.0
  6
ByLayer
100
AcDbMText
 10
-77.152175068373765
 20
61.0223290789819117
 30
0.0
 40
3.0
 41
0.0
 71
1
 72
1
  1
project 
  7
textstyle17
 50
0.0
 73
1
 44
1.0
  0
ENDBLK
  5
E9
100
AcDbEntity
  8
0
100
AcDbBlockEnd
  0
BLOCK
  5
EA
100
AcDbEntity
  8
0
100
AcDbBlockBegin
  2
Revision
 70
0
 10
0.0
 20
0.0
 30
0.0
  3
Revision
  1

  0
MTEXT
  5
EB
100
AcDbEntity
  8
Revision
 62
256
370
-1
 48
1.0
  6
ByLayer
100
AcDbMText
 10
-119.4694043257932066
 20
-2.9999999999999432
 30
0.0
 40
1.8
 41
0.0
 71
5
 72
1
  1
Revision note
  7
textstyle9
 50
0.0
 73
1
 44
1.0
  0
MTEXT
  5
EC
100
AcDbEntity
  8
Revision
 62
256
370
-1
 48
1.0
  6
ByLayer
100
AcDbMText
 10
-43.5503893338860735
 20
-2.9999999999999432
 30
0.0
 40
1.8
 41
0.0
 71
5
 72
1
  1
Date
  7
textstyle10
 50
0.0
 73
1
 44
1.0
  0
MTEXT
  5
ED
100
AcDbEntity
  8
Revision
 62
256
370
-1
 48
1.0
  6
ByLayer
100
AcDbMText
 10
-21.4999999999998899
 20
-2.9999999999999432
 30
0.0
 40
1.8
 41
0.0
 71
5
 72
1
  1
Signature
  7
textstyle11
 50
0.0
 73
1
 44
1.0
  0
MTEXT
  5
EE
100
AcDbEntity
  8
Revision
 62
256
370
-1
 48
1.0
  6
ByLayer
100
AcDbMText
 10
-7.8378827831362514
 20
-2.9999999999999432
 30
0.0
 40
1.8
 41
0.0
 71
5
 72
1
  1
Checked
  7
textstyle12
 50
0.0
 73
1
 44
1.0
  0
LINE
  5
EF
100
AcDbEntity
  8
Revision
 62
256
370
-1
 48
1.0
  6
ByLayer
100
AcDbLine
 10
-140.9999999999998863
 20
-11.9999999999999396
 30
0.0
 11
-129.0
 21
-11.9999999999999396
 31
0.0
  0
LINE
  5
F0
100
AcDbEntity
  8
Revision
 62
256
370
-1
 48
1.0
  6
ByLayer
100
AcDbLine
 10
0.0
 20
-5.9999999999999432
 30
0.0
 11
-48.9999999999999929
 21
-5.9999999999999432
 31
0.0
  0
LINE
  5
F1
100
AcDbEntity
  8
Revision
 62
256
370
-1
 48
1.0
  6
ByLayer
100
AcDbLine
 10
-140.9999999999998863
 20
-5.9999999999999449
 30
0.0
 11
-140.9999999999998863
 21
-11.9999999999999396
 31
0.0
  0
LINE
  5
F2
100
AcDbEntity
  8
Revision
 62
256
370
-1
 48
1.0
  6
ByLayer
100
AcDbLine
 10
-129.0
 20
-5.9999999999999449
 30
0.0
 11
-129.0
 21
-11.9999999999999396
 31
0.0
  0
LINE
  5
F3
100
AcDbEntity
  8
Revision
 62
256
370
-1
 48
1.0
  6
ByLayer
100
AcDbLine
 10
-49.0
 20
-5.9999999999998286
 30
0.0
 11
-49.0
 21
-11.9999999999999396
 31
0.0
  0
LINE
  5
F4
100
AcDbEntity
  8
Revision
 62
256
370
-1
 48
1.0
  6
ByLayer
100
AcDbLine
 10
-28.9999999999997691
 20
-5.9999999999999432
 30
0.0
 11
-28.9999999999997691
 21
-11.9999999999999396
 31
0.0
  0
LINE
  5
F5
100
AcDbEntity
  8
Revision
 62
256
370
-1
 48
1.0
  6
ByLayer
100
AcDbLine
 10
-14.0
 20
-6.0000000000001714
 30
0.0
 11
-14.0
 21
-11.9999999999999396
 31
0.0
  0
LINE
  5
F6
100
AcDbEntity
  8
Revision
 62
256
370
-1
 48
1.0
  6
ByLayer
100
AcDbLine
 10
-140.999999999999801
 20
0.0000000000000551
 30
0.0
 11
-128.999999999999801
 21
0.0000000000000551
 31
0.0
  0
LINE
  5
F7
100
AcDbEntity
  8
Revision
 62
256
370
-1
 48
1.0
  6
ByLayer
100
AcDbLine
 10
0.0
 20
-11.9999999999999396
 30
0.0
 11
0.0
 21
-5.9999999999999432
 31
0.0
  0
LINE
  5
F8
100
AcDbEntity
  8
Revision
 62
256
370
-1
 48
1.0
  6
ByLayer
100
AcDbLine
 10
0.0
 20
-6.0
 30
0.0
 11
0.0
 21
0.0
 31
0.0
  0
LINE
  5
F9
100
AcDbEntity
  8
Revision
 62
256
370
-1
 48
1.0
  6
ByLayer
100
AcDbLine
 10
0.0
 20
0.0
 30
0.0
 11
-14.0
 21
0.0000000000000568
 31
0.0
  0
LINE
  5
FA
100
AcDbEntity
  8
Revision
 62
256
370
-1
 48
1.0
  6
ByLayer
100
AcDbLine
 10
-140.9999999999998863
 20
-5.9999999999999449
 30
0.0
 11
-140.999999999999801
 21
0.0000000000000551
 31
0.0
  0
LINE
  5
FB
100
AcDbEntity
  8
Revision
 62
256
370
-1
 48
1.0
  6
ByLayer
100
AcDbLine
 10
-140.9999999999998863
 20
-5.9999999999999449
 30
0.0
 11
-140.999999999999801
 21
-5.9999999999999449
 31
0.0
  0
LINE
  5
FC
100
AcDbEntity
  8
Revision
 62
256
370
-1
 48
1.0
  6
ByLayer
100
AcDbLine
 10
-129.0
 20
-5.9999999999998312
 30
0.0
 11
-128.999999999999801
 21
0.0000000000000551
 31
0.0
  0
LINE
  5
FD
100
AcDbEntity
  8
Revision
 62
256
370
-1
 48
1.0
  6
ByLayer
100
AcDbLine
 10
-49.0
 20
-5.9999999999998286
 30
0.0
 11
-48.9999999999998934
 21
0.0000000000000568
 31
0.0
  0
LINE
  5
FE
100
AcDbEntity
  8
Revision
 62
256
370
-1
 48
1.0
  6
ByLayer
100
AcDbLine
 10
-28.9999999999997691
 20
-6.0000000000001714
 30
0.0
 11
-28.9999999999998899
 21
0.0000000000000568
 31
0.0
  0
LINE
  5
FF
100
AcDbEntity
  8
Revision
 62
256
370
-1
 48
1.0
  6
ByLayer
100
AcDbLine
 10
-14.0
 20
-5.9999999999999432
 30
0.0
 11
-14.0
 21
0.0000000000000568
 31
0.0
  0
LINE
  5
100
100
AcDbEntity
  8
Revision
 62
256
370
-1
 48
1.0
  6
ByLayer
100
AcDbLine
 10
-49.0
 20
-6.0000000000001714
 30
0.0
 11
-28.9999999999998899
 21
-6.0000000000001714
 31
0.0
  0
LINE
  5
101
100
AcDbEntity
  8
Revision
 62
256
370
-1
 48
1.0
  6
ByLayer
100
AcDbLine
 10
-28.9999999999998899
 20
-6.0000000000001714
 30
0.0
 11
-14.0
 21
-6.0000000000001714
 31
0.0
  0
LINE
  5
102
100
AcDbEntity
  8
Revision
 62
256
370
-1
 48
1.0
  6
ByLayer
100
AcDbLine
 10
-14.0
 20
-6.0000000000001714
 30
0.0
 11
0.0000000000002274
 21
-6.0000000000001714
 31
0.0
  0
LINE
  5
103
100
AcDbEntity
  8
Revision
 62
256
370
-1
 48
1.0
  6
ByLayer
100
AcDbLine
 10
-129.0
 20
-5.9999999999999449
 30
0.0
 11
-129.0
 21
-5.9999999999999449
 31
0.0
  0
LINE
  5
104
100
AcDbEntity
  8
Revision
 62
256
370
-1
 48
1.0
  6
ByLayer
100
AcDbLine
 10
-140.999999999999801
 20
-5.9999999999999449
 30
0.0
 11
-129.0
 21
-5.9999999999999449
 31
0.0
  0
MTEXT
  5
105
100
AcDbEntity
  8
Revision
 62
256
370
-1
 48
1.0
  6
ByLayer
100
AcDbMText
 10
-134.9999999999998863
 20
-3.0000000000006271
 30
0.0
 40
1.8
 41
0.0
 71
5
 72
1
  1
Rev No
  7
textstyle1
 50
0.0
 73
1
 44
1.0
  0
LINE
  5
106
100
AcDbEntity
  8
Revision
 62
256
370
-1
 48
1.0
  6
ByLayer
100
AcDbLine
 10
-48.9999999999999005
 20
0.0000000000000568
 30
0.0
 11
-14.0
 21
0.0000000000000568
 31
0.0
  0
LINE
  5
107
100
AcDbEntity
  8
Revision
 62
256
370
-1
 48
1.0
  6
ByLayer
100
AcDbLine
 10
-49.0
 20
-11.9999999999999396
 30
0.0
 11
0.0
 21
-11.9999999999999396
 31
0.0
  0
LINE
  5
108
100
AcDbEntity
  8
0
 62
256
370
-1
 48
1.0
  6
ByLayer
100
AcDbLine
 10
-128.9999999999998863
 20
0.0000000000000568
 30
0.0
 11
-48.9999999999998934
 21
0.0000000000000568
 31
0.0
  0
LINE
  5
109
100
AcDbEntity
  8
0
 62
256
370
-1
 48
1.0
  6
ByLayer
100
AcDbLine
 10
-129.0
 20
-6.0000000000001714
 30
0.0
 11
-49.0
 21
-6.0000000000001714
 31
0.0
  0
LINE
  5
10A
100
AcDbEntity
  8
0
 62
256
370
-1
 48
1.0
  6
ByLayer
100
AcDbLine
 10
-129.0
 20
-11.9999999999999396
 30
0.0
 11
-49.0
 21
-11.9999999999999396
 31
0.0
  0
ENDBLK
  5
10B
100
AcDbEntity
  8
0
100
AcDbBlockEnd
  0
ENDSEC
  0
SECTION
  2
ENTITIES
  0
LINE
  5
10C
100
AcDbEntity
  8
0
 62
256
370
-1
 48
1.0
  6
ByLayer
100
AcDbLine
 10
85.1781972929136373
 20
58.0234195580007324
 30
0.0
 11
85.1781972929136373
 21
75.2634195580007486
 31
0.0
  0
LINE
  5
10D
100
AcDbEntity
  8
0
 62
256
370
-1
 48
1.0
  6
ByLayer
100
AcDbLine
 10
69.9381972929136282
 20
73.2634195580007344
 30
0.0
 11
87.1781972929136373
 21
73.2634195580007344
 31
0.0
  0
LINE
  5
10E
100
AcDbEntity
  8
0
 62
256
370
-1
 48
1.0
  6
ByLayer
100
AcDbLine
 10
210.1781972929134952
 20
73.2634195579993133
 30
0.0
 11
227.4181972929134758
 21
73.2634195579993133
 31
0.0
  0
LINE
  5
10F
100
AcDbEntity
  8
0
 62
256
370
-1
 48
1.0
  6
ByLayer
100
AcDbLine
 10
69.9381972929135856
 20
149.4634195580007372
 30
0.0
 11
87.1781972929135094
 21
149.4634195580007372
 31
0.0
  0
LINE
  5
110
100
AcDbEntity
  8
0
 62
256
370
-1
 48
1.0
  6
ByLayer
100
AcDbLine
 10
210.1781972929134668
 20
149.4634195579993161
 30
0.0
 11
227.4181972929134758
 21
149.4634195579993161
 31
0.0
  0
LINE
  5
111
100
AcDbEntity
  8
0
 62
256
370
-1
 48
1.0
  6
ByLayer
100
AcDbLine
 10
212.1781972929134952
 20
58.0234195579993113
 30
0.0
 11
212.1781972929134952
 21
75.2634195579993133
 31
0.0
  0
LINE
  5
112
100
AcDbEntity
  8
0
 62
256
370
-1
 48
1.0
  6
ByLayer
100
AcDbLine
 10
212.1781972929134668
 20
147.4634195579993161
 30
0.0
 11
212.1781972929136657
 21
164.7034195579992115
 31
0.0
  0
LINE
  5
113
100
AcDbEntity
  8
0
 62
256
370
-1
 48
1.0
  6
ByLayer
100
AcDbLine
 10
96.3129856885914251
 20
149.4634195579993161
 30
0.0
 11
96.3129856885914251
 21
73.2634195579993133
 31
0.0
  0
LINE
  5
114
100
AcDbEntity
  8
0
 62
256
370
-1
 48
1.0
  6
ByLayer
100
AcDbLine
 10
121.2740643545675709
 20
80.8834195579993036
 30
0.0
 11
124.0475175396760221
 21
73.2634195579993275
 31
0.0
  0
LINE
  5
115
100
AcDbEntity
  8
0
 62
256
370
-1
 48
1.0
  6
ByLayer
100
AcDbLine
 10
122.7617005070342202
 20
85.6105735359765276
 30
0.0
 11
127.8760591414212797
 21
73.2634195579993275
 31
0.0
  0
LINE
  5
116
100
AcDbEntity
  8
0
 62
256
370
-1
 48
1.0
  6
ByLayer
100
AcDbLine
 10
117.1891743508185044
 20
92.1065626042558279
 30
0.0
 11
119.0553018064808128
 21
86.9794195579993072
 31
0.0
  0
LINE
  5
117
100
AcDbEntity
  8
0
 62
256
370
-1
 48
1.0
  6
ByLayer
100
AcDbLine
 10
96.3129856885914251
 20
149.4634195579993161
 30
0.0
 11
114.6158125338891978
 21
99.1768160883557783
 31
0.0
  0
LINE
  5
118
100
AcDbEntity
  8
0
 62
256
370
-1
 48
1.0
  6
ByLayer
100
AcDbLine
 10
96.3129856885914251
 20
149.4634195579993161
 30
0.0
 11
107.330600751179162
 21
86.9794195579993072
 31
0.0
  0
LINE
  5
119
100
AcDbEntity
  8
0
 62
256
370
-1
 48
1.0
  6
ByLayer
100
AcDbLine
 10
108.4054900255779614
 20
80.8834195579993036
 30
0.0
 11
109.7491016185764607
 21
73.2634195579993275
 31
0.0
  0
LINE
  5
11A
100
AcDbEntity
  8
0
 62
256
370
-1
 48
1.0
  6
ByLayer
100
AcDbLine
 10
96.3129856885914251
 20
149.4634195579992308
 30
0.0
 11
117.2784870817961007
 21
113.1501059388126862
 31
0.0
  0
LINE
  5
11B
100
AcDbEntity
  8
0
 62
256
370
-1
 48
1.0
  6
ByLayer
100
AcDbLine
 10
122.7778264191036754
 20
103.6249707985338091
 30
0.0
 11
132.388139908635992
 21
86.9794195579993072
 31
0.0
  0
LINE
  5
11C
100
AcDbEntity
  8
0
 62
256
370
-1
 48
1.0
  6
ByLayer
100
AcDbLine
 10
135.9076671496159747
 20
80.8834195579993036
 30
0.0
 11
140.3070762008408394
 21
73.2634195579993275
 31
0.0
  0
LINE
  5
11D
100
AcDbEntity
  8
0
 62
256
370
-1
 48
1.0
  6
ByLayer
100
AcDbLine
 10
96.3129856885915103
 20
149.4634195579990887
 30
0.0
 11
148.7432870430725131
 21
86.9794195579993072
 31
0.0
  0
LINE
  5
11E
100
AcDbEntity
  8
0
 62
256
370
-1
 48
1.0
  6
ByLayer
100
AcDbLine
 10
153.8584383947292054
 20
80.8834195579993036
 30
0.0
 11
160.2523775843000919
 21
73.2634195579992991
 31
0.0
  0
LINE
  5
11F
100
AcDbEntity
  8
0
 62
256
370
-1
 48
1.0
  6
ByLayer
100
AcDbLine
 10
96.3129856885915103
 20
149.4634195579990887
 30
0.0
 11
170.7785171682479017
 21
86.9794195579992788
 31
0.0
  0
LINE
  5
120
100
AcDbEntity
  8
0
 62
256
370
-1
 48
1.0
  6
ByLayer
100
AcDbLine
 10
178.0434470687021644
 20
80.8834195579993036
 30
0.0
 11
187.1246094442700496
 21
73.2634195579993133
 31
0.0
  0
LINE
  5
121
100
AcDbEntity
  8
0
 62
256
370
-1
 48
1.0
  6
ByLayer
100
AcDbLine
 10
96.3129856885914819
 20
149.4634195579990887
 30
0.0
 11
198.4621972929135723
 21
90.4875447407356575
 31
0.0
  0
LINE
  5
122
100
AcDbEntity
  8
0
 62
256
370
-1
 48
1.0
  6
ByLayer
100
AcDbLine
 10
204.5581972929136043
 20
86.9680174997557032
 30
0.0
 11
212.1781972929134952
 21
82.5686084485308243
 31
0.0
  0
LINE
  5
123
100
AcDbEntity
  8
0
 62
256
370
-1
 48
1.0
  6
ByLayer
100
AcDbLine
 10
96.312985688591624
 20
149.4634195579990035
 30
0.0
 11
198.4621972929135723
 21
112.2841470802660808
 31
0.0
  0
LINE
  5
124
100
AcDbEntity
  8
0
 62
256
370
-1
 48
1.0
  6
ByLayer
100
AcDbLine
 10
204.5581972929136043
 20
110.0653845321793369
 30
0.0
 11
212.1781972929134952
 21
107.2919313470709852
 31
0.0
  0
LINE
  5
125
100
AcDbEntity
  8
0
 62
256
370
-1
 48
1.0
  6
ByLayer
100
AcDbLine
 10
204.5581972929136043
 20
130.3768682196603379
 30
0.0
 11
212.1781972929134952
 21
129.0332566266618528
 31
0.0
  0
LINE
  5
126
100
AcDbEntity
  8
0
 62
256
370
-1
 48
1.0
  6
ByLayer
100
AcDbLine
 10
96.3129856885914251
 20
149.4634195579993161
 30
0.0
 11
198.4621972929136007
 21
131.4517574940591089
 31
0.0
  0
MTEXT
  5
127
100
AcDbEntity
  8
0
 62
256
370
-1
 48
1.0
  6
ByLayer
100
AcDbMText
 10
107.8680453883785617
 20
83.9314195579993196
 30
0.0
 40
1.905
 41
0.0
 71
5
 72
1
  1
\fArial|b0|i0|c0|p0;10
  7
textstyle35
 50
-80.0
 73
1
 44
3.5
  0
MTEXT
  5
128
100
AcDbEntity
  8
0
 62
256
370
-1
 48
1.0
  6
ByLayer
100
AcDbMText
 10
120.164683080524199
 20
83.9314195579993054
 30
0.0
 40
1.905
 41
0.0
 71
5
 72
1
  1
\fArial|b0|i0|c0|p0;20
  7
textstyle36
 50
-70.0
 73
1
 44
3.5
  0
MTEXT
  5
129
100
AcDbEntity
  8
0
 62
256
370
-1
 48
1.0
  6
ByLayer
100
AcDbMText
 10
122.2209856885914263
 20
86.9794195579993072
 30
0.0
 40
1.905
 41
0.0
 71
6
 72
1
  1
\fArial|b0|i0|c0|p0;22.5
  7
textstyle0
 50
292.5000000000000568
 73
1
 44
3.5
  0
MTEXT
  5
12A
100
AcDbEntity
  8
0
 62
256
370
-1
 48
1.0
  6
ByLayer
100
AcDbMText
 10
134.1479035291259834
 20
83.9314195579993054
 30
0.0
 40
1.905
 41
0.0
 71
5
 72
1
  1
\fArial|b0|i0|c0|p0;30
  7
textstyle37
 50
-60.0
 73
1
 44
3.5
  0
MTEXT
  5
12B
100
AcDbEntity
  8
0
 62
256
370
-1
 48
1.0
  6
ByLayer
100
AcDbMText
 10
138.6091844418731398
 20
91.1492493077649755
 30
0.0
 40
1.905
 41
0.0
 71
5
 72
1
  1
\fArial|b0|i0|c0|p0;36
  7
textstyle42
 50
306.0
 73
1
 44
3.5
  0
MTEXT
  5
12C
100
AcDbEntity
  8
0
 62
256
370
-1
 48
1.0
  6
ByLayer
100
AcDbMText
 10
151.3008627189008735
 20
83.9314195579993054
 30
0.0
 40
1.905
 41
0.0
 71
5
 72
1
  1
\fArial|b0|i0|c0|p0;40
  7
textstyle38
 50
-50.0
 73
1
 44
3.5
  0
MTEXT
  5
12D
100
AcDbEntity
  8
0
 62
256
370
-1
 48
1.0
  6
ByLayer
100
AcDbMText
 10
151.9389856885914298
 20
93.8374195579993113
 30
0.0
 40
1.905
 41
0.0
 71
5
 72
1
  1
\fArial|b0|i0|c0|p0;45
  7
textstyle33
 50
310.0
 73
1
 44
3.5
  0
MTEXT
  5
12E
100
AcDbEntity
  8
0
 62
256
370
-1
 48
1.0
  6
ByLayer
100
AcDbMText
 10
174.4109821184750047
 20
83.9314195579993054
 30
0.0
 40
1.905
 41
0.0
 71
5
 72
1
  1
\fArial|b0|i0|c0|p0;50
  7
textstyle39
 50
-40.0
 73
1
 44
3.5
  0
MTEXT
  5
12F
100
AcDbEntity
  8
0
 62
256
370
-1
 48
1.0
  6
ByLayer
100
AcDbMText
 10
202.0
 20
88.0
 30
0.0
 40
1.905
 41
0.0
 71
5
 72
1
  1
\fArial|b0|i0|c0|p0;60
  7
textstyle40
 50
-30.0
 73
1
 44
3.5
  0
MTEXT
  5
130
100
AcDbEntity
  8
0
 62
256
370
-1
 48
1.0
  6
ByLayer
100
AcDbMText
 10
202.0
 20
111.0
 30
0.0
 40
1.905
 41
0.0
 71
5
 72
1
  1
\fArial|b0|i0|c0|p0;70
  7
textstyle41
 50
-20.0
 73
1
 44
2.5
  0
MTEXT
  5
131
100
AcDbEntity
  8
0
 62
256
370
-1
 48
1.0
  6
ByLayer
100
AcDbMText
 10
202.0
 20
131.0
 30
0.0
 40
1.905
 41
0.0
 71
5
 72
1
  1
\fArial|b0|i0|c0|p0;80
  7
textstyle34
 50
-10.0
 73
1
 44
2.5
  0
LINE
  5
132
100
AcDbEntity
  8
0
 62
256
370
-1
 48
1.0
  6
ByLayer
100
AcDbLine
 10
209.1301972929135786
 20
139.5931924920155041
 30
0.0
 11
212.1781972929134952
 21
139.3265270455884774
 31
0.0
  0
LINE
  5
133
100
AcDbEntity
  8
0
 62
256
370
-1
 48
1.0
  6
ByLayer
100
AcDbLine
 10
209.1301972929135786
 20
119.2341388162903257
 30
0.0
 11
212.1781972929134952
 21
118.4174296777602819
 31
0.0
  0
LINE
  5
134
100
AcDbEntity
  8
0
 62
256
370
-1
 48
1.0
  6
ByLayer
100
AcDbLine
 10
209.1301972929135786
 20
96.8558898152117536
 30
0.0
 11
212.1781972929134952
 21
95.4345840731553636
 31
0.0
  0
LINE
  5
135
100
AcDbEntity
  8
0
 62
256
370
-1
 48
1.0
  6
ByLayer
100
AcDbLine
 10
200.7848686777953162
 20
76.3114195579992582
 30
0.0
 11
205.1378638023451515
 21
73.2634195579993133
 31
0.0
  0
LINE
  5
136
100
AcDbEntity
  8
0
 62
256
370
-1
 48
1.0
  6
ByLayer
100
AcDbLine
 10
153.3005246706628952
 20
92.4758805759237816
 30
0.0
 11
172.5129856885873494
 21
73.2634195579993275
 31
0.0
  0
LINE
  5
137
100
AcDbEntity
  8
0
 62
256
370
-1
 48
1.0
  6
ByLayer
100
AcDbLine
 10
147.5345675237246326
 20
76.3114195579993009
 30
0.0
 11
149.6688001001878092
 21
73.2634195579992991
 31
0.0
  0
LINE
  5
138
100
AcDbEntity
  8
0
 62
256
370
-1
 48
1.0
  6
ByLayer
100
AcDbLine
 10
130.4243234979308284
 20
76.3114195579993151
 30
0.0
 11
131.8456292399872609
 21
73.2634195579993275
 31
0.0
  0
LINE
  5
139
100
AcDbEntity
  8
0
 62
256
370
-1
 48
1.0
  6
ByLayer
100
AcDbLine
 10
115.9140050133270563
 20
76.3114195579993009
 30
0.0
 11
116.7307141518571143
 21
73.2634195579992991
 31
0.0
  0
LINE
  5
13A
100
AcDbEntity
  8
0
 62
256
370
-1
 48
1.0
  6
ByLayer
100
AcDbLine
 10
102.7129564029296773
 20
76.3114195579993151
 30
0.0
 11
102.9796218493566755
 21
73.2634195579993275
 31
0.0
  0
LINE
  5
13B
100
AcDbEntity
  8
0
 62
256
370
-1
 48
1.0
  6
ByLayer
100
AcDbLine
 10
97.6164601171711723
 20
74.7874195579993284
 30
0.0
 11
97.6430616361217858
 21
73.2634195579992991
 31
0.0
  0
LINE
  5
13C
100
AcDbEntity
  8
0
 62
256
370
-1
 48
1.0
  6
ByLayer
100
AcDbLine
 10
98.9207290711574956
 20
74.7874195579993142
 30
0.0
 11
98.9739483238629134
 21
73.2634195579993133
 31
0.0
  0
LINE
  5
13D
100
AcDbEntity
  8
0
 62
256
370
-1
 48
1.0
  6
ByLayer
100
AcDbLine
 10
100.2265890143320917
 20
74.7874195579993142
 30
0.0
 11
100.3064584699594377
 21
73.2634195579992991
 31
0.0
  0
LINE
  5
13E
100
AcDbEntity
  8
0
 62
256
370
-1
 48
1.0
  6
ByLayer
100
AcDbLine
 10
101.5348402972852284
 20
74.7874195579993142
 30
0.0
 11
101.6414087586871347
 21
73.2634195579992991
 31
0.0
  0
LINE
  5
13F
100
AcDbEntity
  8
0
 62
256
370
-1
 48
1.0
  6
ByLayer
100
AcDbLine
 10
104.1617495612912307
 20
74.7874195579993142
 30
0.0
 11
104.321928415836112
 21
73.2634195579993133
 31
0.0
  0
LINE
  5
140
100
AcDbEntity
  8
0
 62
256
370
-1
 48
1.0
  6
ByLayer
100
AcDbLine
 10
105.4820455585768002
 20
74.7874195579993142
 30
0.0
 11
105.6691692293928213
 21
73.2634195579992991
 31
0.0
  0
LINE
  5
141
100
AcDbEntity
  8
0
 62
256
370
-1
 48
1.0
  6
ByLayer
100
AcDbLine
 10
106.8080130608271361
 20
74.7874195579993
 30
0.0
 11
107.0221972929135745
 21
73.2634195579993133
 31
0.0
  0
LINE
  5
142
100
AcDbEntity
  8
0
 62
256
370
-1
 48
1.0
  6
ByLayer
100
AcDbLine
 10
108.1405021542663576
 20
74.7874195579993142
 30
0.0
 11
108.3818800413209544
 21
73.2634195579993133
 31
0.0
  0
LINE
  5
143
100
AcDbEntity
  8
0
 62
256
370
-1
 48
1.0
  6
ByLayer
100
AcDbLine
 10
110.8285296537613931
 20
74.7874195579993142
 30
0.0
 11
111.1247652448872998
 21
73.2634195579993133
 31
0.0
  0
LINE
  5
144
100
AcDbEntity
  8
0
 62
256
370
-1
 48
1.0
  6
ByLayer
100
AcDbLine
 10
112.1858594878634676
 20
74.7874195579993142
 30
0.0
 11
112.5097956878485945
 21
73.2634195579993275
 31
0.0
  0
LINE
  5
145
100
AcDbEntity
  8
0
 62
256
370
-1
 48
1.0
  6
ByLayer
100
AcDbLine
 10
113.5532987290852702
 20
74.7874195579993284
 30
0.0
 11
113.9051418523606287
 21
73.2634195579993275
 31
0.0
  0
LINE
  5
146
100
AcDbEntity
  8
0
 62
256
370
-1
 48
1.0
  6
ByLayer
100
AcDbLine
 10
114.9318036289098472
 20
74.7874195579993284
 30
0.0
 11
115.3117795052428534
 21
73.2634195579993275
 31
0.0
  0
LINE
  5
147
100
AcDbEntity
  8
0
 62
256
370
-1
 48
1.0
  6
ByLayer
100
AcDbLine
 10
117.7259841155168516
 20
74.7874195579993
 30
0.0
 11
118.1629840834132636
 21
73.2634195579993133
 31
0.0
  0
LINE
  5
148
100
AcDbEntity
  8
0
 62
256
370
-1
 48
1.0
  6
ByLayer
100
AcDbLine
 10
119.1437300571987237
 20
74.7874195579993142
 30
0.0
 11
119.6096636157417237
 21
73.2634195579992991
 31
0.0
  0
LINE
  5
149
100
AcDbEntity
  8
0
 62
256
370
-1
 48
1.0
  6
ByLayer
100
AcDbLine
 10
120.5766889244803366
 20
74.7874195579993142
 30
0.0
 11
121.0718665415392934
 21
73.2634195579993133
 31
0.0
  0
LINE
  5
14A
100
AcDbEntity
  8
0
 62
256
370
-1
 48
1.0
  6
ByLayer
100
AcDbLine
 10
122.0259945386105898
 20
74.7874195579993
 30
0.0
 11
122.5507498212640343
 21
73.2634195579993133
 31
0.0
  0
LINE
  5
14B
100
AcDbEntity
  8
0
 62
256
370
-1
 48
1.0
  6
ByLayer
100
AcDbLine
 10
124.9784163689160152
 20
74.7874195579993142
 30
0.0
 11
125.5634251583099825
 21
73.2634195579992991
 31
0.0
  0
LINE
  5
14C
100
AcDbEntity
  8
0
 62
256
370
-1
 48
1.0
  6
ByLayer
100
AcDbLine
 10
126.48404812907539
 20
74.7874195579993
 30
0.0
 11
127.0997840972481612
 21
73.2634195579993133
 31
0.0
  0
LINE
  5
14D
100
AcDbEntity
  8
0
 62
256
370
-1
 48
1.0
  6
ByLayer
100
AcDbLine
 10
128.0110670638755153
 20
74.7874195579993
 30
0.0
 11
128.6579666837789659
 21
73.2634195579993133
 31
0.0
  0
LINE
  5
14E
100
AcDbEntity
  8
0
 62
256
370
-1
 48
1.0
  6
ByLayer
100
AcDbLine
 10
129.5608829927051602
 20
74.7874195579993142
 30
0.0
 11
130.2394115091153424
 21
73.2634195579993275
 31
0.0
  0
LINE
  5
14F
100
AcDbEntity
  8
0
 62
256
370
-1
 48
1.0
  6
ByLayer
100
AcDbLine
 10
132.7349044723451073
 20
74.7874195579993284
 30
0.0
 11
133.4782089373194651
 21
73.2634195579993133
 31
0.0
  0
LINE
  5
150
100
AcDbEntity
  8
0
 62
256
370
-1
 48
1.0
  6
ByLayer
100
AcDbLine
 10
134.3623081550445022
 20
74.7874195579993142
 30
0.0
 11
135.1388249400740165
 21
73.2634195579993275
 31
0.0
  0
LINE
  5
151
100
AcDbEntity
  8
0
 62
256
370
-1
 48
1.0
  6
ByLayer
100
AcDbLine
 10
136.0189192073487732
 20
74.7874195579993284
 30
0.0
 11
136.8292443812008514
 21
73.2634195579993275
 31
0.0
  0
LINE
  5
152
100
AcDbEntity
  8
0
 62
256
370
-1
 48
1.0
  6
ByLayer
100
AcDbLine
 10
137.706568414881076
 20
74.7874195579993284
 30
0.0
 11
138.5513354092951204
 21
73.2634195579993133
 31
0.0
  0
LINE
  5
153
100
AcDbEntity
  8
0
 62
256
370
-1
 48
1.0
  6
ByLayer
100
AcDbLine
 10
141.1828532750907641
 20
74.7874195579993142
 30
0.0
 11
142.0985648584887713
 21
73.2634195579992991
 31
0.0
  0
LINE
  5
154
100
AcDbEntity
  8
0
 62
256
370
-1
 48
1.0
  6
ByLayer
100
AcDbLine
 10
142.9757294117667357
 20
74.7874195579993284
 30
0.0
 11
143.9280303040765432
 21
73.2634195579993275
 31
0.0
  0
LINE
  5
155
100
AcDbEntity
  8
0
 62
256
370
-1
 48
1.0
  6
ByLayer
100
AcDbLine
 10
144.8081471182000826
 20
74.7874195579993284
 30
0.0
 11
145.7978442902330869
 21
73.2634195579993133
 31
0.0
  0
LINE
  5
156
100
AcDbEntity
  8
0
 62
256
370
-1
 48
1.0
  6
ByLayer
100
AcDbLine
 10
146.6825836923045188
 20
74.7874195579993284
 30
0.0
 11
147.7105346719723684
 21
73.2634195579993275
 31
0.0
  0
LINE
  5
157
100
AcDbEntity
  8
0
 62
256
370
-1
 48
1.0
  6
ByLayer
100
AcDbLine
 10
150.5682755099001042
 20
74.7874195579993284
 30
0.0
 11
151.6755263225802821
 21
73.2634195579993275
 31
0.0
  0
LINE
  5
158
100
AcDbEntity
  8
0
 62
256
370
-1
 48
1.0
  6
ByLayer
100
AcDbLine
 10
152.5853879340440642
 20
74.7874195579993
 30
0.0
 11
153.7338043064007422
 21
73.2634195579992991
 31
0.0
  0
LINE
  5
159
100
AcDbEntity
  8
0
 62
256
370
-1
 48
1.0
  6
ByLayer
100
AcDbLine
 10
154.6562711340241378
 20
74.7874195579993142
 30
0.0
 11
155.846950428820378
 21
73.2634195579992991
 31
0.0
  0
LINE
  5
15A
100
AcDbEntity
  8
0
 62
256
370
-1
 48
1.0
  6
ByLayer
100
AcDbLine
 10
156.784418151673151
 20
74.7874195579993142
 30
0.0
 11
158.0185290182623419
 21
73.2634195579993275
 31
0.0
  0
LINE
  5
15B
100
AcDbEntity
  8
0
 62
256
370
-1
 48
1.0
  6
ByLayer
100
AcDbLine
 10
161.2278421215366961
 20
74.7874195579993284
 30
0.0
 11
162.5526351099686337
 21
73.2634195579993275
 31
0.0
  0
LINE
  5
15C
100
AcDbEntity
  8
0
 62
256
370
-1
 48
1.0
  6
ByLayer
100
AcDbLine
 10
163.551558100132155
 20
74.7874195579993
 30
0.0
 11
164.9237738636420545
 21
73.2634195579993133
 31
0.0
  0
LINE
  5
15D
100
AcDbEntity
  8
0
 62
256
370
-1
 48
1.0
  6
ByLayer
100
AcDbLine
 10
165.9494822603295177
 20
74.7874195579993284
 30
0.0
 11
167.3706352516033462
 21
73.2634195579992991
 31
0.0
  0
LINE
  5
15E
100
AcDbEntity
  8
0
 62
256
370
-1
 48
1.0
  6
ByLayer
100
AcDbLine
 10
168.4267606351657491
 20
74.7874195579993142
 30
0.0
 11
169.8984703279717507
 21
73.2634195579992991
 31
0.0
  0
LINE
  5
15F
100
AcDbEntity
  8
0
 62
256
370
-1
 48
1.0
  6
ByLayer
100
AcDbLine
 10
173.6422473997895679
 20
74.7874195579993
 30
0.0
 11
175.2203955980064052
 21
73.2634195579993133
 31
0.0
  0
LINE
  5
160
100
AcDbEntity
  8
0
 62
256
370
-1
 48
1.0
  6
ByLayer
100
AcDbLine
 10
176.3931914834375903
 20
74.7874195579993142
 30
0.0
 11
178.0274813975152313
 21
73.2634195579993133
 31
0.0
  0
LINE
  5
161
100
AcDbEntity
  8
0
 62
256
370
-1
 48
1.0
  6
ByLayer
100
AcDbLine
 10
179.2490858494038832
 20
74.7874195579993
 30
0.0
 11
180.9416593220035736
 21
73.2634195579993133
 31
0.0
  0
LINE
  5
162
100
AcDbEntity
  8
0
 62
256
370
-1
 48
1.0
  6
ByLayer
100
AcDbLine
 10
182.2178968679762647
 20
74.7874195579993142
 30
0.0
 11
183.9710583205811076
 21
73.2634195579992991
 31
0.0
  0
LINE
  5
163
100
AcDbEntity
  8
0
 62
256
370
-1
 48
1.0
  6
ByLayer
100
AcDbLine
 10
188.5301657835870515
 20
74.7874195579993426
 30
0.0
 11
190.4121490501464677
 21
73.2634195579993275
 31
0.0
  0
LINE
  5
164
100
AcDbEntity
  8
0
 62
256
370
-1
 48
1.0
  6
ByLayer
100
AcDbLine
 10
191.8939070828892
 20
74.7874195579993
 30
0.0
 11
193.8445381303513955
 21
73.2634195579993275
 31
0.0
  0
LINE
  5
165
100
AcDbEntity
  8
0
 62
256
370
-1
 48
1.0
  6
ByLayer
100
AcDbLine
 10
195.4113848494123431
 20
74.7874195579993142
 30
0.0
 11
197.4338011575618452
 21
73.2634195579993133
 31
0.0
  0
LINE
  5
166
100
AcDbEntity
  8
0
 62
256
370
-1
 48
1.0
  6
ByLayer
100
AcDbLine
 10
199.0956820356992694
 20
74.7874195579993284
 30
0.0
 11
201.1932880824973608
 21
73.2634195579993133
 31
0.0
  0
LINE
  5
167
100
AcDbEntity
  8
0
 62
256
370
-1
 48
1.0
  6
ByLayer
100
AcDbLine
 10
207.0247086111262718
 20
74.7874195579993142
 30
0.0
 11
209.2841315271397207
 21
73.2634195579993133
 31
0.0
  0
LINE
  5
168
100
AcDbEntity
  8
0
 62
256
370
-1
 48
1.0
  6
ByLayer
100
AcDbLine
 10
210.6541972929135795
 20
75.2093685456953409
 30
0.0
 11
212.1781972929134952
 21
74.2196713736623934
 31
0.0
  0
LINE
  5
169
100
AcDbEntity
  8
0
 62
256
370
-1
 48
1.0
  6
ByLayer
100
AcDbLine
 10
210.654197292913608
 20
78.01510077877046
 30
0.0
 11
212.1781972929134952
 21
77.0627998864607093
 31
0.0
  0
LINE
  5
16A
100
AcDbEntity
  8
0
 62
256
370
-1
 48
1.0
  6
ByLayer
100
AcDbLine
 10
210.6541972929135795
 20
80.7602883792410466
 30
0.0
 11
212.1781972929134668
 21
79.8445767958430963
 31
0.0
  0
LINE
  5
16B
100
AcDbEntity
  8
0
 62
256
370
-1
 48
1.0
  6
ByLayer
100
AcDbLine
 10
210.6541972929135511
 20
86.0830510055774027
 30
0.0
 11
212.1781972929134668
 21
85.2382840111634152
 31
0.0
  0
LINE
  5
16C
100
AcDbEntity
  8
0
 62
256
370
-1
 48
1.0
  6
ByLayer
100
AcDbLine
 10
210.6541972929135795
 20
88.6671192055455606
 30
0.0
 11
212.1781972929134952
 21
87.8567940316935108
 31
0.0
  0
LINE
  5
16D
100
AcDbEntity
  8
0
 62
256
370
-1
 48
1.0
  6
ByLayer
100
AcDbLine
 10
210.6541972929135795
 20
91.2036625670208707
 30
0.0
 11
212.1781972929134952
 21
90.4271457819914133
 31
0.0
  0
LINE
  5
16E
100
AcDbEntity
  8
0
 62
256
370
-1
 48
1.0
  6
ByLayer
100
AcDbLine
 10
210.6541972929135795
 20
93.6954846528686147
 30
0.0
 11
212.1781972929134952
 21
92.9521801878942853
 31
0.0
  0
LINE
  5
16F
100
AcDbEntity
  8
0
 62
256
370
-1
 48
1.0
  6
ByLayer
100
AcDbLine
 10
210.6541972929135795
 20
98.5554323769652854
 30
0.0
 11
212.1781972929134952
 21
97.8769038605551174
 31
0.0
  0
LINE
  5
170
100
AcDbEntity
  8
0
 62
256
370
-1
 48
1.0
  6
ByLayer
100
AcDbLine
 10
210.6541972929135795
 20
100.9284548799318202
 30
0.0
 11
212.1781972929134952
 21
100.2815552600283979
 31
0.0
  0
LINE
  5
171
100
AcDbEntity
  8
0
 62
256
370
-1
 48
1.0
  6
ByLayer
100
AcDbLine
 10
210.6541972929135227
 20
103.2665714441830431
 30
0.0
 11
212.1781972929134952
 21
102.6508354760102861
 31
0.0
  0
LINE
  5
172
100
AcDbEntity
  8
0
 62
256
370
-1
 48
1.0
  6
ByLayer
100
AcDbLine
 10
210.6541972929135795
 20
105.571940734546132
 30
0.0
 11
212.1781972929134952
 21
104.9869319451521932
 31
0.0
  0
LINE
  5
173
100
AcDbEntity
  8
0
 62
256
370
-1
 48
1.0
  6
ByLayer
100
AcDbLine
 10
210.6541972929135795
 20
110.0925830322404693
 30
0.0
 11
212.1781972929134952
 21
109.5678277495870532
 31
0.0
  0
LINE
  5
174
100
AcDbEntity
  8
0
 62
256
370
-1
 48
1.0
  6
ByLayer
100
AcDbLine
 10
210.6541972929135795
 20
112.3117107666266605
 30
0.0
 11
212.1781972929134668
 21
111.8165331495677464
 31
0.0
  0
LINE
  5
175
100
AcDbEntity
  8
0
 62
256
370
-1
 48
1.0
  6
ByLayer
100
AcDbLine
 10
210.6541972929135511
 20
114.5058055844482396
 30
0.0
 11
212.1781972929134952
 21
114.0398720259052538
 31
0.0
  0
LINE
  5
176
100
AcDbEntity
  8
0
 62
256
370
-1
 48
1.0
  6
ByLayer
100
AcDbLine
 10
210.6541972929135511
 20
116.6766095670134291
 30
0.0
 11
212.1781972929134668
 21
116.2396095991170313
 31
0.0
  0
LINE
  5
177
100
AcDbEntity
  8
0
 62
256
370
-1
 48
1.0
  6
ByLayer
100
AcDbLine
 10
210.6541972929135795
 20
120.9549568249888125
 30
0.0
 11
212.1781972929134952
 21
120.5749809486558064
 31
0.0
  0
LINE
  5
178
100
AcDbEntity
  8
0
 62
256
370
-1
 48
1.0
  6
ByLayer
100
AcDbLine
 10
210.6541972929135227
 20
123.0656732538448495
 30
0.0
 11
212.1781972929134952
 21
122.7138301305695052
 31
0.0
  0
LINE
  5
179
100
AcDbEntity
  8
0
 62
256
370
-1
 48
1.0
  6
ByLayer
100
AcDbLine
 10
210.6541972929135511
 20
125.1594542492243392
 30
0.0
 11
212.1781972929134952
 21
124.8355180492392407
 31
0.0
  0
LINE
  5
17A
100
AcDbEntity
  8
0
 62
256
370
-1
 48
1.0
  6
ByLayer
100
AcDbLine
 10
210.6541972929135227
 20
127.2377501250512069
 30
0.0
 11
212.1781972929134668
 21
126.9415145339253286
 31
0.0
  0
LINE
  5
17B
100
AcDbEntity
  8
0
 62
256
370
-1
 48
1.0
  6
ByLayer
100
AcDbLine
 10
210.6541972929135511
 20
131.3535636332694878
 30
0.0
 11
212.1781972929134952
 21
131.112185746214891
 31
0.0
  0
LINE
  5
17C
100
AcDbEntity
  8
0
 62
256
370
-1
 48
1.0
  6
ByLayer
100
AcDbLine
 10
210.6541972929135511
 20
133.3938243588191881
 30
0.0
 11
212.1781972929134952
 21
133.1796401267327496
 31
0.0
  0
LINE
  5
17D
100
AcDbEntity
  8
0
 62
256
370
-1
 48
1.0
  6
ByLayer
100
AcDbLine
 10
210.6541972929135511
 20
135.4240525839013287
 30
0.0
 11
212.1781972929134952
 21
135.2369289130853076
 31
0.0
  0
LINE
  5
17E
100
AcDbEntity
  8
0
 62
256
370
-1
 48
1.0
  6
ByLayer
100
AcDbLine
 10
210.6541972929135511
 20
137.4456905347918507
 30
0.0
 11
212.1781972929134952
 21
137.2855116802469695
 31
0.0
  0
LINE
  5
17F
100
AcDbEntity
  8
0
 62
256
370
-1
 48
1.0
  6
ByLayer
100
AcDbLine
 10
210.6541972929135227
 20
141.4677357948896201
 30
0.0
 11
212.1781972929134952
 21
141.3611673334877139
 31
0.0
  0
LINE
  5
180
100
AcDbEntity
  8
0
 62
256
370
-1
 48
1.0
  6
ByLayer
100
AcDbLine
 10
210.6541972929134943
 20
143.4707916079382244
 30
0.0
 11
212.1781972929135236
 21
143.3909221523108499
 31
0.0
  0
LINE
  5
181
100
AcDbEntity
  8
0
 62
256
370
-1
 48
1.0
  6
ByLayer
100
AcDbLine
 10
210.6541972929134943
 20
145.4705579205513288
 30
0.0
 11
212.1781972929135236
 21
145.417338667845911
 31
0.0
  0
LINE
  5
182
100
AcDbEntity
  8
0
 62
256
370
-1
 48
1.0
  6
ByLayer
100
AcDbLine
 10
210.6541972929135227
 20
147.4671445474610039
 30
0.0
 11
212.1781972929134952
 21
147.4405430285104046
 31
0.0
  0
LINE
  5
183
100
AcDbEntity
  8
0
 62
256
370
-1
 48
1.0
  6
ByLayer
100
AcDbLine
 10
136.284535908942388
 20
94.5649636349798755
 30
0.0
 11
136.284535908942388
 21
94.5649636349798755
 31
0.0
  0
LINE
  5
184
100
AcDbEntity
  8
0
 62
256
370
-1
 48
1.0
  6
ByLayer
100
AcDbLine
 10
136.284535908942388
 20
94.5649636349798755
 30
0.0
 11
133.9802479089423741
 21
94.5649636349798755
 31
0.0
  0
LINE
  5
185
100
AcDbEntity
  8
0
 62
256
370
-1
 48
1.0
  6
ByLayer
100
AcDbLine
 10
136.9966000608766592
 20
96.7564717528005929
 30
0.0
 11
136.284535908942388
 21
94.5649636349798755
 31
0.0
  0
LINE
  5
186
100
AcDbEntity
  8
0
 62
256
370
-1
 48
1.0
  6
ByLayer
100
AcDbLine
 10
133.9802479089423741
 20
94.5649636349798755
 30
0.0
 11
133.2681837570081314
 21
96.7564717528005929
 31
0.0
  0
LINE
  5
187
100
AcDbEntity
  8
0
 62
256
370
-1
 48
1.0
  6
ByLayer
100
AcDbLine
 10
133.2681837570081314
 20
96.7564717528005929
 30
0.0
 11
135.1323919089423953
 21
98.1108982562351173
 31
0.0
  0
LINE
  5
188
100
AcDbEntity
  8
0
 62
256
370
-1
 48
1.0
  6
ByLayer
100
AcDbLine
 10
135.1323919089423953
 20
98.1108982562351173
 30
0.0
 11
136.9966000608766592
 21
96.7564717528005929
 31
0.0
  0
LINE
  5
189
100
AcDbEntity
  8
0
 62
256
370
-1
 48
1.0
  6
ByLayer
100
AcDbLine
 10
150.5682755099001042
 20
74.7874195579993284
 30
0.0
 11
139.9449137057081884
 21
89.409222679918372
 31
0.0
  0
LINE
  5
18A
100
AcDbEntity
  8
0
 62
256
370
-1
 48
1.0
  6
ByLayer
100
AcDbLine
 10
145.2753604064630508
 20
100.9659139241835959
 30
0.0
 11
145.2753604064630508
 21
97.5094819241835893
 31
0.0
  0
LINE
  5
18B
100
AcDbEntity
  8
0
 62
256
370
-1
 48
1.0
  6
ByLayer
100
AcDbLine
 10
145.2753604064630508
 20
97.5094819241835893
 30
0.0
 11
148.7317924064630574
 21
97.5094819241835893
 31
0.0
  0
LINE
  5
18C
100
AcDbEntity
  8
0
 62
256
370
-1
 48
1.0
  6
ByLayer
100
AcDbLine
 10
148.7317924064630574
 20
97.5094819241835893
 30
0.0
 11
148.7317924064630574
 21
100.9659139241835959
 31
0.0
  0
LINE
  5
18D
100
AcDbEntity
  8
0
 62
256
370
-1
 48
1.0
  6
ByLayer
100
AcDbLine
 10
148.7317924064630574
 20
100.9659139241835959
 30
0.0
 11
145.2753604064630508
 21
100.9659139241835959
 31
0.0
  0
LINE
  5
18E
100
AcDbEntity
  8
0
 62
256
370
-1
 48
1.0
  6
ByLayer
100
AcDbLine
 10
118.7385680287475083
 20
106.6390830301777868
 30
0.0
 11
121.0428560287475079
 21
106.6390830301777868
 31
0.0
  0
LINE
  5
18F
100
AcDbEntity
  8
0
 62
256
370
-1
 48
1.0
  6
ByLayer
100
AcDbLine
 10
118.7385680287475083
 20
106.6390830301777868
 30
0.0
 11
117.5864240287475013
 21
108.634654975813433
 31
0.0
  0
LINE
  5
190
100
AcDbEntity
  8
0
 62
256
370
-1
 48
1.0
  6
ByLayer
100
AcDbLine
 10
118.7385680287475083
 20
110.630226921449065
 30
0.0
 11
117.5864240287475013
 21
108.634654975813433
 31
0.0
  0
LINE
  5
191
100
AcDbEntity
  8
0
 62
256
370
-1
 48
1.0
  6
ByLayer
100
AcDbLine
 10
118.7385680287475083
 20
110.630226921449065
 30
0.0
 11
121.0428560287475079
 21
110.630226921449065
 31
0.0
  0
LINE
  5
192
100
AcDbEntity
  8
0
 62
256
370
-1
 48
1.0
  6
ByLayer
100
AcDbLine
 10
122.1950000287475149
 20
108.6346549758134188
 30
0.0
 11
121.0428560287475079
 21
110.630226921449065
 31
0.0
  0
LINE
  5
193
100
AcDbEntity
  8
0
 62
256
370
-1
 48
1.0
  6
ByLayer
100
AcDbLine
 10
122.1950000287475149
 20
108.6346549758134188
 30
0.0
 11
121.0428560287475079
 21
106.6390830301777868
 31
0.0
  0
LINE
  5
194
100
AcDbEntity
  8
0
 62
256
370
-1
 48
1.0
  6
ByLayer
100
AcDbLine
 10
117.5081897942293097
 20
94.739658783029995
 30
0.0
 11
119.0443817942292952
 21
94.739658783029995
 31
0.0
  0
LINE
  5
195
100
AcDbEntity
  8
0
 62
256
370
-1
 48
1.0
  6
ByLayer
100
AcDbLine
 10
117.5081897942293097
 20
94.739658783029995
 30
0.0
 11
116.4219380138247857
 21
95.825910563434519
 31
0.0
  0
LINE
  5
196
100
AcDbEntity
  8
0
 62
256
370
-1
 48
1.0
  6
ByLayer
100
AcDbLine
 10
116.4219380138247857
 20
97.362102563434533
 30
0.0
 11
116.4219380138247857
 21
95.825910563434519
 31
0.0
  0
LINE
  5
197
100
AcDbEntity
  8
0
 62
256
370
-1
 48
1.0
  6
ByLayer
100
AcDbLine
 10
116.4219380138247857
 20
97.362102563434533
 30
0.0
 11
117.5081897942293097
 21
98.4483543438390569
 31
0.0
  0
LINE
  5
198
100
AcDbEntity
  8
0
 62
256
370
-1
 48
1.0
  6
ByLayer
100
AcDbLine
 10
119.0443817942292952
 20
98.4483543438390569
 30
0.0
 11
117.5081897942293097
 21
98.4483543438390569
 31
0.0
  0
LINE
  5
199
100
AcDbEntity
  8
0
 62
256
370
-1
 48
1.0
  6
ByLayer
100
AcDbLine
 10
119.0443817942292952
 20
98.4483543438390569
 30
0.0
 11
120.1306335746338192
 21
97.362102563434533
 31
0.0
  0
LINE
  5
19A
100
AcDbEntity
  8
0
 62
256
370
-1
 48
1.0
  6
ByLayer
100
AcDbLine
 10
120.1306335746338192
 20
95.825910563434519
 30
0.0
 11
120.1306335746338192
 21
97.362102563434533
 31
0.0
  0
LINE
  5
19B
100
AcDbEntity
  8
0
 62
256
370
-1
 48
1.0
  6
ByLayer
100
AcDbLine
 10
120.1306335746338192
 20
95.825910563434519
 30
0.0
 11
119.0443817942292952
 21
94.739658783029995
 31
0.0
  0
LINE
  5
19C
100
AcDbEntity
  8
0
 62
256
370
-1
 48
1.0
  6
ByLayer
100
AcDbLine
 10
85.1781972929134668
 20
147.4634195580007372
 30
0.0
 11
85.1781972929136657
 21
164.7034195580006326
 31
0.0
  0
LINE
  5
19D
100
AcDbEntity
  8
0
 62
256
370
-1
 48
1.0
  6
ByLayer
100
AcDbLine
 10
85.1781972929136373
 20
58.0234195580007324
 30
0.0
 11
85.1781972929136373
 21
73.2634195580007344
 31
0.0
  0
ENDSEC
  0
SECTION
  2
OBJECTS
  0
DICTIONARY
  5
C
100
AcDbDictionary
280
0
281
1
  3
ACAD_GROUP
350
D
  3
ACAD_LAYOUT
350
1A
  3
ACAD_MLINESTYLE
350
17
  3
ACAD_PLOTSETTINGS
350
19
  3
ACAD_PLOTSTYLENAME
350
E
  3
AcDbVariableDictionary
350
19E
  3
QCAD_OBJECTS
350
19F
  0
DICTIONARY
  5
D
100
AcDbDictionary
280
0
281
1
  0
ACDBDICTIONARYWDFLT
  5
E
100
AcDbDictionary
281
1
  3
Normal
350
F
100
AcDbDictionaryWithDefault
340
F
  0
ACDBPLACEHOLDER
  5
F
  0
DICTIONARY
  5
17
100
AcDbDictionary
280
0
281
1
  3
Standard
350
18
  0
MLINESTYLE
  5
18
100
AcDbMlineStyle
  2
STANDARD
 70
0
  3

 62
256
 51
90.0
 52
90.0
 71
2
 49
0.5
 62
256
  6
BYLAYER
 49
-0.5
 62
256
  6
BYLAYER
  0
DICTIONARY
  5
19
100
AcDbDictionary
280
0
281
1
  0
DICTIONARY
  5
1A
100
AcDbDictionary
281
1
  3
Layout1
350
1E
  3
Layout2
350
26
  3
Model
350
22
  0
LAYOUT
  5
1E
100
AcDbPlotSettings
  1

  2
none_device
  4

  6

 40
0.0
 41
0.0
 42
0.0
 43
0.0
 44
0.0
 45
0.0
 46
0.0
 47
0.0
 48
0.0
 49
0.0
140
0.0
141
0.0
142
1.0
143
1.0
 70
688
 72
0
 73
0
 74
5
  7

 75
16
147
1.0
148
0.0
149
0.0
100
AcDbLayout
  1
Layout1
 70
1
 71
1
 10
0.0
 20
0.0
 11
420.0
 21
297.0
 12
0.0
 22
0.0
 32
0.0
 14
100000000000000000000.0
 24
100000000000000000000.0
 34
100000000000000000000.0
 15
-100000000000000000000.0
 25
-100000000000000000000.0
 35
-100000000000000000000.0
146
0.0
 13
0.0
 23
0.0
 33
0.0
 16
1.0
 26
0.0
 36
0.0
 17
0.0
 27
1.0
 37
0.0
 76
0
330
1B
  0
LAYOUT
  5
22
100
AcDbPlotSettings
  1

  2
none_device
  4

  6

 40
0.0
 41
0.0
 42
0.0
 43
0.0
 44
0.0
 45
0.0
 46
0.0
 47
0.0
 48
0.0
 49
0.0
140
0.0
141
0.0
142
1.0
143
1.0
 70
1712
 72
0
 73
0
 74
0
  7

 75
0
147
1.0
148
0.0
149
0.0
100
AcDbLayout
  1
Model
 70
1
 71
0
 10
0.0
 20
0.0
 11
12.0
 21
9.0
 12
0.0
 22
0.0
 32
0.0
 14
0.0
 24
0.0
 34
0.0
 15
0.0
 25
0.0
 35
0.0
146
0.0
 13
0.0
 23
0.0
 33
0.0
 16
1.0
 26
0.0
 36
0.0
 17
0.0
 27
1.0
 37
0.0
 76
0
330
1F
  0
LAYOUT
  5
26
100
AcDbPlotSettings
  1

  2
none_device
  4

  6

 40
0.0
 41
0.0
 42
0.0
 43
0.0
 44
0.0
 45
0.0
 46
0.0
 47
0.0
 48
0.0
 49
0.0
140
0.0
141
0.0
142
1.0
143
1.0
 70
688
 72
0
 73
0
 74
5
  7

 75
16
147
1.0
148
0.0
149
0.0
100
AcDbLayout
  1
Layout2
 70
1
 71
2
 10
0.0
 20
0.0
 11
12.0
 21
9.0
 12
0.0
 22
0.0
 32
0.0
 14
0.0
 24
0.0
 34
0.0
 15
0.0
 25
0.0
 35
0.0
146
0.0
 13
0.0
 23
0.0
 33
0.0
 16
1.0
 26
0.0
 36
0.0
 17
0.0
 27
1.0
 37
0.0
 76
0
330
23
  0
DICTIONARY
  5
19E
100
AcDbDictionary
281
1
  3
DIMASSOC
350
1A1
  3
HIDETEXT
350
1A0
  0
DICTIONARYVAR
  5
1A0
100
DictionaryVariables
280
0
  1
2
  0
DICTIONARYVAR
  5
1A1
100
DictionaryVariables
280
0
  1
1
  0
DICTIONARY
  5
19F
100
AcDbDictionary
281
1
  3
CamExport/ConfigV2
350
1A2
  3
ColorSettings/BackgroundColor
350
1A3
  3
ColorSettings/ColorMode
350
1A4
  3
DimensionSettings/AngularFormat
350
1A5
  3
DimensionSettings/AngularPrecision
350
1A6
  3
DimensionSettings/KeepProportions
350
1A7
  3
DimensionSettings/LinearFormat
350
1A8
  3
DimensionSettings/LinearPrecision
350
1A9
  3
Grid/DisplayGrid
350
1AA
  3
Grid/DisplayGrid00
350
1AB
  3
Grid/DisplayGrid01
350
1AC
  3
Grid/DisplayGrid02
350
1AD
  3
Grid/DisplayGrid03
350
1AE
  3
Grid/GridSpacingX
350
1AF
  3
Grid/GridSpacingX00
350
1B0
  3
Grid/GridSpacingX01
350
1B1
  3
Grid/GridSpacingX02
350
1B2
  3
Grid/GridSpacingX03
350
1B3
  3
Grid/GridSpacingY
350
1B4
  3
Grid/GridSpacingY00
350
1B5
  3
Grid/GridSpacingY01
350
1B6
  3
Grid/GridSpacingY02
350
1B7
  3
Grid/GridSpacingY03
350
1B8
  3
Grid/IsometricGrid00
350
1B9
  3
Grid/IsometricGrid01
350
1BA
  3
Grid/IsometricGrid02
350
1BB
  3
Grid/IsometricGrid03
350
1BC
  3
Grid/IsometricProjection00
350
1BD
  3
Grid/IsometricProjection01
350
1BE
  3
Grid/IsometricProjection02
350
1BF
  3
Grid/IsometricProjection03
350
1C0
  3
Grid/MetaGridSpacingX
350
1C1
  3
Grid/MetaGridSpacingX00
350
1C2
  3
Grid/MetaGridSpacingX01
350
1C3
  3
Grid/MetaGridSpacingX02
350
1C4
  3
Grid/MetaGridSpacingX03
350
1C5
  3
Grid/MetaGridSpacingY
350
1C6
  3
Grid/MetaGridSpacingY00
350
1C7
  3
Grid/MetaGridSpacingY01
350
1C8
  3
Grid/MetaGridSpacingY02
350
1C9
  3
Grid/MetaGridSpacingY03
350
1CA
  3
MultiPageSettings/Columns
350
1CB
  3
MultiPageSettings/GlueMarginBottom
350
1CC
  3
MultiPageSettings/GlueMarginsBottom
350
1CD
  3
MultiPageSettings/GlueMarginsLeft
350
1CE
  3
MultiPageSettings/GlueMarginsRight
350
1CF
  3
MultiPageSettings/GlueMarginsTop
350
1D0
  3
MultiPageSettings/PrintCropMarks
350
1D1
  3
MultiPageSettings/Rows
350
1D2
  3
PageSettings/OffsetX
350
1D3
  3
PageSettings/OffsetY
350
1D4
  3
PageSettings/PageOrientation
350
1D5
  3
PageSettings/PaperHeight
350
1D6
  3
PageSettings/PaperSizeName
350
1D7
  3
PageSettings/PaperWidth
350
1D8
  3
PageSettings/PointSize
350
1D9
  3
PageSettings/Scale
350
1DA
  3
PageSettings/ShowBoundingBox
350
1DB
  3
PageSettings/ShowPageBorders
350
1DC
  3
PageSettings/ShowPaperBorders
350
1DD
  3
PageTagSettings/EnablePageTags
350
1DE
  3
PageTagSettings/TagAlignment
350
1DF
  3
PageTagSettings/TagFont
350
1E0
  3
PageTagSettings/TagPosition
350
1E1
  3
QCADVersion
350
1E2
  3
UnitSettings/PaperUnit
350
1E3
  3
ViewportCenter
350
1E4
  3
ViewportHeight
350
1E5
  3
ViewportWidth
350
1E6
  0
XRECORD
  5
1A2
330
19F
100
AcDbXrecord
280
1
1000
GCodeMM
  0
XRECORD
  5
1A3
330
19F
100
AcDbXrecord
280
1
1000
#ffffff
  0
XRECORD
  5
1A4
330
19F
100
AcDbXrecord
280
1
1000
FullColor
  0
XRECORD
  5
1A5
330
19F
100
AcDbXrecord
280
1
 40
0.0
  0
XRECORD
  5
1A6
330
19F
100
AcDbXrecord
280
1
 40
0.0
  0
XRECORD
  5
1A7
330
19F
100
AcDbXrecord
280
1
290
0
  0
XRECORD
  5
1A8
330
19F
100
AcDbXrecord
280
1
 40
2.0
  0
XRECORD
  5
1A9
330
19F
100
AcDbXrecord
280
1
 40
4.0
  0
XRECORD
  5
1AA
330
19F
100
AcDbXrecord
280
1
290
1
  0
XRECORD
  5
1AB
330
19F
100
AcDbXrecord
280
1
290
1
  0
XRECORD
  5
1AC
330
19F
100
AcDbXrecord
280
1
290
1
  0
XRECORD
  5
1AD
330
19F
100
AcDbXrecord
280
1
290
1
  0
XRECORD
  5
1AE
330
19F
100
AcDbXrecord
280
1
290
1
  0
XRECORD
  5
1AF
330
19F
100
AcDbXrecord
280
1
1000
auto
  0
XRECORD
  5
1B0
330
19F
100
AcDbXrecord
280
1
1000
auto
  0
XRECORD
  5
1B1
330
19F
100
AcDbXrecord
280
1
1000
auto
  0
XRECORD
  5
1B2
330
19F
100
AcDbXrecord
280
1
1000
auto
  0
XRECORD
  5
1B3
330
19F
100
AcDbXrecord
280
1
1000
auto
  0
XRECORD
  5
1B4
330
19F
100
AcDbXrecord
280
1
1000
auto
  0
XRECORD
  5
1B5
330
19F
100
AcDbXrecord
280
1
1000
auto
  0
XRECORD
  5
1B6
330
19F
100
AcDbXrecord
280
1
1000
auto
  0
XRECORD
  5
1B7
330
19F
100
AcDbXrecord
280
1
1000
auto
  0
XRECORD
  5
1B8
330
19F
100
AcDbXrecord
280
1
1000
auto
  0
XRECORD
  5
1B9
330
19F
100
AcDbXrecord
280
1
290
0
  0
XRECORD
  5
1BA
330
19F
100
AcDbXrecord
280
1
290
0
  0
XRECORD
  5
1BB
330
19F
100
AcDbXrecord
280
1
290
0
  0
XRECORD
  5
1BC
330
19F
100
AcDbXrecord
280
1
290
0
  0
XRECORD
  5
1BD
330
19F
100
AcDbXrecord
280
1
 90
0
  0
XRECORD
  5
1BE
330
19F
100
AcDbXrecord
280
1
 90
0
  0
XRECORD
  5
1BF
330
19F
100
AcDbXrecord
280
1
 90
0
  0
XRECORD
  5
1C0
330
19F
100
AcDbXrecord
280
1
 90
0
  0
XRECORD
  5
1C1
330
19F
100
AcDbXrecord
280
1
1000
auto
  0
XRECORD
  5
1C2
330
19F
100
AcDbXrecord
280
1
1000
auto
  0
XRECORD
  5
1C3
330
19F
100
AcDbXrecord
280
1
1000
auto
  0
XRECORD
  5
1C4
330
19F
100
AcDbXrecord
280
1
1000
auto
  0
XRECORD
  5
1C5
330
19F
100
AcDbXrecord
280
1
1000
auto
  0
XRECORD
  5
1C6
330
19F
100
AcDbXrecord
280
1
1000
auto
  0
XRECORD
  5
1C7
330
19F
100
AcDbXrecord
280
1
1000
auto
  0
XRECORD
  5
1C8
330
19F
100
AcDbXrecord
280
1
1000
auto
  0
XRECORD
  5
1C9
330
19F
100
AcDbXrecord
280
1
1000
auto
  0
XRECORD
  5
1CA
330
19F
100
AcDbXrecord
280
1
1000
auto
  0
XRECORD
  5
1CB
330
19F
100
AcDbXrecord
280
1
 90
1
  0
XRECORD
  5
1CC
330
19F
100
AcDbXrecord
280
1
 40
10.0
  0
XRECORD
  5
1CD
330
19F
100
AcDbXrecord
280
1
 40
10.0
  0
XRECORD
  5
1CE
330
19F
100
AcDbXrecord
280
1
 40
10.0
  0
XRECORD
  5
1CF
330
19F
100
AcDbXrecord
280
1
 40
10.0
  0
XRECORD
  5
1D0
330
19F
100
AcDbXrecord
280
1
 40
10.0
  0
XRECORD
  5
1D1
330
19F
100
AcDbXrecord
280
1
290
0
  0
XRECORD
  5
1D2
330
19F
100
AcDbXrecord
280
1
 90
1
  0
XRECORD
  5
1D3
330
19F
100
AcDbXrecord
280
1
 40
0.0
  0
XRECORD
  5
1D4
330
19F
100
AcDbXrecord
280
1
 40
0.0
  0
XRECORD
  5
1D5
330
19F
100
AcDbXrecord
280
1
1000
Landscape
  0
XRECORD
  5
1D6
330
19F
100
AcDbXrecord
280
1
 40
297.0
  0
XRECORD
  5
1D7
330
19F
100
AcDbXrecord
280
1
1000
ISO A4
  0
XRECORD
  5
1D8
330
19F
100
AcDbXrecord
280
1
 40
210.0
  0
XRECORD
  5
1D9
330
19F
100
AcDbXrecord
280
1
1000
0.5
  0
XRECORD
  5
1DA
330
19F
100
AcDbXrecord
280
1
1000
1:1
  0
XRECORD
  5
1DB
330
19F
100
AcDbXrecord
280
1
290
0
  0
XRECORD
  5
1DC
330
19F
100
AcDbXrecord
280
1
290
1
  0
XRECORD
  5
1DD
330
19F
100
AcDbXrecord
280
1
290
0
  0
XRECORD
  5
1DE
330
19F
100
AcDbXrecord
280
1
290
0
  0
XRECORD
  5
1DF
330
19F
100
AcDbXrecord
280
1
1000
Inside
  0
XRECORD
  5
1E0
330
19F
100
AcDbXrecord
280
1
1000
Arial,10,-1,5,50,0,0,0,0,0
  0
XRECORD
  5
1E1
330
19F
100
AcDbXrecord
280
1
1000
TopLeft
  0
XRECORD
  5
1E2
330
19F
100
AcDbXrecord
280
1
1000
3.25.2
  0
XRECORD
  5
1E3
330
19F
100
AcDbXrecord
280
1
 90
4
  0
XRECORD
  5
1E5
330
19F
100
AcDbXrecord
280
1
 40
129.7716790637081772
  0
XRECORD
  5
1E6
330
19F
100
AcDbXrecord
280
1
 40
202.1124873928391708
  0
ENDSEC
  0
EOF
