  0
SECTION
  2
HEADER
  9
$ACADVER
  1
AC1015
  9
$ACADMAINTVER
 70
     6
  9
$DWGCODEPAGE
  3
ASCII
  9
$INSBASE
 10
0.0
 20
0.0
 30
0.0
  9
$EXTMIN
 10
1.000000000000000E+20
 20
1.000000000000000E+20
 30
1.000000000000000E+20
  9
$EXTMAX
 10
-1.000000000000000E+20
 20
-1.000000000000000E+20
 30
-1.000000000000000E+20
  9
$LIMMIN
 10
0.0
 20
0.0
  9
$LIMMAX
 10
12.0
 20
9.0
  9
$ORTHOMODE
 70
     0
  9
$REGENMODE
 70
     1
  9
$FILLMODE
 70
     1
  9
$QTEXTMODE
 70
     0
  9
$MIRRTEXT
 70
     1
  9
$LTSCALE
 40
1.0
  9
$ATTMODE
 70
     1
  9
$TEXTSIZE
 40
0.2
  9
$TRACEWID
 40
0.05
  9
$TEXTSTYLE
  7
Standard
  9
$CLAYER
  8
0
  9
$CELTYPE
  6
ByLayer
  9
$CECOLOR
 62
   256
  9
$CELTSCALE
 40
1.0
  9
$DISPSILH
 70
     0
  9
$DIMSCALE
 40
1.0
  9
$DIMASZ
 40
0.18
  9
$DIMEXO
 40
0.0625
  9
$DIMDLI
 40
0.38
  9
$DIMRND
 40
0.0
  9
$DIMDLE
 40
0.0
  9
$DIMEXE
 40
0.18
  9
$DIMTP
 40
0.0
  9
$DIMTM
 40
0.0
  9
$DIMTXT
 40
0.18
  9
$DIMCEN
 40
0.09
  9
$DIMTSZ
 40
0.0
  9
$DIMTOL
 70
     0
  9
$DIMLIM
 70
     0
  9
$DIMTIH
 70
     1
  9
$DIMTOH
 70
     1
  9
$DIMSE1
 70
     0
  9
$DIMSE2
 70
     0
  9
$DIMTAD
 70
     0
  9
$DIMZIN
 70
     0
  9
$DIMBLK
  1

  9
$DIMASO
 70
     1
  9
$DIMSHO
 70
     1
  9
$DIMPOST
  1

  9
$DIMAPOST
  1

  9
$DIMALT
 70
     0
  9
$DIMALTD
 70
     2
  9
$DIMALTF
 40
25.4
  9
$DIMLFAC
 40
1.0
  9
$DIMTOFL
 70
     0
  9
$DIMTVP
 40
0.0
  9
$DIMTIX
 70
     0
  9
$DIMSOXD
 70
     0
  9
$DIMSAH
 70
     0
  9
$DIMBLK1
  1

  9
$DIMBLK2
  1

  9
$DIMSTYLE
  2
Standard
  9
$DIMCLRD
 70
     0
  9
$DIMCLRE
 70
     0
  9
$DIMCLRT
 70
     0
  9
$DIMTFAC
 40
1.0
  9
$DIMGAP
 40
0.09
  9
$DIMJUST
 70
     0
  9
$DIMSD1
 70
     0
  9
$DIMSD2
 70
     0
  9
$DIMTOLJ
 70
     1
  9
$DIMTZIN
 70
     0
  9
$DIMALTZ
 70
     0
  9
$DIMALTTZ
 70
     0
  9
$DIMUPT
 70
     0
  9
$DIMDEC
 70
     4
  9
$DIMTDEC
 70
     4
  9
$DIMALTU
 70
     2
  9
$DIMALTTD
 70
     2
  9
$DIMTXSTY
  7
Standard
  9
$DIMAUNIT
 70
     0
  9
$DIMADEC
 70
     0
  9
$DIMALTRND
 40
0.0
  9
$DIMAZIN
 70
     0
  9
$DIMDSEP
 70
    46
  9
$DIMATFIT
 70
     3
  9
$DIMFRAC
 70
     0
  9
$DIMLDRBLK
  1

  9
$DIMLUNIT
 70
     2
  9
$DIMLWD
 70
    -2
  9
$DIMLWE
 70
    -2
  9
$DIMTMOVE
 70
     0
  9
$LUNITS
 70
     2
  9
$LUPREC
 70
     4
  9
$SKETCHINC
 40
0.1
  9
$FILLETRAD
 40
0.5
  9
$AUNITS
 70
     0
  9
$AUPREC
 70
     0
  9
$MENU
  1
.
  9
$ELEVATION
 40
0.0
  9
$PELEVATION
 40
0.0
  9
$THICKNESS
 40
0.0
  9
$LIMCHECK
 70
     0
  9
$CHAMFERA
 40
0.5
  9
$CHAMFERB
 40
0.5
  9
$CHAMFERC
 40
1.0
  9
$CHAMFERD
 40
0.0
  9
$SKPOLY
 70
     0
  9
$TDCREATE
 40
2454937.629837963
  9
$TDUCREATE
 40
2454937.838171296
  9
$TDUPDATE
 40
2454937.629837974
  9
$TDUUPDATE
 40
2454937.838171308
  9
$TDINDWG
 40
0.0000000116
  9
$TDUSRTIMER
 40
0.0000000116
  9
$USRTIMER
 70
     1
  9
$ANGBASE
 50
0.0
  9
$ANGDIR
 70
     0
  9
$PDMODE
 70
     0
  9
$PDSIZE
 40
0.0
  9
$PLINEWID
 40
0.0
  9
$SPLFRAME
 70
     0
  9
$SPLINETYPE
 70
     6
  9
$SPLINESEGS
 70
     8
  9
$HANDSEED
  5
AA
  9
$SURFTAB1
 70
     6
  9
$SURFTAB2
 70
     6
  9
$SURFTYPE
 70
     6
  9
$SURFU
 70
     6
  9
$SURFV
 70
     6
  9
$UCSBASE
  2

  9
$UCSNAME
  2

  9
$UCSORG
 10
0.0
 20
0.0
 30
0.0
  9
$UCSXDIR
 10
1.0
 20
0.0
 30
0.0
  9
$UCSYDIR
 10
0.0
 20
1.0
 30
0.0
  9
$UCSORTHOREF
  2

  9
$UCSORTHOVIEW
 70
     0
  9
$UCSORGTOP
 10
0.0
 20
0.0
 30
0.0
  9
$UCSORGBOTTOM
 10
0.0
 20
0.0
 30
0.0
  9
$UCSORGLEFT
 10
0.0
 20
0.0
 30
0.0
  9
$UCSORGRIGHT
 10
0.0
 20
0.0
 30
0.0
  9
$UCSORGFRONT
 10
0.0
 20
0.0
 30
0.0
  9
$UCSORGBACK
 10
0.0
 20
0.0
 30
0.0
  9
$PUCSBASE
  2

  9
$PUCSNAME
  2

  9
$PUCSORG
 10
0.0
 20
0.0
 30
0.0
  9
$PUCSXDIR
 10
1.0
 20
0.0
 30
0.0
  9
$PUCSYDIR
 10
0.0
 20
1.0
 30
0.0
  9
$PUCSORTHOREF
  2

  9
$PUCSORTHOVIEW
 70
     0
  9
$PUCSORGTOP
 10
0.0
 20
0.0
 30
0.0
  9
$PUCSORGBOTTOM
 10
0.0
 20
0.0
 30
0.0
  9
$PUCSORGLEFT
 10
0.0
 20
0.0
 30
0.0
  9
$PUCSORGRIGHT
 10
0.0
 20
0.0
 30
0.0
  9
$PUCSORGFRONT
 10
0.0
 20
0.0
 30
0.0
  9
$PUCSORGBACK
 10
0.0
 20
0.0
 30
0.0
  9
$USERI1
 70
     0
  9
$USERI2
 70
     0
  9
$USERI3
 70
     0
  9
$USERI4
 70
     0
  9
$USERI5
 70
     0
  9
$USERR1
 40
0.0
  9
$USERR2
 40
0.0
  9
$USERR3
 40
0.0
  9
$USERR4
 40
0.0
  9
$USERR5
 40
0.0
  9
$WORLDVIEW
 70
     1
  9
$SHADEDGE
 70
     3
  9
$SHADEDIF
 70
    70
  9
$TILEMODE
 70
     1
  9
$MAXACTVP
 70
    64
  9
$PINSBASE
 10
0.0
 20
0.0
 30
0.0
  9
$PLIMCHECK
 70
     0
  9
$PEXTMIN
 10
1.000000000000000E+20
 20
1.000000000000000E+20
 30
1.000000000000000E+20
  9
$PEXTMAX
 10
-1.000000000000000E+20
 20
-1.000000000000000E+20
 30
-1.000000000000000E+20
  9
$PLIMMIN
 10
0.0
 20
0.0
  9
$PLIMMAX
 10
12.0
 20
9.0
  9
$UNITMODE
 70
     0
  9
$VISRETAIN
 70
     1
  9
$PLINEGEN
 70
     0
  9
$PSLTSCALE
 70
     1
  9
$TREEDEPTH
 70
  3020
  9
$CMLSTYLE
  2
Standard
  9
$CMLJUST
 70
     0
  9
$CMLSCALE
 40
1.0
  9
$PROXYGRAPHICS
 70
     1
  9
$MEASUREMENT
 70
     0
  9
$CELWEIGHT
370
    -1
  9
$ENDCAPS
280
     0
  9
$JOINSTYLE
280
     0
  9
$LWDISPLAY
290
     1
  9
$INSUNITS
 70
     1
  9
$HYPERLINKBASE
  1

  9
$STYLESHEET
  1

  9
$XEDIT
290
     1
  9
$CEPSNTYPE
380
     0
  9
$PSTYLEMODE
290
     1
  9
$FINGERPRINTGUID
  2
{356F044C-CCDD-1B5A-7F3E-D9735490CE54}
  9
$VERSIONGUID
  2
{FAEB1C32-E019-11D5-929B-00C0DF256EC4}
  9
$EXTNAMES
290
     1
  9
$PSVPSCALE
 40
0.0
  9
$OLESTARTUP
290
     0
  0
ENDSEC
  0
SECTION
  2
CLASSES
  0
CLASS
  1
ACDBDICTIONARYWDFLT
  2
AcDbDictionaryWithDefault
  3
ObjectDBX Classes
 90
        0
280
     0
281
     0
  0
CLASS
  1
VISUALSTYLE
  2
AcDbVisualStyle
  3
ObjectDBX Classes
 90
     4095
280
     0
281
     0
  0
CLASS
  1
ACDBPLACEHOLDER
  2
AcDbPlaceHolder
  3
ObjectDBX Classes
 90
        0
280
     0
281
     0
  0
CLASS
  1
LAYOUT
  2
AcDbLayout
  3
ObjectDBX Classes
 90
        0
280
     0
281
     0
  0
ENDSEC
  0
SECTION
  2
TABLES
  0
TABLE
  2
VPORT
  5
8
330
0
100
AcDbSymbolTable
 70
     1
  0
VPORT
  5
29
330
8
100
AcDbSymbolTableRecord
100
AcDbViewportTableRecord
  2
*Active
 70
     0
 10
0.0
 20
0.0
 11
1.0
 21
1.0
 12
0.0
 22
0.0
 13
0.0
 23
0.0
 14
0.5
 24
0.5
 15
0.5
 25
0.5
 16
0.0
 26
0.0
 36
1.0
 17
17.81951044889384
 27
3.625002390487688
 37
0.0
 40
7.154171384445242
 41
5.047540222772277
 42
50.0
 43
0.0
 44
0.0
 50
0.0
 51
0.0
 71
     0
 72
   100
 73
     1
 74
     3
 75
     0
 76
     0
 77
     0
 78
     0
281
     0
 65
     1
110
0.0
120
0.0
130
0.0
111
1.0
121
0.0
131
0.0
112
0.0
122
1.0
132
0.0
 79
     0
146
0.0
  0
ENDTAB
  0
TABLE
  2
LTYPE
  5
5
330
0
100
AcDbSymbolTable
 70
     1
  0
LTYPE
  5
14
330
5
100
AcDbSymbolTableRecord
100
AcDbLinetypeTableRecord
  2
ByBlock
 70
     0
  3

 72
    65
 73
     0
 40
0.0
  0
LTYPE
  5
15
330
5
100
AcDbSymbolTableRecord
100
AcDbLinetypeTableRecord
  2
ByLayer
 70
     0
  3

 72
    65
 73
     0
 40
0.0
  0
LTYPE
  5
16
330
5
100
AcDbSymbolTableRecord
100
AcDbLinetypeTableRecord
  2
Continuous
 70
     0
  3
Solid line
 72
    65
 73
     0
 40
0.0
  0
ENDTAB
  0
TABLE
  2
LAYER
  5
2
330
0
100
AcDbSymbolTable
 70
     4
  0
LAYER
  5
10
330
2
100
AcDbSymbolTableRecord
100
AcDbLayerTableRecord
  2
0
 70
     0
 62
     7
  6
Continuous
370
    -3
390
F
  0
LAYER
  5
3B
330
2
100
AcDbSymbolTableRecord
100
AcDbLayerTableRecord
  2
cut
 70
     0
 62
     7
  6
Continuous
370
    -3
390
F
  0
LAYER
  5
82
330
2
100
AcDbSymbolTableRecord
100
AcDbLayerTableRecord
  2
score
 70
     0
 62
     7
  6
Continuous
370
    -3
390
F
  0
LAYER
  5
8D
330
2
100
AcDbSymbolTableRecord
100
AcDbLayerTableRecord
  2
place
 70
     0
 62
     7
  6
Continuous
370
    -3
390
F
  0
ENDTAB
  0
TABLE
  2
STYLE
  5
3
330
0
100
AcDbSymbolTable
 70
     1
  0
STYLE
  5
11
330
3
100
AcDbSymbolTableRecord
100
AcDbTextStyleTableRecord
  2
Standard
 70
     0
 40
0.0
 41
1.0
 50
0.0
 71
     0
 42
0.2
  3
txt
  4

  0
ENDTAB
  0
TABLE
  2
VIEW
  5
6
330
0
100
AcDbSymbolTable
 70
     0
  0
ENDTAB
  0
TABLE
  2
UCS
  5
7
330
0
100
AcDbSymbolTable
 70
     0
  0
ENDTAB
  0
TABLE
  2
APPID
  5
9
330
0
100
AcDbSymbolTable
 70
     1
  0
APPID
  5
12
330
9
100
AcDbSymbolTableRecord
100
AcDbRegAppTableRecord
  2
ACAD
 70
     0
  0
ENDTAB
  0
TABLE
  2
DIMSTYLE
  5
A
330
0
100
AcDbSymbolTable
 70
     1
100
AcDbDimStyleTable
  0
DIMSTYLE
105
27
330
A
100
AcDbSymbolTableRecord
100
AcDbDimStyleTableRecord
  2
Standard
 70
     0
340
11
  0
ENDTAB
  0
TABLE
  2
BLOCK_RECORD
  5
1
330
0
100
AcDbSymbolTable
 70
     1
  0
BLOCK_RECORD
  5
1F
330
1
100
AcDbSymbolTableRecord
100
AcDbBlockTableRecord
  2
*Model_Space
340
22
  0
BLOCK_RECORD
  5
1B
330
1
100
AcDbSymbolTableRecord
100
AcDbBlockTableRecord
  2
*Paper_Space
340
1E
  0
BLOCK_RECORD
  5
23
330
1
100
AcDbSymbolTableRecord
100
AcDbBlockTableRecord
  2
*Paper_Space0
340
26
  0
ENDTAB
  0
ENDSEC
  0
SECTION
  2
BLOCKS
  0
BLOCK
  5
20
330
1F
100
AcDbEntity
  8
0
100
AcDbBlockBegin
  2
*Model_Space
 70
     0
 71
     0
 10
0.0
 20
0.0
 30
0.0
  3
*Model_Space
  1

  0
ENDBLK
  5
21
330
1F
100
AcDbEntity
  8
0
100
AcDbBlockEnd
  0
BLOCK
  5
1C
330
1B
100
AcDbEntity
 67
     1
  8
0
100
AcDbBlockBegin
  2
*Paper_Space
 70
     0
 71
     0
 10
0.0
 20
0.0
 30
0.0
  3
*Paper_Space
  1

  0
ENDBLK
  5
1D
330
1B
100
AcDbEntity
 67
     1
  8
0
100
AcDbBlockEnd
  0
BLOCK
  5
24
330
23
100
AcDbEntity
  8
0
100
AcDbBlockBegin
  2
*Paper_Space0
 70
     0
 71
     0
 10
0.0
 20
0.0
 30
0.0
  3
*Paper_Space0
  1

  0
ENDBLK
  5
25
330
23
100
AcDbEntity
  8
0
100
AcDbBlockEnd
  0
ENDSEC
  0
SECTION
  2
ENTITIES
  0
SPLINE
  5
3C
330
1F
100
AcDbEntity
  8
cut
 62
   250
370
    35
100
AcDbSpline
210
0.0
220
0.0
230
1.0
 70
    11
 71
     3
 72
    89
 73
    85
 74
     0
 42
0.0000000001
 43
0.0000000001
 40
0.0
 40
0.0
 40
0.0
 40
0.0
 40
1.0
 40
1.0
 40
1.0
 40
2.0
 40
2.0
 40
2.0
 40
3.0
 40
3.0
 40
3.0
 40
4.0
 40
4.0
 40
4.0
 40
5.0
 40
5.0
 40
5.0
 40
6.0
 40
6.0
 40
6.0
 40
7.0
 40
7.0
 40
7.0
 40
8.0
 40
8.0
 40
8.0
 40
9.0
 40
9.0
 40
9.0
 40
10.0
 40
10.0
 40
10.0
 40
11.0
 40
11.0
 40
11.0
 40
12.0
 40
12.0
 40
12.0
 40
13.0
 40
13.0
 40
13.0
 40
14.0
 40
14.0
 40
14.0
 40
15.0
 40
15.0
 40
15.0
 40
16.0
 40
16.0
 40
16.0
 40
17.0
 40
17.0
 40
17.0
 40
18.0
 40
18.0
 40
18.0
 40
19.0
 40
19.0
 40
19.0
 40
20.0
 40
20.0
 40
20.0
 40
21.0
 40
21.0
 40
21.0
 40
22.0
 40
22.0
 40
22.0
 40
23.0
 40
23.0
 40
23.0
 40
24.0
 40
24.0
 40
24.0
 40
25.0
 40
25.0
 40
25.0
 40
26.0
 40
26.0
 40
26.0
 40
27.0
 40
27.0
 40
27.0
 40
28.0
 40
28.0
 40
28.0
 40
28.0
 10
5.830000589353167
 20
3.622832250167712
 30
0.0
 10
6.507396326856634
 20
3.862849769557043
 30
0.0
 10
6.994443631544217
 20
4.50876490904386
 30
0.0
 10
6.996993546420189
 20
5.266876303073429
 30
0.0
 10
6.996993546420189
 20
5.266876303073429
 30
0.0
 10
6.787751329443516
 20
5.057593395965757
 30
0.0
 10
6.787751329443516
 20
5.057593395965757
 30
0.0
 10
6.626116565736313
 20
4.440595376242618
 30
0.0
 10
6.064836898728555
 20
3.985299937111681
 30
0.0
 10
5.397098285648981
 20
3.985272810357682
 30
0.0
 10
4.60320670309381
 20
3.985313500488681
 30
0.0
 10
3.959597337696967
 20
4.628882175754524
 30
0.0
 10
3.959583774319967
 20
5.422800885063695
 30
0.0
 10
3.959597337696967
 20
6.078576599629403
 30
0.0
 10
4.398779484952083
 20
6.63175893056825
 30
0.0
 10
4.999026734080408
 20
6.80442071977633
 30
0.0
 10
4.999026734080408
 20
6.80442071977633
 30
0.0
 10
5.217030892598983
 20
7.022465568425906
 30
0.0
 10
5.217030892598983
 20
7.022465568425906
 30
0.0
 10
4.469471805875297
 20
7.009824501062047
 30
0.0
 10
3.834678635528356
 20
6.526086660362426
 30
0.0
 10
3.597075397244998
 20
5.856028709815877
 30
0.0
 10
3.356908680708669
 20
6.533532954335343
 30
0.0
 10
2.710627330042856
 20
7.020512442137928
 30
0.0
 10
1.952339612112289
 20
7.022791089473903
 30
0.0
 10
1.952339612112289
 20
7.022791089473903
 30
0.0
 10
2.161486885449963
 20
6.813643816136228
 30
0.0
 10
2.161486885449963
 20
6.813643816136228
 30
0.0
 10
2.778918933237097
 20
6.652321010100022
 30
0.0
 10
3.234594146924029
 20
6.090770075552267
 30
0.0
 10
3.23455345679303
 20
5.422814448440695
 30
0.0
 10
3.23456702017003
 20
4.628882175754524
 30
0.0
 10
2.590998344904186
 20
3.985272810357682
 30
0.0
 10
1.797052508841016
 20
3.985313500488681
 30
0.0
 10
1.141588751946305
 20
3.985299937111681
 30
0.0
 10
0.5886234350394541
 20
4.424020929548802
 30
0.0
 10
0.4156768149143774
 20
5.023915530875131
 30
0.0
 10
0.4156768149143774
 20
5.023915530875131
 30
0.0
 10
0.1975370226258033
 20
5.242082449917705
 30
0.0
 10
0.1975370226258033
 20
5.242082449917705
 30
0.0
 10
0.2104629209066595
 20
4.494753940603015
 30
0.0
 10
0.6941871982292802
 20
3.860218474419072
 30
0.0
 10
1.36413664175983
 20
3.622832250167712
 30
0.0
 10
0.694024437705282
 20
3.385296828769353
 30
0.0
 10
0.2101916533666625
 20
2.750490095045413
 30
0.0
 10
0.1975098958718036
 20
2.002903881567727
 30
0.0
 10
0.1975098958718036
 20
2.002903881567727
 30
0.0
 10
0.41544623750538
 20
2.220840223201303
 30
0.0
 10
0.41544623750538
 20
2.220840223201303
 30
0.0
 10
0.5880944633364601
 20
2.821101035706628
 30
0.0
 10
1.141276794275308
 20
3.260337436469743
 30
0.0
 10
1.797093198972015
 20
3.260337436469743
 30
0.0
 10
2.590971218150187
 20
3.260337436469743
 30
0.0
 10
3.23455345679303
 20
2.6167416344499
 30
0.0
 10
3.23458058354703
 20
1.822809361763729
 30
0.0
 10
3.23456702017003
 20
1.155138565569154
 30
0.0
 10
2.779339397924092
 20
0.5938317718073962
 30
0.0
 10
2.162327814823954
 20
0.4322376982311932
 30
0.0
 10
2.162327814823954
 20
0.4322376982311932
 30
0.0
 10
1.952963527454282
 20
0.2228462841075218
 30
0.0
 10
1.952963527454282
 20
0.2228462841075218
 30
0.0
 10
2.711007104598852
 20
0.2253555088524939
 30
0.0
 10
3.356976497593668
 20
0.712280743147079
 30
0.0
 10
3.597088960621998
 20
1.389622227142547
 30
0.0
 10
3.834597255266357
 20
0.7196863469889967
 30
0.0
 10
4.4691598482043
 20
0.2360570133053749
 30
0.0
 10
5.21640697725699
 20
0.2231853685325181
 30
0.0
 10
5.21640697725699
 20
0.2231853685325181
 30
0.0
 10
4.998090861067419
 20
0.4415150480990901
 30
0.0
 10
4.998090861067419
 20
0.4415150480990901
 30
0.0
 10
4.398318330134088
 20
0.6144481048471669
 30
0.0
 10
3.959610901073967
 20
1.167372731623018
 30
0.0
 10
3.959597337696967
 20
1.822836488517729
 30
0.0
 10
3.959610901073967
 20
2.616728071072901
 30
0.0
 10
4.60317957633981
 20
3.260337436469743
 30
0.0
 10
5.397098285648981
 20
3.260337436469743
 30
0.0
 10
6.065121729645552
 20
3.260337436469743
 30
0.0
 10
6.626672664193308
 20
2.804580842520811
 30
0.0
 10
6.788009033606513
 20
2.187121667979678
 30
0.0
 10
6.788009033606513
 20
2.187121667979678
 30
0.0
 10
6.997007109797189
 20
1.978110028412002
 30
0.0
 10
6.997007109797189
 20
1.978110028412002
 30
0.0
 10
6.994742025838215
 20
2.736438436473569
 30
0.0
 10
6.507613340888631
 20
3.382665533631383
 30
0.0
 10
5.830000589353167
 20
3.622832250167712
 30
0.0
  0
POLYLINE
  5
3D
330
1F
100
AcDbEntity
  8
cut
 62
   250
370
    35
100
AcDb2dPolyline
 66
     1
 10
0.0
 20
0.0
 30
0.0
  0
VERTEX
  5
3E
330
3D
100
AcDbEntity
  8
cut
 62
   250
370
    35
100
AcDbVertex
100
AcDb2dVertex
 10
3.389826996687303
 20
3.712391228497716
 30
0.0
  0
VERTEX
  5
95
330
3D
100
AcDbEntity
  8
0
100
AcDbVertex
100
AcDb2dVertex
 10
3.389826996687303
 20
3.712391228497716
 30
0.0
  0
SEQEND
  5
3F
330
3D
100
AcDbEntity
  8
cut
370
    35
  0
POLYLINE
  5
40
330
1F
100
AcDbEntity
  8
cut
 62
   250
370
    35
100
AcDb2dPolyline
 66
     1
 10
0.0
 20
0.0
 30
0.0
  0
VERTEX
  5
41
330
40
100
AcDbEntity
  8
cut
 62
   250
370
    35
100
AcDbVertex
100
AcDb2dVertex
 10
3.507679179438993
 20
3.415366835578019
 30
0.0
  0
VERTEX
  5
96
330
40
100
AcDbEntity
  8
0
100
AcDbVertex
100
AcDb2dVertex
 10
3.507679179438993
 20
3.415366835578019
 30
0.0
  0
SEQEND
  5
42
330
40
100
AcDbEntity
  8
cut
370
    35
  0
POLYLINE
  5
43
330
1F
100
AcDbEntity
  8
cut
 62
   250
370
    35
100
AcDb2dPolyline
 66
     1
 10
0.0
 20
0.0
 30
0.0
  0
VERTEX
  5
44
330
43
100
AcDbEntity
  8
cut
 62
   250
370
    35
100
AcDbVertex
100
AcDb2dVertex
 10
3.686824262853
 20
3.830216284495406
 30
0.0
  0
VERTEX
  5
97
330
43
100
AcDbEntity
  8
0
100
AcDbVertex
100
AcDb2dVertex
 10
3.686824262853
 20
3.830216284495406
 30
0.0
  0
SEQEND
  5
45
330
43
100
AcDbEntity
  8
cut
370
    35
  0
POLYLINE
  5
46
330
1F
100
AcDbEntity
  8
cut
 62
   250
370
    35
100
AcDb2dPolyline
 66
     1
 10
0.0
 20
0.0
 30
0.0
  0
VERTEX
  5
47
330
46
100
AcDbEntity
  8
cut
 62
   250
370
    35
100
AcDbVertex
100
AcDb2dVertex
 10
3.682253404804051
 20
3.875165315872906
 30
0.0
  0
VERTEX
  5
98
330
46
100
AcDbEntity
  8
0
100
AcDbVertex
100
AcDb2dVertex
 10
3.682253404804051
 20
3.875165315872906
 30
0.0
  0
SEQEND
  5
48
330
46
100
AcDbEntity
  8
cut
370
    35
  0
SPLINE
  5
49
330
1F
100
AcDbEntity
  8
cut
 62
   250
370
    35
100
AcDbSpline
210
0.0
220
0.0
230
1.0
 70
     8
 71
     3
 72
   110
 73
   106
 74
     0
 42
0.0000000001
 43
0.0000000001
 40
0.0
 40
0.0
 40
0.0
 40
0.0
 40
1.0
 40
1.0
 40
1.0
 40
2.0
 40
2.0
 40
2.0
 40
3.0
 40
3.0
 40
3.0
 40
4.0
 40
4.0
 40
4.0
 40
5.0
 40
5.0
 40
5.0
 40
6.0
 40
6.0
 40
6.0
 40
7.0
 40
7.0
 40
7.0
 40
8.0
 40
8.0
 40
8.0
 40
9.0
 40
9.0
 40
9.0
 40
10.0
 40
10.0
 40
10.0
 40
11.0
 40
11.0
 40
11.0
 40
12.0
 40
12.0
 40
12.0
 40
13.0
 40
13.0
 40
13.0
 40
14.0
 40
14.0
 40
14.0
 40
15.0
 40
15.0
 40
15.0
 40
16.0
 40
16.0
 40
16.0
 40
17.0
 40
17.0
 40
17.0
 40
18.0
 40
18.0
 40
18.0
 40
19.0
 40
19.0
 40
19.0
 40
20.0
 40
20.0
 40
20.0
 40
21.0
 40
21.0
 40
21.0
 40
22.0
 40
22.0
 40
22.0
 40
23.0
 40
23.0
 40
23.0
 40
24.0
 40
24.0
 40
24.0
 40
25.0
 40
25.0
 40
25.0
 40
26.0
 40
26.0
 40
26.0
 40
27.0
 40
27.0
 40
27.0
 40
28.0
 40
28.0
 40
28.0
 40
29.0
 40
29.0
 40
29.0
 40
30.0
 40
30.0
 40
30.0
 40
31.0
 40
31.0
 40
31.0
 40
32.0
 40
32.0
 40
32.0
 40
33.0
 40
33.0
 40
33.0
 40
34.0
 40
34.0
 40
34.0
 40
35.0
 40
35.0
 40
35.0
 40
35.0
 10
3.103856756022483
 20
3.704293892428806
 30
0.0
 10
3.116877597942338
 20
3.783843098532921
 30
0.0
 10
3.148697280383985
 20
3.857058207578107
 30
0.0
 10
3.194595748151474
 20
3.919246291122416
 30
0.0
 10
3.194595748151474
 20
3.919246291122416
 30
0.0
 10
3.188451538370543
 20
3.913766686814477
 30
0.0
 10
3.188451538370543
 20
3.913766686814477
 30
0.0
 10
3.188451538370543
 20
3.913766686814477
 30
0.0
 10
3.306303721122232
 20
4.031618869566166
 30
0.0
 10
3.306303721122232
 20
4.031618869566166
 30
0.0
 10
3.306303721122232
 20
4.031618869566166
 30
0.0
 10
3.507706306192992
 20
3.830243411249405
 30
0.0
 10
3.507706306192992
 20
3.830243411249405
 30
0.0
 10
3.507706306192992
 20
3.830243411249405
 30
0.0
 10
3.512222910733942
 20
3.824221271861473
 30
0.0
 10
3.512222910733942
 20
3.824221271861473
 30
0.0
 10
3.512222910733942
 20
3.824221271861473
 30
0.0
 10
3.512222910733942
 20
4.727732067329425
 30
0.0
 10
3.512209347356942
 20
4.727732067329425
 30
0.0
 10
3.512209347356942
 20
4.727732067329425
 30
0.0
 10
3.682226278050051
 20
4.727827010968424
 30
0.0
 10
3.682226278050051
 20
4.727827010968424
 30
0.0
 10
3.682226278050051
 20
4.727827010968424
 30
0.0
 10
3.682253404804051
 20
4.119319665247191
 30
0.0
 10
3.682253404804051
 20
4.119319665247191
 30
0.0
 10
3.682253404804051
 20
4.119319665247191
 30
0.0
 10
3.682036390772053
 20
4.115643990080232
 30
0.0
 10
3.682036390772053
 20
4.115643990080232
 30
0.0
 10
3.762236638972162
 20
4.101944979310383
 30
0.0
 10
3.835872212704343
 20
4.069148733724749
 30
0.0
 10
3.89818236664165
 20
4.022124505666271
 30
0.0
 10
3.89818236664165
 20
4.022124505666271
 30
0.0
 10
3.888199721169761
 20
4.031591742812166
 30
0.0
 10
3.888199721169761
 20
4.031591742812166
 30
0.0
 10
3.888199721169761
 20
4.031591742812166
 30
0.0
 10
4.006011213790451
 20
3.913780250191476
 30
0.0
 10
4.006011213790451
 20
3.913780250191476
 30
0.0
 10
4.006011213790451
 20
3.913780250191476
 30
0.0
 10
3.80463575547369
 20
3.712404791874716
 30
0.0
 10
3.80463575547369
 20
3.712404791874716
 30
0.0
 10
3.80463575547369
 20
3.712404791874716
 30
0.0
 10
3.798640742839757
 20
3.707847497202767
 30
0.0
 10
3.798640742839757
 20
3.707847497202767
 30
0.0
 10
3.798640742839757
 20
3.707847497202767
 30
0.0
 10
4.702219355192709
 20
3.707833933825767
 30
0.0
 10
4.702219355192709
 20
3.707833933825767
 30
0.0
 10
4.702219355192709
 20
3.707833933825767
 30
0.0
 10
4.702232918569709
 20
3.537817003132657
 30
0.0
 10
4.702232918569709
 20
3.537817003132657
 30
0.0
 10
4.702232918569709
 20
3.537817003132657
 30
0.0
 10
4.092057277477494
 20
3.537830566509657
 30
0.0
 10
4.092057277477494
 20
3.537830566509657
 30
0.0
 10
4.092057277477494
 20
3.537830566509657
 30
0.0
 10
4.090985770694505
 20
3.543377987702596
 30
0.0
 10
4.090985770694505
 20
3.543377987702596
 30
0.0
 10
4.078602407493643
 20
3.465781907886458
 30
0.0
 10
4.04835607678398
 20
3.394126587196255
 30
0.0
 10
4.004614185959467
 20
3.332792996402937
 30
0.0
 10
4.004614185959467
 20
3.332792996402937
 30
0.0
 10
4.00605190392145
 20
3.331870686766948
 30
0.0
 10
4.00605190392145
 20
3.331870686766948
 30
0.0
 10
4.00605190392145
 20
3.331870686766948
 30
0.0
 10
3.888199721169761
 20
3.214018504015258
 30
0.0
 10
3.888199721169761
 20
3.214018504015258
 30
0.0
 10
3.888199721169761
 20
3.214018504015258
 30
0.0
 10
3.686810699476001
 20
3.415366835578019
 30
0.0
 10
3.686810699476001
 20
3.415366835578019
 30
0.0
 10
3.686810699476001
 20
3.415366835578019
 30
0.0
 10
3.682253404804051
 20
3.414458089319029
 30
0.0
 10
3.682253404804051
 20
3.414458089319029
 30
0.0
 10
3.682253404804051
 20
3.414458089319029
 30
0.0
 10
3.682253404804051
 20
2.517837489367
 30
0.0
 10
3.682253404804051
 20
2.517837489367
 30
0.0
 10
3.682253404804051
 20
2.517837489367
 30
0.0
 10
3.512236474110942
 20
2.51782392599
 30
0.0
 10
3.512236474110942
 20
2.51782392599
 30
0.0
 10
3.512236474110942
 20
2.51782392599
 30
0.0
 10
3.512236474110942
 20
3.130318904549189
 30
0.0
 10
3.512236474110942
 20
3.130318904549189
 30
0.0
 10
3.512236474110942
 20
3.130318904549189
 30
0.0
 10
3.510500361854961
 20
3.130291777795189
 30
0.0
 10
3.510500361854961
 20
3.130291777795189
 30
0.0
 10
3.432212549811832
 20
3.143990788565037
 30
0.0
 10
3.360231708073632
 20
3.175891851268682
 30
0.0
 10
3.299033751050313
 20
3.221437671234176
 30
0.0
 10
3.299033751050313
 20
3.221437671234176
 30
0.0
 10
3.306290157745232
 20
3.214032067392258
 30
0.0
 10
3.306290157745232
 20
3.214032067392258
 30
0.0
 10
3.306290157745232
 20
3.214032067392258
 30
0.0
 10
3.188465101747542
 20
3.331857123389948
 30
0.0
 10
3.188465101747542
 20
3.331857123389948
 30
0.0
 10
3.188465101747542
 20
3.331857123389948
 30
0.0
 10
3.389826996687303
 20
3.533259708460708
 30
0.0
 10
3.389826996687303
 20
3.533259708460708
 30
0.0
 10
3.389826996687303
 20
3.533259708460708
 30
0.0
 10
3.390627235930294
 20
3.537817003132657
 30
0.0
 10
3.390627235930294
 20
3.537817003132657
 30
0.0
 10
3.390627235930294
 20
3.537817003132657
 30
0.0
 10
2.492229833591285
 20
3.537817003132657
 30
0.0
 10
2.492229833591285
 20
3.537817003132657
 30
0.0
 10
2.492229833591285
 20
3.537817003132657
 30
0.0
 10
2.492311213853284
 20
3.707820370448767
 30
0.0
 10
2.492311213853284
 20
3.707820370448767
 30
0.0
 10
2.492311213853284
 20
3.707820370448767
 30
0.0
 10
3.106501614537454
 20
3.707820370448767
 30
0.0
 10
3.106501614537454
 20
3.707820370448767
 30
0.0
  0
SPLINE
  5
4A
330
1F
100
AcDbEntity
  8
cut
 62
   250
370
    35
100
AcDbSpline
210
0.0
220
0.0
230
1.0
 70
    11
 71
     3
 72
    89
 73
    85
 74
     0
 42
0.0000000001
 43
0.0000000001
 40
0.0
 40
0.0
 40
0.0
 40
0.0
 40
1.0
 40
1.0
 40
1.0
 40
2.0
 40
2.0
 40
2.0
 40
3.0
 40
3.0
 40
3.0
 40
4.0
 40
4.0
 40
4.0
 40
5.0
 40
5.0
 40
5.0
 40
6.0
 40
6.0
 40
6.0
 40
7.0
 40
7.0
 40
7.0
 40
8.0
 40
8.0
 40
8.0
 40
9.0
 40
9.0
 40
9.0
 40
10.0
 40
10.0
 40
10.0
 40
11.0
 40
11.0
 40
11.0
 40
12.0
 40
12.0
 40
12.0
 40
13.0
 40
13.0
 40
13.0
 40
14.0
 40
14.0
 40
14.0
 40
15.0
 40
15.0
 40
15.0
 40
16.0
 40
16.0
 40
16.0
 40
17.0
 40
17.0
 40
17.0
 40
18.0
 40
18.0
 40
18.0
 40
19.0
 40
19.0
 40
19.0
 40
20.0
 40
20.0
 40
20.0
 40
21.0
 40
21.0
 40
21.0
 40
22.0
 40
22.0
 40
22.0
 40
23.0
 40
23.0
 40
23.0
 40
24.0
 40
24.0
 40
24.0
 40
25.0
 40
25.0
 40
25.0
 40
26.0
 40
26.0
 40
26.0
 40
27.0
 40
27.0
 40
27.0
 40
28.0
 40
28.0
 40
28.0
 40
28.0
 10
12.71889402108456
 20
3.622832250167712
 30
0.0
 10
13.39628975858803
 20
3.862849769557043
 30
0.0
 10
13.88333706327561
 20
4.50876490904386
 30
0.0
 10
13.88588697815158
 20
5.266876303073429
 30
0.0
 10
13.88588697815158
 20
5.266876303073429
 30
0.0
 10
13.67664476117491
 20
5.057593395965757
 30
0.0
 10
13.67664476117491
 20
5.057593395965757
 30
0.0
 10
13.51500999746771
 20
4.440595376242618
 30
0.0
 10
12.95373033045995
 20
3.985299937111681
 30
0.0
 10
12.28599171738037
 20
3.985272810357682
 30
0.0
 10
11.4921001348252
 20
3.985313500488681
 30
0.0
 10
10.84849076942836
 20
4.628882175754524
 30
0.0
 10
10.84847720605136
 20
5.422800885063695
 30
0.0
 10
10.84849076942836
 20
6.078576599629403
 30
0.0
 10
11.28767291668347
 20
6.63175893056825
 30
0.0
 10
11.8879201658118
 20
6.80442071977633
 30
0.0
 10
11.8879201658118
 20
6.80442071977633
 30
0.0
 10
12.10592432433038
 20
7.022465568425906
 30
0.0
 10
12.10592432433038
 20
7.022465568425906
 30
0.0
 10
11.35836523760669
 20
7.009824501062047
 30
0.0
 10
10.72357206725975
 20
6.526086660362426
 30
0.0
 10
10.48596882897639
 20
5.856028709815877
 30
0.0
 10
10.24580211244006
 20
6.533532954335343
 30
0.0
 10
9.599520761774247
 20
7.020512442137928
 30
0.0
 10
8.84123304384368
 20
7.022791089473903
 30
0.0
 10
8.84123304384368
 20
7.022791089473903
 30
0.0
 10
9.050380317181354
 20
6.813643816136228
 30
0.0
 10
9.050380317181354
 20
6.813643816136228
 30
0.0
 10
9.667812364968489
 20
6.652321010100022
 30
0.0
 10
10.12348757865542
 20
6.090770075552267
 30
0.0
 10
10.12344688852442
 20
5.422814448440695
 30
0.0
 10
10.12346045190142
 20
4.628882175754524
 30
0.0
 10
9.479891776635577
 20
3.985272810357682
 30
0.0
 10
8.685945940572408
 20
3.985313500488681
 30
0.0
 10
8.030482183677696
 20
3.985299937111681
 30
0.0
 10
7.477516866770846
 20
4.424020929548802
 30
0.0
 10
7.304570246645769
 20
5.023915530875131
 30
0.0
 10
7.304570246645769
 20
5.023915530875131
 30
0.0
 10
7.086430454357195
 20
5.242082449917705
 30
0.0
 10
7.086430454357195
 20
5.242082449917705
 30
0.0
 10
7.099356352638051
 20
4.494753940603015
 30
0.0
 10
7.583080629960672
 20
3.860218474419072
 30
0.0
 10
8.253030073491221
 20
3.622832250167712
 30
0.0
 10
7.582917869436673
 20
3.385296828769353
 30
0.0
 10
7.099085085098054
 20
2.750490095045413
 30
0.0
 10
7.086403327603195
 20
2.002903881567727
 30
0.0
 10
7.086403327603195
 20
2.002903881567727
 30
0.0
 10
7.304339669236771
 20
2.220840223201303
 30
0.0
 10
7.304339669236771
 20
2.220840223201303
 30
0.0
 10
7.476987895067851
 20
2.821101035706628
 30
0.0
 10
8.0301702260067
 20
3.260337436469743
 30
0.0
 10
8.685986630703407
 20
3.260337436469743
 30
0.0
 10
9.479864649881579
 20
3.260337436469743
 30
0.0
 10
10.12344688852442
 20
2.6167416344499
 30
0.0
 10
10.12347401527842
 20
1.822809361763729
 30
0.0
 10
10.12346045190142
 20
1.155138565569154
 30
0.0
 10
9.668232829655484
 20
0.5938317718073962
 30
0.0
 10
9.051221246555345
 20
0.4322376982311932
 30
0.0
 10
9.051221246555345
 20
0.4322376982311932
 30
0.0
 10
8.841856959185673
 20
0.2228462841075218
 30
0.0
 10
8.841856959185673
 20
0.2228462841075218
 30
0.0
 10
9.599900536330244
 20
0.2253555088524939
 30
0.0
 10
10.24586992932506
 20
0.712280743147079
 30
0.0
 10
10.48598239235339
 20
1.389622227142547
 30
0.0
 10
10.72349068699775
 20
0.7196863469889967
 30
0.0
 10
11.35805327993569
 20
0.2360570133053749
 30
0.0
 10
12.10530040898838
 20
0.2231853685325181
 30
0.0
 10
12.10530040898838
 20
0.2231853685325181
 30
0.0
 10
11.88698429279881
 20
0.4415150480990901
 30
0.0
 10
11.88698429279881
 20
0.4415150480990901
 30
0.0
 10
11.28721176186548
 20
0.6144481048471669
 30
0.0
 10
10.84850433280536
 20
1.167372731623018
 30
0.0
 10
10.84849076942836
 20
1.822836488517729
 30
0.0
 10
10.84850433280536
 20
2.616728071072901
 30
0.0
 10
11.4920730080712
 20
3.260337436469743
 30
0.0
 10
12.28599171738037
 20
3.260337436469743
 30
0.0
 10
12.95401516137694
 20
3.260337436469743
 30
0.0
 10
13.5155660959247
 20
2.804580842520811
 30
0.0
 10
13.67690246533791
 20
2.187121667979678
 30
0.0
 10
13.67690246533791
 20
2.187121667979678
 30
0.0
 10
13.88590054152858
 20
1.978110028412002
 30
0.0
 10
13.88590054152858
 20
1.978110028412002
 30
0.0
 10
13.88363545756961
 20
2.736438436473569
 30
0.0
 10
13.39650677262002
 20
3.382665533631383
 30
0.0
 10
12.71889402108456
 20
3.622832250167712
 30
0.0
  0
POLYLINE
  5
4B
330
1F
100
AcDbEntity
  8
cut
 62
   250
370
    35
100
AcDb2dPolyline
 66
     1
 10
0.0
 20
0.0
 30
0.0
  0
VERTEX
  5
4C
330
4B
100
AcDbEntity
  8
cut
 62
   250
370
    35
100
AcDbVertex
100
AcDb2dVertex
 10
10.27872042841869
 20
3.712391228497716
 30
0.0
  0
VERTEX
  5
99
330
4B
100
AcDbEntity
  8
0
100
AcDbVertex
100
AcDb2dVertex
 10
10.27872042841869
 20
3.712391228497716
 30
0.0
  0
SEQEND
  5
4D
330
4B
100
AcDbEntity
  8
cut
370
    35
  0
POLYLINE
  5
4E
330
1F
100
AcDbEntity
  8
cut
 62
   250
370
    35
100
AcDb2dPolyline
 66
     1
 10
0.0
 20
0.0
 30
0.0
  0
VERTEX
  5
4F
330
4E
100
AcDbEntity
  8
cut
 62
   250
370
    35
100
AcDbVertex
100
AcDb2dVertex
 10
10.39657261117038
 20
3.415366835578019
 30
0.0
  0
VERTEX
  5
9A
330
4E
100
AcDbEntity
  8
0
100
AcDbVertex
100
AcDb2dVertex
 10
10.39657261117038
 20
3.415366835578019
 30
0.0
  0
SEQEND
  5
50
330
4E
100
AcDbEntity
  8
cut
370
    35
  0
POLYLINE
  5
51
330
1F
100
AcDbEntity
  8
cut
 62
   250
370
    35
100
AcDb2dPolyline
 66
     1
 10
0.0
 20
0.0
 30
0.0
  0
VERTEX
  5
52
330
51
100
AcDbEntity
  8
cut
 62
   250
370
    35
100
AcDbVertex
100
AcDb2dVertex
 10
10.57571769458439
 20
3.830216284495406
 30
0.0
  0
VERTEX
  5
9B
330
51
100
AcDbEntity
  8
0
100
AcDbVertex
100
AcDb2dVertex
 10
10.57571769458439
 20
3.830216284495406
 30
0.0
  0
SEQEND
  5
53
330
51
100
AcDbEntity
  8
cut
370
    35
  0
POLYLINE
  5
54
330
1F
100
AcDbEntity
  8
cut
 62
   250
370
    35
100
AcDb2dPolyline
 66
     1
 10
0.0
 20
0.0
 30
0.0
  0
VERTEX
  5
55
330
54
100
AcDbEntity
  8
cut
 62
   250
370
    35
100
AcDbVertex
100
AcDb2dVertex
 10
10.57114683653544
 20
3.875165315872906
 30
0.0
  0
VERTEX
  5
9C
330
54
100
AcDbEntity
  8
0
100
AcDbVertex
100
AcDb2dVertex
 10
10.57114683653544
 20
3.875165315872906
 30
0.0
  0
SEQEND
  5
56
330
54
100
AcDbEntity
  8
cut
370
    35
  0
SPLINE
  5
57
330
1F
100
AcDbEntity
  8
cut
 62
   250
370
    35
100
AcDbSpline
210
0.0
220
0.0
230
1.0
 70
     8
 71
     3
 72
   110
 73
   106
 74
     0
 42
0.0000000001
 43
0.0000000001
 40
0.0
 40
0.0
 40
0.0
 40
0.0
 40
1.0
 40
1.0
 40
1.0
 40
2.0
 40
2.0
 40
2.0
 40
3.0
 40
3.0
 40
3.0
 40
4.0
 40
4.0
 40
4.0
 40
5.0
 40
5.0
 40
5.0
 40
6.0
 40
6.0
 40
6.0
 40
7.0
 40
7.0
 40
7.0
 40
8.0
 40
8.0
 40
8.0
 40
9.0
 40
9.0
 40
9.0
 40
10.0
 40
10.0
 40
10.0
 40
11.0
 40
11.0
 40
11.0
 40
12.0
 40
12.0
 40
12.0
 40
13.0
 40
13.0
 40
13.0
 40
14.0
 40
14.0
 40
14.0
 40
15.0
 40
15.0
 40
15.0
 40
16.0
 40
16.0
 40
16.0
 40
17.0
 40
17.0
 40
17.0
 40
18.0
 40
18.0
 40
18.0
 40
19.0
 40
19.0
 40
19.0
 40
20.0
 40
20.0
 40
20.0
 40
21.0
 40
21.0
 40
21.0
 40
22.0
 40
22.0
 40
22.0
 40
23.0
 40
23.0
 40
23.0
 40
24.0
 40
24.0
 40
24.0
 40
25.0
 40
25.0
 40
25.0
 40
26.0
 40
26.0
 40
26.0
 40
27.0
 40
27.0
 40
27.0
 40
28.0
 40
28.0
 40
28.0
 40
29.0
 40
29.0
 40
29.0
 40
30.0
 40
30.0
 40
30.0
 40
31.0
 40
31.0
 40
31.0
 40
32.0
 40
32.0
 40
32.0
 40
33.0
 40
33.0
 40
33.0
 40
34.0
 40
34.0
 40
34.0
 40
35.0
 40
35.0
 40
35.0
 40
35.0
 10
9.992750187753874
 20
3.704293892428806
 30
0.0
 10
10.00577102967373
 20
3.783843098532921
 30
0.0
 10
10.03759071211538
 20
3.857058207578107
 30
0.0
 10
10.08348917988287
 20
3.919246291122416
 30
0.0
 10
10.08348917988287
 20
3.919246291122416
 30
0.0
 10
10.07734497010193
 20
3.913766686814477
 30
0.0
 10
10.07734497010193
 20
3.913766686814477
 30
0.0
 10
10.07734497010193
 20
3.913766686814477
 30
0.0
 10
10.19519715285362
 20
4.031618869566166
 30
0.0
 10
10.19519715285362
 20
4.031618869566166
 30
0.0
 10
10.19519715285362
 20
4.031618869566166
 30
0.0
 10
10.39659973792438
 20
3.830243411249405
 30
0.0
 10
10.39659973792438
 20
3.830243411249405
 30
0.0
 10
10.39659973792438
 20
3.830243411249405
 30
0.0
 10
10.40111634246533
 20
3.824221271861473
 30
0.0
 10
10.40111634246533
 20
3.824221271861473
 30
0.0
 10
10.40111634246533
 20
3.824221271861473
 30
0.0
 10
10.40111634246533
 20
4.727732067329425
 30
0.0
 10
10.40110277908833
 20
4.727732067329425
 30
0.0
 10
10.40110277908833
 20
4.727732067329425
 30
0.0
 10
10.57111970978144
 20
4.727827010968424
 30
0.0
 10
10.57111970978144
 20
4.727827010968424
 30
0.0
 10
10.57111970978144
 20
4.727827010968424
 30
0.0
 10
10.57114683653544
 20
4.119319665247191
 30
0.0
 10
10.57114683653544
 20
4.119319665247191
 30
0.0
 10
10.57114683653544
 20
4.119319665247191
 30
0.0
 10
10.57092982250344
 20
4.115643990080232
 30
0.0
 10
10.57092982250344
 20
4.115643990080232
 30
0.0
 10
10.65113007070355
 20
4.101944979310383
 30
0.0
 10
10.72476564443573
 20
4.069148733724749
 30
0.0
 10
10.78707579837304
 20
4.022124505666271
 30
0.0
 10
10.78707579837304
 20
4.022124505666271
 30
0.0
 10
10.77709315290115
 20
4.031591742812166
 30
0.0
 10
10.77709315290115
 20
4.031591742812166
 30
0.0
 10
10.77709315290115
 20
4.031591742812166
 30
0.0
 10
10.89490464552184
 20
3.913780250191476
 30
0.0
 10
10.89490464552184
 20
3.913780250191476
 30
0.0
 10
10.89490464552184
 20
3.913780250191476
 30
0.0
 10
10.69352918720508
 20
3.712404791874716
 30
0.0
 10
10.69352918720508
 20
3.712404791874716
 30
0.0
 10
10.69352918720508
 20
3.712404791874716
 30
0.0
 10
10.68753417457115
 20
3.707847497202767
 30
0.0
 10
10.68753417457115
 20
3.707847497202767
 30
0.0
 10
10.68753417457115
 20
3.707847497202767
 30
0.0
 10
11.5911127869241
 20
3.707833933825767
 30
0.0
 10
11.5911127869241
 20
3.707833933825767
 30
0.0
 10
11.5911127869241
 20
3.707833933825767
 30
0.0
 10
11.5911263503011
 20
3.537817003132657
 30
0.0
 10
11.5911263503011
 20
3.537817003132657
 30
0.0
 10
11.5911263503011
 20
3.537817003132657
 30
0.0
 10
10.98095070920889
 20
3.537830566509657
 30
0.0
 10
10.98095070920889
 20
3.537830566509657
 30
0.0
 10
10.98095070920889
 20
3.537830566509657
 30
0.0
 10
10.9798792024259
 20
3.543377987702596
 30
0.0
 10
10.9798792024259
 20
3.543377987702596
 30
0.0
 10
10.96749583922504
 20
3.465781907886458
 30
0.0
 10
10.93724950851537
 20
3.394126587196255
 30
0.0
 10
10.89350761769086
 20
3.332792996402937
 30
0.0
 10
10.89350761769086
 20
3.332792996402937
 30
0.0
 10
10.89494533565284
 20
3.331870686766948
 30
0.0
 10
10.89494533565284
 20
3.331870686766948
 30
0.0
 10
10.89494533565284
 20
3.331870686766948
 30
0.0
 10
10.77709315290115
 20
3.214018504015258
 30
0.0
 10
10.77709315290115
 20
3.214018504015258
 30
0.0
 10
10.77709315290115
 20
3.214018504015258
 30
0.0
 10
10.57570413120739
 20
3.415366835578019
 30
0.0
 10
10.57570413120739
 20
3.415366835578019
 30
0.0
 10
10.57570413120739
 20
3.415366835578019
 30
0.0
 10
10.57114683653544
 20
3.414458089319029
 30
0.0
 10
10.57114683653544
 20
3.414458089319029
 30
0.0
 10
10.57114683653544
 20
3.414458089319029
 30
0.0
 10
10.57114683653544
 20
2.517837489367
 30
0.0
 10
10.57114683653544
 20
2.517837489367
 30
0.0
 10
10.57114683653544
 20
2.517837489367
 30
0.0
 10
10.40112990584233
 20
2.51782392599
 30
0.0
 10
10.40112990584233
 20
2.51782392599
 30
0.0
 10
10.40112990584233
 20
2.51782392599
 30
0.0
 10
10.40112990584233
 20
3.130318904549189
 30
0.0
 10
10.40112990584233
 20
3.130318904549189
 30
0.0
 10
10.40112990584233
 20
3.130318904549189
 30
0.0
 10
10.39939379358635
 20
3.130291777795189
 30
0.0
 10
10.39939379358635
 20
3.130291777795189
 30
0.0
 10
10.32110598154322
 20
3.143990788565037
 30
0.0
 10
10.24912513980502
 20
3.175891851268682
 30
0.0
 10
10.1879271827817
 20
3.221437671234176
 30
0.0
 10
10.1879271827817
 20
3.221437671234176
 30
0.0
 10
10.19518358947662
 20
3.214032067392258
 30
0.0
 10
10.19518358947662
 20
3.214032067392258
 30
0.0
 10
10.19518358947662
 20
3.214032067392258
 30
0.0
 10
10.07735853347893
 20
3.331857123389948
 30
0.0
 10
10.07735853347893
 20
3.331857123389948
 30
0.0
 10
10.07735853347893
 20
3.331857123389948
 30
0.0
 10
10.27872042841869
 20
3.533259708460708
 30
0.0
 10
10.27872042841869
 20
3.533259708460708
 30
0.0
 10
10.27872042841869
 20
3.533259708460708
 30
0.0
 10
10.27952066766169
 20
3.537817003132657
 30
0.0
 10
10.27952066766169
 20
3.537817003132657
 30
0.0
 10
10.27952066766169
 20
3.537817003132657
 30
0.0
 10
9.381123265322676
 20
3.537817003132657
 30
0.0
 10
9.381123265322676
 20
3.537817003132657
 30
0.0
 10
9.381123265322676
 20
3.537817003132657
 30
0.0
 10
9.381204645584676
 20
3.707820370448767
 30
0.0
 10
9.381204645584676
 20
3.707820370448767
 30
0.0
 10
9.381204645584676
 20
3.707820370448767
 30
0.0
 10
9.995395046268845
 20
3.707820370448767
 30
0.0
 10
9.995395046268845
 20
3.707820370448767
 30
0.0
  0
SPLINE
  5
58
330
1F
100
AcDbEntity
  8
cut
 62
   250
370
    35
100
AcDbSpline
210
0.0
220
0.0
230
1.0
 70
    11
 71
     3
 72
    89
 73
    85
 74
     0
 42
0.0000000001
 43
0.0000000001
 40
0.0
 40
0.0
 40
0.0
 40
0.0
 40
1.0
 40
1.0
 40
1.0
 40
2.0
 40
2.0
 40
2.0
 40
3.0
 40
3.0
 40
3.0
 40
4.0
 40
4.0
 40
4.0
 40
5.0
 40
5.0
 40
5.0
 40
6.0
 40
6.0
 40
6.0
 40
7.0
 40
7.0
 40
7.0
 40
8.0
 40
8.0
 40
8.0
 40
9.0
 40
9.0
 40
9.0
 40
10.0
 40
10.0
 40
10.0
 40
11.0
 40
11.0
 40
11.0
 40
12.0
 40
12.0
 40
12.0
 40
13.0
 40
13.0
 40
13.0
 40
14.0
 40
14.0
 40
14.0
 40
15.0
 40
15.0
 40
15.0
 40
16.0
 40
16.0
 40
16.0
 40
17.0
 40
17.0
 40
17.0
 40
18.0
 40
18.0
 40
18.0
 40
19.0
 40
19.0
 40
19.0
 40
20.0
 40
20.0
 40
20.0
 40
21.0
 40
21.0
 40
21.0
 40
22.0
 40
22.0
 40
22.0
 40
23.0
 40
23.0
 40
23.0
 40
24.0
 40
24.0
 40
24.0
 40
25.0
 40
25.0
 40
25.0
 40
26.0
 40
26.0
 40
26.0
 40
27.0
 40
27.0
 40
27.0
 40
28.0
 40
28.0
 40
28.0
 40
28.0
 10
19.58000965672026
 20
3.622832250167712
 30
0.0
 10
20.25740539422372
 20
3.862849769557043
 30
0.0
 10
20.74445269891131
 20
4.50876490904386
 30
0.0
 10
20.74700261378728
 20
5.266876303073429
 30
0.0
 10
20.74700261378728
 20
5.266876303073429
 30
0.0
 10
20.53776039681061
 20
5.057593395965757
 30
0.0
 10
20.53776039681061
 20
5.057593395965757
 30
0.0
 10
20.37612563310341
 20
4.440595376242618
 30
0.0
 10
19.81484596609565
 20
3.985299937111681
 30
0.0
 10
19.14710735301607
 20
3.985272810357682
 30
0.0
 10
18.3532157704609
 20
3.985313500488681
 30
0.0
 10
17.70960640506406
 20
4.628882175754524
 30
0.0
 10
17.70959284168706
 20
5.422800885063695
 30
0.0
 10
17.70960640506406
 20
6.078576599629403
 30
0.0
 10
18.14878855231917
 20
6.63175893056825
 30
0.0
 10
18.7490358014475
 20
6.80442071977633
 30
0.0
 10
18.7490358014475
 20
6.80442071977633
 30
0.0
 10
18.96703995996608
 20
7.022465568425906
 30
0.0
 10
18.96703995996608
 20
7.022465568425906
 30
0.0
 10
18.21948087324239
 20
7.009824501062047
 30
0.0
 10
17.58468770289545
 20
6.526086660362426
 30
0.0
 10
17.34708446461209
 20
5.856028709815877
 30
0.0
 10
17.10691774807576
 20
6.533532954335343
 30
0.0
 10
16.46063639740995
 20
7.020512442137928
 30
0.0
 10
15.70234867947938
 20
7.022791089473903
 30
0.0
 10
15.70234867947938
 20
7.022791089473903
 30
0.0
 10
15.91149595281705
 20
6.813643816136228
 30
0.0
 10
15.91149595281705
 20
6.813643816136228
 30
0.0
 10
16.52892800060419
 20
6.652321010100022
 30
0.0
 10
16.98460321429112
 20
6.090770075552267
 30
0.0
 10
16.98456252416012
 20
5.422814448440695
 30
0.0
 10
16.98457608753712
 20
4.628882175754524
 30
0.0
 10
16.34100741227128
 20
3.985272810357682
 30
0.0
 10
15.54706157620811
 20
3.985313500488681
 30
0.0
 10
14.8915978193134
 20
3.985299937111681
 30
0.0
 10
14.33863250240655
 20
4.424020929548802
 30
0.0
 10
14.16568588228147
 20
5.023915530875131
 30
0.0
 10
14.16568588228147
 20
5.023915530875131
 30
0.0
 10
13.9475460899929
 20
5.242082449917705
 30
0.0
 10
13.9475460899929
 20
5.242082449917705
 30
0.0
 10
13.96047198827375
 20
4.494753940603015
 30
0.0
 10
14.44419626559637
 20
3.860218474419072
 30
0.0
 10
15.11414570912692
 20
3.622832250167712
 30
0.0
 10
14.44403350507237
 20
3.385296828769353
 30
0.0
 10
13.96020072073375
 20
2.750490095045413
 30
0.0
 10
13.9475189632389
 20
2.002903881567727
 30
0.0
 10
13.9475189632389
 20
2.002903881567727
 30
0.0
 10
14.16545530487247
 20
2.220840223201303
 30
0.0
 10
14.16545530487247
 20
2.220840223201303
 30
0.0
 10
14.33810353070355
 20
2.821101035706628
 30
0.0
 10
14.8912858616424
 20
3.260337436469743
 30
0.0
 10
15.54710226633911
 20
3.260337436469743
 30
0.0
 10
16.34098028551728
 20
3.260337436469743
 30
0.0
 10
16.98456252416012
 20
2.6167416344499
 30
0.0
 10
16.98458965091412
 20
1.822809361763729
 30
0.0
 10
16.98457608753712
 20
1.155138565569154
 30
0.0
 10
16.52934846529118
 20
0.5938317718073962
 30
0.0
 10
15.91233688219105
 20
0.4322376982311932
 30
0.0
 10
15.91233688219105
 20
0.4322376982311932
 30
0.0
 10
15.70297259482137
 20
0.2228462841075218
 30
0.0
 10
15.70297259482137
 20
0.2228462841075218
 30
0.0
 10
16.46101617196594
 20
0.2253555088524939
 30
0.0
 10
17.10698556496076
 20
0.712280743147079
 30
0.0
 10
17.34709802798909
 20
1.389622227142547
 30
0.0
 10
17.58460632263345
 20
0.7196863469889967
 30
0.0
 10
18.21916891557139
 20
0.2360570133053749
 30
0.0
 10
18.96641604462408
 20
0.2231853685325181
 30
0.0
 10
18.96641604462408
 20
0.2231853685325181
 30
0.0
 10
18.74809992843451
 20
0.4415150480990901
 30
0.0
 10
18.74809992843451
 20
0.4415150480990901
 30
0.0
 10
18.14832739750118
 20
0.6144481048471669
 30
0.0
 10
17.70961996844106
 20
1.167372731623018
 30
0.0
 10
17.70960640506406
 20
1.822836488517729
 30
0.0
 10
17.70961996844106
 20
2.616728071072901
 30
0.0
 10
18.3531886437069
 20
3.260337436469743
 30
0.0
 10
19.14710735301607
 20
3.260337436469743
 30
0.0
 10
19.81513079701264
 20
3.260337436469743
 30
0.0
 10
20.3766817315604
 20
2.804580842520811
 30
0.0
 10
20.53801810097361
 20
2.187121667979678
 30
0.0
 10
20.53801810097361
 20
2.187121667979678
 30
0.0
 10
20.74701617716428
 20
1.978110028412002
 30
0.0
 10
20.74701617716428
 20
1.978110028412002
 30
0.0
 10
20.74475109320531
 20
2.736438436473569
 30
0.0
 10
20.25762240825572
 20
3.382665533631383
 30
0.0
 10
19.58000965672026
 20
3.622832250167712
 30
0.0
  0
POLYLINE
  5
59
330
1F
100
AcDbEntity
  8
cut
 62
   250
370
    35
100
AcDb2dPolyline
 66
     1
 10
0.0
 20
0.0
 30
0.0
  0
VERTEX
  5
5A
330
59
100
AcDbEntity
  8
cut
 62
   250
370
    35
100
AcDbVertex
100
AcDb2dVertex
 10
17.1398360640544
 20
3.712391228497716
 30
0.0
  0
VERTEX
  5
9D
330
59
100
AcDbEntity
  8
0
100
AcDbVertex
100
AcDb2dVertex
 10
17.1398360640544
 20
3.712391228497716
 30
0.0
  0
SEQEND
  5
5B
330
59
100
AcDbEntity
  8
cut
370
    35
  0
POLYLINE
  5
5C
330
1F
100
AcDbEntity
  8
cut
 62
   250
370
    35
100
AcDb2dPolyline
 66
     1
 10
0.0
 20
0.0
 30
0.0
  0
VERTEX
  5
5D
330
5C
100
AcDbEntity
  8
cut
 62
   250
370
    35
100
AcDbVertex
100
AcDb2dVertex
 10
17.25768824680608
 20
3.415366835578019
 30
0.0
  0
VERTEX
  5
9E
330
5C
100
AcDbEntity
  8
0
100
AcDbVertex
100
AcDb2dVertex
 10
17.25768824680608
 20
3.415366835578019
 30
0.0
  0
SEQEND
  5
5E
330
5C
100
AcDbEntity
  8
cut
370
    35
  0
POLYLINE
  5
5F
330
1F
100
AcDbEntity
  8
cut
 62
   250
370
    35
100
AcDb2dPolyline
 66
     1
 10
0.0
 20
0.0
 30
0.0
  0
VERTEX
  5
60
330
5F
100
AcDbEntity
  8
cut
 62
   250
370
    35
100
AcDbVertex
100
AcDb2dVertex
 10
17.43683333022009
 20
3.830216284495406
 30
0.0
  0
VERTEX
  5
9F
330
5F
100
AcDbEntity
  8
0
100
AcDbVertex
100
AcDb2dVertex
 10
17.43683333022009
 20
3.830216284495406
 30
0.0
  0
SEQEND
  5
61
330
5F
100
AcDbEntity
  8
cut
370
    35
  0
POLYLINE
  5
62
330
1F
100
AcDbEntity
  8
cut
 62
   250
370
    35
100
AcDb2dPolyline
 66
     1
 10
0.0
 20
0.0
 30
0.0
  0
VERTEX
  5
63
330
62
100
AcDbEntity
  8
cut
 62
   250
370
    35
100
AcDbVertex
100
AcDb2dVertex
 10
17.43226247217114
 20
3.875165315872906
 30
0.0
  0
VERTEX
  5
A0
330
62
100
AcDbEntity
  8
0
100
AcDbVertex
100
AcDb2dVertex
 10
17.43226247217114
 20
3.875165315872906
 30
0.0
  0
SEQEND
  5
64
330
62
100
AcDbEntity
  8
cut
370
    35
  0
SPLINE
  5
65
330
1F
100
AcDbEntity
  8
cut
 62
   250
370
    35
100
AcDbSpline
210
0.0
220
0.0
230
1.0
 70
     8
 71
     3
 72
   110
 73
   106
 74
     0
 42
0.0000000001
 43
0.0000000001
 40
0.0
 40
0.0
 40
0.0
 40
0.0
 40
1.0
 40
1.0
 40
1.0
 40
2.0
 40
2.0
 40
2.0
 40
3.0
 40
3.0
 40
3.0
 40
4.0
 40
4.0
 40
4.0
 40
5.0
 40
5.0
 40
5.0
 40
6.0
 40
6.0
 40
6.0
 40
7.0
 40
7.0
 40
7.0
 40
8.0
 40
8.0
 40
8.0
 40
9.0
 40
9.0
 40
9.0
 40
10.0
 40
10.0
 40
10.0
 40
11.0
 40
11.0
 40
11.0
 40
12.0
 40
12.0
 40
12.0
 40
13.0
 40
13.0
 40
13.0
 40
14.0
 40
14.0
 40
14.0
 40
15.0
 40
15.0
 40
15.0
 40
16.0
 40
16.0
 40
16.0
 40
17.0
 40
17.0
 40
17.0
 40
18.0
 40
18.0
 40
18.0
 40
19.0
 40
19.0
 40
19.0
 40
20.0
 40
20.0
 40
20.0
 40
21.0
 40
21.0
 40
21.0
 40
22.0
 40
22.0
 40
22.0
 40
23.0
 40
23.0
 40
23.0
 40
24.0
 40
24.0
 40
24.0
 40
25.0
 40
25.0
 40
25.0
 40
26.0
 40
26.0
 40
26.0
 40
27.0
 40
27.0
 40
27.0
 40
28.0
 40
28.0
 40
28.0
 40
29.0
 40
29.0
 40
29.0
 40
30.0
 40
30.0
 40
30.0
 40
31.0
 40
31.0
 40
31.0
 40
32.0
 40
32.0
 40
32.0
 40
33.0
 40
33.0
 40
33.0
 40
34.0
 40
34.0
 40
34.0
 40
35.0
 40
35.0
 40
35.0
 40
35.0
 10
16.85386582338958
 20
3.704293892428806
 30
0.0
 10
16.86688666530943
 20
3.783843098532921
 30
0.0
 10
16.89870634775108
 20
3.857058207578107
 30
0.0
 10
16.94460481551857
 20
3.919246291122416
 30
0.0
 10
16.94460481551857
 20
3.919246291122416
 30
0.0
 10
16.93846060573764
 20
3.913766686814477
 30
0.0
 10
16.93846060573764
 20
3.913766686814477
 30
0.0
 10
16.93846060573764
 20
3.913766686814477
 30
0.0
 10
17.05631278848932
 20
4.031618869566166
 30
0.0
 10
17.05631278848932
 20
4.031618869566166
 30
0.0
 10
17.05631278848932
 20
4.031618869566166
 30
0.0
 10
17.25771537356009
 20
3.830243411249405
 30
0.0
 10
17.25771537356009
 20
3.830243411249405
 30
0.0
 10
17.25771537356009
 20
3.830243411249405
 30
0.0
 10
17.26223197810103
 20
3.824221271861473
 30
0.0
 10
17.26223197810103
 20
3.824221271861473
 30
0.0
 10
17.26223197810103
 20
3.824221271861473
 30
0.0
 10
17.26223197810103
 20
4.727732067329425
 30
0.0
 10
17.26221841472404
 20
4.727732067329425
 30
0.0
 10
17.26221841472404
 20
4.727732067329425
 30
0.0
 10
17.43223534541714
 20
4.727827010968424
 30
0.0
 10
17.43223534541714
 20
4.727827010968424
 30
0.0
 10
17.43223534541714
 20
4.727827010968424
 30
0.0
 10
17.43226247217114
 20
4.119319665247191
 30
0.0
 10
17.43226247217114
 20
4.119319665247191
 30
0.0
 10
17.43226247217114
 20
4.119319665247191
 30
0.0
 10
17.43204545813915
 20
4.115643990080232
 30
0.0
 10
17.43204545813915
 20
4.115643990080232
 30
0.0
 10
17.51224570633925
 20
4.101944979310383
 30
0.0
 10
17.58588128007143
 20
4.069148733724749
 30
0.0
 10
17.64819143400874
 20
4.022124505666271
 30
0.0
 10
17.64819143400874
 20
4.022124505666271
 30
0.0
 10
17.63820878853685
 20
4.031591742812166
 30
0.0
 10
17.63820878853685
 20
4.031591742812166
 30
0.0
 10
17.63820878853685
 20
4.031591742812166
 30
0.0
 10
17.75602028115754
 20
3.913780250191476
 30
0.0
 10
17.75602028115754
 20
3.913780250191476
 30
0.0
 10
17.75602028115754
 20
3.913780250191476
 30
0.0
 10
17.55464482284078
 20
3.712404791874716
 30
0.0
 10
17.55464482284078
 20
3.712404791874716
 30
0.0
 10
17.55464482284078
 20
3.712404791874716
 30
0.0
 10
17.54864981020685
 20
3.707847497202767
 30
0.0
 10
17.54864981020685
 20
3.707847497202767
 30
0.0
 10
17.54864981020685
 20
3.707847497202767
 30
0.0
 10
18.4522284225598
 20
3.707833933825767
 30
0.0
 10
18.4522284225598
 20
3.707833933825767
 30
0.0
 10
18.4522284225598
 20
3.707833933825767
 30
0.0
 10
18.4522419859368
 20
3.537817003132657
 30
0.0
 10
18.4522419859368
 20
3.537817003132657
 30
0.0
 10
18.4522419859368
 20
3.537817003132657
 30
0.0
 10
17.84206634484459
 20
3.537830566509657
 30
0.0
 10
17.84206634484459
 20
3.537830566509657
 30
0.0
 10
17.84206634484459
 20
3.537830566509657
 30
0.0
 10
17.8409948380616
 20
3.543377987702596
 30
0.0
 10
17.8409948380616
 20
3.543377987702596
 30
0.0
 10
17.82861147486074
 20
3.465781907886458
 30
0.0
 10
17.79836514415107
 20
3.394126587196255
 30
0.0
 10
17.75462325332656
 20
3.332792996402937
 30
0.0
 10
17.75462325332656
 20
3.332792996402937
 30
0.0
 10
17.75606097128854
 20
3.331870686766948
 30
0.0
 10
17.75606097128854
 20
3.331870686766948
 30
0.0
 10
17.75606097128854
 20
3.331870686766948
 30
0.0
 10
17.63820878853685
 20
3.214018504015258
 30
0.0
 10
17.63820878853685
 20
3.214018504015258
 30
0.0
 10
17.63820878853685
 20
3.214018504015258
 30
0.0
 10
17.43681976684309
 20
3.415366835578019
 30
0.0
 10
17.43681976684309
 20
3.415366835578019
 30
0.0
 10
17.43681976684309
 20
3.415366835578019
 30
0.0
 10
17.43226247217114
 20
3.414458089319029
 30
0.0
 10
17.43226247217114
 20
3.414458089319029
 30
0.0
 10
17.43226247217114
 20
3.414458089319029
 30
0.0
 10
17.43226247217114
 20
2.517837489367
 30
0.0
 10
17.43226247217114
 20
2.517837489367
 30
0.0
 10
17.43226247217114
 20
2.517837489367
 30
0.0
 10
17.26224554147803
 20
2.51782392599
 30
0.0
 10
17.26224554147803
 20
2.51782392599
 30
0.0
 10
17.26224554147803
 20
2.51782392599
 30
0.0
 10
17.26224554147803
 20
3.130318904549189
 30
0.0
 10
17.26224554147803
 20
3.130318904549189
 30
0.0
 10
17.26224554147803
 20
3.130318904549189
 30
0.0
 10
17.26050942922205
 20
3.130291777795189
 30
0.0
 10
17.26050942922205
 20
3.130291777795189
 30
0.0
 10
17.18222161717893
 20
3.143990788565037
 30
0.0
 10
17.11024077544072
 20
3.175891851268682
 30
0.0
 10
17.0490428184174
 20
3.221437671234176
 30
0.0
 10
17.0490428184174
 20
3.221437671234176
 30
0.0
 10
17.05629922511232
 20
3.214032067392258
 30
0.0
 10
17.05629922511232
 20
3.214032067392258
 30
0.0
 10
17.05629922511232
 20
3.214032067392258
 30
0.0
 10
16.93847416911463
 20
3.331857123389948
 30
0.0
 10
16.93847416911463
 20
3.331857123389948
 30
0.0
 10
16.93847416911463
 20
3.331857123389948
 30
0.0
 10
17.1398360640544
 20
3.533259708460708
 30
0.0
 10
17.1398360640544
 20
3.533259708460708
 30
0.0
 10
17.1398360640544
 20
3.533259708460708
 30
0.0
 10
17.14063630329738
 20
3.537817003132657
 30
0.0
 10
17.14063630329738
 20
3.537817003132657
 30
0.0
 10
17.14063630329738
 20
3.537817003132657
 30
0.0
 10
16.24223890095838
 20
3.537817003132657
 30
0.0
 10
16.24223890095838
 20
3.537817003132657
 30
0.0
 10
16.24223890095838
 20
3.537817003132657
 30
0.0
 10
16.24232028122038
 20
3.707820370448767
 30
0.0
 10
16.24232028122038
 20
3.707820370448767
 30
0.0
 10
16.24232028122038
 20
3.707820370448767
 30
0.0
 10
16.85651068190455
 20
3.707820370448767
 30
0.0
 10
16.85651068190455
 20
3.707820370448767
 30
0.0
  0
SPLINE
  5
66
330
1F
100
AcDbEntity
  8
cut
 62
   250
370
    35
100
AcDbSpline
210
0.0
220
0.0
230
1.0
 70
    11
 71
     3
 72
    89
 73
    85
 74
     0
 42
0.0000000001
 43
0.0000000001
 40
0.0
 40
0.0
 40
0.0
 40
0.0
 40
1.0
 40
1.0
 40
1.0
 40
2.0
 40
2.0
 40
2.0
 40
3.0
 40
3.0
 40
3.0
 40
4.0
 40
4.0
 40
4.0
 40
5.0
 40
5.0
 40
5.0
 40
6.0
 40
6.0
 40
6.0
 40
7.0
 40
7.0
 40
7.0
 40
8.0
 40
8.0
 40
8.0
 40
9.0
 40
9.0
 40
9.0
 40
10.0
 40
10.0
 40
10.0
 40
11.0
 40
11.0
 40
11.0
 40
12.0
 40
12.0
 40
12.0
 40
13.0
 40
13.0
 40
13.0
 40
14.0
 40
14.0
 40
14.0
 40
15.0
 40
15.0
 40
15.0
 40
16.0
 40
16.0
 40
16.0
 40
17.0
 40
17.0
 40
17.0
 40
18.0
 40
18.0
 40
18.0
 40
19.0
 40
19.0
 40
19.0
 40
20.0
 40
20.0
 40
20.0
 40
21.0
 40
21.0
 40
21.0
 40
22.0
 40
22.0
 40
22.0
 40
23.0
 40
23.0
 40
23.0
 40
24.0
 40
24.0
 40
24.0
 40
25.0
 40
25.0
 40
25.0
 40
26.0
 40
26.0
 40
26.0
 40
27.0
 40
27.0
 40
27.0
 40
28.0
 40
28.0
 40
28.0
 40
28.0
 10
26.44112529235596
 20
3.622832250167712
 30
0.0
 10
27.11852102985943
 20
3.862849769557043
 30
0.0
 10
27.60556833454701
 20
4.50876490904386
 30
0.0
 10
27.60811824942298
 20
5.266876303073429
 30
0.0
 10
27.60811824942298
 20
5.266876303073429
 30
0.0
 10
27.39887603244631
 20
5.057593395965757
 30
0.0
 10
27.39887603244631
 20
5.057593395965757
 30
0.0
 10
27.2372412687391
 20
4.440595376242618
 30
0.0
 10
26.67596160173135
 20
3.985299937111681
 30
0.0
 10
26.00822298865177
 20
3.985272810357682
 30
0.0
 10
25.2143314060966
 20
3.985313500488681
 30
0.0
 10
24.57072204069976
 20
4.628882175754524
 30
0.0
 10
24.57070847732276
 20
5.422800885063695
 30
0.0
 10
24.57072204069976
 20
6.078576599629403
 30
0.0
 10
25.00990418795487
 20
6.63175893056825
 30
0.0
 10
25.6101514370832
 20
6.80442071977633
 30
0.0
 10
25.6101514370832
 20
6.80442071977633
 30
0.0
 10
25.82815559560177
 20
7.022465568425906
 30
0.0
 10
25.82815559560177
 20
7.022465568425906
 30
0.0
 10
25.08059650887809
 20
7.009824501062047
 30
0.0
 10
24.44580333853115
 20
6.526086660362426
 30
0.0
 10
24.20820010024779
 20
5.856028709815877
 30
0.0
 10
23.96803338371146
 20
6.533532954335343
 30
0.0
 10
23.32175203304565
 20
7.020512442137928
 30
0.0
 10
22.56346431511508
 20
7.022791089473903
 30
0.0
 10
22.56346431511508
 20
7.022791089473903
 30
0.0
 10
22.77261158845275
 20
6.813643816136228
 30
0.0
 10
22.77261158845275
 20
6.813643816136228
 30
0.0
 10
23.39004363623989
 20
6.652321010100022
 30
0.0
 10
23.84571884992682
 20
6.090770075552267
 30
0.0
 10
23.84567815979582
 20
5.422814448440695
 30
0.0
 10
23.84569172317282
 20
4.628882175754524
 30
0.0
 10
23.20212304790698
 20
3.985272810357682
 30
0.0
 10
22.40817721184381
 20
3.985313500488681
 30
0.0
 10
21.7527134549491
 20
3.985299937111681
 30
0.0
 10
21.19974813804225
 20
4.424020929548802
 30
0.0
 10
21.02680151791717
 20
5.023915530875131
 30
0.0
 10
21.02680151791717
 20
5.023915530875131
 30
0.0
 10
20.8086617256286
 20
5.242082449917705
 30
0.0
 10
20.8086617256286
 20
5.242082449917705
 30
0.0
 10
20.82158762390945
 20
4.494753940603015
 30
0.0
 10
21.30531190123207
 20
3.860218474419072
 30
0.0
 10
21.97526134476262
 20
3.622832250167712
 30
0.0
 10
21.30514914070807
 20
3.385296828769353
 30
0.0
 10
20.82131635636945
 20
2.750490095045413
 30
0.0
 10
20.80863459887459
 20
2.002903881567727
 30
0.0
 10
20.80863459887459
 20
2.002903881567727
 30
0.0
 10
21.02657094050817
 20
2.220840223201303
 30
0.0
 10
21.02657094050817
 20
2.220840223201303
 30
0.0
 10
21.19921916633925
 20
2.821101035706628
 30
0.0
 10
21.7524014972781
 20
3.260337436469743
 30
0.0
 10
22.40821790197481
 20
3.260337436469743
 30
0.0
 10
23.20209592115298
 20
3.260337436469743
 30
0.0
 10
23.84567815979582
 20
2.6167416344499
 30
0.0
 10
23.84570528654982
 20
1.822809361763729
 30
0.0
 10
23.84569172317282
 20
1.155138565569154
 30
0.0
 10
23.39046410092688
 20
0.5938317718073962
 30
0.0
 10
22.77345251782674
 20
0.4322376982311932
 30
0.0
 10
22.77345251782674
 20
0.4322376982311932
 30
0.0
 10
22.56408823045707
 20
0.2228462841075218
 30
0.0
 10
22.56408823045707
 20
0.2228462841075218
 30
0.0
 10
23.32213180760164
 20
0.2253555088524939
 30
0.0
 10
23.96810120059646
 20
0.712280743147079
 30
0.0
 10
24.20821366362479
 20
1.389622227142547
 30
0.0
 10
24.44572195826915
 20
0.7196863469889967
 30
0.0
 10
25.08028455120709
 20
0.2360570133053749
 30
0.0
 10
25.82753168025978
 20
0.2231853685325181
 30
0.0
 10
25.82753168025978
 20
0.2231853685325181
 30
0.0
 10
25.60921556407021
 20
0.4415150480990901
 30
0.0
 10
25.60921556407021
 20
0.4415150480990901
 30
0.0
 10
25.00944303313688
 20
0.6144481048471669
 30
0.0
 10
24.57073560407676
 20
1.167372731623018
 30
0.0
 10
24.57072204069976
 20
1.822836488517729
 30
0.0
 10
24.57073560407676
 20
2.616728071072901
 30
0.0
 10
25.2143042793426
 20
3.260337436469743
 30
0.0
 10
26.00822298865177
 20
3.260337436469743
 30
0.0
 10
26.67624643264834
 20
3.260337436469743
 30
0.0
 10
27.2377973671961
 20
2.804580842520811
 30
0.0
 10
27.3991337366093
 20
2.187121667979678
 30
0.0
 10
27.3991337366093
 20
2.187121667979678
 30
0.0
 10
27.60813181279998
 20
1.978110028412002
 30
0.0
 10
27.60813181279998
 20
1.978110028412002
 30
0.0
 10
27.60586672884101
 20
2.736438436473569
 30
0.0
 10
27.11873804389142
 20
3.382665533631383
 30
0.0
 10
26.44112529235596
 20
3.622832250167712
 30
0.0
  0
POLYLINE
  5
67
330
1F
100
AcDbEntity
  8
cut
 62
   250
370
    35
100
AcDb2dPolyline
 66
     1
 10
0.0
 20
0.0
 30
0.0
  0
VERTEX
  5
68
330
67
100
AcDbEntity
  8
cut
 62
   250
370
    35
100
AcDbVertex
100
AcDb2dVertex
 10
24.00095169969009
 20
3.712391228497716
 30
0.0
  0
VERTEX
  5
A1
330
67
100
AcDbEntity
  8
0
100
AcDbVertex
100
AcDb2dVertex
 10
24.00095169969009
 20
3.712391228497716
 30
0.0
  0
SEQEND
  5
69
330
67
100
AcDbEntity
  8
cut
370
    35
  0
POLYLINE
  5
6A
330
1F
100
AcDbEntity
  8
cut
 62
   250
370
    35
100
AcDb2dPolyline
 66
     1
 10
0.0
 20
0.0
 30
0.0
  0
VERTEX
  5
6B
330
6A
100
AcDbEntity
  8
cut
 62
   250
370
    35
100
AcDbVertex
100
AcDb2dVertex
 10
24.11880388244179
 20
3.415366835578019
 30
0.0
  0
VERTEX
  5
A2
330
6A
100
AcDbEntity
  8
0
100
AcDbVertex
100
AcDb2dVertex
 10
24.11880388244179
 20
3.415366835578019
 30
0.0
  0
SEQEND
  5
6C
330
6A
100
AcDbEntity
  8
cut
370
    35
  0
POLYLINE
  5
6D
330
1F
100
AcDbEntity
  8
cut
 62
   250
370
    35
100
AcDb2dPolyline
 66
     1
 10
0.0
 20
0.0
 30
0.0
  0
VERTEX
  5
6E
330
6D
100
AcDbEntity
  8
cut
 62
   250
370
    35
100
AcDbVertex
100
AcDb2dVertex
 10
24.29794896585579
 20
3.830216284495406
 30
0.0
  0
VERTEX
  5
A3
330
6D
100
AcDbEntity
  8
0
100
AcDbVertex
100
AcDb2dVertex
 10
24.29794896585579
 20
3.830216284495406
 30
0.0
  0
SEQEND
  5
6F
330
6D
100
AcDbEntity
  8
cut
370
    35
  0
POLYLINE
  5
70
330
1F
100
AcDbEntity
  8
cut
 62
   250
370
    35
100
AcDb2dPolyline
 66
     1
 10
0.0
 20
0.0
 30
0.0
  0
VERTEX
  5
71
330
70
100
AcDbEntity
  8
cut
 62
   250
370
    35
100
AcDbVertex
100
AcDb2dVertex
 10
24.29337810780684
 20
3.875165315872906
 30
0.0
  0
VERTEX
  5
A4
330
70
100
AcDbEntity
  8
0
100
AcDbVertex
100
AcDb2dVertex
 10
24.29337810780684
 20
3.875165315872906
 30
0.0
  0
SEQEND
  5
72
330
70
100
AcDbEntity
  8
cut
370
    35
  0
SPLINE
  5
73
330
1F
100
AcDbEntity
  8
cut
 62
   250
370
    35
100
AcDbSpline
210
0.0
220
0.0
230
1.0
 70
     8
 71
     3
 72
   110
 73
   106
 74
     0
 42
0.0000000001
 43
0.0000000001
 40
0.0
 40
0.0
 40
0.0
 40
0.0
 40
1.0
 40
1.0
 40
1.0
 40
2.0
 40
2.0
 40
2.0
 40
3.0
 40
3.0
 40
3.0
 40
4.0
 40
4.0
 40
4.0
 40
5.0
 40
5.0
 40
5.0
 40
6.0
 40
6.0
 40
6.0
 40
7.0
 40
7.0
 40
7.0
 40
8.0
 40
8.0
 40
8.0
 40
9.0
 40
9.0
 40
9.0
 40
10.0
 40
10.0
 40
10.0
 40
11.0
 40
11.0
 40
11.0
 40
12.0
 40
12.0
 40
12.0
 40
13.0
 40
13.0
 40
13.0
 40
14.0
 40
14.0
 40
14.0
 40
15.0
 40
15.0
 40
15.0
 40
16.0
 40
16.0
 40
16.0
 40
17.0
 40
17.0
 40
17.0
 40
18.0
 40
18.0
 40
18.0
 40
19.0
 40
19.0
 40
19.0
 40
20.0
 40
20.0
 40
20.0
 40
21.0
 40
21.0
 40
21.0
 40
22.0
 40
22.0
 40
22.0
 40
23.0
 40
23.0
 40
23.0
 40
24.0
 40
24.0
 40
24.0
 40
25.0
 40
25.0
 40
25.0
 40
26.0
 40
26.0
 40
26.0
 40
27.0
 40
27.0
 40
27.0
 40
28.0
 40
28.0
 40
28.0
 40
29.0
 40
29.0
 40
29.0
 40
30.0
 40
30.0
 40
30.0
 40
31.0
 40
31.0
 40
31.0
 40
32.0
 40
32.0
 40
32.0
 40
33.0
 40
33.0
 40
33.0
 40
34.0
 40
34.0
 40
34.0
 40
35.0
 40
35.0
 40
35.0
 40
35.0
 10
23.71498145902527
 20
3.704293892428806
 30
0.0
 10
23.72800230094513
 20
3.783843098532921
 30
0.0
 10
23.75982198338678
 20
3.857058207578107
 30
0.0
 10
23.80572045115427
 20
3.919246291122416
 30
0.0
 10
23.80572045115427
 20
3.919246291122416
 30
0.0
 10
23.79957624137333
 20
3.913766686814477
 30
0.0
 10
23.79957624137333
 20
3.913766686814477
 30
0.0
 10
23.79957624137333
 20
3.913766686814477
 30
0.0
 10
23.91742842412502
 20
4.031618869566166
 30
0.0
 10
23.91742842412502
 20
4.031618869566166
 30
0.0
 10
23.91742842412502
 20
4.031618869566166
 30
0.0
 10
24.11883100919578
 20
3.830243411249405
 30
0.0
 10
24.11883100919578
 20
3.830243411249405
 30
0.0
 10
24.11883100919578
 20
3.830243411249405
 30
0.0
 10
24.12334761373673
 20
3.824221271861473
 30
0.0
 10
24.12334761373673
 20
3.824221271861473
 30
0.0
 10
24.12334761373673
 20
3.824221271861473
 30
0.0
 10
24.12334761373673
 20
4.727732067329425
 30
0.0
 10
24.12333405035973
 20
4.727732067329425
 30
0.0
 10
24.12333405035973
 20
4.727732067329425
 30
0.0
 10
24.29335098105284
 20
4.727827010968424
 30
0.0
 10
24.29335098105284
 20
4.727827010968424
 30
0.0
 10
24.29335098105284
 20
4.727827010968424
 30
0.0
 10
24.29337810780684
 20
4.119319665247191
 30
0.0
 10
24.29337810780684
 20
4.119319665247191
 30
0.0
 10
24.29337810780684
 20
4.119319665247191
 30
0.0
 10
24.29316109377485
 20
4.115643990080232
 30
0.0
 10
24.29316109377485
 20
4.115643990080232
 30
0.0
 10
24.37336134197495
 20
4.101944979310383
 30
0.0
 10
24.44699691570714
 20
4.069148733724749
 30
0.0
 10
24.50930706964444
 20
4.022124505666271
 30
0.0
 10
24.50930706964444
 20
4.022124505666271
 30
0.0
 10
24.49932442417255
 20
4.031591742812166
 30
0.0
 10
24.49932442417255
 20
4.031591742812166
 30
0.0
 10
24.49932442417255
 20
4.031591742812166
 30
0.0
 10
24.61713591679324
 20
3.913780250191476
 30
0.0
 10
24.61713591679324
 20
3.913780250191476
 30
0.0
 10
24.61713591679324
 20
3.913780250191476
 30
0.0
 10
24.41576045847648
 20
3.712404791874716
 30
0.0
 10
24.41576045847648
 20
3.712404791874716
 30
0.0
 10
24.41576045847648
 20
3.712404791874716
 30
0.0
 10
24.40976544584255
 20
3.707847497202767
 30
0.0
 10
24.40976544584255
 20
3.707847497202767
 30
0.0
 10
24.40976544584255
 20
3.707847497202767
 30
0.0
 10
25.3133440581955
 20
3.707833933825767
 30
0.0
 10
25.3133440581955
 20
3.707833933825767
 30
0.0
 10
25.3133440581955
 20
3.707833933825767
 30
0.0
 10
25.3133576215725
 20
3.537817003132657
 30
0.0
 10
25.3133576215725
 20
3.537817003132657
 30
0.0
 10
25.3133576215725
 20
3.537817003132657
 30
0.0
 10
24.70318198048028
 20
3.537830566509657
 30
0.0
 10
24.70318198048028
 20
3.537830566509657
 30
0.0
 10
24.70318198048028
 20
3.537830566509657
 30
0.0
 10
24.7021104736973
 20
3.543377987702596
 30
0.0
 10
24.7021104736973
 20
3.543377987702596
 30
0.0
 10
24.68972711049643
 20
3.465781907886458
 30
0.0
 10
24.65948077978677
 20
3.394126587196255
 30
0.0
 10
24.61573888896226
 20
3.332792996402937
 30
0.0
 10
24.61573888896226
 20
3.332792996402937
 30
0.0
 10
24.61717660692424
 20
3.331870686766948
 30
0.0
 10
24.61717660692424
 20
3.331870686766948
 30
0.0
 10
24.61717660692424
 20
3.331870686766948
 30
0.0
 10
24.49932442417255
 20
3.214018504015258
 30
0.0
 10
24.49932442417255
 20
3.214018504015258
 30
0.0
 10
24.49932442417255
 20
3.214018504015258
 30
0.0
 10
24.29793540247879
 20
3.415366835578019
 30
0.0
 10
24.29793540247879
 20
3.415366835578019
 30
0.0
 10
24.29793540247879
 20
3.415366835578019
 30
0.0
 10
24.29337810780684
 20
3.414458089319029
 30
0.0
 10
24.29337810780684
 20
3.414458089319029
 30
0.0
 10
24.29337810780684
 20
3.414458089319029
 30
0.0
 10
24.29337810780684
 20
2.517837489367
 30
0.0
 10
24.29337810780684
 20
2.517837489367
 30
0.0
 10
24.29337810780684
 20
2.517837489367
 30
0.0
 10
24.12336117711373
 20
2.51782392599
 30
0.0
 10
24.12336117711373
 20
2.51782392599
 30
0.0
 10
24.12336117711373
 20
2.51782392599
 30
0.0
 10
24.12336117711373
 20
3.130318904549189
 30
0.0
 10
24.12336117711373
 20
3.130318904549189
 30
0.0
 10
24.12336117711373
 20
3.130318904549189
 30
0.0
 10
24.12162506485775
 20
3.130291777795189
 30
0.0
 10
24.12162506485775
 20
3.130291777795189
 30
0.0
 10
24.04333725281462
 20
3.143990788565037
 30
0.0
 10
23.97135641107642
 20
3.175891851268682
 30
0.0
 10
23.9101584540531
 20
3.221437671234176
 30
0.0
 10
23.9101584540531
 20
3.221437671234176
 30
0.0
 10
23.91741486074802
 20
3.214032067392258
 30
0.0
 10
23.91741486074802
 20
3.214032067392258
 30
0.0
 10
23.91741486074802
 20
3.214032067392258
 30
0.0
 10
23.79958980475033
 20
3.331857123389948
 30
0.0
 10
23.79958980475033
 20
3.331857123389948
 30
0.0
 10
23.79958980475033
 20
3.331857123389948
 30
0.0
 10
24.00095169969009
 20
3.533259708460708
 30
0.0
 10
24.00095169969009
 20
3.533259708460708
 30
0.0
 10
24.00095169969009
 20
3.533259708460708
 30
0.0
 10
24.00175193893309
 20
3.537817003132657
 30
0.0
 10
24.00175193893309
 20
3.537817003132657
 30
0.0
 10
24.00175193893309
 20
3.537817003132657
 30
0.0
 10
23.10335453659408
 20
3.537817003132657
 30
0.0
 10
23.10335453659408
 20
3.537817003132657
 30
0.0
 10
23.10335453659408
 20
3.537817003132657
 30
0.0
 10
23.10343591685607
 20
3.707820370448767
 30
0.0
 10
23.10343591685607
 20
3.707820370448767
 30
0.0
 10
23.10343591685607
 20
3.707820370448767
 30
0.0
 10
23.71762631754025
 20
3.707820370448767
 30
0.0
 10
23.71762631754025
 20
3.707820370448767
 30
0.0
  0
SPLINE
  5
74
330
1F
100
AcDbEntity
  8
cut
 62
   250
370
    35
100
AcDbSpline
210
0.0
220
0.0
230
1.0
 70
    11
 71
     3
 72
    89
 73
    85
 74
     0
 42
0.0000000001
 43
0.0000000001
 40
0.0
 40
0.0
 40
0.0
 40
0.0
 40
1.0
 40
1.0
 40
1.0
 40
2.0
 40
2.0
 40
2.0
 40
3.0
 40
3.0
 40
3.0
 40
4.0
 40
4.0
 40
4.0
 40
5.0
 40
5.0
 40
5.0
 40
6.0
 40
6.0
 40
6.0
 40
7.0
 40
7.0
 40
7.0
 40
8.0
 40
8.0
 40
8.0
 40
9.0
 40
9.0
 40
9.0
 40
10.0
 40
10.0
 40
10.0
 40
11.0
 40
11.0
 40
11.0
 40
12.0
 40
12.0
 40
12.0
 40
13.0
 40
13.0
 40
13.0
 40
14.0
 40
14.0
 40
14.0
 40
15.0
 40
15.0
 40
15.0
 40
16.0
 40
16.0
 40
16.0
 40
17.0
 40
17.0
 40
17.0
 40
18.0
 40
18.0
 40
18.0
 40
19.0
 40
19.0
 40
19.0
 40
20.0
 40
20.0
 40
20.0
 40
21.0
 40
21.0
 40
21.0
 40
22.0
 40
22.0
 40
22.0
 40
23.0
 40
23.0
 40
23.0
 40
24.0
 40
24.0
 40
24.0
 40
25.0
 40
25.0
 40
25.0
 40
26.0
 40
26.0
 40
26.0
 40
27.0
 40
27.0
 40
27.0
 40
28.0
 40
28.0
 40
28.0
 40
28.0
 10
33.41335211237443
 20
3.622832250167712
 30
0.0
 10
34.09074784987789
 20
3.862849769557043
 30
0.0
 10
34.57779515456547
 20
4.50876490904386
 30
0.0
 10
34.58034506944145
 20
5.266876303073429
 30
0.0
 10
34.58034506944145
 20
5.266876303073429
 30
0.0
 10
34.37110285246477
 20
5.057593395965757
 30
0.0
 10
34.37110285246477
 20
5.057593395965757
 30
0.0
 10
34.20946808875757
 20
4.440595376242618
 30
0.0
 10
33.64818842174981
 20
3.985299937111681
 30
0.0
 10
32.98044980867024
 20
3.985272810357682
 30
0.0
 10
32.18655822611507
 20
3.985313500488681
 30
0.0
 10
31.54294886071822
 20
4.628882175754524
 30
0.0
 10
31.54293529734122
 20
5.422800885063695
 30
0.0
 10
31.54294886071822
 20
6.078576599629403
 30
0.0
 10
31.98213100797334
 20
6.63175893056825
 30
0.0
 10
32.58237825710167
 20
6.80442071977633
 30
0.0
 10
32.58237825710167
 20
6.80442071977633
 30
0.0
 10
32.80038241562024
 20
7.022465568425906
 30
0.0
 10
32.80038241562024
 20
7.022465568425906
 30
0.0
 10
32.05282332889655
 20
7.009824501062047
 30
0.0
 10
31.41803015854961
 20
6.526086660362426
 30
0.0
 10
31.18042692026626
 20
5.856028709815877
 30
0.0
 10
30.94026020372993
 20
6.533532954335343
 30
0.0
 10
30.29397885306411
 20
7.020512442137928
 30
0.0
 10
29.53569113513355
 20
7.022791089473903
 30
0.0
 10
29.53569113513355
 20
7.022791089473903
 30
0.0
 10
29.74483840847122
 20
6.813643816136228
 30
0.0
 10
29.74483840847122
 20
6.813643816136228
 30
0.0
 10
30.36227045625835
 20
6.652321010100022
 30
0.0
 10
30.81794566994528
 20
6.090770075552267
 30
0.0
 10
30.81790497981429
 20
5.422814448440695
 30
0.0
 10
30.81791854319129
 20
4.628882175754524
 30
0.0
 10
30.17434986792544
 20
3.985272810357682
 30
0.0
 10
29.38040403186227
 20
3.985313500488681
 30
0.0
 10
28.72494027496756
 20
3.985299937111681
 30
0.0
 10
28.17197495806071
 20
4.424020929548802
 30
0.0
 10
27.99902833793563
 20
5.023915530875131
 30
0.0
 10
27.99902833793563
 20
5.023915530875131
 30
0.0
 10
27.78088854564706
 20
5.242082449917705
 30
0.0
 10
27.78088854564706
 20
5.242082449917705
 30
0.0
 10
27.79381444392792
 20
4.494753940603015
 30
0.0
 10
28.27753872125054
 20
3.860218474419072
 30
0.0
 10
28.94748816478109
 20
3.622832250167712
 30
0.0
 10
28.27737596072654
 20
3.385296828769353
 30
0.0
 10
27.79354317638792
 20
2.750490095045413
 30
0.0
 10
27.78086141889306
 20
2.002903881567727
 30
0.0
 10
27.78086141889306
 20
2.002903881567727
 30
0.0
 10
27.99879776052664
 20
2.220840223201303
 30
0.0
 10
27.99879776052664
 20
2.220840223201303
 30
0.0
 10
28.17144598635772
 20
2.821101035706628
 30
0.0
 10
28.72462831729656
 20
3.260337436469743
 30
0.0
 10
29.38044472199327
 20
3.260337436469743
 30
0.0
 10
30.17432274117144
 20
3.260337436469743
 30
0.0
 10
30.81790497981429
 20
2.6167416344499
 30
0.0
 10
30.81793210656829
 20
1.822809361763729
 30
0.0
 10
30.81791854319129
 20
1.155138565569154
 30
0.0
 10
30.36269092094535
 20
0.5938317718073962
 30
0.0
 10
29.74567933784521
 20
0.4322376982311932
 30
0.0
 10
29.74567933784521
 20
0.4322376982311932
 30
0.0
 10
29.53631505047554
 20
0.2228462841075218
 30
0.0
 10
29.53631505047554
 20
0.2228462841075218
 30
0.0
 10
30.29435862762011
 20
0.2253555088524939
 30
0.0
 10
30.94032802061492
 20
0.712280743147079
 30
0.0
 10
31.18044048364326
 20
1.389622227142547
 30
0.0
 10
31.41794877828761
 20
0.7196863469889967
 30
0.0
 10
32.05251137122556
 20
0.2360570133053749
 30
0.0
 10
32.79975850027824
 20
0.2231853685325181
 30
0.0
 10
32.79975850027824
 20
0.2231853685325181
 30
0.0
 10
32.58144238408867
 20
0.4415150480990901
 30
0.0
 10
32.58144238408867
 20
0.4415150480990901
 30
0.0
 10
31.98166985315535
 20
0.6144481048471669
 30
0.0
 10
31.54296242409522
 20
1.167372731623018
 30
0.0
 10
31.54294886071822
 20
1.822836488517729
 30
0.0
 10
31.54296242409522
 20
2.616728071072901
 30
0.0
 10
32.18653109936107
 20
3.260337436469743
 30
0.0
 10
32.98044980867024
 20
3.260337436469743
 30
0.0
 10
33.64847325266681
 20
3.260337436469743
 30
0.0
 10
34.21002418721456
 20
2.804580842520811
 30
0.0
 10
34.37136055662777
 20
2.187121667979678
 30
0.0
 10
34.37136055662777
 20
2.187121667979678
 30
0.0
 10
34.58035863281845
 20
1.978110028412002
 30
0.0
 10
34.58035863281845
 20
1.978110028412002
 30
0.0
 10
34.57809354885947
 20
2.736438436473569
 30
0.0
 10
34.09096486390989
 20
3.382665533631383
 30
0.0
 10
33.41335211237443
 20
3.622832250167712
 30
0.0
  0
POLYLINE
  5
75
330
1F
100
AcDbEntity
  8
cut
 62
   250
370
    35
100
AcDb2dPolyline
 66
     1
 10
0.0
 20
0.0
 30
0.0
  0
VERTEX
  5
76
330
75
100
AcDbEntity
  8
cut
 62
   250
370
    35
100
AcDbVertex
100
AcDb2dVertex
 10
30.97317851970856
 20
3.712391228497716
 30
0.0
  0
VERTEX
  5
A5
330
75
100
AcDbEntity
  8
0
100
AcDbVertex
100
AcDb2dVertex
 10
30.97317851970856
 20
3.712391228497716
 30
0.0
  0
SEQEND
  5
77
330
75
100
AcDbEntity
  8
cut
370
    35
  0
POLYLINE
  5
78
330
1F
100
AcDbEntity
  8
cut
 62
   250
370
    35
100
AcDb2dPolyline
 66
     1
 10
0.0
 20
0.0
 30
0.0
  0
VERTEX
  5
79
330
78
100
AcDbEntity
  8
cut
 62
   250
370
    35
100
AcDbVertex
100
AcDb2dVertex
 10
31.09103070246025
 20
3.415366835578019
 30
0.0
  0
VERTEX
  5
A6
330
78
100
AcDbEntity
  8
0
100
AcDbVertex
100
AcDb2dVertex
 10
31.09103070246025
 20
3.415366835578019
 30
0.0
  0
SEQEND
  5
7A
330
78
100
AcDbEntity
  8
cut
370
    35
  0
POLYLINE
  5
7B
330
1F
100
AcDbEntity
  8
cut
 62
   250
370
    35
100
AcDb2dPolyline
 66
     1
 10
0.0
 20
0.0
 30
0.0
  0
VERTEX
  5
7C
330
7B
100
AcDbEntity
  8
cut
 62
   250
370
    35
100
AcDbVertex
100
AcDb2dVertex
 10
31.27017578587426
 20
3.830216284495406
 30
0.0
  0
VERTEX
  5
A7
330
7B
100
AcDbEntity
  8
0
100
AcDbVertex
100
AcDb2dVertex
 10
31.27017578587426
 20
3.830216284495406
 30
0.0
  0
SEQEND
  5
7D
330
7B
100
AcDbEntity
  8
cut
370
    35
  0
POLYLINE
  5
7E
330
1F
100
AcDbEntity
  8
cut
 62
   250
370
    35
100
AcDb2dPolyline
 66
     1
 10
0.0
 20
0.0
 30
0.0
  0
VERTEX
  5
7F
330
7E
100
AcDbEntity
  8
cut
 62
   250
370
    35
100
AcDbVertex
100
AcDb2dVertex
 10
31.26560492782531
 20
3.875165315872906
 30
0.0
  0
VERTEX
  5
A8
330
7E
100
AcDbEntity
  8
0
100
AcDbVertex
100
AcDb2dVertex
 10
31.26560492782531
 20
3.875165315872906
 30
0.0
  0
SEQEND
  5
80
330
7E
100
AcDbEntity
  8
cut
370
    35
  0
SPLINE
  5
81
330
1F
100
AcDbEntity
  8
cut
 62
   250
370
    35
100
AcDbSpline
210
0.0
220
0.0
230
1.0
 70
     8
 71
     3
 72
   110
 73
   106
 74
     0
 42
0.0000000001
 43
0.0000000001
 40
0.0
 40
0.0
 40
0.0
 40
0.0
 40
1.0
 40
1.0
 40
1.0
 40
2.0
 40
2.0
 40
2.0
 40
3.0
 40
3.0
 40
3.0
 40
4.0
 40
4.0
 40
4.0
 40
5.0
 40
5.0
 40
5.0
 40
6.0
 40
6.0
 40
6.0
 40
7.0
 40
7.0
 40
7.0
 40
8.0
 40
8.0
 40
8.0
 40
9.0
 40
9.0
 40
9.0
 40
10.0
 40
10.0
 40
10.0
 40
11.0
 40
11.0
 40
11.0
 40
12.0
 40
12.0
 40
12.0
 40
13.0
 40
13.0
 40
13.0
 40
14.0
 40
14.0
 40
14.0
 40
15.0
 40
15.0
 40
15.0
 40
16.0
 40
16.0
 40
16.0
 40
17.0
 40
17.0
 40
17.0
 40
18.0
 40
18.0
 40
18.0
 40
19.0
 40
19.0
 40
19.0
 40
20.0
 40
20.0
 40
20.0
 40
21.0
 40
21.0
 40
21.0
 40
22.0
 40
22.0
 40
22.0
 40
23.0
 40
23.0
 40
23.0
 40
24.0
 40
24.0
 40
24.0
 40
25.0
 40
25.0
 40
25.0
 40
26.0
 40
26.0
 40
26.0
 40
27.0
 40
27.0
 40
27.0
 40
28.0
 40
28.0
 40
28.0
 40
29.0
 40
29.0
 40
29.0
 40
30.0
 40
30.0
 40
30.0
 40
31.0
 40
31.0
 40
31.0
 40
32.0
 40
32.0
 40
32.0
 40
33.0
 40
33.0
 40
33.0
 40
34.0
 40
34.0
 40
34.0
 40
35.0
 40
35.0
 40
35.0
 40
35.0
 10
30.68720827904374
 20
3.704293892428806
 30
0.0
 10
30.70022912096359
 20
3.783843098532921
 30
0.0
 10
30.73204880340524
 20
3.857058207578107
 30
0.0
 10
30.77794727117273
 20
3.919246291122416
 30
0.0
 10
30.77794727117273
 20
3.919246291122416
 30
0.0
 10
30.7718030613918
 20
3.913766686814477
 30
0.0
 10
30.7718030613918
 20
3.913766686814477
 30
0.0
 10
30.7718030613918
 20
3.913766686814477
 30
0.0
 10
30.88965524414349
 20
4.031618869566166
 30
0.0
 10
30.88965524414349
 20
4.031618869566166
 30
0.0
 10
30.88965524414349
 20
4.031618869566166
 30
0.0
 10
31.09105782921425
 20
3.830243411249405
 30
0.0
 10
31.09105782921425
 20
3.830243411249405
 30
0.0
 10
31.09105782921425
 20
3.830243411249405
 30
0.0
 10
31.0955744337552
 20
3.824221271861473
 30
0.0
 10
31.0955744337552
 20
3.824221271861473
 30
0.0
 10
31.0955744337552
 20
3.824221271861473
 30
0.0
 10
31.0955744337552
 20
4.727732067329425
 30
0.0
 10
31.0955608703782
 20
4.727732067329425
 30
0.0
 10
31.0955608703782
 20
4.727732067329425
 30
0.0
 10
31.26557780107131
 20
4.727827010968424
 30
0.0
 10
31.26557780107131
 20
4.727827010968424
 30
0.0
 10
31.26557780107131
 20
4.727827010968424
 30
0.0
 10
31.26560492782531
 20
4.119319665247191
 30
0.0
 10
31.26560492782531
 20
4.119319665247191
 30
0.0
 10
31.26560492782531
 20
4.119319665247191
 30
0.0
 10
31.26538791379331
 20
4.115643990080232
 30
0.0
 10
31.26538791379331
 20
4.115643990080232
 30
0.0
 10
31.34558816199342
 20
4.101944979310383
 30
0.0
 10
31.4192237357256
 20
4.069148733724749
 30
0.0
 10
31.48153388966291
 20
4.022124505666271
 30
0.0
 10
31.48153388966291
 20
4.022124505666271
 30
0.0
 10
31.47155124419102
 20
4.031591742812166
 30
0.0
 10
31.47155124419102
 20
4.031591742812166
 30
0.0
 10
31.47155124419102
 20
4.031591742812166
 30
0.0
 10
31.58936273681171
 20
3.913780250191476
 30
0.0
 10
31.58936273681171
 20
3.913780250191476
 30
0.0
 10
31.58936273681171
 20
3.913780250191476
 30
0.0
 10
31.38798727849495
 20
3.712404791874716
 30
0.0
 10
31.38798727849495
 20
3.712404791874716
 30
0.0
 10
31.38798727849495
 20
3.712404791874716
 30
0.0
 10
31.38199226586102
 20
3.707847497202767
 30
0.0
 10
31.38199226586102
 20
3.707847497202767
 30
0.0
 10
31.38199226586102
 20
3.707847497202767
 30
0.0
 10
32.28557087821397
 20
3.707833933825767
 30
0.0
 10
32.28557087821397
 20
3.707833933825767
 30
0.0
 10
32.28557087821397
 20
3.707833933825767
 30
0.0
 10
32.28558444159096
 20
3.537817003132657
 30
0.0
 10
32.28558444159096
 20
3.537817003132657
 30
0.0
 10
32.28558444159096
 20
3.537817003132657
 30
0.0
 10
31.67540880049875
 20
3.537830566509657
 30
0.0
 10
31.67540880049875
 20
3.537830566509657
 30
0.0
 10
31.67540880049875
 20
3.537830566509657
 30
0.0
 10
31.67433729371576
 20
3.543377987702596
 30
0.0
 10
31.67433729371576
 20
3.543377987702596
 30
0.0
 10
31.6619539305149
 20
3.465781907886458
 30
0.0
 10
31.63170759980524
 20
3.394126587196255
 30
0.0
 10
31.58796570898072
 20
3.332792996402937
 30
0.0
 10
31.58796570898072
 20
3.332792996402937
 30
0.0
 10
31.58940342694271
 20
3.331870686766948
 30
0.0
 10
31.58940342694271
 20
3.331870686766948
 30
0.0
 10
31.58940342694271
 20
3.331870686766948
 30
0.0
 10
31.47155124419102
 20
3.214018504015258
 30
0.0
 10
31.47155124419102
 20
3.214018504015258
 30
0.0
 10
31.47155124419102
 20
3.214018504015258
 30
0.0
 10
31.27016222249726
 20
3.415366835578019
 30
0.0
 10
31.27016222249726
 20
3.415366835578019
 30
0.0
 10
31.27016222249726
 20
3.415366835578019
 30
0.0
 10
31.26560492782531
 20
3.414458089319029
 30
0.0
 10
31.26560492782531
 20
3.414458089319029
 30
0.0
 10
31.26560492782531
 20
3.414458089319029
 30
0.0
 10
31.26560492782531
 20
2.517837489367
 30
0.0
 10
31.26560492782531
 20
2.517837489367
 30
0.0
 10
31.26560492782531
 20
2.517837489367
 30
0.0
 10
31.0955879971322
 20
2.51782392599
 30
0.0
 10
31.0955879971322
 20
2.51782392599
 30
0.0
 10
31.0955879971322
 20
2.51782392599
 30
0.0
 10
31.0955879971322
 20
3.130318904549189
 30
0.0
 10
31.0955879971322
 20
3.130318904549189
 30
0.0
 10
31.0955879971322
 20
3.130318904549189
 30
0.0
 10
31.09385188487622
 20
3.130291777795189
 30
0.0
 10
31.09385188487622
 20
3.130291777795189
 30
0.0
 10
31.01556407283309
 20
3.143990788565037
 30
0.0
 10
30.94358323109489
 20
3.175891851268682
 30
0.0
 10
30.88238527407157
 20
3.221437671234176
 30
0.0
 10
30.88238527407157
 20
3.221437671234176
 30
0.0
 10
30.88964168076649
 20
3.214032067392258
 30
0.0
 10
30.88964168076649
 20
3.214032067392258
 30
0.0
 10
30.88964168076649
 20
3.214032067392258
 30
0.0
 10
30.7718166247688
 20
3.331857123389948
 30
0.0
 10
30.7718166247688
 20
3.331857123389948
 30
0.0
 10
30.7718166247688
 20
3.331857123389948
 30
0.0
 10
30.97317851970856
 20
3.533259708460708
 30
0.0
 10
30.97317851970856
 20
3.533259708460708
 30
0.0
 10
30.97317851970856
 20
3.533259708460708
 30
0.0
 10
30.97397875895155
 20
3.537817003132657
 30
0.0
 10
30.97397875895155
 20
3.537817003132657
 30
0.0
 10
30.97397875895155
 20
3.537817003132657
 30
0.0
 10
30.07558135661254
 20
3.537817003132657
 30
0.0
 10
30.07558135661254
 20
3.537817003132657
 30
0.0
 10
30.07558135661254
 20
3.537817003132657
 30
0.0
 10
30.07566273687454
 20
3.707820370448767
 30
0.0
 10
30.07566273687454
 20
3.707820370448767
 30
0.0
 10
30.07566273687454
 20
3.707820370448767
 30
0.0
 10
30.68985313755871
 20
3.707820370448767
 30
0.0
 10
30.68985313755871
 20
3.707820370448767
 30
0.0
  0
SPLINE
  5
83
330
1F
100
AcDbEntity
  8
score
 62
   250
370
    35
100
AcDbSpline
210
0.0
220
0.0
230
1.0
 70
    11
 71
     3
 72
    17
 73
    13
 74
     0
 42
0.0000000001
 43
0.0000000001
 40
0.0
 40
0.0
 40
0.0
 40
0.0
 40
1.0
 40
1.0
 40
1.0
 40
2.0
 40
2.0
 40
2.0
 40
3.0
 40
3.0
 40
3.0
 40
4.0
 40
4.0
 40
4.0
 40
4.0
 10
2.492256960345284
 20
3.622750869905713
 30
0.0
 10
2.492202706837285
 20
4.233021454636926
 30
0.0
 10
2.986994699791783
 20
4.727813447591424
 30
0.0
 10
3.597305974653996
 20
4.727759194083425
 30
0.0
 10
4.20748161574621
 20
4.727813447591424
 30
0.0
 10
4.702246481946708
 20
4.233048581390926
 30
0.0
 10
4.702192228438709
 20
3.622859376921712
 30
0.0
 10
4.702246481946708
 20
3.012561665436499
 30
0.0
 10
4.207549432631209
 20
2.51782392599
 30
0.0
 10
3.597170340883997
 20
2.51782392599
 30
0.0
 10
2.986967573037783
 20
2.517783235859001
 30
0.0
 10
2.492202706837285
 20
3.012561665436499
 30
0.0
 10
2.492256960345284
 20
3.622750869905713
 30
0.0
  0
SPLINE
  5
84
330
1F
100
AcDbEntity
  8
score
 62
   250
370
    35
100
AcDbSpline
210
0.0
220
0.0
230
1.0
 70
    11
 71
     3
 72
    17
 73
    13
 74
     0
 42
0.0000000001
 43
0.0000000001
 40
0.0
 40
0.0
 40
0.0
 40
0.0
 40
1.0
 40
1.0
 40
1.0
 40
2.0
 40
2.0
 40
2.0
 40
3.0
 40
3.0
 40
3.0
 40
4.0
 40
4.0
 40
4.0
 40
4.0
 10
2.534723893731812
 20
3.622750869905713
 30
0.0
 10
2.534683203600813
 20
4.209570375804187
 30
0.0
 10
3.010445778624522
 20
4.685346514204896
 30
0.0
 10
3.597292411276996
 20
4.685292260696897
 30
0.0
 10
4.184030536913471
 20
4.685346514204896
 30
0.0
 10
4.659779548560181
 20
4.209597502558187
 30
0.0
 10
4.659725295052181
 20
3.622859376921712
 30
0.0
 10
4.659779548560181
 20
3.036012744269238
 30
0.0
 10
4.184084790421471
 20
2.560290859376528
 30
0.0
 10
3.597183904260997
 20
2.560290859376528
 30
0.0
 10
3.010418651870522
 20
2.560250169245529
 30
0.0
 10
2.534683203600813
 20
3.036012744269238
 30
0.0
 10
2.534723893731812
 20
3.622750869905713
 30
0.0
  0
SPLINE
  5
85
330
1F
100
AcDbEntity
  8
score
 62
   250
370
    35
100
AcDbSpline
210
0.0
220
0.0
230
1.0
 70
    11
 71
     3
 72
    17
 73
    13
 74
     0
 42
0.0000000001
 43
0.0000000001
 40
0.0
 40
0.0
 40
0.0
 40
0.0
 40
1.0
 40
1.0
 40
1.0
 40
2.0
 40
2.0
 40
2.0
 40
3.0
 40
3.0
 40
3.0
 40
4.0
 40
4.0
 40
4.0
 40
4.0
 10
9.381150392076677
 20
3.622750869905713
 30
0.0
 10
9.381096138568676
 20
4.233021454636926
 30
0.0
 10
9.875888131523174
 20
4.727813447591424
 30
0.0
 10
10.48619940638539
 20
4.727759194083425
 30
0.0
 10
11.0963750474776
 20
4.727813447591424
 30
0.0
 10
11.5911399136781
 20
4.233048581390926
 30
0.0
 10
11.5910856601701
 20
3.622859376921712
 30
0.0
 10
11.5911399136781
 20
3.012561665436499
 30
0.0
 10
11.0964428643626
 20
2.51782392599
 30
0.0
 10
10.48606377261539
 20
2.51782392599
 30
0.0
 10
9.875861004769174
 20
2.517783235859001
 30
0.0
 10
9.381096138568676
 20
3.012561665436499
 30
0.0
 10
9.381150392076677
 20
3.622750869905713
 30
0.0
  0
SPLINE
  5
86
330
1F
100
AcDbEntity
  8
score
 62
   250
370
    35
100
AcDbSpline
210
0.0
220
0.0
230
1.0
 70
    11
 71
     3
 72
    17
 73
    13
 74
     0
 42
0.0000000001
 43
0.0000000001
 40
0.0
 40
0.0
 40
0.0
 40
0.0
 40
1.0
 40
1.0
 40
1.0
 40
2.0
 40
2.0
 40
2.0
 40
3.0
 40
3.0
 40
3.0
 40
4.0
 40
4.0
 40
4.0
 40
4.0
 10
9.423617325463203
 20
3.622750869905713
 30
0.0
 10
9.423576635332203
 20
4.209570375804187
 30
0.0
 10
9.899339210355913
 20
4.685346514204896
 30
0.0
 10
10.48618584300839
 20
4.685292260696897
 30
0.0
 10
11.07292396864486
 20
4.685346514204896
 30
0.0
 10
11.54867298029157
 20
4.209597502558187
 30
0.0
 10
11.54861872678357
 20
3.622859376921712
 30
0.0
 10
11.54867298029157
 20
3.036012744269238
 30
0.0
 10
11.07297822215286
 20
2.560290859376528
 30
0.0
 10
10.48607733599239
 20
2.560290859376528
 30
0.0
 10
9.899312083601913
 20
2.560250169245529
 30
0.0
 10
9.423576635332203
 20
3.036012744269238
 30
0.0
 10
9.423617325463203
 20
3.622750869905713
 30
0.0
  0
SPLINE
  5
87
330
1F
100
AcDbEntity
  8
score
 62
   250
370
    35
100
AcDbSpline
210
0.0
220
0.0
230
1.0
 70
    11
 71
     3
 72
    17
 73
    13
 74
     0
 42
0.0000000001
 43
0.0000000001
 40
0.0
 40
0.0
 40
0.0
 40
0.0
 40
1.0
 40
1.0
 40
1.0
 40
2.0
 40
2.0
 40
2.0
 40
3.0
 40
3.0
 40
3.0
 40
4.0
 40
4.0
 40
4.0
 40
4.0
 10
16.24226602771238
 20
3.622750869905713
 30
0.0
 10
16.24221177420438
 20
4.233021454636926
 30
0.0
 10
16.73700376715887
 20
4.727813447591424
 30
0.0
 10
17.34731504202109
 20
4.727759194083425
 30
0.0
 10
17.9574906831133
 20
4.727813447591424
 30
0.0
 10
18.4522555493138
 20
4.233048581390926
 30
0.0
 10
18.4522012958058
 20
3.622859376921712
 30
0.0
 10
18.4522555493138
 20
3.012561665436499
 30
0.0
 10
17.9575584999983
 20
2.51782392599
 30
0.0
 10
17.34717940825109
 20
2.51782392599
 30
0.0
 10
16.73697664040488
 20
2.517783235859001
 30
0.0
 10
16.24221177420438
 20
3.012561665436499
 30
0.0
 10
16.24226602771238
 20
3.622750869905713
 30
0.0
  0
SPLINE
  5
88
330
1F
100
AcDbEntity
  8
score
 62
   250
370
    35
100
AcDbSpline
210
0.0
220
0.0
230
1.0
 70
    11
 71
     3
 72
    17
 73
    13
 74
     0
 42
0.0000000001
 43
0.0000000001
 40
0.0
 40
0.0
 40
0.0
 40
0.0
 40
1.0
 40
1.0
 40
1.0
 40
2.0
 40
2.0
 40
2.0
 40
3.0
 40
3.0
 40
3.0
 40
4.0
 40
4.0
 40
4.0
 40
4.0
 10
16.2847329610989
 20
3.622750869905713
 30
0.0
 10
16.28469227096791
 20
4.209570375804187
 30
0.0
 10
16.76045484599161
 20
4.685346514204896
 30
0.0
 10
17.34730147864409
 20
4.685292260696897
 30
0.0
 10
17.93403960428056
 20
4.685346514204896
 30
0.0
 10
18.40978861592727
 20
4.209597502558187
 30
0.0
 10
18.40973436241927
 20
3.622859376921712
 30
0.0
 10
18.40978861592727
 20
3.036012744269238
 30
0.0
 10
17.93409385778856
 20
2.560290859376528
 30
0.0
 10
17.34719297162809
 20
2.560290859376528
 30
0.0
 10
16.76042771923762
 20
2.560250169245529
 30
0.0
 10
16.28469227096791
 20
3.036012744269238
 30
0.0
 10
16.2847329610989
 20
3.622750869905713
 30
0.0
  0
SPLINE
  5
89
330
1F
100
AcDbEntity
  8
score
 62
   250
370
    35
100
AcDbSpline
210
0.0
220
0.0
230
1.0
 70
    11
 71
     3
 72
    17
 73
    13
 74
     0
 42
0.0000000001
 43
0.0000000001
 40
0.0
 40
0.0
 40
0.0
 40
0.0
 40
1.0
 40
1.0
 40
1.0
 40
2.0
 40
2.0
 40
2.0
 40
3.0
 40
3.0
 40
3.0
 40
4.0
 40
4.0
 40
4.0
 40
4.0
 10
23.10338166334808
 20
3.622750869905713
 30
0.0
 10
23.10332740984008
 20
4.233021454636926
 30
0.0
 10
23.59811940279457
 20
4.727813447591424
 30
0.0
 10
24.20843067765679
 20
4.727759194083425
 30
0.0
 10
24.818606318749
 20
4.727813447591424
 30
0.0
 10
25.3133711849495
 20
4.233048581390926
 30
0.0
 10
25.3133169314415
 20
3.622859376921712
 30
0.0
 10
25.3133711849495
 20
3.012561665436499
 30
0.0
 10
24.818674135634
 20
2.51782392599
 30
0.0
 10
24.20829504388679
 20
2.51782392599
 30
0.0
 10
23.59809227604057
 20
2.517783235859001
 30
0.0
 10
23.10332740984008
 20
3.012561665436499
 30
0.0
 10
23.10338166334808
 20
3.622750869905713
 30
0.0
  0
SPLINE
  5
8A
330
1F
100
AcDbEntity
  8
score
 62
   250
370
    35
100
AcDbSpline
210
0.0
220
0.0
230
1.0
 70
    11
 71
     3
 72
    17
 73
    13
 74
     0
 42
0.0000000001
 43
0.0000000001
 40
0.0
 40
0.0
 40
0.0
 40
0.0
 40
1.0
 40
1.0
 40
1.0
 40
2.0
 40
2.0
 40
2.0
 40
3.0
 40
3.0
 40
3.0
 40
4.0
 40
4.0
 40
4.0
 40
4.0
 10
23.14584859673461
 20
3.622750869905713
 30
0.0
 10
23.1458079066036
 20
4.209570375804187
 30
0.0
 10
23.62157048162731
 20
4.685346514204896
 30
0.0
 10
24.20841711427979
 20
4.685292260696897
 30
0.0
 10
24.79515523991626
 20
4.685346514204896
 30
0.0
 10
25.27090425156297
 20
4.209597502558187
 30
0.0
 10
25.27084999805497
 20
3.622859376921712
 30
0.0
 10
25.27090425156297
 20
3.036012744269238
 30
0.0
 10
24.79520949342426
 20
2.560290859376528
 30
0.0
 10
24.20830860726379
 20
2.560290859376528
 30
0.0
 10
23.62154335487331
 20
2.560250169245529
 30
0.0
 10
23.1458079066036
 20
3.036012744269238
 30
0.0
 10
23.14584859673461
 20
3.622750869905713
 30
0.0
  0
SPLINE
  5
8B
330
1F
100
AcDbEntity
  8
score
 62
   250
370
    35
100
AcDbSpline
210
0.0
220
0.0
230
1.0
 70
    11
 71
     3
 72
    17
 73
    13
 74
     0
 42
0.0000000001
 43
0.0000000001
 40
0.0
 40
0.0
 40
0.0
 40
0.0
 40
1.0
 40
1.0
 40
1.0
 40
2.0
 40
2.0
 40
2.0
 40
3.0
 40
3.0
 40
3.0
 40
4.0
 40
4.0
 40
4.0
 40
4.0
 10
30.07560848336654
 20
3.622750869905713
 30
0.0
 10
30.07555422985854
 20
4.233021454636926
 30
0.0
 10
30.57034622281304
 20
4.727813447591424
 30
0.0
 10
31.18065749767525
 20
4.727759194083425
 30
0.0
 10
31.79083313876747
 20
4.727813447591424
 30
0.0
 10
32.28559800496797
 20
4.233048581390926
 30
0.0
 10
32.28554375145997
 20
3.622859376921712
 30
0.0
 10
32.28559800496797
 20
3.012561665436499
 30
0.0
 10
31.79090095565247
 20
2.51782392599
 30
0.0
 10
31.18052186390526
 20
2.51782392599
 30
0.0
 10
30.57031909605904
 20
2.517783235859001
 30
0.0
 10
30.07555422985854
 20
3.012561665436499
 30
0.0
 10
30.07560848336654
 20
3.622750869905713
 30
0.0
  0
SPLINE
  5
8C
330
1F
100
AcDbEntity
  8
score
 62
   250
370
    35
100
AcDbSpline
210
0.0
220
0.0
230
1.0
 70
    11
 71
     3
 72
    17
 73
    13
 74
     0
 42
0.0000000001
 43
0.0000000001
 40
0.0
 40
0.0
 40
0.0
 40
0.0
 40
1.0
 40
1.0
 40
1.0
 40
2.0
 40
2.0
 40
2.0
 40
3.0
 40
3.0
 40
3.0
 40
4.0
 40
4.0
 40
4.0
 40
4.0
 10
30.11807541675307
 20
3.622750869905713
 30
0.0
 10
30.11803472662207
 20
4.209570375804187
 30
0.0
 10
30.59379730164578
 20
4.685346514204896
 30
0.0
 10
31.18064393429825
 20
4.685292260696897
 30
0.0
 10
31.76738205993473
 20
4.685346514204896
 30
0.0
 10
32.24313107158144
 20
4.209597502558187
 30
0.0
 10
32.24307681807344
 20
3.622859376921712
 30
0.0
 10
32.24313107158144
 20
3.036012744269238
 30
0.0
 10
31.76743631344273
 20
2.560290859376528
 30
0.0
 10
31.18053542728225
 20
2.560290859376528
 30
0.0
 10
30.59377017489178
 20
2.560250169245529
 30
0.0
 10
30.11803472662207
 20
3.036012744269238
 30
0.0
 10
30.11807541675307
 20
3.622750869905713
 30
0.0
  0
POLYLINE
  5
8E
330
1F
100
AcDbEntity
  8
place
 62
   250
370
    35
100
AcDb2dPolyline
 66
     1
 10
0.0
 20
0.0
 30
0.0
  0
VERTEX
  5
8F
330
8E
100
AcDbEntity
  8
place
 62
   250
370
    35
100
AcDbVertex
100
AcDb2dVertex
 10
35.51402081535706
 20
0.1250000824306099
 30
0.0
  0
VERTEX
  5
90
330
8E
100
AcDbEntity
  8
place
 62
   250
370
    35
100
AcDbVertex
100
AcDb2dVertex
 10
0.1250000824306099
 20
0.1250000824306099
 30
0.0
  0
VERTEX
  5
91
330
8E
100
AcDbEntity
  8
place
 62
   250
370
    35
100
AcDbVertex
100
AcDb2dVertex
 10
0.1250000824306099
 20
7.125004698544766
 30
0.0
  0
VERTEX
  5
92
330
8E
100
AcDbEntity
  8
place
 62
   250
370
    35
100
AcDbVertex
100
AcDb2dVertex
 10
35.51402081535706
 20
7.125004698544766
 30
0.0
  0
VERTEX
  5
93
330
8E
100
AcDbEntity
  8
place
 62
   250
370
    35
100
AcDbVertex
100
AcDb2dVertex
 10
35.51402081535706
 20
0.1250000824306099
 30
0.0
  0
SEQEND
  5
94
330
8E
100
AcDbEntity
  8
place
370
    35
  0
ENDSEC
  0
SECTION
  2
OBJECTS
  0
DICTIONARY
  5
C
330
0
100
AcDbDictionary
281
     1
  3
ACAD_GROUP
350
D
  3
ACAD_LAYOUT
350
1A
  3
ACAD_MLINESTYLE
350
17
  3
ACAD_PLOTSETTINGS
350
19
  3
ACAD_PLOTSTYLENAME
350
E
  3
ACAD_TABLESTYLE
350
A9
  3
ACAD_VISUALSTYLE
350
2A
  0
DICTIONARY
  5
D
102
{ACAD_REACTORS
330
C
102
}
330
C
100
AcDbDictionary
281
     1
  0
DICTIONARY
  5
1A
102
{ACAD_REACTORS
330
C
102
}
330
C
100
AcDbDictionary
281
     1
  3
Layout1
350
1E
  3
Layout2
350
26
  3
Model
350
22
  0
DICTIONARY
  5
17
102
{ACAD_REACTORS
330
C
102
}
330
C
100
AcDbDictionary
281
     1
  3
Standard
350
18
  0
DICTIONARY
  5
19
102
{ACAD_REACTORS
330
C
102
}
330
C
100
AcDbDictionary
281
     1
  0
ACDBDICTIONARYWDFLT
  5
E
102
{ACAD_REACTORS
330
C
102
}
330
C
100
AcDbDictionary
281
     1
  3
Normal
350
F
100
AcDbDictionaryWithDefault
340
F
  0
DICTIONARY
  5
A9
102
{ACAD_REACTORS
330
C
102
}
330
C
100
AcDbDictionary
281
     1
  0
DICTIONARY
  5
2A
102
{ACAD_REACTORS
330
C
102
}
330
C
100
AcDbDictionary
281
     1
  3
2dWireframe
350
2F
  3
3D Hidden
350
31
  3
3dWireframe
350
30
  3
Basic
350
32
  3
Brighten
350
36
  3
ColorChange
350
3A
  3
Conceptual
350
34
  3
Dim
350
35
  3
Facepattern
350
39
  3
Flat
350
2B
  3
FlatWithEdges
350
2C
  3
Gouraud
350
2D
  3
GouraudWithEdges
350
2E
  3
Linepattern
350
38
  3
Realistic
350
33
  3
Thicken
350
37
  0
LAYOUT
  5
1E
102
{ACAD_REACTORS
330
1A
102
}
330
1A
100
AcDbPlotSettings
  1

  2
none_device
  4

  6

 40
0.0
 41
0.0
 42
0.0
 43
0.0
 44
0.0
 45
0.0
 46
0.0
 47
0.0
 48
0.0
 49
0.0
140
0.0
141
0.0
142
1.0
143
1.0
 70
   688
 72
     0
 73
     0
 74
     5
  7

 75
    16
147
1.0
148
0.0
149
0.0
100
AcDbLayout
  1
Layout1
 70
     1
 71
     1
 10
0.0
 20
0.0
 11
12.0
 21
9.0
 12
0.0
 22
0.0
 32
0.0
 14
1.000000000000000E+20
 24
1.000000000000000E+20
 34
1.000000000000000E+20
 15
-1.000000000000000E+20
 25
-1.000000000000000E+20
 35
-1.000000000000000E+20
146
0.0
 13
0.0
 23
0.0
 33
0.0
 16
1.0
 26
0.0
 36
0.0
 17
0.0
 27
1.0
 37
0.0
 76
     0
330
1B
  0
LAYOUT
  5
26
102
{ACAD_REACTORS
330
1A
102
}
330
1A
100
AcDbPlotSettings
  1

  2
none_device
  4

  6

 40
0.0
 41
0.0
 42
0.0
 43
0.0
 44
0.0
 45
0.0
 46
0.0
 47
0.0
 48
0.0
 49
0.0
140
0.0
141
0.0
142
1.0
143
1.0
 70
   688
 72
     0
 73
     0
 74
     5
  7

 75
    16
147
1.0
148
0.0
149
0.0
100
AcDbLayout
  1
Layout2
 70
     1
 71
     2
 10
0.0
 20
0.0
 11
0.0
 21
0.0
 12
0.0
 22
0.0
 32
0.0
 14
0.0
 24
0.0
 34
0.0
 15
0.0
 25
0.0
 35
0.0
146
0.0
 13
0.0
 23
0.0
 33
0.0
 16
1.0
 26
0.0
 36
0.0
 17
0.0
 27
1.0
 37
0.0
 76
     0
330
23
  0
LAYOUT
  5
22
102
{ACAD_REACTORS
330
1A
102
}
330
1A
100
AcDbPlotSettings
  1

  2
none_device
  4

  6

 40
0.0
 41
0.0
 42
0.0
 43
0.0
 44
0.0
 45
0.0
 46
0.0
 47
0.0
 48
0.0
 49
0.0
140
0.0
141
0.0
142
1.0
143
1.0
 70
  1712
 72
     0
 73
     0
 74
     0
  7

 75
     0
147
1.0
148
0.0
149
0.0
100
AcDbLayout
  1
Model
 70
     1
 71
     0
 10
0.0
 20
0.0
 11
12.0
 21
9.0
 12
0.0
 22
0.0
 32
0.0
 14
1.000000000000000E+20
 24
1.000000000000000E+20
 34
1.000000000000000E+20
 15
-1.000000000000000E+20
 25
-1.000000000000000E+20
 35
-1.000000000000000E+20
146
0.0
 13
0.0
 23
0.0
 33
0.0
 16
1.0
 26
0.0
 36
0.0
 17
0.0
 27
1.0
 37
0.0
 76
     0
330
1F
331
29
  0
MLINESTYLE
  5
18
102
{ACAD_REACTORS
330
17
102
}
330
17
100
AcDbMlineStyle
  2
Standard
 70
     0
  3

 62
   256
 51
90.0
 52
90.0
 71
     2
 49
0.5
 62
   256
  6
BYLAYER
 49
-0.5
 62
   256
  6
BYLAYER
  0
ACDBPLACEHOLDER
  5
F
102
{ACAD_REACTORS
330
E
102
}
330
E
  0
VISUALSTYLE
  5
2F
102
{ACAD_REACTORS
330
2A
102
}
330
2A
100
AcDbVisualStyle
  2
2dWireframe
 70
     4
 71
     0
 72
     2
 73
     0
 90
        0
 40
-0.6
 41
-30.0
 62
     5
 63
     7
 74
     1
 91
        4
 64
     7
 65
   257
 75
     1
175
     1
 42
1.0
 92
        0
 66
   257
 43
1.0
 76
     1
 77
     6
 78
     2
 67
     7
 79
     5
170
     0
171
     0
290
     0
174
     0
 93
        1
 44
0.0
173
     0
291
     0
 45
0.0
1001
ACAD
1000
AcDbSavedByObjectVersion
1070
     0
  0
VISUALSTYLE
  5
31
102
{ACAD_REACTORS
330
2A
102
}
330
2A
100
AcDbVisualStyle
  2
3D Hidden
 70
     6
 71
     1
 72
     2
 73
     2
 90
        0
 40
-0.6
 41
-30.0
 62
     5
 63
     7
 74
     2
 91
        2
 64
     7
 65
   257
 75
     2
175
     1
 42
40.0
 92
        0
 66
   257
 43
1.0
 76
     1
 77
     6
 78
     2
 67
     7
 79
     3
170
     0
171
     0
290
     0
174
     0
 93
        1
 44
0.0
173
     0
291
     0
 45
0.0
1001
ACAD
1000
AcDbSavedByObjectVersion
1070
     0
  0
VISUALSTYLE
  5
30
102
{ACAD_REACTORS
330
2A
102
}
330
2A
100
AcDbVisualStyle
  2
3dWireframe
 70
     5
 71
     0
 72
     2
 73
     0
 90
        0
 40
-0.6
 41
-30.0
 62
     5
 63
     7
 74
     1
 91
        4
 64
     7
 65
   257
 75
     1
175
     1
 42
1.0
 92
        0
 66
   257
 43
1.0
 76
     1
 77
     6
 78
     2
 67
     7
 79
     5
170
     0
171
     0
290
     0
174
     0
 93
        1
 44
0.0
173
     0
291
     0
 45
0.0
1001
ACAD
1000
AcDbSavedByObjectVersion
1070
     0
  0
VISUALSTYLE
  5
32
102
{ACAD_REACTORS
330
2A
102
}
330
2A
100
AcDbVisualStyle
  2
Basic
 70
     7
 71
     1
 72
     0
 73
     1
 90
        0
 40
-0.6
 41
-30.0
 62
     5
 63
     7
 74
     0
 91
        4
 64
     7
 65
   257
 75
     1
175
     1
 42
1.0
 92
        8
 66
     7
 43
1.0
 76
     1
 77
     6
 78
     2
 67
     7
 79
     5
170
     0
171
     0
290
     0
174
     0
 93
        1
 44
0.0
173
     0
291
     1
 45
0.0
1001
ACAD
1000
AcDbSavedByObjectVersion
1070
     0
  0
VISUALSTYLE
  5
36
102
{ACAD_REACTORS
330
2A
102
}
330
2A
100
AcDbVisualStyle
  2
Brighten
 70
    12
 71
     2
 72
     2
 73
     0
 90
        0
 40
-0.6
 41
-30.0
 62
     5
 63
     7
 74
     1
 91
        4
 64
     7
 65
   257
 75
     1
175
     1
 42
1.0
 92
        8
 66
     7
 43
1.0
 76
     1
 77
     6
 78
     2
 67
     7
 79
     5
170
     0
171
     0
290
     0
174
     0
 93
        1
 44
50.0
173
     0
291
     1
 45
0.0
1001
ACAD
1000
AcDbSavedByObjectVersion
1070
     0
  0
VISUALSTYLE
  5
3A
102
{ACAD_REACTORS
330
2A
102
}
330
2A
100
AcDbVisualStyle
  2
ColorChange
 70
    16
 71
     2
 72
     2
 73
     3
 90
        0
 40
-0.6
 41
-30.0
 62
     5
 63
     8
 74
     1
 91
        4
 64
     7
 65
   257
 75
     1
175
     1
 42
1.0
 92
        8
 66
     8
 43
1.0
 76
     1
 77
     6
 78
     2
 67
     7
 79
     5
170
     0
171
     0
290
     0
174
     0
 93
        1
 44
0.0
173
     0
291
     1
 45
0.0
1001
ACAD
1000
AcDbSavedByObjectVersion
1070
     0
  0
VISUALSTYLE
  5
34
102
{ACAD_REACTORS
330
2A
102
}
330
2A
100
AcDbVisualStyle
  2
Conceptual
 70
     9
 71
     3
 72
     2
 73
     0
 90
        0
 40
-0.6
 41
-30.0
 62
     5
 63
     7
 74
     2
 91
        2
 64
     7
 65
   257
 75
     1
175
     1
 42
40.0
 92
        8
 66
     7
 43
1.0
 76
     1
 77
     6
 78
     2
 67
     7
 79
     3
170
     0
171
     0
290
     0
174
     0
 93
        1
 44
0.0
173
     0
291
     0
 45
0.0
1001
ACAD
1000
AcDbSavedByObjectVersion
1070
     0
  0
VISUALSTYLE
  5
35
102
{ACAD_REACTORS
330
2A
102
}
330
2A
100
AcDbVisualStyle
  2
Dim
 70
    11
 71
     2
 72
     2
 73
     0
 90
        0
 40
-0.6
 41
-30.0
 62
     5
 63
     7
 74
     1
 91
        4
 64
     7
 65
   257
 75
     1
175
     1
 42
1.0
 92
        8
 66
     7
 43
1.0
 76
     1
 77
     6
 78
     2
 67
     7
 79
     5
170
     0
171
     0
290
     0
174
     0
 93
        1
 44
-50.0
173
     0
291
     1
 45
0.0
1001
ACAD
1000
AcDbSavedByObjectVersion
1070
     0
  0
VISUALSTYLE
  5
39
102
{ACAD_REACTORS
330
2A
102
}
330
2A
100
AcDbVisualStyle
  2
Facepattern
 70
    15
 71
     2
 72
     2
 73
     0
 90
        0
 40
-0.6
 41
-30.0
 62
     5
 63
     7
 74
     1
 91
        4
 64
     7
 65
   257
 75
     1
175
     1
 42
1.0
 92
        8
 66
     7
 43
1.0
 76
     1
 77
     6
 78
     2
 67
     7
 79
     5
170
     0
171
     0
290
     0
174
     0
 93
        1
 44
0.0
173
     0
291
     1
 45
0.0
1001
ACAD
1000
AcDbSavedByObjectVersion
1070
     0
  0
VISUALSTYLE
  5
2B
102
{ACAD_REACTORS
330
2A
102
}
330
2A
100
AcDbVisualStyle
  2
Flat
 70
     0
 71
     2
 72
     1
 73
     1
 90
        2
 40
-0.6
 41
30.0
 62
     5
 63
     7
 74
     0
 91
        4
 64
     7
 65
   257
 75
     1
175
     1
 42
1.0
 92
        8
 66
     7
 43
1.0
 76
     1
 77
     6
 78
     2
 67
     7
 79
     5
170
     0
171
     0
290
     0
174
     0
 93
       13
 44
0.0
173
     0
291
     1
 45
0.0
1001
ACAD
1000
AcDbSavedByObjectVersion
1070
     0
  0
VISUALSTYLE
  5
2C
102
{ACAD_REACTORS
330
2A
102
}
330
2A
100
AcDbVisualStyle
  2
FlatWithEdges
 70
     1
 71
     2
 72
     1
 73
     1
 90
        2
 40
-0.6
 41
30.0
 62
     5
 63
     7
 74
     1
 91
        4
 64
     7
 65
   257
 75
     1
175
     1
 42
1.0
 92
        0
 66
   257
 43
1.0
 76
     1
 77
     6
 78
     2
 67
     7
 79
     5
170
     0
171
     0
290
     0
174
     0
 93
       13
 44
0.0
173
     0
291
     1
 45
0.0
1001
ACAD
1000
AcDbSavedByObjectVersion
1070
     0
  0
VISUALSTYLE
  5
2D
102
{ACAD_REACTORS
330
2A
102
}
330
2A
100
AcDbVisualStyle
  2
Gouraud
 70
     2
 71
     2
 72
     2
 73
     1
 90
        2
 40
-0.6
 41
30.0
 62
     5
 63
     7
 74
     0
 91
        4
 64
     7
 65
   257
 75
     1
175
     1
 42
1.0
 92
        0
 66
     7
 43
1.0
 76
     1
 77
     6
 78
     2
 67
     7
 79
     5
170
     0
171
     0
290
     0
174
     0
 93
       13
 44
0.0
173
     0
291
     1
 45
0.0
1001
ACAD
1000
AcDbSavedByObjectVersion
1070
     0
  0
VISUALSTYLE
  5
2E
102
{ACAD_REACTORS
330
2A
102
}
330
2A
100
AcDbVisualStyle
  2
GouraudWithEdges
 70
     3
 71
     2
 72
     2
 73
     1
 90
        2
 40
-0.6
 41
30.0
 62
     5
 63
     7
 74
     1
 91
        4
 64
     7
 65
   257
 75
     1
175
     1
 42
1.0
 92
        0
 66
   257
 43
1.0
 76
     1
 77
     6
 78
     2
 67
     7
 79
     5
170
     0
171
     0
290
     0
174
     0
 93
       13
 44
0.0
173
     0
291
     1
 45
0.0
1001
ACAD
1000
AcDbSavedByObjectVersion
1070
     0
  0
VISUALSTYLE
  5
38
102
{ACAD_REACTORS
330
2A
102
}
330
2A
100
AcDbVisualStyle
  2
Linepattern
 70
    14
 71
     2
 72
     2
 73
     0
 90
        0
 40
-0.6
 41
-30.0
 62
     5
 63
     7
 74
     1
 91
        4
 64
     7
 65
   257
 75
     7
175
     7
 42
1.0
 92
        8
 66
     7
 43
1.0
 76
     1
 77
     6
 78
     2
 67
     7
 79
     5
170
     0
171
     0
290
     0
174
     0
 93
        1
 44
0.0
173
     0
291
     1
 45
0.0
1001
ACAD
1000
AcDbSavedByObjectVersion
1070
     0
  0
VISUALSTYLE
  5
33
102
{ACAD_REACTORS
330
2A
102
}
330
2A
100
AcDbVisualStyle
  2
Realistic
 70
     8
 71
     2
 72
     2
 73
     0
 90
        0
 40
-0.6
 41
-30.0
 62
     5
 63
     7
 74
     1
 91
        0
 64
     7
 65
   257
 75
     1
175
     1
 42
1.0
 92
        8
 66
     8
 43
1.0
 76
     1
 77
     6
 78
     2
 67
     7
 79
     5
170
     0
171
     0
290
     0
174
     0
 93
       13
 44
0.0
173
     0
291
     0
 45
0.0
1001
ACAD
1000
AcDbSavedByObjectVersion
1070
     0
  0
VISUALSTYLE
  5
37
102
{ACAD_REACTORS
330
2A
102
}
330
2A
100
AcDbVisualStyle
  2
Thicken
 70
    13
 71
     2
 72
     2
 73
     0
 90
        0
 40
-0.6
 41
-30.0
 62
     5
 63
     7
 74
     1
 91
        4
 64
     7
 65
   257
 75
     1
175
     1
 42
1.0
 92
       12
 66
     7
 43
1.0
 76
     1
 77
     6
 78
     2
 67
     7
 79
     5
170
     0
171
     0
290
     0
174
     0
 93
        1
 44
0.0
173
     0
291
     1
 45
0.0
1001
ACAD
1000
AcDbSavedByObjectVersion
1070
     0
  0
ENDSEC
  0
EOF
