  0
SECTION
  2
HEADER
  9
$ACADVER
  1
AC1009
  9
$DWGCODEPAGE
  3
ansi_1252
  9
$INSBASE
 10
0.0
 20
0.0
 30
0.0
  9
$EXTMIN
 10
-3765.645209622581
 20
-1828.8
 30
1.542802548035694
  9
$EXTMAX
 10
-2546.44520962258
 20
-1219.2
 30
3.089688073483785
  9
$LIMMIN
 10
0.0
 20
0.0
  9
$LIMMAX
 10
12.0
 20
9.0
  9
$ORTHOMODE
 70
     0
  9
$REGENMODE
 70
     1
  9
$FILLMODE
 70
     1
  9
$QTEXTMODE
 70
     0
  9
$MIRRTEXT
 70
     1
  9
$DRAGMODE
 70
     2
  9
$LTSCALE
 40
1.0
  9
$OSMODE
 70
    37
  9
$ATTMODE
 70
     1
  9
$TEXTSIZE
 40
0.2
  9
$TRACEWID
 40
0.05
  9
$TEXTSTYLE
  7
STANDARD
  9
$CLAYER
  8
DEFAULT
  9
$CELTYPE
  6
BYLAYER
  9
$CECOLOR
 62
   256
  9
$DIMSCALE
 40
1.0
  9
$DIMASZ
 40
0.18
  9
$DIMEXO
 40
0.0625
  9
$DIMDLI
 40
0.38
  9
$DIMRND
 40
0.0
  9
$DIMDLE
 40
0.0
  9
$DIMEXE
 40
0.18
  9
$DIMTP
 40
0.0
  9
$DIMTM
 40
0.0
  9
$DIMTXT
 40
0.18
  9
$DIMCEN
 40
0.09
  9
$DIMTSZ
 40
0.0
  9
$DIMTOL
 70
     0
  9
$DIMLIM
 70
     0
  9
$DIMTIH
 70
     1
  9
$DIMTOH
 70
     1
  9
$DIMSE1
 70
     0
  9
$DIMSE2
 70
     0
  9
$DIMTAD
 70
     0
  9
$DIMZIN
 70
     0
  9
$DIMBLK
  1

  9
$DIMASO
 70
     1
  9
$DIMSHO
 70
     1
  9
$DIMPOST
  1

  9
$DIMAPOST
  1

  9
$DIMALT
 70
     0
  9
$DIMALTD
 70
     2
  9
$DIMALTF
 40
25.4
  9
$DIMLFAC
 40
1.0
  9
$DIMTOFL
 70
     0
  9
$DIMTVP
 40
0.0
  9
$DIMTIX
 70
     0
  9
$DIMSOXD
 70
     0
  9
$DIMSAH
 70
     0
  9
$DIMBLK1
  1

  9
$DIMBLK2
  1

  9
$DIMSTYLE
  2
STANDARD
  9
$DIMCLRD
 70
     0
  9
$DIMCLRE
 70
     0
  9
$DIMCLRT
 70
     0
  9
$DIMTFAC
 40
1.0
  9
$DIMGAP
 40
0.09
  9
$LUNITS
 70
     2
  9
$LUPREC
 70
     2
  9
$SKETCHINC
 40
0.1
  9
$FILLETRAD
 40
0.5
  9
$AUNITS
 70
     0
  9
$AUPREC
 70
     0
  9
$MENU
  1
.
  9
$ELEVATION
 40
0.0
  9
$PELEVATION
 40
0.0
  9
$THICKNESS
 40
0.0
  9
$LIMCHECK
 70
     0
  9
$CHAMFERA
 40
0.0
  9
$CHAMFERB
 40
0.0
  9
$SKPOLY
 70
     0
  9
$TDCREATE
 40
2458244.635352396
  9
$TDUPDATE
 40
2458244.635359074
  9
$TDINDWG
 40
0.0000000116
  9
$TDUSRTIMER
 40
0.0000000116
  9
$USRTIMER
 70
     1
  9
$ANGBASE
 50
0.0
  9
$ANGDIR
 70
     0
  9
$PDMODE
 70
     0
  9
$PDSIZE
 40
0.0
  9
$PLINEWID
 40
0.0
  9
$COORDS
 70
     1
  9
$SPLFRAME
 70
     0
  9
$SPLINETYPE
 70
     6
  9
$SPLINESEGS
 70
     8
  9
$ATTDIA
 70
     0
  9
$ATTREQ
 70
     1
  9
$HANDLING
 70
     1
  9
$HANDSEED
  5
1F6
  9
$SURFTAB1
 70
     6
  9
$SURFTAB2
 70
     6
  9
$SURFTYPE
 70
     6
  9
$SURFU
 70
     6
  9
$SURFV
 70
     6
  9
$UCSNAME
  2

  9
$UCSORG
 10
0.0
 20
0.0
 30
0.0
  9
$UCSXDIR
 10
1.0
 20
0.0
 30
0.0
  9
$UCSYDIR
 10
0.0
 20
1.0
 30
0.0
  9
$PUCSNAME
  2

  9
$PUCSORG
 10
0.0
 20
0.0
 30
0.0
  9
$PUCSXDIR
 10
1.0
 20
0.0
 30
0.0
  9
$PUCSYDIR
 10
0.0
 20
1.0
 30
0.0
  9
$USERI1
 70
     0
  9
$USERI2
 70
     0
  9
$USERI3
 70
     0
  9
$USERI4
 70
     0
  9
$USERI5
 70
     0
  9
$USERR1
 40
0.0
  9
$USERR2
 40
0.0
  9
$USERR3
 40
0.0
  9
$USERR4
 40
0.0
  9
$USERR5
 40
0.0
  9
$WORLDVIEW
 70
     1
  9
$SHADEDGE
 70
     3
  9
$SHADEDIF
 70
    70
  9
$TILEMODE
 70
     1
  9
$MAXACTVP
 70
    64
  9
$PLIMCHECK
 70
     0
  9
$PEXTMIN
 10
1.000000000000000E+20
 20
1.000000000000000E+20
 30
1.000000000000000E+20
  9
$PEXTMAX
 10
-1.000000000000000E+20
 20
-1.000000000000000E+20
 30
-1.000000000000000E+20
  9
$PLIMMIN
 10
0.0
 20
0.0
  9
$PLIMMAX
 10
12.0
 20
9.0
  9
$UNITMODE
 70
     0
  9
$VISRETAIN
 70
     1
  9
$PLINEGEN
 70
     0
  9
$PSLTSCALE
 70
     1
  0
ENDSEC
  0
SECTION
  2
TABLES
  0
TABLE
  2
VPORT
 70
     1
  0
VPORT
  2
*ACTIVE
 70
     0
 10
0.0
 20
0.0
 11
1.0
 21
1.0
 12
-3156.04520962258
 22
-1524.0
 13
0.0
 23
0.0
 14
0.5
 24
0.5
 15
0.5
 25
0.5
 16
0.0
 26
0.0
 36
1.0
 17
0.0
 27
0.0
 37
0.0
 40
621.7919999999999
 41
2.000000000000001
 42
50.0
 43
0.0
 44
0.0
 50
0.0
 51
0.0
 71
     0
 72
   100
 73
     1
 74
     3
 75
     0
 76
     0
 77
     0
 78
     0
  0
ENDTAB
  0
TABLE
  2
LTYPE
 70
     1
  0
LTYPE
  2
CONTINUOUS
 70
     0
  3
Solid line
 72
    65
 73
     0
 40
0.0
  0
ENDTAB
  0
TABLE
  2
LAYER
 70
     2
  0
LAYER
  2
0
 70
     0
 62
     7
  6
CONTINUOUS
  0
LAYER
  2
DEFAULT
 70
     0
 62
     7
  6
CONTINUOUS
  0
ENDTAB
  0
TABLE
  2
STYLE
 70
     1
  0
STYLE
  2
STANDARD
 70
     0
 40
0.0
 41
1.0
 50
0.0
 71
     0
 42
0.2
  3
txt
  4

  0
ENDTAB
  0
TABLE
  2
VIEW
 70
     0
  0
ENDTAB
  0
TABLE
  2
UCS
 70
     0
  0
ENDTAB
  0
TABLE
  2
APPID
 70
     1
  0
APPID
  2
ACAD
 70
     0
  0
ENDTAB
  0
TABLE
  2
DIMSTYLE
 70
     1
  0
DIMSTYLE
  2
STANDARD
 70
     0
  3

  4

  5

  6

  7

 40
1.0
 41
0.18
 42
0.0625
 43
0.38
 44
0.18
 45
0.0
 46
0.0
 47
0.0
 48
0.0
140
0.18
141
0.09
142
0.0
143
25.4
144
1.0
145
0.0
146
1.0
147
0.09
 71
     0
 72
     0
 73
     1
 74
     1
 75
     0
 76
     0
 77
     0
 78
     0
170
     0
171
     2
172
     0
173
     0
174
     0
175
     0
176
     0
177
     0
178
     0
  0
ENDTAB
  0
ENDSEC
  0
SECTION
  2
BLOCKS
  0
BLOCK
  8
0
  2
$MODEL_SPACE
 70
     0
 10
0.0
 20
0.0
 30
0.0
  3
$MODEL_SPACE
  1

  0
ENDBLK
  5
21
  8
0
  0
BLOCK
 67
     1
  8
0
  2
$PAPER_SPACE
 70
     0
 10
0.0
 20
0.0
 30
0.0
  3
$PAPER_SPACE
  1

  0
ENDBLK
  5
1D
 67
     1
  8
0
  0
ENDSEC
  0
SECTION
  2
ENTITIES
  0
POLYLINE
  5
6F
  8
DEFAULT
 66
     1
 10
0.0
 20
0.0
 30
3.089688073461502
 70
     1
  0
VERTEX
  5
70
  8
DEFAULT
 10
-3705.645209622581
 20
-1568.799999999999
 30
3.089688073461502
  0
VERTEX
  5
71
  8
DEFAULT
 10
-3395.64520962258
 20
-1568.799999999999
 30
3.089688073461502
 42
-0.414213463616896
  0
VERTEX
  5
72
  8
DEFAULT
 10
-3375.645209622581
 20
-1588.799999999999
 30
3.089688073461502
  0
VERTEX
  5
73
  8
DEFAULT
 10
-3375.645209622581
 20
-1748.799999999999
 30
3.089688073461502
 42
-0.4142135623730911
  0
VERTEX
  5
74
  8
DEFAULT
 10
-3395.645209622581
 20
-1768.799999999999
 30
3.089688073461502
  0
VERTEX
  5
75
  8
DEFAULT
 10
-3705.645209622581
 20
-1768.799999999999
 30
3.089688073461502
 42
-0.4142133648607325
  0
VERTEX
  5
76
  8
DEFAULT
 10
-3725.645209622581
 20
-1748.799999999999
 30
3.089688073461502
  0
VERTEX
  5
77
  8
DEFAULT
 10
-3725.645209622581
 20
-1588.799999999999
 30
3.089688073461502
 42
-0.4142132661046459
  0
SEQEND
  5
78
  8
DEFAULT
  0
POLYLINE
  5
79
  8
DEFAULT
 66
     1
 10
0.0
 20
0.0
 30
3.089688073461502
 70
     1
  0
VERTEX
  5
7A
  8
DEFAULT
 10
-3650.645209622581
 20
-1533.8
 30
3.089688073461502
  0
VERTEX
  5
7B
  8
DEFAULT
 10
-3650.645209622581
 20
-1529.0
 30
3.089688073461502
  0
VERTEX
  5
7C
  8
DEFAULT
 10
-3689.145208085741
 20
-1529.0
 30
3.089688073461502
  0
VERTEX
  5
7D
  8
DEFAULT
 10
-3689.145208085741
 20
-1538.799999704815
 30
3.089688073461502
  0
VERTEX
  5
7E
  8
DEFAULT
 10
-3686.645208085741
 20
-1538.799999704815
 30
3.089688073461502
  0
VERTEX
  5
7F
  8
DEFAULT
 10
-3686.645208085741
 20
-1544.800000022707
 30
3.089688073461502
  0
VERTEX
  5
80
  8
DEFAULT
 10
-3694.645208085741
 20
-1544.800000022707
 30
3.089688073461502
  0
VERTEX
  5
81
  8
DEFAULT
 10
-3694.645208085741
 20
-1538.799999704815
 30
3.089688073461502
  0
VERTEX
  5
82
  8
DEFAULT
 10
-3692.145208085741
 20
-1538.799999704815
 30
3.089688073461502
  0
VERTEX
  5
83
  8
DEFAULT
 10
-3692.145208085741
 20
-1529.0
 30
3.089688073461502
  0
VERTEX
  5
84
  8
DEFAULT
 10
-3730.645209622581
 20
-1529.0
 30
3.089688073461502
  0
VERTEX
  5
85
  8
DEFAULT
 10
-3730.645209622581
 20
-1533.8
 30
3.089688073461502
  0
VERTEX
  5
86
  8
DEFAULT
 10
-3750.645209622581
 20
-1533.8
 30
3.089688073461502
  0
VERTEX
  5
87
  8
DEFAULT
 10
-3750.645209622581
 20
-1803.8
 30
3.089688073461502
  0
VERTEX
  5
88
  8
DEFAULT
 10
-3730.645209622581
 20
-1803.8
 30
3.089688073461502
  0
VERTEX
  5
89
  8
DEFAULT
 10
-3730.645209622581
 20
-1808.6
 30
3.089688073461502
  0
VERTEX
  5
8A
  8
DEFAULT
 10
-3692.145208085741
 20
-1808.6
 30
3.089688073461502
  0
VERTEX
  5
8B
  8
DEFAULT
 10
-3692.145208085741
 20
-1798.800000295185
 30
3.089688073461502
  0
VERTEX
  5
8C
  8
DEFAULT
 10
-3694.645208085741
 20
-1798.800000295185
 30
3.089688073461502
  0
VERTEX
  5
8D
  8
DEFAULT
 10
-3694.645208085741
 20
-1792.799999977293
 30
3.089688073461502
  0
VERTEX
  5
8E
  8
DEFAULT
 10
-3686.645208085741
 20
-1792.799999977293
 30
3.089688073461502
  0
VERTEX
  5
8F
  8
DEFAULT
 10
-3686.645208085741
 20
-1798.800000295185
 30
3.089688073461502
  0
VERTEX
  5
90
  8
DEFAULT
 10
-3689.145208085741
 20
-1798.800000295185
 30
3.089688073461502
  0
VERTEX
  5
91
  8
DEFAULT
 10
-3689.145208085741
 20
-1808.6
 30
3.089688073461502
  0
VERTEX
  5
92
  8
DEFAULT
 10
-3650.645209622581
 20
-1808.6
 30
3.089688073461502
  0
VERTEX
  5
93
  8
DEFAULT
 10
-3650.645209622581
 20
-1803.8
 30
3.089688073461502
  0
VERTEX
  5
94
  8
DEFAULT
 10
-3590.645213437278
 20
-1803.8
 30
3.089688073461502
  0
VERTEX
  5
95
  8
DEFAULT
 10
-3590.645213437278
 20
-1808.6
 30
3.089688073461502
  0
VERTEX
  5
96
  8
DEFAULT
 10
-3552.145211900438
 20
-1808.6
 30
3.089688073461502
  0
VERTEX
  5
97
  8
DEFAULT
 10
-3552.145211900438
 20
-1798.800000295185
 30
3.089688073461502
  0
VERTEX
  5
98
  8
DEFAULT
 10
-3554.645211900438
 20
-1798.800000295185
 30
3.089688073461502
  0
VERTEX
  5
99
  8
DEFAULT
 10
-3554.645211900438
 20
-1792.799999977293
 30
3.089688073461502
  0
VERTEX
  5
9A
  8
DEFAULT
 10
-3546.645211900438
 20
-1792.799999977293
 30
3.089688073461502
  0
VERTEX
  5
9B
  8
DEFAULT
 10
-3546.645211900438
 20
-1798.800000295185
 30
3.089688073461502
  0
VERTEX
  5
9C
  8
DEFAULT
 10
-3549.145211900438
 20
-1798.800000295185
 30
3.089688073461502
  0
VERTEX
  5
9D
  8
DEFAULT
 10
-3549.145211900438
 20
-1808.6
 30
3.089688073461502
  0
VERTEX
  5
9E
  8
DEFAULT
 10
-3510.645213437278
 20
-1808.6
 30
3.089688073461502
  0
VERTEX
  5
9F
  8
DEFAULT
 10
-3510.645213437278
 20
-1803.8
 30
3.089688073461502
  0
VERTEX
  5
A0
  8
DEFAULT
 10
-3450.645209622581
 20
-1803.8
 30
3.089688073461502
  0
VERTEX
  5
A1
  8
DEFAULT
 10
-3450.645209622581
 20
-1808.6
 30
3.089688073461502
  0
VERTEX
  5
A2
  8
DEFAULT
 10
-3412.145208085741
 20
-1808.6
 30
3.089688073461502
  0
VERTEX
  5
A3
  8
DEFAULT
 10
-3412.145208085741
 20
-1798.800000295185
 30
3.089688073461502
  0
VERTEX
  5
A4
  8
DEFAULT
 10
-3414.645208085741
 20
-1798.800000295185
 30
3.089688073461502
  0
VERTEX
  5
A5
  8
DEFAULT
 10
-3414.645208085741
 20
-1792.799999977293
 30
3.089688073461502
  0
VERTEX
  5
A6
  8
DEFAULT
 10
-3406.645208085741
 20
-1792.799999977293
 30
3.089688073461502
  0
VERTEX
  5
A7
  8
DEFAULT
 10
-3406.645208085741
 20
-1798.800000295185
 30
3.089688073461502
  0
VERTEX
  5
A8
  8
DEFAULT
 10
-3409.145208085741
 20
-1798.800000295185
 30
3.089688073461502
  0
VERTEX
  5
A9
  8
DEFAULT
 10
-3409.145208085741
 20
-1808.6
 30
3.089688073461502
  0
VERTEX
  5
AA
  8
DEFAULT
 10
-3370.645209622581
 20
-1808.6
 30
3.089688073461502
  0
VERTEX
  5
AB
  8
DEFAULT
 10
-3370.645209622581
 20
-1803.8
 30
3.089688073461502
  0
VERTEX
  5
AC
  8
DEFAULT
 10
-3350.645209622581
 20
-1803.8
 30
3.089688073461502
  0
VERTEX
  5
AD
  8
DEFAULT
 10
-3350.645209622581
 20
-1533.8
 30
3.089688073461502
  0
VERTEX
  5
AE
  8
DEFAULT
 10
-3370.645209622581
 20
-1533.8
 30
3.089688073461502
  0
VERTEX
  5
AF
  8
DEFAULT
 10
-3370.645209622581
 20
-1529.0
 30
3.089688073461502
  0
VERTEX
  5
B0
  8
DEFAULT
 10
-3409.145208085741
 20
-1529.0
 30
3.089688073461502
  0
VERTEX
  5
B1
  8
DEFAULT
 10
-3409.145208085741
 20
-1538.799999704815
 30
3.089688073461502
  0
VERTEX
  5
B2
  8
DEFAULT
 10
-3406.645208085741
 20
-1538.799999704815
 30
3.089688073461502
  0
VERTEX
  5
B3
  8
DEFAULT
 10
-3406.645208085741
 20
-1544.800000022707
 30
3.089688073461502
  0
VERTEX
  5
B4
  8
DEFAULT
 10
-3414.645208085741
 20
-1544.800000022707
 30
3.089688073461502
  0
VERTEX
  5
B5
  8
DEFAULT
 10
-3414.645208085741
 20
-1538.799999704815
 30
3.089688073461502
  0
VERTEX
  5
B6
  8
DEFAULT
 10
-3412.145208085741
 20
-1538.799999704815
 30
3.089688073461502
  0
VERTEX
  5
B7
  8
DEFAULT
 10
-3412.145208085741
 20
-1529.0
 30
3.089688073461502
  0
VERTEX
  5
B8
  8
DEFAULT
 10
-3450.645209622581
 20
-1529.0
 30
3.089688073461502
  0
VERTEX
  5
B9
  8
DEFAULT
 10
-3450.645209622581
 20
-1533.8
 30
3.089688073461502
  0
VERTEX
  5
BA
  8
DEFAULT
 10
-3510.645213437278
 20
-1533.8
 30
3.089688073461502
  0
VERTEX
  5
BB
  8
DEFAULT
 10
-3510.645213437278
 20
-1529.0
 30
3.089688073461502
  0
VERTEX
  5
BC
  8
DEFAULT
 10
-3549.145211900438
 20
-1529.0
 30
3.089688073461502
  0
VERTEX
  5
BD
  8
DEFAULT
 10
-3549.145211900438
 20
-1538.799999704815
 30
3.089688073461502
  0
VERTEX
  5
BE
  8
DEFAULT
 10
-3546.645211900438
 20
-1538.799999704815
 30
3.089688073461502
  0
VERTEX
  5
BF
  8
DEFAULT
 10
-3546.645211900438
 20
-1544.800000022707
 30
3.089688073461502
  0
VERTEX
  5
C0
  8
DEFAULT
 10
-3554.645211900438
 20
-1544.800000022707
 30
3.089688073461502
  0
VERTEX
  5
C1
  8
DEFAULT
 10
-3554.645211900438
 20
-1538.799999704815
 30
3.089688073461502
  0
VERTEX
  5
C2
  8
DEFAULT
 10
-3552.145211900438
 20
-1538.799999704815
 30
3.089688073461502
  0
VERTEX
  5
C3
  8
DEFAULT
 10
-3552.145211900438
 20
-1529.0
 30
3.089688073461502
  0
VERTEX
  5
C4
  8
DEFAULT
 10
-3590.645213437278
 20
-1529.0
 30
3.089688073461502
  0
VERTEX
  5
C5
  8
DEFAULT
 10
-3590.645213437278
 20
-1533.8
 30
3.089688073461502
  0
SEQEND
  5
C6
  8
DEFAULT
  0
POLYLINE
  5
C7
  8
DEFAULT
 66
     1
 10
0.0
 20
0.0
 30
3.089673317710549
 70
     1
  0
VERTEX
  5
C8
  8
DEFAULT
 10
-3705.645209622581
 20
-1279.199999999999
 30
3.089673317710549
  0
VERTEX
  5
C9
  8
DEFAULT
 10
-3395.64520962258
 20
-1279.199999999998
 30
3.089673317710549
 42
-0.4142134636170334
  0
VERTEX
  5
CA
  8
DEFAULT
 10
-3375.645209622581
 20
-1299.199999999999
 30
3.089673317710549
  0
VERTEX
  5
CB
  8
DEFAULT
 10
-3375.645209622581
 20
-1459.199999999999
 30
3.089673317710549
 42
-0.4142135623730959
  0
VERTEX
  5
CC
  8
DEFAULT
 10
-3395.645209622581
 20
-1479.199999999999
 30
3.089673317710549
  0
VERTEX
  5
CD
  8
DEFAULT
 10
-3705.645209622581
 20
-1479.199999999999
 30
3.089673317710549
 42
-0.4142133648606015
  0
VERTEX
  5
CE
  8
DEFAULT
 10
-3725.645209622582
 20
-1459.199999999999
 30
3.089673317710549
  0
VERTEX
  5
CF
  8
DEFAULT
 10
-3725.64520962258
 20
-1299.199999999999
 30
3.089673317710549
 42
-0.4142133648607331
  0
SEQEND
  5
D0
  8
DEFAULT
  0
POLYLINE
  5
D1
  8
DEFAULT
 66
     1
 10
0.0
 20
0.0
 30
3.089673317710549
 70
     1
  0
VERTEX
  5
D2
  8
DEFAULT
 10
-3650.645209622581
 20
-1244.2
 30
3.089673317710549
  0
VERTEX
  5
D3
  8
DEFAULT
 10
-3650.645209622581
 20
-1239.4
 30
3.089673317710549
  0
VERTEX
  5
D4
  8
DEFAULT
 10
-3689.145208085741
 20
-1239.4
 30
3.089673317710549
  0
VERTEX
  5
D5
  8
DEFAULT
 10
-3689.145208085741
 20
-1249.199999704815
 30
3.089673317710549
  0
VERTEX
  5
D6
  8
DEFAULT
 10
-3686.645208085741
 20
-1249.199999704815
 30
3.089673317710549
  0
VERTEX
  5
D7
  8
DEFAULT
 10
-3686.645208085741
 20
-1255.200000022706
 30
3.089673317710549
  0
VERTEX
  5
D8
  8
DEFAULT
 10
-3694.645208085741
 20
-1255.200000022706
 30
3.089673317710549
  0
VERTEX
  5
D9
  8
DEFAULT
 10
-3694.645208085741
 20
-1249.199999704815
 30
3.089673317710549
  0
VERTEX
  5
DA
  8
DEFAULT
 10
-3692.145208085741
 20
-1249.199999704815
 30
3.089673317710549
  0
VERTEX
  5
DB
  8
DEFAULT
 10
-3692.145208085741
 20
-1239.4
 30
3.089673317710549
  0
VERTEX
  5
DC
  8
DEFAULT
 10
-3730.645209622581
 20
-1239.4
 30
3.089673317710549
  0
VERTEX
  5
DD
  8
DEFAULT
 10
-3730.645209622581
 20
-1244.2
 30
3.089673317710549
  0
VERTEX
  5
DE
  8
DEFAULT
 10
-3750.645209622581
 20
-1244.2
 30
3.089673317710549
  0
VERTEX
  5
DF
  8
DEFAULT
 10
-3750.645209622581
 20
-1514.199999999999
 30
3.089673317710549
  0
VERTEX
  5
E0
  8
DEFAULT
 10
-3730.645209622581
 20
-1514.199999999999
 30
3.089673317710549
  0
VERTEX
  5
E1
  8
DEFAULT
 10
-3730.645209622581
 20
-1519.0
 30
3.089673317710549
  0
VERTEX
  5
E2
  8
DEFAULT
 10
-3692.145208085741
 20
-1519.0
 30
3.089673317710549
  0
VERTEX
  5
E3
  8
DEFAULT
 10
-3692.145208085741
 20
-1509.200000295185
 30
3.089673317710549
  0
VERTEX
  5
E4
  8
DEFAULT
 10
-3694.645208085741
 20
-1509.200000295185
 30
3.089673317710549
  0
VERTEX
  5
E5
  8
DEFAULT
 10
-3694.645208085741
 20
-1503.199999977293
 30
3.089673317710549
  0
VERTEX
  5
E6
  8
DEFAULT
 10
-3686.645208085741
 20
-1503.199999977293
 30
3.089673317710549
  0
VERTEX
  5
E7
  8
DEFAULT
 10
-3686.645208085741
 20
-1509.200000295185
 30
3.089673317710549
  0
VERTEX
  5
E8
  8
DEFAULT
 10
-3689.145208085741
 20
-1509.200000295185
 30
3.089673317710549
  0
VERTEX
  5
E9
  8
DEFAULT
 10
-3689.145208085741
 20
-1519.0
 30
3.089673317710549
  0
VERTEX
  5
EA
  8
DEFAULT
 10
-3650.645209622581
 20
-1519.0
 30
3.089673317710549
  0
VERTEX
  5
EB
  8
DEFAULT
 10
-3650.645209622581
 20
-1514.199999999999
 30
3.089673317710549
  0
VERTEX
  5
EC
  8
DEFAULT
 10
-3590.645213437278
 20
-1514.199999999999
 30
3.089673317710549
  0
VERTEX
  5
ED
  8
DEFAULT
 10
-3590.645213437278
 20
-1519.0
 30
3.089673317710549
  0
VERTEX
  5
EE
  8
DEFAULT
 10
-3552.145211900438
 20
-1519.0
 30
3.089673317710549
  0
VERTEX
  5
EF
  8
DEFAULT
 10
-3552.145211900438
 20
-1509.200000295185
 30
3.089673317710549
  0
VERTEX
  5
F0
  8
DEFAULT
 10
-3554.645211900438
 20
-1509.200000295185
 30
3.089673317710549
  0
VERTEX
  5
F1
  8
DEFAULT
 10
-3554.645211900438
 20
-1503.199999977293
 30
3.089673317710549
  0
VERTEX
  5
F2
  8
DEFAULT
 10
-3546.645211900438
 20
-1503.199999977293
 30
3.089673317710549
  0
VERTEX
  5
F3
  8
DEFAULT
 10
-3546.645211900438
 20
-1509.200000295185
 30
3.089673317710549
  0
VERTEX
  5
F4
  8
DEFAULT
 10
-3549.145211900438
 20
-1509.200000295185
 30
3.089673317710549
  0
VERTEX
  5
F5
  8
DEFAULT
 10
-3549.145211900438
 20
-1519.0
 30
3.089673317710549
  0
VERTEX
  5
F6
  8
DEFAULT
 10
-3510.645213437278
 20
-1519.0
 30
3.089673317710549
  0
VERTEX
  5
F7
  8
DEFAULT
 10
-3510.645213437278
 20
-1514.199999999999
 30
3.089673317710549
  0
VERTEX
  5
F8
  8
DEFAULT
 10
-3450.645209622581
 20
-1514.199999999999
 30
3.089673317710549
  0
VERTEX
  5
F9
  8
DEFAULT
 10
-3450.645209622581
 20
-1519.0
 30
3.089673317710549
  0
VERTEX
  5
FA
  8
DEFAULT
 10
-3412.145208085741
 20
-1519.0
 30
3.089673317710549
  0
VERTEX
  5
FB
  8
DEFAULT
 10
-3412.145208085741
 20
-1509.200000295185
 30
3.089673317710549
  0
VERTEX
  5
FC
  8
DEFAULT
 10
-3414.645208085741
 20
-1509.200000295185
 30
3.089673317710549
  0
VERTEX
  5
FD
  8
DEFAULT
 10
-3414.645208085741
 20
-1503.199999977293
 30
3.089673317710549
  0
VERTEX
  5
FE
  8
DEFAULT
 10
-3406.645208085741
 20
-1503.199999977293
 30
3.089673317710549
  0
VERTEX
  5
FF
  8
DEFAULT
 10
-3406.645208085741
 20
-1509.200000295185
 30
3.089673317710549
  0
VERTEX
  5
100
  8
DEFAULT
 10
-3409.145208085741
 20
-1509.200000295185
 30
3.089673317710549
  0
VERTEX
  5
101
  8
DEFAULT
 10
-3409.145208085741
 20
-1519.0
 30
3.089673317710549
  0
VERTEX
  5
102
  8
DEFAULT
 10
-3370.645209622581
 20
-1519.0
 30
3.089673317710549
  0
VERTEX
  5
103
  8
DEFAULT
 10
-3370.645209622581
 20
-1514.199999999999
 30
3.089673317710549
  0
VERTEX
  5
104
  8
DEFAULT
 10
-3350.645209622581
 20
-1514.199999999999
 30
3.089673317710549
  0
VERTEX
  5
105
  8
DEFAULT
 10
-3350.645209622581
 20
-1244.2
 30
3.089673317710549
  0
VERTEX
  5
106
  8
DEFAULT
 10
-3370.645209622581
 20
-1244.2
 30
3.089673317710549
  0
VERTEX
  5
107
  8
DEFAULT
 10
-3370.645209622581
 20
-1239.4
 30
3.089673317710549
  0
VERTEX
  5
108
  8
DEFAULT
 10
-3409.145208085741
 20
-1239.4
 30
3.089673317710549
  0
VERTEX
  5
109
  8
DEFAULT
 10
-3409.145208085741
 20
-1249.199999704815
 30
3.089673317710549
  0
VERTEX
  5
10A
  8
DEFAULT
 10
-3406.645208085741
 20
-1249.199999704815
 30
3.089673317710549
  0
VERTEX
  5
10B
  8
DEFAULT
 10
-3406.645208085741
 20
-1255.200000022706
 30
3.089673317710549
  0
VERTEX
  5
10C
  8
DEFAULT
 10
-3414.645208085741
 20
-1255.200000022706
 30
3.089673317710549
  0
VERTEX
  5
10D
  8
DEFAULT
 10
-3414.645208085741
 20
-1249.199999704815
 30
3.089673317710549
  0
VERTEX
  5
10E
  8
DEFAULT
 10
-3412.145208085741
 20
-1249.199999704815
 30
3.089673317710549
  0
VERTEX
  5
10F
  8
DEFAULT
 10
-3412.145208085741
 20
-1239.4
 30
3.089673317710549
  0
VERTEX
  5
110
  8
DEFAULT
 10
-3450.645209622581
 20
-1239.4
 30
3.089673317710549
  0
VERTEX
  5
111
  8
DEFAULT
 10
-3450.645209622581
 20
-1244.2
 30
3.089673317710549
  0
VERTEX
  5
112
  8
DEFAULT
 10
-3510.645213437278
 20
-1244.2
 30
3.089673317710549
  0
VERTEX
  5
113
  8
DEFAULT
 10
-3510.645213437278
 20
-1239.4
 30
3.089673317710549
  0
VERTEX
  5
114
  8
DEFAULT
 10
-3549.145211900438
 20
-1239.4
 30
3.089673317710549
  0
VERTEX
  5
115
  8
DEFAULT
 10
-3549.145211900438
 20
-1249.199999704815
 30
3.089673317710549
  0
VERTEX
  5
116
  8
DEFAULT
 10
-3546.645211900438
 20
-1249.199999704815
 30
3.089673317710549
  0
VERTEX
  5
117
  8
DEFAULT
 10
-3546.645211900438
 20
-1255.200000022706
 30
3.089673317710549
  0
VERTEX
  5
118
  8
DEFAULT
 10
-3554.645211900438
 20
-1255.200000022706
 30
3.089673317710549
  0
VERTEX
  5
119
  8
DEFAULT
 10
-3554.645211900438
 20
-1249.199999704815
 30
3.089673317710549
  0
VERTEX
  5
11A
  8
DEFAULT
 10
-3552.145211900438
 20
-1249.199999704815
 30
3.089673317710549
  0
VERTEX
  5
11B
  8
DEFAULT
 10
-3552.145211900438
 20
-1239.4
 30
3.089673317710549
  0
VERTEX
  5
11C
  8
DEFAULT
 10
-3590.645213437278
 20
-1239.4
 30
3.089673317710549
  0
VERTEX
  5
11D
  8
DEFAULT
 10
-3590.645213437278
 20
-1244.2
 30
3.089673317710549
  0
SEQEND
  5
11E
  8
DEFAULT
  0
POLYLINE
  5
11F
  8
DEFAULT
 10
0.0
 20
0.0
 30
0.0
 66
     1
 70
     9
  0
VERTEX
  5
120
  8
DEFAULT
 10
-3330.845209622581
 20
-1754.0
 30
3.089679664686855
 70
    32
  0
VERTEX
  5
121
  8
DEFAULT
 10
-3330.845209622581
 20
-1774.0
 30
3.08967083546122
 70
    32
  0
VERTEX
  5
122
  8
DEFAULT
 10
-3060.845209622581
 20
-1774.0
 30
3.08967083546122
 70
    32
  0
VERTEX
  5
123
  8
DEFAULT
 10
-3060.845209622581
 20
-1754.0
 30
3.089679664686855
 70
    32
  0
VERTEX
  5
124
  8
DEFAULT
 10
-3056.04520962258
 20
-1754.0
 30
3.089688073473553
 70
    32
  0
VERTEX
  5
125
  8
DEFAULT
 10
-3056.04520962258
 20
-1684.0
 30
3.089688073483785
 70
    32
  0
VERTEX
  5
126
  8
DEFAULT
 10
-3060.845209622581
 20
-1684.0
 30
3.089680400475345
 70
    32
  0
VERTEX
  5
127
  8
DEFAULT
 10
-3060.845209622581
 20
-1624.0
 30
3.089684798396775
 70
    32
  0
VERTEX
  5
128
  8
DEFAULT
 10
-3056.04520962258
 20
-1624.0
 30
3.089688073483785
 70
    32
  0
VERTEX
  5
129
  8
DEFAULT
 10
-3056.04520962258
 20
-1554.0
 30
3.089688073473553
 70
    32
  0
VERTEX
  5
12A
  8
DEFAULT
 10
-3060.845209622581
 20
-1554.0
 30
3.0896854533853
 70
    32
  0
VERTEX
  5
12B
  8
DEFAULT
 10
-3060.845209622581
 20
-1494.0
 30
3.089683956132149
 70
    32
  0
VERTEX
  5
12C
  8
DEFAULT
 10
-3056.04520962258
 20
-1494.0
 30
3.089688073483785
 70
    32
  0
VERTEX
  5
12D
  8
DEFAULT
 10
-3056.04520962258
 20
-1424.0
 30
3.089688073473553
 70
    32
  0
VERTEX
  5
12E
  8
DEFAULT
 10
-3060.845209622581
 20
-1424.0
 30
3.08968385265598
 70
    32
  0
VERTEX
  5
12F
  8
DEFAULT
 10
-3060.845209622581
 20
-1364.0
 30
3.089679454467387
 70
    32
  0
VERTEX
  5
130
  8
DEFAULT
 10
-3056.04520962258
 20
-1364.0
 30
3.089688073473553
 70
    32
  0
VERTEX
  5
131
  8
DEFAULT
 10
-3056.04520962258
 20
-1294.0
 30
3.089688073473553
 70
    32
  0
VERTEX
  5
132
  8
DEFAULT
 10
-3060.845209622581
 20
-1294.0
 30
3.089679454467387
 70
    32
  0
VERTEX
  5
133
  8
DEFAULT
 10
-3060.845209622581
 20
-1274.0
 30
3.089670835450988
 70
    32
  0
VERTEX
  5
134
  8
DEFAULT
 10
-3330.845209622581
 20
-1274.0
 30
3.089670835450988
 70
    32
  0
VERTEX
  5
135
  8
DEFAULT
 10
-3330.845209622581
 20
-1294.0
 30
3.089679454467387
 70
    32
  0
VERTEX
  5
136
  8
DEFAULT
 10
-3335.645209622581
 20
-1294.0
 30
3.089688073473553
 70
    32
  0
VERTEX
  5
137
  8
DEFAULT
 10
-3335.645209622581
 20
-1364.0
 30
3.089688073473553
 70
    32
  0
VERTEX
  5
138
  8
DEFAULT
 10
-3330.845209622581
 20
-1364.0
 30
3.089679454467387
 70
    32
  0
VERTEX
  5
139
  8
DEFAULT
 10
-3330.845209622581
 20
-1424.0
 30
3.08968385265598
 70
    32
  0
VERTEX
  5
13A
  8
DEFAULT
 10
-3335.645209622581
 20
-1424.0
 30
3.089688073473553
 70
    32
  0
VERTEX
  5
13B
  8
DEFAULT
 10
-3335.645209622581
 20
-1494.0
 30
3.089688073483785
 70
    32
  0
VERTEX
  5
13C
  8
DEFAULT
 10
-3330.845209622581
 20
-1494.0
 30
3.089683956132149
 70
    32
  0
VERTEX
  5
13D
  8
DEFAULT
 10
-3330.845209622581
 20
-1554.0
 30
3.0896854533853
 70
    32
  0
VERTEX
  5
13E
  8
DEFAULT
 10
-3335.645209622581
 20
-1554.0
 30
3.089688073473553
 70
    32
  0
VERTEX
  5
13F
  8
DEFAULT
 10
-3335.645209622581
 20
-1624.0
 30
3.089688073483785
 70
    32
  0
VERTEX
  5
140
  8
DEFAULT
 10
-3330.845209622581
 20
-1624.0
 30
3.089684798396775
 70
    32
  0
VERTEX
  5
141
  8
DEFAULT
 10
-3330.845209622581
 20
-1684.0
 30
3.089680400475345
 70
    32
  0
VERTEX
  5
142
  8
DEFAULT
 10
-3335.645209622581
 20
-1684.0
 30
3.089688073483785
 70
    32
  0
VERTEX
  5
143
  8
DEFAULT
 10
-3335.645209622581
 20
-1754.0
 30
3.089688073473553
 70
    32
  0
SEQEND
  5
144
  8
DEFAULT
  0
POLYLINE
  5
145
  8
DEFAULT
 66
     1
 10
0.0
 20
0.0
 30
1.542802548035694
 70
     1
  0
VERTEX
  5
146
  8
DEFAULT
 10
-3765.645209622581
 20
-1219.2
 30
1.542802548035694
  0
VERTEX
  5
147
  8
DEFAULT
 10
-3765.645209622581
 20
-1828.8
 30
1.542802548035694
  0
VERTEX
  5
148
  8
DEFAULT
 10
-2546.44520962258
 20
-1828.8
 30
1.542802548035694
  0
VERTEX
  5
149
  8
DEFAULT
 10
-2546.44520962258
 20
-1219.2
 30
1.542802548035694
  0
SEQEND
  5
14A
  8
DEFAULT
  0
POLYLINE
  5
14B
  8
DEFAULT
 66
     1
 10
0.0
 20
0.0
 30
3.079509461902944
 70
     1
  0
VERTEX
  5
14C
  8
DEFAULT
 10
-2622.721876750237
 20
-1823.00788190703
 30
3.079509461902944
  0
VERTEX
  5
14D
  8
DEFAULT
 10
-2584.09041924516
 20
-1823.00788190703
 30
3.079509461902944
 42
0.4142135623730778
  0
VERTEX
  5
14E
  8
DEFAULT
 10
-2564.090419245161
 20
-1803.00788190703
 30
3.079509461902944
  0
VERTEX
  5
14F
  8
DEFAULT
 10
-2564.09041924516
 20
-1443.00788190703
 30
3.079509461902944
 42
0.4142135623730942
  0
VERTEX
  5
150
  8
DEFAULT
 10
-2584.09041924516
 20
-1423.007881907029
 30
3.079509461902944
  0
VERTEX
  5
151
  8
DEFAULT
 10
-2598.890419245161
 20
-1423.00788190703
 30
3.079509461902944
 42
0.414213562373097
  0
VERTEX
  5
152
  8
DEFAULT
 10
-2618.890419245161
 20
-1443.00788190703
 30
3.079509461902944
  0
VERTEX
  5
153
  8
DEFAULT
 10
-2618.890419245161
 20
-1664.723610659568
 30
3.079509461902944
 42
-0.6681786379194159
  0
VERTEX
  5
154
  8
DEFAULT
 10
-2653.032554868891
 20
-1678.865746283299
 30
3.079509461902944
  0
VERTEX
  5
155
  8
DEFAULT
 10
-2897.174690492622
 20
-1434.723610659568
 30
3.079509461902944
 42
0.1989123673796638
  0
VERTEX
  5
156
  8
DEFAULT
 10
-2925.458961740084
 20
-1423.00788190703
 30
3.079509461902944
  0
VERTEX
  5
157
  8
DEFAULT
 10
-2964.09041924516
 20
-1423.007881907029
 30
3.079509461902944
 42
0.4142135623730778
  0
VERTEX
  5
158
  8
DEFAULT
 10
-2984.09041924516
 20
-1443.00788190703
 30
3.079509461902944
  0
VERTEX
  5
159
  8
DEFAULT
 10
-2984.09041924516
 20
-1803.00788190703
 30
3.079509461902944
 42
0.4142135623731074
  0
VERTEX
  5
15A
  8
DEFAULT
 10
-2964.09041924516
 20
-1823.00788190703
 30
3.079509461902944
  0
VERTEX
  5
15B
  8
DEFAULT
 10
-2949.29041924516
 20
-1823.00788190703
 30
3.079509461902944
 42
0.4142135623730888
  0
VERTEX
  5
15C
  8
DEFAULT
 10
-2929.290419245161
 20
-1803.00788190703
 30
3.079509461902944
  0
VERTEX
  5
15D
  8
DEFAULT
 10
-2929.29041924516
 20
-1581.292153154492
 30
3.079509461902944
 42
-0.6681786379194306
  0
VERTEX
  5
15E
  8
DEFAULT
 10
-2895.14828362143
 20
-1567.150017530761
 30
3.079509461902944
  0
VERTEX
  5
15F
  8
DEFAULT
 10
-2651.006147997698
 20
-1811.292153154492
 30
3.079509461902944
 42
0.1989123673796648
  0
SEQEND
  5
160
  8
DEFAULT
  0
POLYLINE
  5
161
  8
DEFAULT
 66
     1
 10
0.0
 20
0.0
 30
3.079509461985026
 70
     1
  0
VERTEX
  5
162
  8
DEFAULT
 10
-2888.924559514101
 20
-1511.567853158313
 30
3.079509461985026
  0
VERTEX
  5
163
  8
DEFAULT
 10
-2938.422034197159
 20
-1462.070378475254
 30
3.079509461985026
  0
VERTEX
  5
164
  8
DEFAULT
 10
-2935.027921647464
 20
-1458.676265925559
 30
3.079509461985026
  0
VERTEX
  5
165
  8
DEFAULT
 10
-2885.530446964406
 20
-1508.173740608617
 30
3.079509461985026
  0
SEQEND
  5
166
  8
DEFAULT
  0
POLYLINE
  5
167
  8
DEFAULT
 66
     1
 10
0.0
 20
0.0
 30
3.079509461985026
 70
     1
  0
VERTEX
  5
168
  8
DEFAULT
 10
-2613.152914851347
 20
-1787.339497821066
 30
3.079509461985026
  0
VERTEX
  5
169
  8
DEFAULT
 10
-2662.650389534405
 20
-1737.842023138008
 30
3.079509461985026
  0
VERTEX
  5
16A
  8
DEFAULT
 10
-2659.25627698471
 20
-1734.447910588312
 30
3.079509461985026
  0
VERTEX
  5
16B
  8
DEFAULT
 10
-2609.758802301652
 20
-1783.945385271371
 30
3.079509461985026
  0
SEQEND
  5
16C
  8
DEFAULT
  0
POLYLINE
  5
16D
  8
DEFAULT
 66
     1
 10
0.0
 20
0.0
 30
3.079509461985026
 70
     1
  0
VERTEX
  5
16E
  8
DEFAULT
 10
-2797.000677959849
 20
-1603.491734712564
 30
3.079509461985026
  0
VERTEX
  5
16F
  8
DEFAULT
 10
-2846.498152642908
 20
-1553.994260029506
 30
3.079509461985026
  0
VERTEX
  5
170
  8
DEFAULT
 10
-2843.104040093212
 20
-1550.60014747981
 30
3.079509461985026
  0
VERTEX
  5
171
  8
DEFAULT
 10
-2793.606565410154
 20
-1600.097622162868
 30
3.079509461985026
  0
SEQEND
  5
172
  8
DEFAULT
  0
POLYLINE
  5
173
  8
DEFAULT
 66
     1
 10
0.0
 20
0.0
 30
3.079509461985026
 70
     1
  0
VERTEX
  5
174
  8
DEFAULT
 10
-2705.076796405599
 20
-1695.415616266815
 30
3.079509461985026
  0
VERTEX
  5
175
  8
DEFAULT
 10
-2754.574271088657
 20
-1645.918141583757
 30
3.079509461985026
  0
VERTEX
  5
176
  8
DEFAULT
 10
-2751.180158538961
 20
-1642.524029034061
 30
3.079509461985026
  0
VERTEX
  5
177
  8
DEFAULT
 10
-2701.682683855903
 20
-1692.021503717119
 30
3.079509461985026
  0
SEQEND
  5
178
  8
DEFAULT
  0
POLYLINE
  5
179
  8
DEFAULT
 66
     1
 10
0.0
 20
0.0
 30
3.079509461985026
 70
     1
  0
VERTEX
  5
17A
  8
DEFAULT
 10
-2588.890419245161
 20
-1803.00788190703
 30
3.079509461985026
  0
VERTEX
  5
17B
  8
DEFAULT
 10
-2588.890419245161
 20
-1723.00788190703
 30
3.079509461985026
  0
VERTEX
  5
17C
  8
DEFAULT
 10
-2584.09041924516
 20
-1723.00788190703
 30
3.079509461985026
  0
VERTEX
  5
17D
  8
DEFAULT
 10
-2584.09041924516
 20
-1803.00788190703
 30
3.079509461985026
  0
SEQEND
  5
17E
  8
DEFAULT
  0
POLYLINE
  5
17F
  8
DEFAULT
 66
     1
 10
0.0
 20
0.0
 30
3.079509461985026
 70
     1
  0
VERTEX
  5
180
  8
DEFAULT
 10
-2588.890419245161
 20
-1663.007885721727
 30
3.079509461985026
  0
VERTEX
  5
181
  8
DEFAULT
 10
-2588.890419245161
 20
-1583.007885721727
 30
3.079509461985026
  0
VERTEX
  5
182
  8
DEFAULT
 10
-2584.09041924516
 20
-1583.007885721727
 30
3.079509461985026
  0
VERTEX
  5
183
  8
DEFAULT
 10
-2584.09041924516
 20
-1663.007885721727
 30
3.079509461985026
  0
SEQEND
  5
184
  8
DEFAULT
  0
POLYLINE
  5
185
  8
DEFAULT
 66
     1
 10
0.0
 20
0.0
 30
3.079509461985026
 70
     1
  0
VERTEX
  5
186
  8
DEFAULT
 10
-2588.890419245161
 20
-1523.00788190703
 30
3.079509461985026
  0
VERTEX
  5
187
  8
DEFAULT
 10
-2588.890419245161
 20
-1443.00788190703
 30
3.079509461985026
  0
VERTEX
  5
188
  8
DEFAULT
 10
-2584.09041924516
 20
-1443.00788190703
 30
3.079509461985026
  0
VERTEX
  5
189
  8
DEFAULT
 10
-2584.09041924516
 20
-1523.00788190703
 30
3.079509461985026
  0
SEQEND
  5
18A
  8
DEFAULT
  0
POLYLINE
  5
18B
  8
DEFAULT
 66
     1
 10
0.0
 20
0.0
 30
3.079509461985026
 70
     1
  0
VERTEX
  5
18C
  8
DEFAULT
 10
-2959.29041924516
 20
-1723.00788190703
 30
3.079509461985026
  0
VERTEX
  5
18D
  8
DEFAULT
 10
-2959.29041924516
 20
-1803.00788190703
 30
3.079509461985026
  0
VERTEX
  5
18E
  8
DEFAULT
 10
-2964.09041924516
 20
-1803.00788190703
 30
3.079509461985026
  0
VERTEX
  5
18F
  8
DEFAULT
 10
-2964.09041924516
 20
-1723.00788190703
 30
3.079509461985026
  0
SEQEND
  5
190
  8
DEFAULT
  0
POLYLINE
  5
191
  8
DEFAULT
 66
     1
 10
0.0
 20
0.0
 30
3.079509461985026
 70
     1
  0
VERTEX
  5
192
  8
DEFAULT
 10
-2959.29041924516
 20
-1583.007878092332
 30
3.079509461985026
  0
VERTEX
  5
193
  8
DEFAULT
 10
-2959.29041924516
 20
-1663.007878092332
 30
3.079509461985026
  0
VERTEX
  5
194
  8
DEFAULT
 10
-2964.09041924516
 20
-1663.007878092332
 30
3.079509461985026
  0
VERTEX
  5
195
  8
DEFAULT
 10
-2964.09041924516
 20
-1583.007878092332
 30
3.079509461985026
  0
SEQEND
  5
196
  8
DEFAULT
  0
POLYLINE
  5
197
  8
DEFAULT
 66
     1
 10
0.0
 20
0.0
 30
3.079509461985026
 70
     1
  0
VERTEX
  5
198
  8
DEFAULT
 10
-2959.29041924516
 20
-1443.00788190703
 30
3.079509461985026
  0
VERTEX
  5
199
  8
DEFAULT
 10
-2959.29041924516
 20
-1523.00788190703
 30
3.079509461985026
  0
VERTEX
  5
19A
  8
DEFAULT
 10
-2964.09041924516
 20
-1523.00788190703
 30
3.079509461985026
  0
VERTEX
  5
19B
  8
DEFAULT
 10
-2964.09041924516
 20
-1443.00788190703
 30
3.079509461985026
  0
SEQEND
  5
19C
  8
DEFAULT
  0
POLYLINE
  5
19D
  8
DEFAULT
 66
     1
 10
0.0
 20
0.0
 30
3.079509461902944
 70
     1
  0
VERTEX
  5
19E
  8
DEFAULT
 10
-2682.170523416202
 20
-1624.99211809297
 30
3.079509461902944
  0
VERTEX
  5
19F
  8
DEFAULT
 10
-2643.539065911125
 20
-1624.99211809297
 30
3.079509461902944
 42
0.4142135623730891
  0
VERTEX
  5
1A0
  8
DEFAULT
 10
-2623.539065911125
 20
-1604.99211809297
 30
3.079509461902944
  0
VERTEX
  5
1A1
  8
DEFAULT
 10
-2623.539065911125
 20
-1244.99211809297
 30
3.079509461902944
 42
0.4142135623730911
  0
VERTEX
  5
1A2
  8
DEFAULT
 10
-2643.539065911125
 20
-1224.99211809297
 30
3.079509461902944
  0
VERTEX
  5
1A3
  8
DEFAULT
 10
-2658.339065911126
 20
-1224.992118092969
 30
3.079509461902944
 42
0.4142135623730908
  0
VERTEX
  5
1A4
  8
DEFAULT
 10
-2678.339065911126
 20
-1244.99211809297
 30
3.079509461902944
  0
VERTEX
  5
1A5
  8
DEFAULT
 10
-2678.339065911125
 20
-1466.707846845508
 30
3.079509461902944
 42
-0.6681786379194267
  0
VERTEX
  5
1A6
  8
DEFAULT
 10
-2712.481201534856
 20
-1480.849982469239
 30
3.079509461902944
  0
VERTEX
  5
1A7
  8
DEFAULT
 10
-2956.623337158587
 20
-1236.707846845508
 30
3.079509461902944
 42
0.1989123673796533
  0
VERTEX
  5
1A8
  8
DEFAULT
 10
-2984.907608406049
 20
-1224.99211809297
 30
3.079509461902944
  0
VERTEX
  5
1A9
  8
DEFAULT
 10
-3023.539065911125
 20
-1224.992118092969
 30
3.079509461902944
 42
0.4142135623730908
  0
VERTEX
  5
1AA
  8
DEFAULT
 10
-3043.539065911126
 20
-1244.99211809297
 30
3.079509461902944
  0
VERTEX
  5
1AB
  8
DEFAULT
 10
-3043.539065911125
 20
-1604.99211809297
 30
3.079509461902944
 42
0.414213562373098
  0
VERTEX
  5
1AC
  8
DEFAULT
 10
-3023.539065911125
 20
-1624.99211809297
 30
3.079509461902944
  0
VERTEX
  5
1AD
  8
DEFAULT
 10
-3008.739065911125
 20
-1624.99211809297
 30
3.079509461902944
 42
0.4142135623730908
  0
VERTEX
  5
1AE
  8
DEFAULT
 10
-2988.739065911125
 20
-1604.99211809297
 30
3.079509461902944
  0
VERTEX
  5
1AF
  8
DEFAULT
 10
-2988.739065911125
 20
-1383.276389340432
 30
3.079509461902944
 42
-0.668178637919409
  0
VERTEX
  5
1B0
  8
DEFAULT
 10
-2954.596930287395
 20
-1369.134253716701
 30
3.079509461902944
  0
VERTEX
  5
1B1
  8
DEFAULT
 10
-2710.454794663664
 20
-1613.276389340432
 30
3.079509461902944
 42
0.1989123673796561
  0
SEQEND
  5
1B2
  8
DEFAULT
  0
POLYLINE
  5
1B3
  8
DEFAULT
 66
     1
 10
0.0
 20
0.0
 30
3.079509461985026
 70
     1
  0
VERTEX
  5
1B4
  8
DEFAULT
 10
-2948.373206180066
 20
-1313.552089344253
 30
3.079509461985026
  0
VERTEX
  5
1B5
  8
DEFAULT
 10
-2997.870680863124
 20
-1264.054614661194
 30
3.079509461985026
  0
VERTEX
  5
1B6
  8
DEFAULT
 10
-2994.476568313429
 20
-1260.660502111499
 30
3.079509461985026
  0
VERTEX
  5
1B7
  8
DEFAULT
 10
-2944.979093630371
 20
-1310.157976794557
 30
3.079509461985026
  0
SEQEND
  5
1B8
  8
DEFAULT
  0
POLYLINE
  5
1B9
  8
DEFAULT
 66
     1
 10
0.0
 20
0.0
 30
3.079509461985026
 70
     1
  0
VERTEX
  5
1BA
  8
DEFAULT
 10
-2672.601561517312
 20
-1589.323734007006
 30
3.079509461985026
  0
VERTEX
  5
1BB
  8
DEFAULT
 10
-2722.09903620037
 20
-1539.826259323948
 30
3.079509461985026
  0
VERTEX
  5
1BC
  8
DEFAULT
 10
-2718.704923650675
 20
-1536.432146774252
 30
3.079509461985026
  0
VERTEX
  5
1BD
  8
DEFAULT
 10
-2669.207448967617
 20
-1585.929621457311
 30
3.079509461985026
  0
SEQEND
  5
1BE
  8
DEFAULT
  0
POLYLINE
  5
1BF
  8
DEFAULT
 66
     1
 10
0.0
 20
0.0
 30
3.079509461985026
 70
     1
  0
VERTEX
  5
1C0
  8
DEFAULT
 10
-2856.449324625814
 20
-1405.475970898504
 30
3.079509461985026
  0
VERTEX
  5
1C1
  8
DEFAULT
 10
-2905.946799308873
 20
-1355.978496215445
 30
3.079509461985026
  0
VERTEX
  5
1C2
  8
DEFAULT
 10
-2902.552686759178
 20
-1352.58438366575
 30
3.079509461985026
  0
VERTEX
  5
1C3
  8
DEFAULT
 10
-2853.055212076119
 20
-1402.081858348808
 30
3.079509461985026
  0
SEQEND
  5
1C4
  8
DEFAULT
  0
POLYLINE
  5
1C5
  8
DEFAULT
 66
     1
 10
0.0
 20
0.0
 30
3.079509461985026
 70
     1
  0
VERTEX
  5
1C6
  8
DEFAULT
 10
-2764.525443071564
 20
-1497.399852452755
 30
3.079509461985026
  0
VERTEX
  5
1C7
  8
DEFAULT
 10
-2814.022917754622
 20
-1447.902377769697
 30
3.079509461985026
  0
VERTEX
  5
1C8
  8
DEFAULT
 10
-2810.628805204926
 20
-1444.508265220001
 30
3.079509461985026
  0
VERTEX
  5
1C9
  8
DEFAULT
 10
-2761.131330521868
 20
-1494.00573990306
 30
3.079509461985026
  0
SEQEND
  5
1CA
  8
DEFAULT
  0
POLYLINE
  5
1CB
  8
DEFAULT
 66
     1
 10
0.0
 20
0.0
 30
3.079509461985026
 70
     1
  0
VERTEX
  5
1CC
  8
DEFAULT
 10
-2648.339065911126
 20
-1604.99211809297
 30
3.079509461985026
  0
VERTEX
  5
1CD
  8
DEFAULT
 10
-2648.339065911126
 20
-1524.99211809297
 30
3.079509461985026
  0
VERTEX
  5
1CE
  8
DEFAULT
 10
-2643.539065911125
 20
-1524.99211809297
 30
3.079509461985026
  0
VERTEX
  5
1CF
  8
DEFAULT
 10
-2643.539065911125
 20
-1604.99211809297
 30
3.079509461985026
  0
SEQEND
  5
1D0
  8
DEFAULT
  0
POLYLINE
  5
1D1
  8
DEFAULT
 66
     1
 10
0.0
 20
0.0
 30
3.079509461985026
 70
     1
  0
VERTEX
  5
1D2
  8
DEFAULT
 10
-2648.339065911126
 20
-1464.992121907667
 30
3.079509461985026
  0
VERTEX
  5
1D3
  8
DEFAULT
 10
-2648.339065911126
 20
-1384.992121907667
 30
3.079509461985026
  0
VERTEX
  5
1D4
  8
DEFAULT
 10
-2643.539065911125
 20
-1384.992121907667
 30
3.079509461985026
  0
VERTEX
  5
1D5
  8
DEFAULT
 10
-2643.539065911125
 20
-1464.992121907667
 30
3.079509461985026
  0
SEQEND
  5
1D6
  8
DEFAULT
  0
POLYLINE
  5
1D7
  8
DEFAULT
 66
     1
 10
0.0
 20
0.0
 30
3.079509461985026
 70
     1
  0
VERTEX
  5
1D8
  8
DEFAULT
 10
-2648.339065911126
 20
-1324.99211809297
 30
3.079509461985026
  0
VERTEX
  5
1D9
  8
DEFAULT
 10
-2648.339065911126
 20
-1244.99211809297
 30
3.079509461985026
  0
VERTEX
  5
1DA
  8
DEFAULT
 10
-2643.539065911125
 20
-1244.99211809297
 30
3.079509461985026
  0
VERTEX
  5
1DB
  8
DEFAULT
 10
-2643.539065911125
 20
-1324.99211809297
 30
3.079509461985026
  0
SEQEND
  5
1DC
  8
DEFAULT
  0
POLYLINE
  5
1DD
  8
DEFAULT
 66
     1
 10
0.0
 20
0.0
 30
3.079509461985026
 70
     1
  0
VERTEX
  5
1DE
  8
DEFAULT
 10
-3018.739065911125
 20
-1524.99211809297
 30
3.079509461985026
  0
VERTEX
  5
1DF
  8
DEFAULT
 10
-3018.739065911125
 20
-1604.99211809297
 30
3.079509461985026
  0
VERTEX
  5
1E0
  8
DEFAULT
 10
-3023.539065911125
 20
-1604.99211809297
 30
3.079509461985026
  0
VERTEX
  5
1E1
  8
DEFAULT
 10
-3023.539065911125
 20
-1524.99211809297
 30
3.079509461985026
  0
SEQEND
  5
1E2
  8
DEFAULT
  0
POLYLINE
  5
1E3
  8
DEFAULT
 66
     1
 10
0.0
 20
0.0
 30
3.079509461985026
 70
     1
  0
VERTEX
  5
1E4
  8
DEFAULT
 10
-3018.739065911125
 20
-1384.992114278272
 30
3.079509461985026
  0
VERTEX
  5
1E5
  8
DEFAULT
 10
-3018.739065911125
 20
-1464.992114278272
 30
3.079509461985026
  0
VERTEX
  5
1E6
  8
DEFAULT
 10
-3023.539065911125
 20
-1464.992114278272
 30
3.079509461985026
  0
VERTEX
  5
1E7
  8
DEFAULT
 10
-3023.539065911125
 20
-1384.992114278272
 30
3.079509461985026
  0
SEQEND
  5
1E8
  8
DEFAULT
  0
POLYLINE
  5
1E9
  8
DEFAULT
 66
     1
 10
0.0
 20
0.0
 30
3.079509461985026
 70
     1
  0
VERTEX
  5
1EA
  8
DEFAULT
 10
-3018.739065911125
 20
-1244.99211809297
 30
3.079509461985026
  0
VERTEX
  5
1EB
  8
DEFAULT
 10
-3018.739065911125
 20
-1324.99211809297
 30
3.079509461985026
  0
VERTEX
  5
1EC
  8
DEFAULT
 10
-3023.539065911125
 20
-1324.99211809297
 30
3.079509461985026
  0
VERTEX
  5
1ED
  8
DEFAULT
 10
-3023.539065911125
 20
-1244.99211809297
 30
3.079509461985026
  0
SEQEND
  5
1EE
  8
DEFAULT
  0
ENDSEC
  0
EOF
