  0
SECTION
  2
HEADER
  9
$ACADVER
  1
AC1015
  9
$ACADMAINTVER
 70
     6
  9
$DWGCODEPAGE
  3
DOS850
  9
$INSBASE
 10
0.0
 20
0.0
 30
0.0
  9
$EXTMIN
 10
0.0
 20
0.0
 30
0.0
  9
$EXTMAX
 10
420.0
 20
297.0
 30
0.0
  9
$LIMMIN
 10
0.0
 20
0.0
  9
$LIMMAX
 10
420.0
 20
297.0
  9
$ORTHOMODE
 70
     0
  9
$REGENMODE
 70
     1
  9
$FILLMODE
 70
     1
  9
$QTEXTMODE
 70
     0
  9
$MIRRTEXT
 70
     1
  9
$LTSCALE
 40
25.4
  9
$ATTMODE
 70
     1
  9
$TEXTSIZE
 40
3.5
  9
$TRACEWID
 40
0.05
  9
$TEXTSTYLE
  7
Standard
  9
$CLAYER
  8
0
  9
$CELTYPE
  6
Continuous
  9
$CECOLOR
 62
   256
  9
$CELTSCALE
 40
1.0
  9
$DISPSILH
 70
     0
  9
$DIMSCALE
 40
1.0
  9
$DIMASZ
 40
5.0
  9
$DIMEXO
 40
3.0
  9
$DIMDLI
 40
0.38
  9
$DIMRND
 40
0.0
  9
$DIMDLE
 40
0.0
  9
$DIMEXE
 40
2.0
  9
$DIMTP
 40
0.0
  9
$DIMTM
 40
0.0
  9
$DIMTXT
 40
3.5
  9
$DIMCEN
 40
4.0
  9
$DIMTSZ
 40
0.0
  9
$DIMTOL
 70
     0
  9
$DIMLIM
 70
     0
  9
$DIMTIH
 70
     1
  9
$DIMTOH
 70
     1
  9
$DIMSE1
 70
     0
  9
$DIMSE2
 70
     0
  9
$DIMTAD
 70
     0
  9
$DIMZIN
 70
     0
  9
$DIMBLK
  1

  9
$DIMASO
 70
     1
  9
$DIMSHO
 70
     1
  9
$DIMPOST
  1

  9
$DIMAPOST
  1

  9
$DIMALT
 70
     0
  9
$DIMALTD
 70
     2
  9
$DIMALTF
 40
25.4
  9
$DIMLFAC
 40
1.0
  9
$DIMTOFL
 70
     0
  9
$DIMTVP
 40
0.0
  9
$DIMTIX
 70
     0
  9
$DIMSOXD
 70
     0
  9
$DIMSAH
 70
     0
  9
$DIMBLK1
  1

  9
$DIMBLK2
  1

  9
$DIMSTYLE
  2
Standard
  9
$DIMCLRD
 70
     0
  9
$DIMCLRE
 70
     0
  9
$DIMCLRT
 70
     0
  9
$DIMTFAC
 40
1.0
  9
$DIMGAP
 40
1.0
  9
$DIMJUST
 70
     0
  9
$DIMSD1
 70
     0
  9
$DIMSD2
 70
     0
  9
$DIMTOLJ
 70
     1
  9
$DIMTZIN
 70
     0
  9
$DIMALTZ
 70
     0
  9
$DIMALTTZ
 70
     0
  9
$DIMUPT
 70
     0
  9
$DIMDEC
 70
     4
  9
$DIMTDEC
 70
     4
  9
$DIMALTU
 70
     2
  9
$DIMALTTD
 70
     2
  9
$DIMTXSTY
  7
Standard
  9
$DIMAUNIT
 70
     0
  9
$DIMADEC
 70
     0
  9
$DIMALTRND
 40
0.0
  9
$DIMAZIN
 70
     0
  9
$DIMDSEP
 70
     0
  9
$DIMATFIT
 70
     3
  9
$DIMFRAC
 70
     0
  9
$DIMLDRBLK
  1

  9
$DIMLUNIT
 70
     2
  9
$DIMLWD
 70
     0
  9
$DIMLWE
 70
     0
  9
$DIMTMOVE
 70
     0
  9
$LUNITS
 70
     2
  9
$LUPREC
 70
     4
  9
$SKETCHINC
 40
0.1
  9
$FILLETRAD
 40
0.0
  9
$AUNITS
 70
     0
  9
$AUPREC
 70
     0
  9
$MENU
  1
acad
  9
$ELEVATION
 40
0.0
  9
$PELEVATION
 40
0.0
  9
$THICKNESS
 40
0.0
  9
$LIMCHECK
 70
     0
  9
$CHAMFERA
 40
0.0
  9
$CHAMFERB
 40
0.0
  9
$CHAMFERC
 40
0.0
  9
$CHAMFERD
 40
0.0
  9
$SKPOLY
 70
     0
  9
$TDCREATE
 40
0.000000000
  9
$TDUCREATE
 40
0.000000000
  9
$TDUPDATE
 40
0.000000000
  9
$TDUUPDATE
 40
0.000000000
  9
$TDINDWG
 40
0.0000000000
  9
$TDUSRTIMER
 40
0.0000000000
  9
$USRTIMER
 70
     1
  9
$ANGBASE
 50
0.0
  9
$ANGDIR
 70
     0
  9
$PDMODE
 70
     0
  9
$PDSIZE
 40
0.0
  9
$PLINEWID
 40
0.0
  9
$SPLFRAME
 70
     0
  9
$SPLINETYPE
 70
     6
  9
$SPLINESEGS
 70
     8
  9
$HANDSEED
  5
309
  9
$SURFTAB1
 70
     6
  9
$SURFTAB2
 70
     6
  9
$SURFTYPE
 70
     6
  9
$SURFU
 70
     6
  9
$SURFV
 70
     6
  9
$UCSBASE
  2

  9
$UCSNAME
  2

  9
$UCSORG
 10
0.0
 20
0.0
 30
0.0
  9
$UCSXDIR
 10
1.0
 20
0.0
 30
0.0
  9
$UCSYDIR
 10
0.0
 20
1.0
 30
0.0
  9
$UCSORTHOREF
  2

  9
$UCSORTHOVIEW
 70
     0
  9
$UCSORGTOP
 10
0.0
 20
0.0
 30
0.0
  9
$UCSORGBOTTOM
 10
0.0
 20
0.0
 30
0.0
  9
$UCSORGLEFT
 10
0.0
 20
0.0
 30
0.0
  9
$UCSORGRIGHT
 10
0.0
 20
0.0
 30
0.0
  9
$UCSORGFRONT
 10
0.0
 20
0.0
 30
0.0
  9
$UCSORGBACK
 10
0.0
 20
0.0
 30
0.0
  9
$PUCSBASE
  2

  9
$PUCSNAME
  2

  9
$PUCSORG
 10
0.0
 20
0.0
 30
0.0
  9
$PUCSXDIR
 10
1.0
 20
0.0
 30
0.0
  9
$PUCSYDIR
 10
0.0
 20
1.0
 30
0.0
  9
$PUCSORTHOREF
  2

  9
$PUCSORTHOVIEW
 70
     0
  9
$PUCSORGTOP
 10
0.0
 20
0.0
 30
0.0
  9
$PUCSORGBOTTOM
 10
0.0
 20
0.0
 30
0.0
  9
$PUCSORGLEFT
 10
0.0
 20
0.0
 30
0.0
  9
$PUCSORGRIGHT
 10
0.0
 20
0.0
 30
0.0
  9
$PUCSORGFRONT
 10
0.0
 20
0.0
 30
0.0
  9
$PUCSORGBACK
 10
0.0
 20
0.0
 30
0.0
  9
$USERI1
 70
     0
  9
$USERI2
 70
     0
  9
$USERI3
 70
     0
  9
$USERI4
 70
     0
  9
$USERI5
 70
     0
  9
$USERR1
 40
0.0
  9
$USERR2
 40
0.0
  9
$USERR3
 40
0.0
  9
$USERR4
 40
0.0
  9
$USERR5
 40
0.0
  9
$WORLDVIEW
 70
     1
  9
$SHADEDGE
 70
     3
  9
$SHADEDIF
 70
    70
  9
$TILEMODE
 70
     1
  9
$MAXACTVP
 70
    16
  9
$PINSBASE
 10
0.0
 20
0.0
 30
0.0
  9
$PLIMCHECK
 70
     0
  9
$PEXTMIN
 10
1.000000E+20
 20
1.000000E+20
 30
1.000000E+20
  9
$PEXTMAX
 10
-1.000000E+20
 20
-1.000000E+20
 30
-1.000000E+20
  9
$PLIMMIN
 10
0.0
 20
0.0
  9
$PLIMMAX
 10
420.0
 20
297.0
  9
$UNITMODE
 70
     0
  9
$VISRETAIN
 70
     0
  9
$PLINEGEN
 70
     1
  9
$PSLTSCALE
 70
     0
  9
$TREEDEPTH
 70
  3020
  9
$CMLSTYLE
  2
Standard
  9
$CMLJUST
 70
     0
  9
$CMLSCALE
 40
1.0
  9
$PROXYGRAPHICS
 70
     0
  9
$MEASUREMENT
 70
     0
  9
$CELWEIGHT
370
     0
  9
$ENDCAPS
280
     0
  9
$JOINSTYLE
280
     0
  9
$LWDISPLAY
290
     0
  9
$INSUNITS
 70
     0
  9
$HYPERLINKBASE
  1

  9
$XEDIT
290
     1
  9
$CEPSNTYPE
380
     0
  9
$PSTYLEMODE
290
     0
  9
$FINGERPRINTGUID
  2

  9
$VERSIONGUID
  2

  9
$EXTNAMES
290
     1
  9
$PSVPSCALE
 40
0.0
  0
ENDSEC
  0
SECTION
  2
CLASSES
  0
CLASS
  1
LWPOLYLINE
  2
AcDbPolyline
  3
"AutoCAD"
 90
        0
280
     0
281
     1
  0
CLASS
  1
IMAGE
  2
AcDbRasterImage
  3
ISM
 90
      127
280
     0
281
     1
  0
CLASS
  1
OLE2FRAME
  2
AcDbOle2Frame
  3
""
 90
        0
280
     0
281
     1
  0
CLASS
  1
HATCH
  2
AcDbHatch
  3
"ACAD_SEDONA"
 90
        0
280
     0
281
     1
  0
CLASS
  1
DICTIONARYVAR
  2
AcDbDictionaryVar
  3
"AutoCAD"
 90
        0
280
     0
281
     0
  0
CLASS
  1
RASTERVARIABLES
  2
AcDbRasterVariables
  3
ISM
 90
        0
280
     0
281
     0
  0
CLASS
  1
IMAGEDEF
  2
AcDbRasterImageDef
  3
ISM
 90
        0
280
     0
281
     0
  0
CLASS
  1
IMAGEDEF_REACTOR
  2
AcDbRasterImageDefReactor
  3
ISM
 90
        1
280
     0
281
     0
  0
CLASS
  1
IDBUFFER
  2
AcDbIdBuffer
  3
"Acad"
 90
        0
280
     0
281
     0
  0
CLASS
  1
SPATIAL_FILTER
  2
AcDbSpatialFilter
  3
"Acad"
 90
        0
280
     0
281
     0
  0
CLASS
  1
XRECORD
  2
AcDbXrecord
  3
"<Built In>"
 90
        0
280
     0
281
     0
  0
CLASS
  1
SORTENTSTABLE
  2
AcDbSortentsTable
  3
"AutoCAD"
 90
        0
280
     0
281
     0
  0
CLASS
  1
LAYER_INDEX
  2
AcDbLayerIndex
  3
"Acad"
 90
        0
280
     0
281
     0
  0
CLASS
  1
SPATIAL_INDEX
  2
AcDbSpatialIndex
  3
"Acad"
 90
        0
280
     0
281
     0
  0
CLASS
  1
OBJECT_PTR
  2
CAseDLPNTableRecord
  3
"ASE-LPNTableRecord"
 90
        1
280
     0
281
     0
  0
CLASS
  1
LAYOUT
  2
AcDbLayout
  3
"AutoCAD 2000"
 90
        1
280
     0
281
     0
  0
CLASS
  1
PLOTSETTINGS
  2
AcDbPlotSettings
  3
"AutoCAD 2000"
 90
        1
280
     0
281
     0
  0
CLASS
  1
ACDBDICTIONARYWDFLT
  2
AcDbDictionaryWithDefault
  3
"AutoCAD 2000"
 90
        1
280
     0
281
     0
  0
CLASS
  1
ACDBPLACEHOLDER
  2
AcDbPlaceHolder
  3
"AutoCAD 2000"
 90
        1
280
     0
281
     0
  0
CLASS
  1
VBA_PROJECT
  2
AcDbVbaProject
  3
"acadvba"
 90
        1
280
     0
281
     0
  0
CLASS
  1
WIPEOUT
  2
AcDbWipeout
  3
WipeOut|AutoCAD Express Tool|expresstools@autodesk.com
 90
      127
280
     0
281
     1
  0
CLASS
  1
WIPEOUTVARIABLES
  2
AcDbWipeoutVariables
  3
WipeOut|AutoCAD Express Tool|expresstools@autodesk.com
 90
        0
280
     0
281
     0
  0
CLASS
  1
RTEXT
  2
RText
  3
RText|AutoCAD Express Tool|expresstools@autodesk.com
 90
        0
280
     0
281
     1
  0
CLASS
  1
ARCALIGNEDTEXT
  2
AcDbArcAlignedText
  3
ATEXT|AutoCAD Express Tool|expresstools@autodesk.com
 90
        0
280
     0
281
     1
  0
ENDSEC
  0
SECTION
  2
TABLES
  0
TABLE
  2
VPORT
  5
7
100
AcDbSymbolTable
 70
     1
  0
VPORT
  5
15
100
AcDbSymbolTableRecord
100
AcDbViewportTableRecord
  2
*ACTIVE
 70
     0
 10
0.0
 20
0.0
 11
1.0
 21
1.0
 12
6.591288
 22
4.579184
 13
0.0
 23
0.0
 14
1.0
 24
1.0
 15
0.0
 25
0.0
 16
0.0
 26
0.0
 36
1.0
 17
0.0
 27
0.0
 37
0.0
 40
9.158369
 41
0.688564
 42
50.0
 43
0.0
 44
0.0
 50
0.0
 51
0.0
 71
     0
 72
   100
 73
     1
 74
     1
 75
     0
 76
     0
 77
     0
 78
     0
281
     0
 65
     0
110
0.0
120
0.0
130
0.0
111
1.0
121
0.0
131
0.0
112
0.0
122
1.0
132
0.0
345
0
346
0
 79
     0
146
0.0
  0
ENDTAB
  0
TABLE
  2
LTYPE
  5
4
100
AcDbSymbolTable
 70
     7
  0
LTYPE
  5
11
100
AcDbSymbolTableRecord
100
AcDbLinetypeTableRecord
  2
ByBlock
 70
    64
  3

 72
    65
 73
     0
 40
0.0
  0
LTYPE
  5
12
100
AcDbSymbolTableRecord
100
AcDbLinetypeTableRecord
  2
ByLayer
 70
    64
  3

 72
    65
 73
     0
 40
0.0
  0
LTYPE
  5
13
100
AcDbSymbolTableRecord
100
AcDbLinetypeTableRecord
  2
Continuous
 70
    64
  3
Solid line
 72
    65
 73
     0
 40
0.0
  0
LTYPE
  5
24
100
AcDbSymbolTableRecord
100
AcDbLinetypeTableRecord
  2
HIDDEN
 70
    64
  3
_ _ _ _ _ _ _ _ _ _ _ _ _ _ _ _ _ _ _ _ _ _ _ _
 72
    65
 73
     2
 40
0.1875
 49
0.125
 74
     0
 49
-0.0625
 74
     0
  0
LTYPE
  5
25
100
AcDbSymbolTableRecord
100
AcDbLinetypeTableRecord
  2
DOTTED
 70
    64
  3
...............................................
 72
    65
 73
     2
 40
0.125
 49
0.0
 74
     0
 49
-0.125
 74
     0
  0
LTYPE
  5
26
100
AcDbSymbolTableRecord
100
AcDbLinetypeTableRecord
  2
CENTER
 70
    64
  3
____ _ ____ _ ____ _ ____ _ ____ _ ____ _ ____ 
 72
    65
 73
     4
 40
1.125
 49
0.75
 74
     0
 49
-0.125
 74
     0
 49
0.125
 74
     0
 49
-0.125
 74
     0
  0
LTYPE
  5
27
100
AcDbSymbolTableRecord
100
AcDbLinetypeTableRecord
  2
PHANTOM
 70
    64
  3
______  __  __  ______  __  __  ______  __  __ 
 72
    65
 73
     6
 40
1.25
 49
0.625
 74
     0
 49
-0.125
 74
     0
 49
0.125
 74
     0
 49
-0.125
 74
     0
 49
0.125
 74
     0
 49
-0.125
 74
     0
  0
ENDTAB
  0
TABLE
  2
LAYER
  5
2
100
AcDbSymbolTable
 70
     2
  0
LAYER
  5
14
100
AcDbSymbolTableRecord
100
AcDbLayerTableRecord
  2
0
 70
     0
 62
     7
  6
Continuous
290
     1
370
    -3
390
1D
  0
LAYER
  5
28
100
AcDbSymbolTableRecord
100
AcDbLayerTableRecord
  2
TEXT
 70
     0
 62
     8
  6
Continuous
290
     1
370
    -3
390
1F
  0
ENDTAB
  0
TABLE
  2
STYLE
  5
3
100
AcDbSymbolTable
 70
     1
  0
STYLE
  5
17
100
AcDbSymbolTableRecord
100
AcDbTextStyleTableRecord
  2
Standard
 70
     0
 40
0.0
 41
1.0
 50
0.0
 71
     0
 42
0.0
  3
txt
  4

  0
ENDTAB
  0
TABLE
  2
VIEW
  5
5
100
AcDbSymbolTable
 70
     0
  0
ENDTAB
  0
TABLE
  2
UCS
  5
6
100
AcDbSymbolTable
 70
     0
  0
ENDTAB
  0
TABLE
  2
APPID
  5
8
100
AcDbSymbolTable
 70
     1
  0
APPID
  5
16
100
AcDbSymbolTableRecord
100
AcDbRegAppTableRecord
  2
ACAD
 70
     0
  0
ENDTAB
  0
TABLE
  2
DIMSTYLE
  5
9
100
AcDbSymbolTable
 70
     1
100
AcDbDimStyleTable
 71
     0
  0
DIMSTYLE
105
18
100
AcDbSymbolTableRecord
100
AcDbDimStyleTableRecord
  2
Standard
 70
     0
  3

  4

 40
1.0
 41
0.18
 42
0.0625
 43
0.38
 44
0.18
 45
0.0
 46
0.0
 47
0.0
 48
0.0
 71
     0
 72
     0
 73
     1
 74
     1
 75
     0
 76
     0
 77
     0
 78
     0
 79
     0
140
0.18
141
0.09
142
0.0
143
25.4
144
1.0
145
0.0
146
1.0
147
0.09
148
0.0
170
     0
171
     2
172
     0
173
     0
174
     0
175
     0
176
     0
177
     0
178
     0
179
     0
271
     4
272
     4
273
     2
274
     2
275
     0
276
     0
277
     2
278
    46
279
     0
280
     0
281
     0
282
     0
283
     1
284
     0
285
     0
286
     0
288
     0
340
17
341
0
342
0
343
0
344
0
371
    -2
372
    -2
  0
ENDTAB
  0
TABLE
  2
BLOCK_RECORD
  5
1
100
AcDbSymbolTable
 70
     1
  0
BLOCK_RECORD
  5
A
100
AcDbSymbolTableRecord
100
AcDbBlockTableRecord
  2
*MODEL_SPACE
340
20
  0
BLOCK_RECORD
  5
B
100
AcDbSymbolTableRecord
100
AcDbBlockTableRecord
  2
*PAPER_SPACE
340
21
  0
BLOCK_RECORD
  5
29
100
AcDbSymbolTableRecord
100
AcDbBlockTableRecord
  2
*B0
340
0
  0
ENDTAB
  0
ENDSEC
  0
SECTION
  2
BLOCKS
  0
BLOCK
  5
D
100
AcDbEntity
  8
0
100
AcDbBlockBegin
  2
*MODEL_SPACE
 70
     0
 10
0.0
 20
0.0
 30
0.0
  3
*MODEL_SPACE
  1

  0
ENDBLK
  5
E
100
AcDbEntity
  8
0
100
AcDbBlockEnd
  0
BLOCK
  5
F
100
AcDbEntity
 67
     1
  8
0
100
AcDbBlockBegin
  2
*PAPER_SPACE
 70
     0
 10
0.0
 20
0.0
 30
0.0
  3
*PAPER_SPACE
  1

  0
ENDBLK
  5
10
100
AcDbEntity
 67
     1
  8
0
100
AcDbBlockEnd
  0
BLOCK
  5
2A
100
AcDbEntity
  8
0
100
AcDbBlockBegin
  2
*B0
 70
     0
 10
0.0
 20
0.0
 30
0.0
  3
*B0
  1

  0
LINE
  5
2B
100
AcDbEntity
  8
0
  6
Continuous
 62
   112
100
AcDbLine
 10
48.098191
 20
138.5
 30
0.0
 11
48.098191
 21
168.4
 31
0.0
  0
LINE
  5
2C
100
AcDbEntity
  8
0
  6
Continuous
 62
   112
100
AcDbLine
 10
51.098191
 20
173.0
 30
0.0
 11
95.098191
 21
173.0
 31
0.0
  0
LINE
  5
2D
100
AcDbEntity
  8
0
  6
Continuous
 62
   112
100
AcDbLine
 10
164.098191
 20
50.45
 30
0.0
 11
145.098191
 21
50.45
 31
0.0
  0
LINE
  5
2E
100
AcDbEntity
  8
0
  6
Continuous
 62
   112
100
AcDbLine
 10
25.25
 20
219.0
 30
0.0
 11
6.25
 21
219.0
 31
0.0
  0
LINE
  5
2F
100
AcDbEntity
  8
0
  6
Continuous
 62
   112
100
AcDbLine
 10
196.0
 20
161.0
 30
0.0
 11
196.0
 21
157.69902
 31
0.0
  0
LINE
  5
30
100
AcDbEntity
  8
0
  6
Continuous
 62
   112
100
AcDbLine
 10
333.098191
 20
96.5
 30
0.0
 11
377.098191
 21
96.5
 31
0.0
  0
ARC
  5
31
100
AcDbEntity
  8
0
  6
Continuous
 62
   112
100
AcDbCircle
 10
375.297363
 20
139.202637
 30
0.0
 40
2.202637
100
AcDbArc
 50
270.0
 51
360.0
  0
LINE
  5
32
100
AcDbEntity
  8
0
  6
Continuous
 62
   112
100
AcDbLine
 10
164.098191
 20
53.45
 30
0.0
 11
164.098191
 21
50.45
 31
0.0
  0
LINE
  5
33
100
AcDbEntity
  8
0
  6
Continuous
 62
   112
100
AcDbLine
 10
239.098191
 20
72.45
 30
0.0
 11
239.098191
 21
67.45
 31
0.0
  0
LINE
  5
34
100
AcDbEntity
  8
0
  6
Continuous
 62
   112
100
AcDbLine
 10
192.098191
 20
155.0
 30
0.0
 11
192.098191
 21
153.4
 31
0.0
  0
LINE
  5
35
100
AcDbEntity
  8
0
  6
Continuous
 62
   112
100
AcDbLine
 10
236.098191
 20
114.5
 30
0.0
 11
236.098191
 21
144.4
 31
0.0
  0
ARC
  5
36
100
AcDbEntity
  8
0
  6
Continuous
 62
   112
100
AcDbCircle
 10
151.69902
 20
163.69902
 30
0.0
 40
2.69902
100
AcDbArc
 50
-180.0
 51
-90.0
  0
LINE
  5
37
100
AcDbEntity
  8
0
  6
Continuous
 62
   112
100
AcDbLine
 10
189.5
 20
167.0
 30
0.0
 11
189.5
 21
163.202637
 31
0.0
  0
LINE
  5
38
100
AcDbEntity
  8
0
  6
Continuous
 62
   112
100
AcDbLine
 10
145.098191
 20
156.4
 30
0.0
 11
142.098191
 21
156.4
 31
0.0
  0
LINE
  5
39
100
AcDbEntity
  8
0
  6
Continuous
 62
   112
100
AcDbLine
 10
192.098191
 20
156.4
 30
0.0
 11
192.098191
 21
159.4
 31
0.0
  0
LINE
  5
3A
100
AcDbEntity
  8
0
  6
Continuous
 62
   112
100
AcDbLine
 10
332.25
 20
217.5
 30
0.0
 11
332.25
 21
203.25
 31
0.0
  0
LINE
  5
3B
100
AcDbEntity
  8
0
  6
Continuous
 62
   112
100
AcDbLine
 10
48.098191
 20
136.5
 30
0.0
 11
48.098191
 21
125.5
 31
0.0
  0
ARC
  5
3C
100
AcDbEntity
  8
0
  6
Continuous
 62
   112
100
AcDbCircle
 10
104.69902
 20
169.69902
 30
0.0
 40
2.69902
100
AcDbArc
 50
-180.0
 51
-90.0
  0
LINE
  5
3D
100
AcDbEntity
  8
0
  6
Continuous
 62
   112
100
AcDbLine
 10
4.098191
 20
179.0
 30
0.0
 11
48.098191
 21
179.0
 31
0.0
  0
LINE
  5
3E
100
AcDbEntity
  8
0
  6
Continuous
 62
   112
100
AcDbLine
 10
1.098191
 20
119.5
 30
0.0
 11
4.098191
 21
119.5
 31
0.0
  0
LINE
  5
3F
100
AcDbEntity
  8
0
  6
Continuous
 62
   112
100
AcDbLine
 10
23.098191
 20
105.5
 30
0.0
 11
23.098191
 21
102.5
 31
0.0
  0
LINE
  5
40
100
AcDbEntity
  8
0
  6
Continuous
 62
   112
100
AcDbLine
 10
343.25
 20
252.0
 30
0.0
 11
354.25
 21
252.0
 31
0.0
  0
LINE
  5
41
100
AcDbEntity
  8
0
  6
Continuous
 62
   112
100
AcDbLine
 10
239.098191
 20
153.4
 30
0.0
 11
239.098191
 21
150.4
 31
0.0
  0
LINE
  5
42
100
AcDbEntity
  8
0
  6
Continuous
 62
   112
100
AcDbLine
 10
144.25
 20
221.25
 30
0.0
 11
144.25
 21
207.0
 31
0.0
  0
LINE
  5
43
100
AcDbEntity
  8
0
  6
Continuous
 62
   112
100
AcDbLine
 10
147.25
 20
221.25
 30
0.0
 11
147.25
 21
235.5
 31
0.0
  0
LINE
  5
44
100
AcDbEntity
  8
0
  6
Continuous
 62
   112
100
AcDbLine
 10
189.098191
 20
118.5
 30
0.0
 11
189.098191
 21
120.5
 31
0.0
  0
LINE
  5
45
100
AcDbEntity
  8
0
  6
Continuous
 62
   112
100
AcDbLine
 10
333.098191
 20
132.4
 30
0.0
 11
330.098191
 21
132.4
 31
0.0
  0
LINE
  5
46
100
AcDbEntity
  8
0
  6
Continuous
 62
   112
100
AcDbLine
 10
95.5
 20
179.0
 30
0.0
 11
95.5
 21
190.0
 31
0.0
  0
LINE
  5
47
100
AcDbEntity
  8
0
  6
Continuous
 62
   112
100
AcDbLine
 10
142.098191
 20
159.4
 30
0.0
 11
142.098191
 21
162.4
 31
0.0
  0
LINE
  5
48
100
AcDbEntity
  8
0
  6
Continuous
 62
   112
100
AcDbLine
 10
50.25
 20
239.25
 30
0.0
 11
53.25
 21
239.25
 31
0.0
  0
LINE
  5
49
100
AcDbEntity
  8
0
  6
Continuous
 62
   112
100
AcDbLine
 10
29.098191
 20
68.45
 30
0.0
 11
29.098191
 21
71.45
 31
0.0
  0
LINE
  5
4A
100
AcDbEntity
  8
0
  6
Continuous
 62
   112
100
AcDbLine
 10
31.25
 20
253.5
 30
0.0
 11
31.25
 21
256.5
 31
0.0
  0
LINE
  5
4B
100
AcDbEntity
  8
0
  6
Continuous
 62
   112
100
AcDbLine
 10
61.25
 20
288.0
 30
0.0
 11
57.94902
 21
288.0
 31
0.0
  0
LINE
  5
4C
100
AcDbEntity
  8
0
  6
Continuous
 62
   112
100
AcDbLine
 10
29.098191
 20
102.5
 30
0.0
 11
29.098191
 21
105.5
 31
0.0
  0
LINE
  5
4D
100
AcDbEntity
  8
0
  6
Continuous
 62
   112
100
AcDbLine
 10
76.098191
 20
96.5
 30
0.0
 11
95.098191
 21
96.5
 31
0.0
  0
LINE
  5
4E
100
AcDbEntity
  8
0
  6
Continuous
 62
   112
100
AcDbLine
 10
98.098191
 20
73.45
 30
0.0
 11
98.098191
 21
56.45
 31
0.0
  0
CIRCLE
  5
4F
100
AcDbEntity
  8
0
  6
Continuous
 62
   112
100
AcDbCircle
 10
152.25
 20
239.0
 30
0.0
 40
2.2
  0
LINE
  5
50
100
AcDbEntity
  8
0
  6
Continuous
 62
   112
100
AcDbLine
 10
95.098191
 20
132.5
 30
0.0
 11
95.098191
 21
162.4
 31
0.0
  0
LINE
  5
51
100
AcDbEntity
  8
0
  6
Continuous
 62
   112
100
AcDbLine
 10
51.098191
 20
96.45
 30
0.0
 11
51.098191
 21
91.45
 31
0.0
  0
LINE
  5
52
100
AcDbEntity
  8
0
  6
Continuous
 62
   112
100
AcDbLine
 10
48.25
 20
276.75
 30
0.0
 11
48.25
 21
294.0
 31
0.0
  0
LINE
  5
53
100
AcDbEntity
  8
0
  6
Continuous
 62
   112
100
AcDbLine
 10
249.25
 20
264.0
 30
0.0
 11
260.25
 21
264.0
 31
0.0
  0
LINE
  5
54
100
AcDbEntity
  8
0
  6
Continuous
 62
   112
100
AcDbLine
 10
192.098191
 20
150.4
 30
0.0
 11
189.098191
 21
150.4
 31
0.0
  0
LINE
  5
55
100
AcDbEntity
  8
0
  6
Continuous
 62
   112
100
AcDbLine
 10
48.5
 20
185.0
 30
0.0
 11
48.5
 21
196.0
 31
0.0
  0
LINE
  5
56
100
AcDbEntity
  8
0
  6
Continuous
 62
   112
100
AcDbLine
 10
98.098191
 20
162.4
 30
0.0
 11
98.098191
 21
126.5
 31
0.0
  0
LINE
  5
57
100
AcDbEntity
  8
0
  6
Continuous
 62
   112
100
AcDbLine
 10
380.098191
 20
77.5
 30
0.0
 11
380.098191
 21
83.5
 31
0.0
  0
LINE
  5
58
100
AcDbEntity
  8
0
  6
Continuous
 62
   112
100
AcDbLine
 10
102.25
 20
279.30098
 30
0.0
 11
102.25
 21
243.702637
 31
0.0
  0
LINE
  5
59
100
AcDbEntity
  8
0
  6
Continuous
 62
   112
100
AcDbLine
 10
213.25
 20
192.0
 30
0.0
 11
213.25
 21
195.0
 31
0.0
  0
LINE
  5
5A
100
AcDbEntity
  8
0
  6
Continuous
 62
   112
100
AcDbLine
 10
352.098191
 20
63.5
 30
0.0
 11
352.098191
 21
60.5
 31
0.0
  0
LINE
  5
5B
100
AcDbEntity
  8
0
  6
Continuous
 62
   112
100
AcDbLine
 10
239.098191
 20
108.5
 30
0.0
 11
283.098191
 21
108.5
 31
0.0
  0
LINE
  5
5C
100
AcDbEntity
  8
0
  6
Continuous
 62
   112
100
AcDbLine
 10
217.098191
 20
47.45
 30
0.0
 11
211.098191
 21
47.45
 31
0.0
  0
LINE
  5
5D
100
AcDbEntity
  8
0
  6
Continuous
 62
   112
100
AcDbLine
 10
360.25
 20
174.0
 30
0.0
 11
354.25
 21
174.0
 31
0.0
  0
LINE
  5
5E
100
AcDbEntity
  8
0
  6
Continuous
 62
   112
100
AcDbLine
 10
241.25
 20
203.25
 30
0.0
 11
238.25
 21
203.25
 31
0.0
  0
ARC
  5
5F
100
AcDbEntity
  8
0
  6
Continuous
 62
   112
100
AcDbCircle
 10
328.297363
 20
145.202637
 30
0.0
 40
2.202637
100
AcDbArc
 50
270.0
 51
360.0
  0
ARC
  5
60
100
AcDbEntity
  8
0
  6
Continuous
 62
   112
100
AcDbCircle
 10
57.452637
 20
249.702637
 30
0.0
 40
2.202637
100
AcDbArc
 50
180.0
 51
270.0
  0
CIRCLE
  5
61
100
AcDbEntity
  8
0
  6
Continuous
 62
   112
100
AcDbCircle
 10
105.25
 20
245.0
 30
0.0
 40
2.2
  0
LINE
  5
62
100
AcDbEntity
  8
0
  6
Continuous
 62
   112
100
AcDbLine
 10
290.0
 20
149.0
 30
0.0
 11
290.0
 21
145.69902
 31
0.0
  0
LINE
  5
63
100
AcDbEntity
  8
0
  6
Continuous
 62
   112
100
AcDbLine
 10
70.098191
 20
62.45
 30
0.0
 11
51.098191
 21
62.45
 31
0.0
  0
LINE
  5
64
100
AcDbEntity
  8
0
  6
Continuous
 62
   112
100
AcDbLine
 10
76.098191
 20
62.45
 30
0.0
 11
95.098191
 21
62.45
 31
0.0
  0
LINE
  5
65
100
AcDbEntity
  8
0
  6
Continuous
 62
   112
100
AcDbLine
 10
45.5
 20
196.0
 30
0.0
 11
48.5
 21
196.0
 31
0.0
  0
LINE
  5
66
100
AcDbEntity
  8
0
  6
Continuous
 62
   112
100
AcDbLine
 10
61.25
 20
288.0
 30
0.0
 11
72.25
 21
288.0
 31
0.0
  0
LINE
  5
67
100
AcDbEntity
  8
0
  6
Continuous
 62
   112
100
AcDbLine
 10
78.25
 20
247.5
 30
0.0
 11
95.25
 21
247.5
 31
0.0
  0
LINE
  5
68
100
AcDbEntity
  8
0
  6
Continuous
 62
   112
100
AcDbLine
 10
332.25
 20
203.25
 30
0.0
 11
335.25
 21
203.25
 31
0.0
  0
LINE
  5
69
100
AcDbEntity
  8
0
  6
Continuous
 62
   112
100
AcDbLine
 10
53.25
 20
227.25
 30
0.0
 11
50.25
 21
227.25
 31
0.0
  0
LINE
  5
6A
100
AcDbEntity
  8
0
  6
Continuous
 62
   112
100
AcDbLine
 10
98.098191
 20
167.0
 30
0.0
 11
98.098191
 21
165.4
 31
0.0
  0
LINE
  5
6B
100
AcDbEntity
  8
0
  6
Continuous
 62
   112
100
AcDbLine
 10
283.098191
 20
141.4
 30
0.0
 11
283.098191
 21
144.4
 31
0.0
  0
LINE
  5
6C
100
AcDbEntity
  8
0
  6
Continuous
 62
   112
100
AcDbLine
 10
170.098191
 20
53.45
 30
0.0
 11
164.098191
 21
53.45
 31
0.0
  0
LINE
  5
6D
100
AcDbEntity
  8
0
  6
Continuous
 62
   112
100
AcDbLine
 10
95.098191
 20
165.4
 30
0.0
 11
95.098191
 21
168.4
 31
0.0
  0
LINE
  5
6E
100
AcDbEntity
  8
0
  6
Continuous
 62
   112
100
AcDbLine
 10
100.25
 20
241.5
 30
0.0
 11
119.25
 21
241.5
 31
0.0
  0
LINE
  5
6F
100
AcDbEntity
  8
0
  6
Continuous
 62
   112
100
AcDbLine
 10
117.098191
 20
59.45
 30
0.0
 11
117.098191
 21
56.45
 31
0.0
  0
LINE
  5
70
100
AcDbEntity
  8
0
  6
Continuous
 62
   112
100
AcDbLine
 10
145.098191
 20
79.45
 30
0.0
 11
142.098191
 21
79.45
 31
0.0
  0
LINE
  5
71
100
AcDbEntity
  8
0
  6
Continuous
 62
   112
100
AcDbLine
 10
239.098191
 20
61.45
 30
0.0
 11
236.098191
 21
61.45
 31
0.0
  0
LINE
  5
72
100
AcDbEntity
  8
0
  6
Continuous
 62
   112
100
AcDbLine
 10
172.25
 20
273.0
 30
0.0
 11
172.25
 21
276.0
 31
0.0
  0
LINE
  5
73
100
AcDbEntity
  8
0
  6
Continuous
 62
   112
100
AcDbLine
 10
100.25
 20
227.25
 30
0.0
 11
100.25
 21
241.5
 31
0.0
  0
LINE
  5
74
100
AcDbEntity
  8
0
  6
Continuous
 62
   112
100
AcDbLine
 10
145.098191
 20
159.4
 30
0.0
 11
142.098191
 21
159.4
 31
0.0
  0
LINE
  5
75
100
AcDbEntity
  8
0
  6
Continuous
 62
   112
100
AcDbLine
 10
360.25
 20
249.0
 30
0.0
 11
360.25
 21
252.0
 31
0.0
  0
LINE
  5
76
100
AcDbEntity
  8
0
  6
Continuous
 62
   112
100
AcDbLine
 10
142.098191
 20
101.5
 30
0.0
 11
145.098191
 21
101.5
 31
0.0
  0
LINE
  5
77
100
AcDbEntity
  8
0
  6
Continuous
 62
   112
100
AcDbLine
 10
72.25
 20
210.0
 30
0.0
 11
72.25
 21
213.0
 31
0.0
  0
LINE
  5
78
100
AcDbEntity
  8
0
  6
Continuous
 62
   112
100
AcDbLine
 10
55.0
 20
196.0
 30
0.0
 11
55.0
 21
213.0
 31
0.0
  0
LINE
  5
79
100
AcDbEntity
  8
0
  6
Continuous
 62
   112
100
AcDbLine
 10
172.25
 20
201.0
 30
0.0
 11
172.25
 21
198.0
 31
0.0
  0
LINE
  5
7A
100
AcDbEntity
  8
0
  6
Continuous
 62
   112
100
AcDbLine
 10
51.098191
 20
85.45
 30
0.0
 11
51.098191
 21
91.45
 31
0.0
  0
LINE
  5
7B
100
AcDbEntity
  8
0
  6
Continuous
 62
   112
100
AcDbLine
 10
189.098191
 20
84.45
 30
0.0
 11
189.098191
 21
73.45
 31
0.0
  0
LINE
  5
7C
100
AcDbEntity
  8
0
  6
Continuous
 62
   112
100
AcDbLine
 10
360.25
 20
252.0
 30
0.0
 11
377.25
 21
252.0
 31
0.0
  0
LINE
  5
7D
100
AcDbEntity
  8
0
  6
Continuous
 62
   112
100
AcDbLine
 10
360.25
 20
211.5
 30
0.0
 11
377.25
 21
211.5
 31
0.0
  0
LINE
  5
7E
100
AcDbEntity
  8
0
  6
Continuous
 62
   112
100
AcDbLine
 10
149.0
 20
167.0
 30
0.0
 11
149.0
 21
163.69902
 31
0.0
  0
LINE
  5
7F
100
AcDbEntity
  8
0
  6
Continuous
 62
   112
100
AcDbLine
 10
98.098191
 20
162.4
 30
0.0
 11
95.098191
 21
162.4
 31
0.0
  0
LINE
  5
80
100
AcDbEntity
  8
0
  6
Continuous
 62
   112
100
AcDbLine
 10
166.25
 20
276.0
 30
0.0
 11
166.25
 21
273.0
 31
0.0
  0
LINE
  5
81
100
AcDbEntity
  8
0
  6
Continuous
 62
   112
100
AcDbLine
 10
11.0
 20
202.0
 30
0.0
 11
8.0
 21
202.0
 31
0.0
  0
LINE
  5
82
100
AcDbEntity
  8
0
  6
Continuous
 62
   112
100
AcDbLine
 10
78.25
 20
210.0
 30
0.0
 11
72.25
 21
210.0
 31
0.0
  0
LINE
  5
83
100
AcDbEntity
  8
0
  6
Continuous
 62
   112
100
AcDbLine
 10
217.098191
 20
44.45
 30
0.0
 11
217.098191
 21
47.45
 31
0.0
  0
LINE
  5
84
100
AcDbEntity
  8
0
  6
Continuous
 62
   112
100
AcDbLine
 10
123.098191
 20
56.45
 30
0.0
 11
142.098191
 21
56.45
 31
0.0
  0
LINE
  5
85
100
AcDbEntity
  8
0
  6
Continuous
 62
   112
100
AcDbLine
 10
236.25
 20
229.5
 30
0.0
 11
238.25
 21
229.5
 31
0.0
  0
LINE
  5
86
100
AcDbEntity
  8
0
  6
Continuous
 62
   112
100
AcDbLine
 10
170.098191
 20
50.45
 30
0.0
 11
170.098191
 21
53.45
 31
0.0
  0
LINE
  5
87
100
AcDbEntity
  8
0
  6
Continuous
 62
   112
100
AcDbLine
 10
192.098191
 20
159.4
 30
0.0
 11
189.098191
 21
159.4
 31
0.0
  0
LINE
  5
88
100
AcDbEntity
  8
0
  6
Continuous
 62
   112
100
AcDbLine
 10
142.098191
 20
159.4
 30
0.0
 11
142.098191
 21
156.4
 31
0.0
  0
LINE
  5
89
100
AcDbEntity
  8
0
  6
Continuous
 62
   112
100
AcDbLine
 10
1.098191
 20
177.4
 30
0.0
 11
1.098191
 21
174.4
 31
0.0
  0
LINE
  5
8A
100
AcDbEntity
  8
0
  6
Continuous
 62
   112
100
AcDbLine
 10
172.25
 20
198.0
 30
0.0
 11
166.25
 21
198.0
 31
0.0
  0
LINE
  5
8B
100
AcDbEntity
  8
0
  6
Continuous
 62
   112
100
AcDbLine
 10
58.0
 20
190.0
 30
0.0
 11
58.0
 21
196.0
 31
0.0
  0
LINE
  5
8C
100
AcDbEntity
  8
0
  6
Continuous
 62
   112
100
AcDbLine
 10
296.25
 20
258.0
 30
0.0
 11
292.94902
 21
258.0
 31
0.0
  0
LINE
  5
8D
100
AcDbEntity
  8
0
  6
Continuous
 62
   112
100
AcDbLine
 10
1.098191
 20
85.45
 30
0.0
 11
4.098191
 21
85.45
 31
0.0
  0
LINE
  5
8E
100
AcDbEntity
  8
0
  6
Continuous
 62
   112
100
AcDbLine
 10
311.098191
 20
35.45
 30
0.0
 11
305.098191
 21
35.45
 31
0.0
  0
LINE
  5
8F
100
AcDbEntity
  8
0
  6
Continuous
 62
   112
100
AcDbLine
 10
125.25
 20
241.5
 30
0.0
 11
125.25
 21
244.5
 31
0.0
  0
LINE
  5
90
100
AcDbEntity
  8
0
  6
Continuous
 62
   112
100
AcDbLine
 10
29.098191
 20
71.45
 30
0.0
 11
23.098191
 21
71.45
 31
0.0
  0
LINE
  5
91
100
AcDbEntity
  8
0
  6
Continuous
 62
   112
100
AcDbLine
 10
53.25
 20
247.5
 30
0.0
 11
72.25
 21
247.5
 31
0.0
  0
LINE
  5
92
100
AcDbEntity
  8
0
  6
Continuous
 62
   112
100
AcDbLine
 10
377.5
 20
160.0
 30
0.0
 11
374.5
 21
160.0
 31
0.0
  0
ARC
  5
93
100
AcDbEntity
  8
0
  6
Continuous
 62
   112
100
AcDbCircle
 10
245.452637
 20
225.702637
 30
0.0
 40
2.202637
100
AcDbArc
 50
180.0
 51
270.0
  0
LINE
  5
94
100
AcDbEntity
  8
0
  6
Continuous
 62
   112
100
AcDbLine
 10
172.25
 20
235.5
 30
0.0
 11
189.25
 21
235.5
 31
0.0
  0
LINE
  5
95
100
AcDbEntity
  8
0
  6
Continuous
 62
   112
100
AcDbLine
 10
92.5
 20
190.0
 30
0.0
 11
95.5
 21
190.0
 31
0.0
  0
LINE
  5
96
100
AcDbEntity
  8
0
  6
Continuous
 62
   112
100
AcDbLine
 10
76.098191
 20
96.5
 30
0.0
 11
76.098191
 21
99.5
 31
0.0
  0
LINE
  5
97
100
AcDbEntity
  8
0
  6
Continuous
 62
   112
100
AcDbLine
 10
233.5
 20
172.0
 30
0.0
 11
236.5
 21
172.0
 31
0.0
  0
LINE
  5
98
100
AcDbEntity
  8
0
  6
Continuous
 62
   112
100
AcDbLine
 10
330.098191
 20
43.45
 30
0.0
 11
330.098191
 21
32.45
 31
0.0
  0
LINE
  5
99
100
AcDbEntity
  8
0
  6
Continuous
 62
   112
100
AcDbLine
 10
285.25
 20
209.25
 30
0.0
 11
288.25
 21
209.25
 31
0.0
  0
LINE
  5
9A
100
AcDbEntity
  8
0
  6
Continuous
 62
   112
100
AcDbLine
 10
286.098191
 20
143.0
 30
0.0
 11
330.098191
 21
143.0
 31
0.0
  0
ARC
  5
9B
100
AcDbEntity
  8
0
  6
Continuous
 62
   112
100
AcDbCircle
 10
57.94902
 20
285.30098
 30
0.0
 40
2.69902
100
AcDbArc
 50
-270.0
 51
-180.0
  0
LINE
  5
9C
100
AcDbEntity
  8
0
  6
Continuous
 62
   112
100
AcDbLine
 10
264.098191
 20
72.5
 30
0.0
 11
264.098191
 21
75.5
 31
0.0
  0
LINE
  5
9D
100
AcDbEntity
  8
0
  6
Continuous
 62
   112
100
AcDbLine
 10
382.25
 20
197.25
 30
0.0
 11
382.25
 21
191.25
 31
0.0
  0
LINE
  5
9E
100
AcDbEntity
  8
0
  6
Continuous
 62
   112
100
AcDbLine
 10
3.25
 20
233.25
 30
0.0
 11
3.25
 21
239.25
 31
0.0
  0
LINE
  5
9F
100
AcDbEntity
  8
0
  6
Continuous
 62
   112
100
AcDbLine
 10
95.098191
 20
96.45
 30
0.0
 11
95.098191
 21
85.45
 31
0.0
  0
LINE
  5
A0
100
AcDbEntity
  8
0
  6
Continuous
 62
   112
100
AcDbLine
 10
241.25
 20
209.25
 30
0.0
 11
241.25
 21
223.5
 31
0.0
  0
LINE
  5
A1
100
AcDbEntity
  8
0
  6
Continuous
 62
   112
100
AcDbLine
 10
1.098191
 20
91.45
 30
0.0
 11
1.098191
 21
85.45
 31
0.0
  0
LINE
  5
A2
100
AcDbEntity
  8
0
  6
Continuous
 62
   112
100
AcDbLine
 10
233.5
 20
178.0
 30
0.0
 11
233.5
 21
172.0
 31
0.0
  0
LINE
  5
A3
100
AcDbEntity
  8
0
  6
Continuous
 62
   112
100
AcDbLine
 10
95.25
 20
270.75
 30
0.0
 11
95.25
 21
288.0
 31
0.0
  0
LINE
  5
A4
100
AcDbEntity
  8
0
  6
Continuous
 62
   112
100
AcDbLine
 10
31.25
 20
294.0
 30
0.0
 11
48.25
 21
294.0
 31
0.0
  0
LINE
  5
A5
100
AcDbEntity
  8
0
  6
Continuous
 62
   112
100
AcDbLine
 10
48.098191
 20
113.5
 30
0.0
 11
48.098191
 21
102.5
 31
0.0
  0
LINE
  5
A6
100
AcDbEntity
  8
0
  6
Continuous
 62
   112
100
AcDbLine
 10
70.098191
 20
99.5
 30
0.0
 11
70.098191
 21
96.5
 31
0.0
  0
LINE
  5
A7
100
AcDbEntity
  8
0
  6
Continuous
 62
   112
100
AcDbLine
 10
280.25
 20
246.75
 30
0.0
 11
283.25
 21
246.75
 31
0.0
  0
LINE
  5
A8
100
AcDbEntity
  8
0
  6
Continuous
 62
   112
100
AcDbLine
 10
117.098191
 20
90.5
 30
0.0
 11
98.098191
 21
90.5
 31
0.0
  0
ARC
  5
A9
100
AcDbEntity
  8
0
  6
Continuous
 62
   112
100
AcDbCircle
 10
187.297363
 20
163.202637
 30
0.0
 40
2.202637
100
AcDbArc
 50
270.0
 51
360.0
  0
LINE
  5
AA
100
AcDbEntity
  8
0
  6
Continuous
 62
   112
100
AcDbLine
 10
58.0
 20
196.0
 30
0.0
 11
55.0
 21
196.0
 31
0.0
  0
LINE
  5
AB
100
AcDbEntity
  8
0
  6
Continuous
 62
   112
100
AcDbLine
 10
374.5
 20
160.0
 30
0.0
 11
374.5
 21
154.0
 31
0.0
  0
LINE
  5
AC
100
AcDbEntity
  8
0
  6
Continuous
 62
   112
100
AcDbLine
 10
307.25
 20
180.0
 30
0.0
 11
307.25
 21
183.0
 31
0.0
  0
LINE
  5
AD
100
AcDbEntity
  8
0
  6
Continuous
 62
   112
100
AcDbLine
 10
45.25
 20
276.75
 30
0.0
 11
48.25
 21
276.75
 31
0.0
  0
LINE
  5
AE
100
AcDbEntity
  8
0
  6
Continuous
 62
   112
100
AcDbLine
 10
327.25
 20
234.75
 30
0.0
 11
327.25
 21
240.75
 31
0.0
  0
LINE
  5
AF
100
AcDbEntity
  8
0
  6
Continuous
 62
   112
100
AcDbLine
 10
189.25
 20
252.75
 30
0.0
 11
186.25
 21
252.75
 31
0.0
  0
LINE
  5
B0
100
AcDbEntity
  8
0
  6
Continuous
 62
   112
100
AcDbLine
 10
95.5
 20
196.0
 30
0.0
 11
95.5
 21
213.0
 31
0.0
  0
LINE
  5
B1
100
AcDbEntity
  8
0
  6
Continuous
 62
   112
100
AcDbLine
 10
29.098191
 20
105.5
 30
0.0
 11
23.098191
 21
105.5
 31
0.0
  0
LINE
  5
B2
100
AcDbEntity
  8
0
  6
Continuous
 62
   112
100
AcDbLine
 10
97.25
 20
247.5
 30
0.0
 11
97.25
 21
233.25
 31
0.0
  0
LINE
  5
B3
100
AcDbEntity
  8
0
  6
Continuous
 62
   112
100
AcDbLine
 10
8.0
 20
202.0
 30
0.0
 11
8.0
 21
219.0
 31
0.0
  0
LINE
  5
B4
100
AcDbEntity
  8
0
  6
Continuous
 62
   112
100
AcDbLine
 10
186.25
 20
252.75
 30
0.0
 11
186.25
 21
258.75
 31
0.0
  0
LINE
  5
B5
100
AcDbEntity
  8
0
  6
Continuous
 62
   112
100
AcDbLine
 10
236.098191
 20
147.4
 30
0.0
 11
236.098191
 21
144.4
 31
0.0
  0
LINE
  5
B6
100
AcDbEntity
  8
0
  6
Continuous
 62
   112
100
AcDbLine
 10
55.0
 20
179.0
 30
0.0
 11
55.0
 21
175.69902
 31
0.0
  0
LINE
  5
B7
100
AcDbEntity
  8
0
  6
Continuous
 62
   112
100
AcDbLine
 10
48.098191
 20
102.45
 30
0.0
 11
48.098191
 21
91.45
 31
0.0
  0
LINE
  5
B8
100
AcDbEntity
  8
0
  6
Continuous
 62
   112
100
AcDbLine
 10
4.098191
 20
177.4
 30
0.0
 11
1.098191
 21
177.4
 31
0.0
  0
LINE
  5
B9
100
AcDbEntity
  8
0
  6
Continuous
 62
   112
100
AcDbLine
 10
142.5
 20
190.0
 30
0.0
 11
142.5
 21
207.0
 31
0.0
  0
ARC
  5
BA
100
AcDbEntity
  8
0
  6
Continuous
 62
   112
100
AcDbCircle
 10
46.297363
 20
181.202637
 30
0.0
 40
2.202637
100
AcDbArc
 50
270.0
 51
360.0
  0
LINE
  5
BB
100
AcDbEntity
  8
0
  6
Continuous
 62
   112
100
AcDbLine
 10
1.098191
 20
125.5
 30
0.0
 11
1.098191
 21
119.5
 31
0.0
  0
LINE
  5
BC
100
AcDbEntity
  8
0
  6
Continuous
 62
   112
100
AcDbLine
 10
102.0
 20
173.0
 30
0.0
 11
102.0
 21
169.69902
 31
0.0
  0
LINE
  5
BD
100
AcDbEntity
  8
0
  6
Continuous
 62
   112
100
AcDbLine
 10
95.098191
 20
73.45
 30
0.0
 11
98.098191
 21
73.45
 31
0.0
  0
LINE
  5
BE
100
AcDbEntity
  8
0
  6
Continuous
 62
   112
100
AcDbLine
 10
95.25
 20
247.5
 30
0.0
 11
95.25
 21
264.75
 31
0.0
  0
LINE
  5
BF
100
AcDbEntity
  8
0
  6
Continuous
 62
   112
100
AcDbLine
 10
31.25
 20
256.5
 30
0.0
 11
25.25
 21
256.5
 31
0.0
  0
CIRCLE
  5
C0
100
AcDbEntity
  8
0
  6
Continuous
 62
   112
100
AcDbCircle
 10
92.0
 20
176.0
 30
0.0
 40
2.2
  0
LINE
  5
C1
100
AcDbEntity
  8
0
  6
Continuous
 62
   112
100
AcDbLine
 10
14.25
 20
294.0
 30
0.0
 11
25.25
 21
294.0
 31
0.0
  0
LINE
  5
C2
100
AcDbEntity
  8
0
  6
Continuous
 62
   112
100
AcDbLine
 10
51.098191
 20
177.4
 30
0.0
 11
48.098191
 21
177.4
 31
0.0
  0
LINE
  5
C3
100
AcDbEntity
  8
0
  6
Continuous
 62
   112
100
AcDbLine
 10
213.25
 20
267.0
 30
0.0
 11
219.25
 21
267.0
 31
0.0
  0
LINE
  5
C4
100
AcDbEntity
  8
0
  6
Continuous
 62
   112
100
AcDbLine
 10
25.25
 20
256.5
 30
0.0
 11
25.25
 21
253.5
 31
0.0
  0
LINE
  5
C5
100
AcDbEntity
  8
0
  6
Continuous
 62
   112
100
AcDbLine
 10
258.098191
 20
41.45
 30
0.0
 11
258.098191
 21
38.45
 31
0.0
  0
LINE
  5
C6
100
AcDbEntity
  8
0
  6
Continuous
 62
   112
100
AcDbLine
 10
142.098191
 20
107.5
 30
0.0
 11
145.098191
 21
107.5
 31
0.0
  0
LINE
  5
C7
100
AcDbEntity
  8
0
  6
Continuous
 62
   112
100
AcDbLine
 10
239.098191
 20
144.4
 30
0.0
 11
236.098191
 21
144.4
 31
0.0
  0
LINE
  5
C8
100
AcDbEntity
  8
0
  6
Continuous
 62
   112
100
AcDbLine
 10
283.098191
 20
108.5
 30
0.0
 11
283.098191
 21
138.4
 31
0.0
  0
LINE
  5
C9
100
AcDbEntity
  8
0
  6
Continuous
 62
   112
100
AcDbLine
 10
266.25
 20
261.0
 30
0.0
 11
266.25
 21
264.0
 31
0.0
  0
LINE
  5
CA
100
AcDbEntity
  8
0
  6
Continuous
 62
   112
100
AcDbLine
 10
358.098191
 20
60.5
 30
0.0
 11
377.098191
 21
60.5
 31
0.0
  0
LINE
  5
CB
100
AcDbEntity
  8
0
  6
Continuous
 62
   112
100
AcDbLine
 10
139.5
 20
190.0
 30
0.0
 11
139.5
 21
184.0
 31
0.0
  0
LINE
  5
CC
100
AcDbEntity
  8
0
  6
Continuous
 62
   112
100
AcDbLine
 10
6.25
 20
233.25
 30
0.0
 11
3.25
 21
233.25
 31
0.0
  0
LINE
  5
CD
100
AcDbEntity
  8
0
  6
Continuous
 62
   112
100
AcDbLine
 10
170.098191
 20
84.5
 30
0.0
 11
170.098191
 21
87.5
 31
0.0
  0
LINE
  5
CE
100
AcDbEntity
  8
0
  6
Continuous
 62
   112
100
AcDbLine
 10
76.098191
 20
65.45
 30
0.0
 11
70.098191
 21
65.45
 31
0.0
  0
LINE
  5
CF
100
AcDbEntity
  8
0
  6
Continuous
 62
   112
100
AcDbLine
 10
283.5
 20
155.0
 30
0.0
 11
283.5
 21
166.0
 31
0.0
  0
LINE
  5
D0
100
AcDbEntity
  8
0
  6
Continuous
 62
   112
100
AcDbLine
 10
170.098191
 20
84.5
 30
0.0
 11
189.098191
 21
84.5
 31
0.0
  0
LINE
  5
D1
100
AcDbEntity
  8
0
  6
Continuous
 62
   112
100
AcDbLine
 10
78.25
 20
213.0
 30
0.0
 11
78.25
 21
210.0
 31
0.0
  0
LINE
  5
D2
100
AcDbEntity
  8
0
  6
Continuous
 62
   112
100
AcDbLine
 10
117.098191
 20
56.45
 30
0.0
 11
98.098191
 21
56.45
 31
0.0
  0
LINE
  5
D3
100
AcDbEntity
  8
0
  6
Continuous
 62
   112
100
AcDbLine
 10
236.098191
 20
95.5
 30
0.0
 11
236.098191
 21
89.5
 31
0.0
  0
LINE
  5
D4
100
AcDbEntity
  8
0
  6
Continuous
 62
   112
100
AcDbLine
 10
102.0
 20
173.0
 30
0.0
 11
102.0
 21
184.0
 31
0.0
  0
LINE
  5
D5
100
AcDbEntity
  8
0
  6
Continuous
 62
   112
100
AcDbLine
 10
172.25
 20
276.0
 30
0.0
 11
189.25
 21
276.0
 31
0.0
  0
LINE
  5
D6
100
AcDbEntity
  8
0
  6
Continuous
 62
   112
100
AcDbLine
 10
4.098191
 20
102.45
 30
0.0
 11
4.098191
 21
91.45
 31
0.0
  0
LINE
  5
D7
100
AcDbEntity
  8
0
  6
Continuous
 62
   112
100
AcDbLine
 10
117.098191
 20
93.5
 30
0.0
 11
117.098191
 21
90.5
 31
0.0
  0
LINE
  5
D8
100
AcDbEntity
  8
0
  6
Continuous
 62
   112
100
AcDbLine
 10
23.098191
 20
68.45
 30
0.0
 11
4.098191
 21
68.45
 31
0.0
  0
LINE
  5
D9
100
AcDbEntity
  8
0
  6
Continuous
 62
   112
100
AcDbLine
 10
4.098191
 20
179.0
 30
0.0
 11
4.098191
 21
177.4
 31
0.0
  0
ARC
  5
DA
100
AcDbEntity
  8
0
  6
Continuous
 62
   112
100
AcDbCircle
 10
10.452637
 20
255.702637
 30
0.0
 40
2.202637
100
AcDbArc
 50
180.0
 51
270.0
  0
LINE
  5
DB
100
AcDbEntity
  8
0
  6
Continuous
 62
   112
100
AcDbLine
 10
164.098191
 20
84.5
 30
0.0
 11
145.098191
 21
84.5
 31
0.0
  0
LINE
  5
DC
100
AcDbEntity
  8
0
  6
Continuous
 62
   112
100
AcDbLine
 10
145.098191
 20
73.45
 30
0.0
 11
145.098191
 21
79.45
 31
0.0
  0
LINE
  5
DD
100
AcDbEntity
  8
0
  6
Continuous
 62
   112
100
AcDbLine
 10
125.25
 20
279.0
 30
0.0
 11
125.25
 21
282.0
 31
0.0
  0
LINE
  5
DE
100
AcDbEntity
  8
0
  6
Continuous
 62
   112
100
AcDbLine
 10
377.098191
 20
77.5
 30
0.0
 11
380.098191
 21
77.5
 31
0.0
  0
LINE
  5
DF
100
AcDbEntity
  8
0
  6
Continuous
 62
   112
100
AcDbLine
 10
191.25
 20
221.25
 30
0.0
 11
194.25
 21
221.25
 31
0.0
  0
LINE
  5
E0
100
AcDbEntity
  8
0
  6
Continuous
 62
   112
100
AcDbLine
 10
98.098191
 20
124.5
 30
0.0
 11
98.098191
 21
119.5
 31
0.0
  0
LINE
  5
E1
100
AcDbEntity
  8
0
  6
Continuous
 62
   112
100
AcDbLine
 10
288.25
 20
203.25
 30
0.0
 11
288.25
 21
217.5
 31
0.0
  0
LINE
  5
E2
100
AcDbEntity
  8
0
  6
Continuous
 62
   112
100
AcDbLine
 10
166.25
 20
198.0
 30
0.0
 11
166.25
 21
201.0
 31
0.0
  0
LINE
  5
E3
100
AcDbEntity
  8
0
  6
Continuous
 62
   112
100
AcDbLine
 10
51.098191
 20
130.5
 30
0.0
 11
51.098191
 21
119.5
 31
0.0
  0
ARC
  5
E4
100
AcDbEntity
  8
0
  6
Continuous
 62
   112
100
AcDbCircle
 10
245.94902
 20
261.30098
 30
0.0
 40
2.69902
100
AcDbArc
 50
-270.0
 51
-180.0
  0
LINE
  5
E5
100
AcDbEntity
  8
0
  6
Continuous
 62
   112
100
AcDbLine
 10
199.0
 20
172.0
 30
0.0
 11
199.0
 21
178.0
 31
0.0
  0
LINE
  5
E6
100
AcDbEntity
  8
0
  6
Continuous
 62
   112
100
AcDbLine
 10
311.098191
 20
32.45
 30
0.0
 11
311.098191
 21
35.45
 31
0.0
  0
LINE
  5
E7
100
AcDbEntity
  8
0
  6
Continuous
 62
   112
100
AcDbLine
 10
189.098191
 20
101.5
 30
0.0
 11
189.098191
 21
84.5
 31
0.0
  0
LINE
  5
E8
100
AcDbEntity
  8
0
  6
Continuous
 62
   112
100
AcDbLine
 10
189.098191
 20
159.4
 30
0.0
 11
189.098191
 21
161.0
 31
0.0
  0
LINE
  5
E9
100
AcDbEntity
  8
0
  6
Continuous
 62
   112
100
AcDbLine
 10
155.25
 20
276.0
 30
0.0
 11
166.25
 21
276.0
 31
0.0
  0
LINE
  5
EA
100
AcDbEntity
  8
0
  6
Continuous
 62
   112
100
AcDbLine
 10
97.25
 20
221.25
 30
0.0
 11
97.25
 21
213.0
 31
0.0
  0
LINE
  5
EB
100
AcDbEntity
  8
0
  6
Continuous
 62
   112
100
AcDbLine
 10
55.25
 20
285.30098
 30
0.0
 11
55.25
 21
249.702637
 31
0.0
  0
LINE
  5
EC
100
AcDbEntity
  8
0
  6
Continuous
 62
   112
100
AcDbLine
 10
249.25
 20
264.0
 30
0.0
 11
245.94902
 21
264.0
 31
0.0
  0
LINE
  5
ED
100
AcDbEntity
  8
0
  6
Continuous
 62
   112
100
AcDbLine
 10
219.25
 20
195.0
 30
0.0
 11
219.25
 21
192.0
 31
0.0
  0
LINE
  5
EE
100
AcDbEntity
  8
0
  6
Continuous
 62
   112
100
AcDbLine
 10
192.098191
 20
107.5
 30
0.0
 11
189.098191
 21
107.5
 31
0.0
  0
LINE
  5
EF
100
AcDbEntity
  8
0
  6
Continuous
 62
   112
100
AcDbLine
 10
97.25
 20
213.0
 30
0.0
 11
78.25
 21
213.0
 31
0.0
  0
LINE
  5
F0
100
AcDbEntity
  8
0
  6
Continuous
 62
   112
100
AcDbLine
 10
48.098191
 20
171.4
 30
0.0
 11
48.098191
 21
168.4
 31
0.0
  0
LINE
  5
F1
100
AcDbEntity
  8
0
  6
Continuous
 62
   112
100
AcDbLine
 10
239.098191
 20
61.45
 30
0.0
 11
239.098191
 21
67.45
 31
0.0
  0
LINE
  5
F2
100
AcDbEntity
  8
0
  6
Continuous
 62
   112
100
AcDbLine
 10
4.098191
 20
119.5
 30
0.0
 11
4.098191
 21
102.5
 31
0.0
  0
LINE
  5
F3
100
AcDbEntity
  8
0
  6
Continuous
 62
   112
100
AcDbLine
 10
48.098191
 20
79.45
 30
0.0
 11
48.098191
 21
68.45
 31
0.0
  0
LINE
  5
F4
100
AcDbEntity
  8
0
  6
Continuous
 62
   112
100
AcDbLine
 10
377.25
 20
211.5
 30
0.0
 11
379.25
 21
211.5
 31
0.0
  0
LINE
  5
F5
100
AcDbEntity
  8
0
  6
Continuous
 62
   112
100
AcDbLine
 10
283.098191
 20
144.4
 30
0.0
 11
286.098191
 21
144.4
 31
0.0
  0
LINE
  5
F6
100
AcDbEntity
  8
0
  6
Continuous
 62
   112
100
AcDbLine
 10
189.098191
 20
156.4
 30
0.0
 11
192.098191
 21
156.4
 31
0.0
  0
LINE
  5
F7
100
AcDbEntity
  8
0
  6
Continuous
 62
   112
100
AcDbLine
 10
217.098191
 20
78.5
 30
0.0
 11
217.098191
 21
81.5
 31
0.0
  0
LINE
  5
F8
100
AcDbEntity
  8
0
  6
Continuous
 62
   112
100
AcDbLine
 10
233.25
 20
252.75
 30
0.0
 11
236.25
 21
252.75
 31
0.0
  0
LINE
  5
F9
100
AcDbEntity
  8
0
  6
Continuous
 62
   112
100
AcDbLine
 10
337.0
 20
160.0
 30
0.0
 11
337.0
 21
177.0
 31
0.0
  0
LINE
  5
FA
100
AcDbEntity
  8
0
  6
Continuous
 62
   112
100
AcDbLine
 10
340.0
 20
154.0
 30
0.0
 11
340.0
 21
160.0
 31
0.0
  0
LINE
  5
FB
100
AcDbEntity
  8
0
  6
Continuous
 62
   112
100
AcDbLine
 10
333.098191
 20
141.4
 30
0.0
 11
330.098191
 21
141.4
 31
0.0
  0
LINE
  5
FC
100
AcDbEntity
  8
0
  6
Continuous
 62
   112
100
AcDbLine
 10
53.25
 20
213.0
 30
0.0
 11
53.25
 21
227.25
 31
0.0
  0
LINE
  5
FD
100
AcDbEntity
  8
0
  6
Continuous
 62
   112
100
AcDbLine
 10
29.098191
 20
102.5
 30
0.0
 11
48.098191
 21
102.5
 31
0.0
  0
LINE
  5
FE
100
AcDbEntity
  8
0
  6
Continuous
 62
   112
100
AcDbLine
 10
233.25
 20
246.75
 30
0.0
 11
233.25
 21
252.75
 31
0.0
  0
LINE
  5
FF
100
AcDbEntity
  8
0
  6
Continuous
 62
   112
100
AcDbLine
 10
119.25
 20
244.5
 30
0.0
 11
119.25
 21
241.5
 31
0.0
  0
LINE
  5
100
100
AcDbEntity
  8
0
  6
Continuous
 62
   112
100
AcDbLine
 10
125.25
 20
204.0
 30
0.0
 11
119.25
 21
204.0
 31
0.0
  0
LINE
  5
101
100
AcDbEntity
  8
0
  6
Continuous
 62
   112
100
AcDbLine
 10
97.25
 20
227.25
 30
0.0
 11
100.25
 21
227.25
 31
0.0
  0
LINE
  5
102
100
AcDbEntity
  8
0
  6
Continuous
 62
   112
100
AcDbLine
 10
293.0
 20
166.0
 30
0.0
 11
290.0
 21
166.0
 31
0.0
  0
LINE
  5
103
100
AcDbEntity
  8
0
  6
Continuous
 62
   112
100
AcDbLine
 10
192.098191
 20
150.4
 30
0.0
 11
192.098191
 21
114.5
 31
0.0
  0
LINE
  5
104
100
AcDbEntity
  8
0
  6
Continuous
 62
   112
100
AcDbLine
 10
239.098191
 20
144.4
 30
0.0
 11
239.098191
 21
108.5
 31
0.0
  0
LINE
  5
105
100
AcDbEntity
  8
0
  6
Continuous
 62
   112
100
AcDbLine
 10
379.25
 20
177.0
 30
0.0
 11
360.25
 21
177.0
 31
0.0
  0
LINE
  5
106
100
AcDbEntity
  8
0
  6
Continuous
 62
   112
100
AcDbLine
 10
283.098191
 20
49.45
 30
0.0
 11
286.098191
 21
49.45
 31
0.0
  0
LINE
  5
107
100
AcDbEntity
  8
0
  6
Continuous
 62
   112
100
AcDbLine
 10
283.098191
 20
147.4
 30
0.0
 11
283.098191
 21
149.0
 31
0.0
  0
LINE
  5
108
100
AcDbEntity
  8
0
  6
Continuous
 62
   112
100
AcDbLine
 10
78.25
 20
247.5
 30
0.0
 11
78.25
 21
250.5
 31
0.0
  0
LINE
  5
109
100
AcDbEntity
  8
0
  6
Continuous
 62
   112
100
AcDbLine
 10
236.5
 20
178.0
 30
0.0
 11
236.5
 21
195.0
 31
0.0
  0
LINE
  5
10A
100
AcDbEntity
  8
0
  6
Continuous
 62
   112
100
AcDbLine
 10
119.25
 20
207.0
 30
0.0
 11
100.25
 21
207.0
 31
0.0
  0
LINE
  5
10B
100
AcDbEntity
  8
0
  6
Continuous
 62
   112
100
AcDbLine
 10
199.0
 20
178.0
 30
0.0
 11
196.0
 21
178.0
 31
0.0
  0
LINE
  5
10C
100
AcDbEntity
  8
0
  6
Continuous
 62
   112
100
AcDbLine
 10
145.098191
 20
156.4
 30
0.0
 11
145.098191
 21
120.5
 31
0.0
  0
LINE
  5
10D
100
AcDbEntity
  8
0
  6
Continuous
 62
   112
100
AcDbLine
 10
333.098191
 20
77.5
 30
0.0
 11
333.098191
 21
60.5
 31
0.0
  0
LINE
  5
10E
100
AcDbEntity
  8
0
  6
Continuous
 62
   112
100
AcDbLine
 10
194.25
 20
195.0
 30
0.0
 11
194.25
 21
209.25
 31
0.0
  0
LINE
  5
10F
100
AcDbEntity
  8
0
  6
Continuous
 62
   112
100
AcDbLine
 10
352.098191
 20
29.45
 30
0.0
 11
352.098191
 21
26.45
 31
0.0
  0
LINE
  5
110
100
AcDbEntity
  8
0
  6
Continuous
 62
   112
100
AcDbLine
 10
192.098191
 20
112.5
 30
0.0
 11
192.098191
 21
114.5
 31
0.0
  0
LINE
  5
111
100
AcDbEntity
  8
0
  6
Continuous
 62
   112
100
AcDbLine
 10
189.25
 20
258.75
 30
0.0
 11
189.25
 21
276.0
 31
0.0
  0
LINE
  5
112
100
AcDbEntity
  8
0
  6
Continuous
 62
   112
100
AcDbLine
 10
147.25
 20
221.25
 30
0.0
 11
144.25
 21
221.25
 31
0.0
  0
LINE
  5
113
100
AcDbEntity
  8
0
  6
Continuous
 62
   112
100
AcDbLine
 10
327.5
 20
160.0
 30
0.0
 11
330.5
 21
160.0
 31
0.0
  0
LINE
  5
114
100
AcDbEntity
  8
0
  6
Continuous
 62
   112
100
AcDbLine
 10
333.098191
 20
137.0
 30
0.0
 11
333.098191
 21
135.4
 31
0.0
  0
LINE
  5
115
100
AcDbEntity
  8
0
  6
Continuous
 62
   112
100
AcDbLine
 10
283.098191
 20
106.5
 30
0.0
 11
283.098191
 21
108.5
 31
0.0
  0
LINE
  5
116
100
AcDbEntity
  8
0
  6
Continuous
 62
   112
100
AcDbLine
 10
192.098191
 20
95.5
 30
0.0
 11
192.098191
 21
78.5
 31
0.0
  0
LINE
  5
117
100
AcDbEntity
  8
0
  6
Continuous
 62
   112
100
AcDbLine
 10
266.25
 20
264.0
 30
0.0
 11
283.25
 21
264.0
 31
0.0
  0
LINE
  5
118
100
AcDbEntity
  8
0
  6
Continuous
 62
   112
100
AcDbLine
 10
330.098191
 20
135.4
 30
0.0
 11
330.098191
 21
132.4
 31
0.0
  0
LINE
  5
119
100
AcDbEntity
  8
0
  6
Continuous
 62
   112
100
AcDbLine
 10
286.098191
 20
49.45
 30
0.0
 11
286.098191
 21
32.45
 31
0.0
  0
LINE
  5
11A
100
AcDbEntity
  8
0
  6
Continuous
 62
   112
100
AcDbLine
 10
352.098191
 20
26.45
 30
0.0
 11
333.098191
 21
26.45
 31
0.0
  0
LINE
  5
11B
100
AcDbEntity
  8
0
  6
Continuous
 62
   112
100
AcDbLine
 10
123.098191
 20
56.45
 30
0.0
 11
123.098191
 21
59.45
 31
0.0
  0
LINE
  5
11C
100
AcDbEntity
  8
0
  6
Continuous
 62
   112
100
AcDbLine
 10
192.098191
 20
78.45
 30
0.0
 11
192.098191
 21
67.45
 31
0.0
  0
LINE
  5
11D
100
AcDbEntity
  8
0
  6
Continuous
 62
   112
100
AcDbLine
 10
380.098191
 20
83.5
 30
0.0
 11
377.098191
 21
83.5
 31
0.0
  0
LINE
  5
11E
100
AcDbEntity
  8
0
  6
Continuous
 62
   112
100
AcDbLine
 10
330.098191
 20
135.4
 30
0.0
 11
330.098191
 21
138.4
 31
0.0
  0
LINE
  5
11F
100
AcDbEntity
  8
0
  6
Continuous
 62
   112
100
AcDbLine
 10
288.25
 20
183.0
 30
0.0
 11
288.25
 21
197.25
 31
0.0
  0
ARC
  5
120
100
AcDbEntity
  8
0
  6
Continuous
 62
   112
100
AcDbCircle
 10
292.69902
 20
145.69902
 30
0.0
 40
2.69902
100
AcDbArc
 50
-180.0
 51
-90.0
  0
LINE
  5
121
100
AcDbEntity
  8
0
  6
Continuous
 62
   112
100
AcDbLine
 10
330.098191
 20
83.5
 30
0.0
 11
333.098191
 21
83.5
 31
0.0
  0
LINE
  5
122
100
AcDbEntity
  8
0
  6
Continuous
 62
   112
100
AcDbLine
 10
354.25
 20
174.0
 30
0.0
 11
354.25
 21
177.0
 31
0.0
  0
LINE
  5
123
100
AcDbEntity
  8
0
  6
Continuous
 62
   112
100
AcDbLine
 10
192.098191
 20
155.0
 30
0.0
 11
236.098191
 21
155.0
 31
0.0
  0
LINE
  5
124
100
AcDbEntity
  8
0
  6
Continuous
 62
   112
100
AcDbLine
 10
266.25
 20
223.5
 30
0.0
 11
283.25
 21
223.5
 31
0.0
  0
LINE
  5
125
100
AcDbEntity
  8
0
  6
Continuous
 62
   112
100
AcDbLine
 10
380.098191
 20
132.4
 30
0.0
 11
380.098191
 21
135.4
 31
0.0
  0
LINE
  5
126
100
AcDbEntity
  8
0
  6
Continuous
 62
   112
100
AcDbLine
 10
236.25
 20
246.75
 30
0.0
 11
233.25
 21
246.75
 31
0.0
  0
LINE
  5
127
100
AcDbEntity
  8
0
  6
Continuous
 62
   112
100
AcDbLine
 10
377.098191
 20
43.45
 30
0.0
 11
377.098191
 21
26.45
 31
0.0
  0
LINE
  5
128
100
AcDbEntity
  8
0
  6
Continuous
 62
   112
100
AcDbLine
 10
260.25
 20
189.0
 30
0.0
 11
241.25
 21
189.0
 31
0.0
  0
LINE
  5
129
100
AcDbEntity
  8
0
  6
Continuous
 62
   112
100
AcDbLine
 10
286.098191
 20
138.4
 30
0.0
 11
283.098191
 21
138.4
 31
0.0
  0
LINE
  5
12A
100
AcDbEntity
  8
0
  6
Continuous
 62
   112
100
AcDbLine
 10
286.098191
 20
66.45
 30
0.0
 11
286.098191
 21
61.45
 31
0.0
  0
LINE
  5
12B
100
AcDbEntity
  8
0
  6
Continuous
 62
   112
100
AcDbLine
 10
285.25
 20
197.25
 30
0.0
 11
285.25
 21
203.25
 31
0.0
  0
LINE
  5
12C
100
AcDbEntity
  8
0
  6
Continuous
 62
   112
100
AcDbLine
 10
330.098191
 20
43.45
 30
0.0
 11
333.098191
 21
43.45
 31
0.0
  0
CIRCLE
  5
12D
100
AcDbEntity
  8
0
  6
Continuous
 62
   112
100
AcDbCircle
 10
233.0
 20
158.0
 30
0.0
 40
2.2
  0
LINE
  5
12E
100
AcDbEntity
  8
0
  6
Continuous
 62
   112
100
AcDbLine
 10
189.098191
 20
61.45
 30
0.0
 11
192.098191
 21
61.45
 31
0.0
  0
LINE
  5
12F
100
AcDbEntity
  8
0
  6
Continuous
 62
   112
100
AcDbLine
 10
239.098191
 20
149.0
 30
0.0
 11
239.098191
 21
147.4
 31
0.0
  0
LINE
  5
130
100
AcDbEntity
  8
0
  6
Continuous
 62
   112
100
AcDbLine
 10
239.098191
 20
106.5
 30
0.0
 11
239.098191
 21
108.5
 31
0.0
  0
LINE
  5
131
100
AcDbEntity
  8
0
  6
Continuous
 62
   112
100
AcDbLine
 10
238.25
 20
209.25
 30
0.0
 11
238.25
 21
195.0
 31
0.0
  0
LINE
  5
132
100
AcDbEntity
  8
0
  6
Continuous
 62
   112
100
AcDbLine
 10
333.098191
 20
132.4
 30
0.0
 11
333.098191
 21
96.5
 31
0.0
  0
LINE
  5
133
100
AcDbEntity
  8
0
  6
Continuous
 62
   112
100
AcDbLine
 10
264.098191
 20
72.5
 30
0.0
 11
283.098191
 21
72.5
 31
0.0
  0
LINE
  5
134
100
AcDbEntity
  8
0
  6
Continuous
 62
   112
100
AcDbLine
 10
48.5
 20
202.0
 30
0.0
 11
48.5
 21
219.0
 31
0.0
  0
LINE
  5
135
100
AcDbEntity
  8
0
  6
Continuous
 62
   112
100
AcDbLine
 10
333.098191
 20
135.4
 30
0.0
 11
330.098191
 21
135.4
 31
0.0
  0
LINE
  5
136
100
AcDbEntity
  8
0
  6
Continuous
 62
   112
100
AcDbLine
 10
330.25
 20
240.75
 30
0.0
 11
330.25
 21
258.0
 31
0.0
  0
LINE
  5
137
100
AcDbEntity
  8
0
  6
Continuous
 62
   112
100
AcDbLine
 10
311.098191
 20
66.5
 30
0.0
 11
330.098191
 21
66.5
 31
0.0
  0
LINE
  5
138
100
AcDbEntity
  8
0
  6
Continuous
 62
   112
100
AcDbLine
 10
288.25
 20
197.25
 30
0.0
 11
285.25
 21
197.25
 31
0.0
  0
LINE
  5
139
100
AcDbEntity
  8
0
  6
Continuous
 62
   112
100
AcDbLine
 10
139.5
 20
184.0
 30
0.0
 11
142.5
 21
184.0
 31
0.0
  0
LINE
  5
13A
100
AcDbEntity
  8
0
  6
Continuous
 62
   112
100
AcDbLine
 10
4.098191
 20
138.5
 30
0.0
 11
48.098191
 21
138.5
 31
0.0
  0
LINE
  5
13B
100
AcDbEntity
  8
0
  6
Continuous
 62
   112
100
AcDbLine
 10
102.0
 20
190.0
 30
0.0
 11
102.0
 21
207.0
 31
0.0
  0
LINE
  5
13C
100
AcDbEntity
  8
0
  6
Continuous
 62
   112
100
AcDbLine
 10
258.098191
 20
75.5
 30
0.0
 11
258.098191
 21
72.5
 31
0.0
  0
LINE
  5
13D
100
AcDbEntity
  8
0
  6
Continuous
 62
   112
100
AcDbLine
 10
239.098191
 20
147.4
 30
0.0
 11
236.098191
 21
147.4
 31
0.0
  0
LINE
  5
13E
100
AcDbEntity
  8
0
  6
Continuous
 62
   112
100
AcDbLine
 10
330.098191
 20
100.5
 30
0.0
 11
330.098191
 21
102.5
 31
0.0
  0
LINE
  5
13F
100
AcDbEntity
  8
0
  6
Continuous
 62
   112
100
AcDbLine
 10
330.25
 20
217.5
 30
0.0
 11
330.25
 21
234.75
 31
0.0
  0
LINE
  5
140
100
AcDbEntity
  8
0
  6
Continuous
 62
   112
100
AcDbLine
 10
333.098191
 20
141.4
 30
0.0
 11
333.098191
 21
138.4
 31
0.0
  0
LINE
  5
141
100
AcDbEntity
  8
0
  6
Continuous
 62
   112
100
AcDbLine
 10
219.25
 20
270.0
 30
0.0
 11
236.25
 21
270.0
 31
0.0
  0
LINE
  5
142
100
AcDbEntity
  8
0
  6
Continuous
 62
   112
100
AcDbLine
 10
360.25
 20
177.0
 30
0.0
 11
360.25
 21
174.0
 31
0.0
  0
LINE
  5
143
100
AcDbEntity
  8
0
  6
Continuous
 62
   112
100
AcDbLine
 10
382.25
 20
191.25
 30
0.0
 11
379.25
 21
191.25
 31
0.0
  0
LINE
  5
144
100
AcDbEntity
  8
0
  6
Continuous
 62
   112
100
AcDbLine
 10
286.098191
 20
100.5
 30
0.0
 11
286.098191
 21
102.5
 31
0.0
  0
LINE
  5
145
100
AcDbEntity
  8
0
  6
Continuous
 62
   112
100
AcDbLine
 10
377.098191
 20
135.4
 30
0.0
 11
377.098191
 21
137.0
 31
0.0
  0
LINE
  5
146
100
AcDbEntity
  8
0
  6
Continuous
 62
   112
100
AcDbLine
 10
239.098191
 20
89.5
 30
0.0
 11
239.098191
 21
72.5
 31
0.0
  0
LINE
  5
147
100
AcDbEntity
  8
0
  6
Continuous
 62
   112
100
AcDbLine
 10
380.098191
 20
43.45
 30
0.0
 11
380.098191
 21
49.45
 31
0.0
  0
CIRCLE
  5
148
100
AcDbEntity
  8
0
  6
Continuous
 62
   112
100
AcDbCircle
 10
199.25
 20
233.0
 30
0.0
 40
2.2
  0
LINE
  5
149
100
AcDbEntity
  8
0
  6
Continuous
 62
   112
100
AcDbLine
 10
236.098191
 20
78.45
 30
0.0
 11
236.098191
 21
67.45
 31
0.0
  0
LINE
  5
14A
100
AcDbEntity
  8
0
  6
Continuous
 62
   112
100
AcDbLine
 10
377.098191
 20
94.5
 30
0.0
 11
377.098191
 21
83.5
 31
0.0
  0
ARC
  5
14B
100
AcDbEntity
  8
0
  6
Continuous
 62
   112
100
AcDbCircle
 10
292.94902
 20
255.30098
 30
0.0
 40
2.69902
100
AcDbArc
 50
-270.0
 51
-180.0
  0
LINE
  5
14C
100
AcDbEntity
  8
0
  6
Continuous
 62
   112
100
AcDbLine
 10
283.5
 20
155.0
 30
0.0
 11
283.5
 21
151.202637
 31
0.0
  0
LINE
  5
14D
100
AcDbEntity
  8
0
  6
Continuous
 62
   112
100
AcDbLine
 10
280.5
 20
166.0
 30
0.0
 11
283.5
 21
166.0
 31
0.0
  0
LINE
  5
14E
100
AcDbEntity
  8
0
  6
Continuous
 62
   112
100
AcDbLine
 10
330.098191
 20
141.4
 30
0.0
 11
330.098191
 21
143.0
 31
0.0
  0
LINE
  5
14F
100
AcDbEntity
  8
0
  6
Continuous
 62
   112
100
AcDbLine
 10
211.098191
 20
78.5
 30
0.0
 11
192.098191
 21
78.5
 31
0.0
  0
LINE
  5
150
100
AcDbEntity
  8
0
  6
Continuous
 62
   112
100
AcDbLine
 10
352.098191
 20
60.5
 30
0.0
 11
358.098191
 21
60.5
 31
0.0
  0
CIRCLE
  5
151
100
AcDbEntity
  8
0
  6
Continuous
 62
   112
100
AcDbCircle
 10
374.0
 20
140.0
 30
0.0
 40
2.2
  0
LINE
  5
152
100
AcDbEntity
  8
0
  6
Continuous
 62
   112
100
AcDbLine
 10
283.098191
 20
89.5
 30
0.0
 11
286.098191
 21
89.5
 31
0.0
  0
LINE
  5
153
100
AcDbEntity
  8
0
  6
Continuous
 62
   112
100
AcDbLine
 10
333.098191
 20
94.5
 30
0.0
 11
333.098191
 21
96.5
 31
0.0
  0
LINE
  5
154
100
AcDbEntity
  8
0
  6
Continuous
 62
   112
100
AcDbLine
 10
243.0
 20
166.0
 30
0.0
 11
246.0
 21
166.0
 31
0.0
  0
LINE
  5
155
100
AcDbEntity
  8
0
  6
Continuous
 62
   112
100
AcDbLine
 10
330.5
 20
166.0
 30
0.0
 11
327.5
 21
166.0
 31
0.0
  0
LINE
  5
156
100
AcDbEntity
  8
0
  6
Continuous
 62
   112
100
AcDbLine
 10
333.098191
 20
60.45
 30
0.0
 11
333.098191
 21
55.45
 31
0.0
  0
LINE
  5
157
100
AcDbEntity
  8
0
  6
Continuous
 62
   112
100
AcDbLine
 10
380.098191
 20
135.4
 30
0.0
 11
377.098191
 21
135.4
 31
0.0
  0
LINE
  5
158
100
AcDbEntity
  8
0
  6
Continuous
 62
   112
100
AcDbLine
 10
236.098191
 20
89.5
 30
0.0
 11
239.098191
 21
89.5
 31
0.0
  0
LINE
  5
159
100
AcDbEntity
  8
0
  6
Continuous
 62
   112
100
AcDbLine
 10
313.25
 20
180.0
 30
0.0
 11
307.25
 21
180.0
 31
0.0
  0
LINE
  5
15A
100
AcDbEntity
  8
0
  6
Continuous
 62
   112
100
AcDbLine
 10
307.25
 20
220.5
 30
0.0
 11
307.25
 21
217.5
 31
0.0
  0
LINE
  5
15B
100
AcDbEntity
  8
0
  6
Continuous
 62
   112
100
AcDbLine
 10
305.098191
 20
66.5
 30
0.0
 11
286.098191
 21
66.5
 31
0.0
  0
LINE
  5
15C
100
AcDbEntity
  8
0
  6
Continuous
 62
   112
100
AcDbLine
 10
286.098191
 20
100.5
 30
0.0
 11
286.098191
 21
95.5
 31
0.0
  0
LINE
  5
15D
100
AcDbEntity
  8
0
  6
Continuous
 62
   112
100
AcDbLine
 10
238.25
 20
215.25
 30
0.0
 11
241.25
 21
215.25
 31
0.0
  0
LINE
  5
15E
100
AcDbEntity
  8
0
  6
Continuous
 62
   112
100
AcDbLine
 10
258.098191
 20
72.5
 30
0.0
 11
239.098191
 21
72.5
 31
0.0
  0
LINE
  5
15F
100
AcDbEntity
  8
0
  6
Continuous
 62
   112
100
AcDbLine
 10
264.098191
 20
75.5
 30
0.0
 11
258.098191
 21
75.5
 31
0.0
  0
LINE
  5
160
100
AcDbEntity
  8
0
  6
Continuous
 62
   112
100
AcDbLine
 10
243.0
 20
172.0
 30
0.0
 11
243.0
 21
189.0
 31
0.0
  0
LINE
  5
161
100
AcDbEntity
  8
0
  6
Continuous
 62
   112
100
AcDbLine
 10
48.098191
 20
174.4
 30
0.0
 11
51.098191
 21
174.4
 31
0.0
  0
LINE
  5
162
100
AcDbEntity
  8
0
  6
Continuous
 62
   112
100
AcDbLine
 10
48.098191
 20
119.5
 30
0.0
 11
51.098191
 21
119.5
 31
0.0
  0
LINE
  5
163
100
AcDbEntity
  8
0
  6
Continuous
 62
   112
100
AcDbLine
 10
25.25
 20
294.0
 30
0.0
 11
25.25
 21
291.0
 31
0.0
  0
LINE
  5
164
100
AcDbEntity
  8
0
  6
Continuous
 62
   112
100
AcDbLine
 10
377.5
 20
160.0
 30
0.0
 11
377.5
 21
177.0
 31
0.0
  0
LINE
  5
165
100
AcDbEntity
  8
0
  6
Continuous
 62
   112
100
AcDbLine
 10
377.098191
 20
77.5
 30
0.0
 11
377.098191
 21
60.5
 31
0.0
  0
LINE
  5
166
100
AcDbEntity
  8
0
  6
Continuous
 62
   112
100
AcDbLine
 10
108.25
 20
282.0
 30
0.0
 11
104.94902
 21
282.0
 31
0.0
  0
LINE
  5
167
100
AcDbEntity
  8
0
  6
Continuous
 62
   112
100
AcDbLine
 10
142.25
 20
264.75
 30
0.0
 11
142.25
 21
282.0
 31
0.0
  0
LINE
  5
168
100
AcDbEntity
  8
0
  6
Continuous
 62
   112
100
AcDbLine
 10
142.098191
 20
124.5
 30
0.0
 11
142.098191
 21
113.5
 31
0.0
  0
LINE
  5
169
100
AcDbEntity
  8
0
  6
Continuous
 62
   112
100
AcDbLine
 10
95.098191
 20
130.5
 30
0.0
 11
95.098191
 21
119.5
 31
0.0
  0
LINE
  5
16A
100
AcDbEntity
  8
0
  6
Continuous
 62
   112
100
AcDbLine
 10
236.098191
 20
55.45
 30
0.0
 11
236.098191
 21
44.45
 31
0.0
  0
LINE
  5
16B
100
AcDbEntity
  8
0
  6
Continuous
 62
   112
100
AcDbLine
 10
236.5
 20
161.0
 30
0.0
 11
236.5
 21
157.202637
 31
0.0
  0
LINE
  5
16C
100
AcDbEntity
  8
0
  6
Continuous
 62
   112
100
AcDbLine
 10
236.098191
 20
112.5
 30
0.0
 11
236.098191
 21
101.5
 31
0.0
  0
LINE
  5
16D
100
AcDbEntity
  8
0
  6
Continuous
 62
   112
100
AcDbLine
 10
327.5
 20
166.0
 30
0.0
 11
327.5
 21
160.0
 31
0.0
  0
LINE
  5
16E
100
AcDbEntity
  8
0
  6
Continuous
 62
   112
100
AcDbLine
 10
189.098191
 20
95.5
 30
0.0
 11
192.098191
 21
95.5
 31
0.0
  0
LINE
  5
16F
100
AcDbEntity
  8
0
  6
Continuous
 62
   112
100
AcDbLine
 10
286.098191
 20
83.5
 30
0.0
 11
286.098191
 21
66.5
 31
0.0
  0
LINE
  5
170
100
AcDbEntity
  8
0
  6
Continuous
 62
   112
100
AcDbLine
 10
97.25
 20
233.25
 30
0.0
 11
100.25
 21
233.25
 31
0.0
  0
LINE
  5
171
100
AcDbEntity
  8
0
  6
Continuous
 62
   112
100
AcDbLine
 10
4.098191
 20
136.5
 30
0.0
 11
4.098191
 21
138.5
 31
0.0
  0
LINE
  5
172
100
AcDbEntity
  8
0
  6
Continuous
 62
   112
100
AcDbLine
 10
142.098191
 20
126.5
 30
0.0
 11
142.098191
 21
156.4
 31
0.0
  0
ARC
  5
173
100
AcDbEntity
  8
0
  6
Continuous
 62
   112
100
AcDbCircle
 10
57.69902
 20
175.69902
 30
0.0
 40
2.69902
100
AcDbArc
 50
-180.0
 51
-90.0
  0
ARC
  5
174
100
AcDbEntity
  8
0
  6
Continuous
 62
   112
100
AcDbCircle
 10
234.297363
 20
157.202637
 30
0.0
 40
2.202637
100
AcDbArc
 50
270.0
 51
360.0
  0
LINE
  5
175
100
AcDbEntity
  8
0
  6
Continuous
 62
   112
100
AcDbLine
 10
238.25
 20
229.5
 30
0.0
 11
238.25
 21
215.25
 31
0.0
  0
LINE
  5
176
100
AcDbEntity
  8
0
  6
Continuous
 62
   112
100
AcDbLine
 10
305.098191
 20
32.45
 30
0.0
 11
286.098191
 21
32.45
 31
0.0
  0
LINE
  5
177
100
AcDbEntity
  8
0
  6
Continuous
 62
   112
100
AcDbLine
 10
313.25
 20
220.5
 30
0.0
 11
307.25
 21
220.5
 31
0.0
  0
LINE
  5
178
100
AcDbEntity
  8
0
  6
Continuous
 62
   112
100
AcDbLine
 10
305.098191
 20
66.5
 30
0.0
 11
311.098191
 21
66.5
 31
0.0
  0
LINE
  5
179
100
AcDbEntity
  8
0
  6
Continuous
 62
   112
100
AcDbLine
 10
285.25
 20
223.5
 30
0.0
 11
285.25
 21
209.25
 31
0.0
  0
LINE
  5
17A
100
AcDbEntity
  8
0
  6
Continuous
 62
   112
100
AcDbLine
 10
313.25
 20
183.0
 30
0.0
 11
313.25
 21
180.0
 31
0.0
  0
LINE
  5
17B
100
AcDbEntity
  8
0
  6
Continuous
 62
   112
100
AcDbLine
 10
333.098191
 20
49.45
 30
0.0
 11
330.098191
 21
49.45
 31
0.0
  0
LINE
  5
17C
100
AcDbEntity
  8
0
  6
Continuous
 62
   112
100
AcDbLine
 10
194.25
 20
209.25
 30
0.0
 11
191.25
 21
209.25
 31
0.0
  0
LINE
  5
17D
100
AcDbEntity
  8
0
  6
Continuous
 62
   112
100
AcDbLine
 10
217.098191
 20
44.45
 30
0.0
 11
236.098191
 21
44.45
 31
0.0
  0
LINE
  5
17E
100
AcDbEntity
  8
0
  6
Continuous
 62
   112
100
AcDbLine
 10
285.25
 20
203.25
 30
0.0
 11
288.25
 21
203.25
 31
0.0
  0
LINE
  5
17F
100
AcDbEntity
  8
0
  6
Continuous
 62
   112
100
AcDbLine
 10
332.25
 20
183.0
 30
0.0
 11
313.25
 21
183.0
 31
0.0
  0
LINE
  5
180
100
AcDbEntity
  8
0
  6
Continuous
 62
   112
100
AcDbLine
 10
358.098191
 20
63.5
 30
0.0
 11
352.098191
 21
63.5
 31
0.0
  0
ARC
  5
181
100
AcDbEntity
  8
0
  6
Continuous
 62
   112
100
AcDbCircle
 10
198.94902
 20
267.30098
 30
0.0
 40
2.69902
100
AcDbArc
 50
-270.0
 51
-180.0
  0
LINE
  5
182
100
AcDbEntity
  8
0
  6
Continuous
 62
   112
100
AcDbLine
 10
142.098191
 20
73.45
 30
0.0
 11
142.098191
 21
67.45
 31
0.0
  0
LINE
  5
183
100
AcDbEntity
  8
0
  6
Continuous
 62
   112
100
AcDbLine
 10
264.098191
 20
41.45
 30
0.0
 11
258.098191
 21
41.45
 31
0.0
  0
LINE
  5
184
100
AcDbEntity
  8
0
  6
Continuous
 62
   112
100
AcDbLine
 10
377.5
 20
143.0
 30
0.0
 11
377.5
 21
139.202637
 31
0.0
  0
LINE
  5
185
100
AcDbEntity
  8
0
  6
Continuous
 62
   112
100
AcDbLine
 10
25.25
 20
291.0
 30
0.0
 11
31.25
 21
291.0
 31
0.0
  0
LINE
  5
186
100
AcDbEntity
  8
0
  6
Continuous
 62
   112
100
AcDbLine
 10
48.25
 20
270.75
 30
0.0
 11
45.25
 21
270.75
 31
0.0
  0
LINE
  5
187
100
AcDbEntity
  8
0
  6
Continuous
 62
   112
100
AcDbLine
 10
45.25
 20
270.75
 30
0.0
 11
45.25
 21
276.75
 31
0.0
  0
LINE
  5
188
100
AcDbEntity
  8
0
  6
Continuous
 62
   112
100
AcDbLine
 10
4.098191
 20
125.5
 30
0.0
 11
1.098191
 21
125.5
 31
0.0
  0
LINE
  5
189
100
AcDbEntity
  8
0
  6
Continuous
 62
   112
100
AcDbLine
 10
307.25
 20
255.0
 30
0.0
 11
313.25
 21
255.0
 31
0.0
  0
LINE
  5
18A
100
AcDbEntity
  8
0
  6
Continuous
 62
   112
100
AcDbLine
 10
379.25
 20
211.5
 30
0.0
 11
379.25
 21
197.25
 31
0.0
  0
LINE
  5
18B
100
AcDbEntity
  8
0
  6
Continuous
 62
   112
100
AcDbLine
 10
283.25
 20
246.75
 30
0.0
 11
283.25
 21
264.0
 31
0.0
  0
LINE
  5
18C
100
AcDbEntity
  8
0
  6
Continuous
 62
   112
100
AcDbLine
 10
72.25
 20
250.5
 30
0.0
 11
72.25
 21
247.5
 31
0.0
  0
LINE
  5
18D
100
AcDbEntity
  8
0
  6
Continuous
 62
   112
100
AcDbLine
 10
191.25
 20
209.25
 30
0.0
 11
191.25
 21
201.0
 31
0.0
  0
LINE
  5
18E
100
AcDbEntity
  8
0
  6
Continuous
 62
   112
100
AcDbLine
 10
31.25
 20
219.0
 30
0.0
 11
31.25
 21
216.0
 31
0.0
  0
LINE
  5
18F
100
AcDbEntity
  8
0
  6
Continuous
 62
   112
100
AcDbLine
 10
145.098191
 20
165.4
 30
0.0
 11
142.098191
 21
165.4
 31
0.0
  0
LINE
  5
190
100
AcDbEntity
  8
0
  6
Continuous
 62
   112
100
AcDbLine
 10
189.098191
 20
67.45
 30
0.0
 11
189.098191
 21
50.45
 31
0.0
  0
LINE
  5
191
100
AcDbEntity
  8
0
  6
Continuous
 62
   112
100
AcDbLine
 10
286.098191
 20
144.4
 30
0.0
 11
286.098191
 21
147.4
 31
0.0
  0
LINE
  5
192
100
AcDbEntity
  8
0
  6
Continuous
 62
   112
100
AcDbLine
 10
6.25
 20
253.5
 30
0.0
 11
25.25
 21
253.5
 31
0.0
  0
LINE
  5
193
100
AcDbEntity
  8
0
  6
Continuous
 62
   112
100
AcDbLine
 10
213.25
 20
232.5
 30
0.0
 11
213.25
 21
229.5
 31
0.0
  0
LINE
  5
194
100
AcDbEntity
  8
0
  6
Continuous
 62
   112
100
AcDbLine
 10
236.5
 20
161.0
 30
0.0
 11
236.5
 21
172.0
 31
0.0
  0
LINE
  5
195
100
AcDbEntity
  8
0
  6
Continuous
 62
   112
100
AcDbLine
 10
283.5
 20
172.0
 30
0.0
 11
280.5
 21
172.0
 31
0.0
  0
LINE
  5
196
100
AcDbEntity
  8
0
  6
Continuous
 62
   112
100
AcDbLine
 10
264.098191
 20
38.45
 30
0.0
 11
283.098191
 21
38.45
 31
0.0
  0
LINE
  5
197
100
AcDbEntity
  8
0
  6
Continuous
 62
   112
100
AcDbLine
 10
123.098191
 20
90.5
 30
0.0
 11
142.098191
 21
90.5
 31
0.0
  0
LINE
  5
198
100
AcDbEntity
  8
0
  6
Continuous
 62
   112
100
AcDbLine
 10
142.098191
 20
67.45
 30
0.0
 11
142.098191
 21
56.45
 31
0.0
  0
LINE
  5
199
100
AcDbEntity
  8
0
  6
Continuous
 62
   112
100
AcDbLine
 10
377.25
 20
234.75
 30
0.0
 11
377.25
 21
252.0
 31
0.0
  0
LINE
  5
19A
100
AcDbEntity
  8
0
  6
Continuous
 62
   112
100
AcDbLine
 10
211.098191
 20
81.5
 30
0.0
 11
211.098191
 21
78.5
 31
0.0
  0
LINE
  5
19B
100
AcDbEntity
  8
0
  6
Continuous
 62
   112
100
AcDbLine
 10
194.25
 20
221.25
 30
0.0
 11
194.25
 21
229.5
 31
0.0
  0
LINE
  5
19C
100
AcDbEntity
  8
0
  6
Continuous
 62
   112
100
AcDbLine
 10
286.098191
 20
95.5
 30
0.0
 11
283.098191
 21
95.5
 31
0.0
  0
LINE
  5
19D
100
AcDbEntity
  8
0
  6
Continuous
 62
   112
100
AcDbLine
 10
123.098191
 20
59.45
 30
0.0
 11
117.098191
 21
59.45
 31
0.0
  0
LINE
  5
19E
100
AcDbEntity
  8
0
  6
Continuous
 62
   112
100
AcDbLine
 10
283.098191
 20
55.45
 30
0.0
 11
286.098191
 21
55.45
 31
0.0
  0
LINE
  5
19F
100
AcDbEntity
  8
0
  6
Continuous
 62
   112
100
AcDbLine
 10
142.098191
 20
124.5
 30
0.0
 11
142.098191
 21
126.5
 31
0.0
  0
ARC
  5
1A0
100
AcDbEntity
  8
0
  6
Continuous
 62
   112
100
AcDbCircle
 10
140.297363
 20
169.202637
 30
0.0
 40
2.202637
100
AcDbArc
 50
270.0
 51
360.0
  0
LINE
  5
1A1
100
AcDbEntity
  8
0
  6
Continuous
 62
   112
100
AcDbLine
 10
100.25
 20
221.25
 30
0.0
 11
97.25
 21
221.25
 31
0.0
  0
LINE
  5
1A2
100
AcDbEntity
  8
0
  6
Continuous
 62
   112
100
AcDbLine
 10
189.098191
 20
101.5
 30
0.0
 11
192.098191
 21
101.5
 31
0.0
  0
LINE
  5
1A3
100
AcDbEntity
  8
0
  6
Continuous
 62
   112
100
AcDbLine
 10
144.25
 20
241.5
 30
0.0
 11
144.25
 21
227.25
 31
0.0
  0
LINE
  5
1A4
100
AcDbEntity
  8
0
  6
Continuous
 62
   112
100
AcDbLine
 10
98.098191
 20
85.45
 30
0.0
 11
95.098191
 21
85.45
 31
0.0
  0
LINE
  5
1A5
100
AcDbEntity
  8
0
  6
Continuous
 62
   112
100
AcDbLine
 10
51.098191
 20
132.5
 30
0.0
 11
95.098191
 21
132.5
 31
0.0
  0
LINE
  5
1A6
100
AcDbEntity
  8
0
  6
Continuous
 62
   112
100
AcDbLine
 10
330.098191
 20
49.45
 30
0.0
 11
330.098191
 21
43.45
 31
0.0
  0
LINE
  5
1A7
100
AcDbEntity
  8
0
  6
Continuous
 62
   112
100
AcDbLine
 10
194.25
 20
221.25
 30
0.0
 11
194.25
 21
215.25
 31
0.0
  0
LINE
  5
1A8
100
AcDbEntity
  8
0
  6
Continuous
 62
   112
100
AcDbLine
 10
95.098191
 20
168.4
 30
0.0
 11
98.098191
 21
168.4
 31
0.0
  0
LINE
  5
1A9
100
AcDbEntity
  8
0
  6
Continuous
 62
   112
100
AcDbLine
 10
98.098191
 20
167.0
 30
0.0
 11
142.098191
 21
167.0
 31
0.0
  0
LINE
  5
1AA
100
AcDbEntity
  8
0
  6
Continuous
 62
   112
100
AcDbLine
 10
92.25
 20
270.75
 30
0.0
 11
95.25
 21
270.75
 31
0.0
  0
LINE
  5
1AB
100
AcDbEntity
  8
0
  6
Continuous
 62
   112
100
AcDbLine
 10
48.098191
 20
113.5
 30
0.0
 11
51.098191
 21
113.5
 31
0.0
  0
LINE
  5
1AC
100
AcDbEntity
  8
0
  6
Continuous
 62
   112
100
AcDbLine
 10
142.098191
 20
165.4
 30
0.0
 11
142.098191
 21
167.0
 31
0.0
  0
LINE
  5
1AD
100
AcDbEntity
  8
0
  6
Continuous
 62
   112
100
AcDbLine
 10
283.098191
 20
55.45
 30
0.0
 11
283.098191
 21
38.45
 31
0.0
  0
LINE
  5
1AE
100
AcDbEntity
  8
0
  6
Continuous
 62
   112
100
AcDbLine
 10
70.098191
 20
65.45
 30
0.0
 11
70.098191
 21
62.45
 31
0.0
  0
LINE
  5
1AF
100
AcDbEntity
  8
0
  6
Continuous
 62
   112
100
AcDbLine
 10
335.25
 20
177.0
 30
0.0
 11
335.25
 21
191.25
 31
0.0
  0
LINE
  5
1B0
100
AcDbEntity
  8
0
  6
Continuous
 62
   112
100
AcDbLine
 10
51.098191
 20
168.4
 30
0.0
 11
51.098191
 21
132.5
 31
0.0
  0
LINE
  5
1B1
100
AcDbEntity
  8
0
  6
Continuous
 62
   112
100
AcDbLine
 10
98.098191
 20
90.45
 30
0.0
 11
98.098191
 21
85.45
 31
0.0
  0
LINE
  5
1B2
100
AcDbEntity
  8
0
  6
Continuous
 62
   112
100
AcDbLine
 10
48.098191
 20
119.5
 30
0.0
 11
48.098191
 21
113.5
 31
0.0
  0
LINE
  5
1B3
100
AcDbEntity
  8
0
  6
Continuous
 62
   112
100
AcDbLine
 10
78.25
 20
250.5
 30
0.0
 11
72.25
 21
250.5
 31
0.0
  0
LINE
  5
1B4
100
AcDbEntity
  8
0
  6
Continuous
 62
   112
100
AcDbLine
 10
95.25
 20
247.5
 30
0.0
 11
97.25
 21
247.5
 31
0.0
  0
LINE
  5
1B5
100
AcDbEntity
  8
0
  6
Continuous
 62
   112
100
AcDbLine
 10
170.098191
 20
87.5
 30
0.0
 11
164.098191
 21
87.5
 31
0.0
  0
LINE
  5
1B6
100
AcDbEntity
  8
0
  6
Continuous
 62
   112
100
AcDbLine
 10
92.25
 20
264.75
 30
0.0
 11
92.25
 21
270.75
 31
0.0
  0
LINE
  5
1B7
100
AcDbEntity
  8
0
  6
Continuous
 62
   112
100
AcDbLine
 10
152.0
 20
184.0
 30
0.0
 11
149.0
 21
184.0
 31
0.0
  0
LINE
  5
1B8
100
AcDbEntity
  8
0
  6
Continuous
 62
   112
100
AcDbLine
 10
98.098191
 20
113.5
 30
0.0
 11
98.098191
 21
119.5
 31
0.0
  0
LINE
  5
1B9
100
AcDbEntity
  8
0
  6
Continuous
 62
   112
100
AcDbLine
 10
149.0
 20
167.0
 30
0.0
 11
149.0
 21
178.0
 31
0.0
  0
CIRCLE
  5
1BA
100
AcDbEntity
  8
0
  6
Continuous
 62
   112
100
AcDbCircle
 10
58.25
 20
251.0
 30
0.0
 40
2.2
  0
LINE
  5
1BB
100
AcDbEntity
  8
0
  6
Continuous
 62
   112
100
AcDbLine
 10
98.098191
 20
168.4
 30
0.0
 11
98.098191
 21
171.4
 31
0.0
  0
LINE
  5
1BC
100
AcDbEntity
  8
0
  6
Continuous
 62
   112
100
AcDbLine
 10
152.0
 20
178.0
 30
0.0
 11
152.0
 21
184.0
 31
0.0
  0
LINE
  5
1BD
100
AcDbEntity
  8
0
  6
Continuous
 62
   112
100
AcDbLine
 10
98.098191
 20
79.45
 30
0.0
 11
98.098191
 21
85.45
 31
0.0
  0
LINE
  5
1BE
100
AcDbEntity
  8
0
  6
Continuous
 62
   112
100
AcDbLine
 10
142.25
 20
258.75
 30
0.0
 11
139.25
 21
258.75
 31
0.0
  0
LINE
  5
1BF
100
AcDbEntity
  8
0
  6
Continuous
 62
   112
100
AcDbLine
 10
283.25
 20
223.5
 30
0.0
 11
285.25
 21
223.5
 31
0.0
  0
LINE
  5
1C0
100
AcDbEntity
  8
0
  6
Continuous
 62
   112
100
AcDbLine
 10
149.0
 20
184.0
 30
0.0
 11
149.0
 21
201.0
 31
0.0
  0
LINE
  5
1C1
100
AcDbEntity
  8
0
  6
Continuous
 62
   112
100
AcDbLine
 10
55.0
 20
179.0
 30
0.0
 11
55.0
 21
190.0
 31
0.0
  0
LINE
  5
1C2
100
AcDbEntity
  8
0
  6
Continuous
 62
   112
100
AcDbLine
 10
164.098191
 20
84.5
 30
0.0
 11
170.098191
 21
84.5
 31
0.0
  0
LINE
  5
1C3
100
AcDbEntity
  8
0
  6
Continuous
 62
   112
100
AcDbLine
 10
51.098191
 20
171.4
 30
0.0
 11
48.098191
 21
171.4
 31
0.0
  0
LINE
  5
1C4
100
AcDbEntity
  8
0
  6
Continuous
 62
   112
100
AcDbLine
 10
377.25
 20
228.75
 30
0.0
 11
374.25
 21
228.75
 31
0.0
  0
LINE
  5
1C5
100
AcDbEntity
  8
0
  6
Continuous
 62
   112
100
AcDbLine
 10
288.25
 20
209.25
 30
0.0
 11
288.25
 21
203.25
 31
0.0
  0
LINE
  5
1C6
100
AcDbEntity
  8
0
  6
Continuous
 62
   112
100
AcDbLine
 10
98.098191
 20
119.5
 30
0.0
 11
95.098191
 21
119.5
 31
0.0
  0
LINE
  5
1C7
100
AcDbEntity
  8
0
  6
Continuous
 62
   112
100
AcDbLine
 10
95.25
 20
264.75
 30
0.0
 11
92.25
 21
264.75
 31
0.0
  0
LINE
  5
1C8
100
AcDbEntity
  8
0
  6
Continuous
 62
   112
100
AcDbLine
 10
95.098191
 20
107.5
 30
0.0
 11
98.098191
 21
107.5
 31
0.0
  0
LINE
  5
1C9
100
AcDbEntity
  8
0
  6
Continuous
 62
   112
100
AcDbLine
 10
186.25
 20
258.75
 30
0.0
 11
189.25
 21
258.75
 31
0.0
  0
LINE
  5
1CA
100
AcDbEntity
  8
0
  6
Continuous
 62
   112
100
AcDbLine
 10
147.25
 20
215.25
 30
0.0
 11
144.25
 21
215.25
 31
0.0
  0
LINE
  5
1CB
100
AcDbEntity
  8
0
  6
Continuous
 62
   112
100
AcDbLine
 10
98.098191
 20
171.4
 30
0.0
 11
95.098191
 21
171.4
 31
0.0
  0
LINE
  5
1CC
100
AcDbEntity
  8
0
  6
Continuous
 62
   112
100
AcDbLine
 10
76.098191
 20
99.5
 30
0.0
 11
70.098191
 21
99.5
 31
0.0
  0
LINE
  5
1CD
100
AcDbEntity
  8
0
  6
Continuous
 62
   112
100
AcDbLine
 10
70.098191
 20
96.5
 30
0.0
 11
51.098191
 21
96.5
 31
0.0
  0
LINE
  5
1CE
100
AcDbEntity
  8
0
  6
Continuous
 62
   112
100
AcDbLine
 10
155.25
 20
276.0
 30
0.0
 11
151.94902
 21
276.0
 31
0.0
  0
LINE
  5
1CF
100
AcDbEntity
  8
0
  6
Continuous
 62
   112
100
AcDbLine
 10
72.25
 20
285.0
 30
0.0
 11
78.25
 21
285.0
 31
0.0
  0
LINE
  5
1D0
100
AcDbEntity
  8
0
  6
Continuous
 62
   112
100
AcDbLine
 10
95.098191
 20
171.4
 30
0.0
 11
95.098191
 21
173.0
 31
0.0
  0
LINE
  5
1D1
100
AcDbEntity
  8
0
  6
Continuous
 62
   112
100
AcDbLine
 10
51.098191
 20
79.45
 30
0.0
 11
51.098191
 21
62.45
 31
0.0
  0
LINE
  5
1D2
100
AcDbEntity
  8
0
  6
Continuous
 62
   112
100
AcDbLine
 10
149.0
 20
178.0
 30
0.0
 11
152.0
 21
178.0
 31
0.0
  0
CIRCLE
  5
1D3
100
AcDbEntity
  8
0
  6
Continuous
 62
   112
100
AcDbCircle
 10
45.0
 20
182.0
 30
0.0
 40
2.2
  0
LINE
  5
1D4
100
AcDbEntity
  8
0
  6
Continuous
 62
   112
100
AcDbLine
 10
4.098191
 20
136.5
 30
0.0
 11
4.098191
 21
125.5
 31
0.0
  0
LINE
  5
1D5
100
AcDbEntity
  8
0
  6
Continuous
 62
   112
100
AcDbLine
 10
105.0
 20
184.0
 30
0.0
 11
105.0
 21
190.0
 31
0.0
  0
LINE
  5
1D6
100
AcDbEntity
  8
0
  6
Continuous
 62
   112
100
AcDbLine
 10
78.25
 20
288.0
 30
0.0
 11
95.25
 21
288.0
 31
0.0
  0
LINE
  5
1D7
100
AcDbEntity
  8
0
  6
Continuous
 62
   112
100
AcDbLine
 10
72.25
 20
213.0
 30
0.0
 11
53.25
 21
213.0
 31
0.0
  0
LINE
  5
1D8
100
AcDbEntity
  8
0
  6
Continuous
 62
   112
100
AcDbLine
 10
125.25
 20
244.5
 30
0.0
 11
119.25
 21
244.5
 31
0.0
  0
LINE
  5
1D9
100
AcDbEntity
  8
0
  6
Continuous
 62
   112
100
AcDbLine
 10
142.5
 20
173.0
 30
0.0
 11
142.5
 21
169.202637
 31
0.0
  0
LINE
  5
1DA
100
AcDbEntity
  8
0
  6
Continuous
 62
   112
100
AcDbLine
 10
125.25
 20
241.5
 30
0.0
 11
142.25
 21
241.5
 31
0.0
  0
LINE
  5
1DB
100
AcDbEntity
  8
0
  6
Continuous
 62
   112
100
AcDbLine
 10
70.098191
 20
96.5
 30
0.0
 11
76.098191
 21
96.5
 31
0.0
  0
LINE
  5
1DC
100
AcDbEntity
  8
0
  6
Continuous
 62
   112
100
AcDbLine
 10
14.25
 20
294.0
 30
0.0
 11
10.94902
 21
294.0
 31
0.0
  0
LINE
  5
1DD
100
AcDbEntity
  8
0
  6
Continuous
 62
   112
100
AcDbLine
 10
51.098191
 20
168.4
 30
0.0
 11
48.098191
 21
168.4
 31
0.0
  0
LINE
  5
1DE
100
AcDbEntity
  8
0
  6
Continuous
 62
   112
100
AcDbLine
 10
142.25
 20
241.5
 30
0.0
 11
144.25
 21
241.5
 31
0.0
  0
LINE
  5
1DF
100
AcDbEntity
  8
0
  6
Continuous
 62
   112
100
AcDbLine
 10
266.25
 20
186.0
 30
0.0
 11
260.25
 21
186.0
 31
0.0
  0
LINE
  5
1E0
100
AcDbEntity
  8
0
  6
Continuous
 62
   112
100
AcDbLine
 10
8.0
 20
185.0
 30
0.0
 11
8.0
 21
196.0
 31
0.0
  0
LINE
  5
1E1
100
AcDbEntity
  8
0
  6
Continuous
 62
   112
100
AcDbLine
 10
286.098191
 20
61.45
 30
0.0
 11
283.098191
 21
61.45
 31
0.0
  0
LINE
  5
1E2
100
AcDbEntity
  8
0
  6
Continuous
 62
   112
100
AcDbLine
 10
23.098191
 20
102.5
 30
0.0
 11
4.098191
 21
102.5
 31
0.0
  0
LINE
  5
1E3
100
AcDbEntity
  8
0
  6
Continuous
 62
   112
100
AcDbLine
 10
51.098191
 20
130.5
 30
0.0
 11
51.098191
 21
132.5
 31
0.0
  0
LINE
  5
1E4
100
AcDbEntity
  8
0
  6
Continuous
 62
   112
100
AcDbLine
 10
238.25
 20
195.0
 30
0.0
 11
219.25
 21
195.0
 31
0.0
  0
LINE
  5
1E5
100
AcDbEntity
  8
0
  6
Continuous
 62
   112
100
AcDbLine
 10
330.098191
 20
77.5
 30
0.0
 11
330.098191
 21
66.5
 31
0.0
  0
LINE
  5
1E6
100
AcDbEntity
  8
0
  6
Continuous
 62
   112
100
AcDbLine
 10
119.25
 20
279.0
 30
0.0
 11
125.25
 21
279.0
 31
0.0
  0
LINE
  5
1E7
100
AcDbEntity
  8
0
  6
Continuous
 62
   112
100
AcDbLine
 10
172.25
 20
235.5
 30
0.0
 11
172.25
 21
238.5
 31
0.0
  0
ARC
  5
1E8
100
AcDbEntity
  8
0
  6
Continuous
 62
   112
100
AcDbCircle
 10
339.452637
 20
213.702637
 30
0.0
 40
2.202637
100
AcDbArc
 50
180.0
 51
270.0
  0
LINE
  5
1E9
100
AcDbEntity
  8
0
  6
Continuous
 62
   112
100
AcDbLine
 10
217.098191
 20
81.5
 30
0.0
 11
211.098191
 21
81.5
 31
0.0
  0
ARC
  5
1EA
100
AcDbEntity
  8
0
  6
Continuous
 62
   112
100
AcDbCircle
 10
245.69902
 20
151.69902
 30
0.0
 40
2.69902
100
AcDbArc
 50
-180.0
 51
-90.0
  0
LINE
  5
1EB
100
AcDbEntity
  8
0
  6
Continuous
 62
   112
100
AcDbLine
 10
108.25
 20
282.0
 30
0.0
 11
119.25
 21
282.0
 31
0.0
  0
LINE
  5
1EC
100
AcDbEntity
  8
0
  6
Continuous
 62
   112
100
AcDbLine
 10
305.098191
 20
35.45
 30
0.0
 11
305.098191
 21
32.45
 31
0.0
  0
LINE
  5
1ED
100
AcDbEntity
  8
0
  6
Continuous
 62
   112
100
AcDbLine
 10
123.098191
 20
90.5
 30
0.0
 11
123.098191
 21
93.5
 31
0.0
  0
LINE
  5
1EE
100
AcDbEntity
  8
0
  6
Continuous
 62
   112
100
AcDbLine
 10
191.25
 20
201.0
 30
0.0
 11
172.25
 21
201.0
 31
0.0
  0
LINE
  5
1EF
100
AcDbEntity
  8
0
  6
Continuous
 62
   112
100
AcDbLine
 10
125.25
 20
207.0
 30
0.0
 11
125.25
 21
204.0
 31
0.0
  0
LINE
  5
1F0
100
AcDbEntity
  8
0
  6
Continuous
 62
   112
100
AcDbLine
 10
142.5
 20
173.0
 30
0.0
 11
142.5
 21
184.0
 31
0.0
  0
LINE
  5
1F1
100
AcDbEntity
  8
0
  6
Continuous
 62
   112
100
AcDbLine
 10
211.098191
 20
47.45
 30
0.0
 11
211.098191
 21
44.45
 31
0.0
  0
LINE
  5
1F2
100
AcDbEntity
  8
0
  6
Continuous
 62
   112
100
AcDbLine
 10
236.098191
 20
150.4
 30
0.0
 11
239.098191
 21
150.4
 31
0.0
  0
LINE
  5
1F3
100
AcDbEntity
  8
0
  6
Continuous
 62
   112
100
AcDbLine
 10
189.5
 20
167.0
 30
0.0
 11
189.5
 21
178.0
 31
0.0
  0
LINE
  5
1F4
100
AcDbEntity
  8
0
  6
Continuous
 62
   112
100
AcDbLine
 10
330.5
 20
149.0
 30
0.0
 11
330.5
 21
145.202637
 31
0.0
  0
LINE
  5
1F5
100
AcDbEntity
  8
0
  6
Continuous
 62
   112
100
AcDbLine
 10
145.098191
 20
161.0
 30
0.0
 11
189.098191
 21
161.0
 31
0.0
  0
LINE
  5
1F6
100
AcDbEntity
  8
0
  6
Continuous
 62
   112
100
AcDbLine
 10
105.0
 20
190.0
 30
0.0
 11
102.0
 21
190.0
 31
0.0
  0
LINE
  5
1F7
100
AcDbEntity
  8
0
  6
Continuous
 62
   112
100
AcDbLine
 10
380.098191
 20
49.45
 30
0.0
 11
377.098191
 21
49.45
 31
0.0
  0
LINE
  5
1F8
100
AcDbEntity
  8
0
  6
Continuous
 62
   112
100
AcDbLine
 10
192.098191
 20
73.45
 30
0.0
 11
189.098191
 21
73.45
 31
0.0
  0
LINE
  5
1F9
100
AcDbEntity
  8
0
  6
Continuous
 62
   112
100
AcDbLine
 10
354.25
 20
252.0
 30
0.0
 11
354.25
 21
249.0
 31
0.0
  0
LINE
  5
1FA
100
AcDbEntity
  8
0
  6
Continuous
 62
   112
100
AcDbLine
 10
189.5
 20
184.0
 30
0.0
 11
186.5
 21
184.0
 31
0.0
  0
LINE
  5
1FB
100
AcDbEntity
  8
0
  6
Continuous
 62
   112
100
AcDbLine
 10
142.098191
 20
107.5
 30
0.0
 11
142.098191
 21
101.5
 31
0.0
  0
LINE
  5
1FC
100
AcDbEntity
  8
0
  6
Continuous
 62
   112
100
AcDbLine
 10
354.25
 20
177.0
 30
0.0
 11
335.25
 21
177.0
 31
0.0
  0
LINE
  5
1FD
100
AcDbEntity
  8
0
  6
Continuous
 62
   112
100
AcDbLine
 10
144.25
 20
227.25
 30
0.0
 11
147.25
 21
227.25
 31
0.0
  0
LINE
  5
1FE
100
AcDbEntity
  8
0
  6
Continuous
 62
   112
100
AcDbLine
 10
189.25
 20
235.5
 30
0.0
 11
191.25
 21
235.5
 31
0.0
  0
LINE
  5
1FF
100
AcDbEntity
  8
0
  6
Continuous
 62
   112
100
AcDbLine
 10
117.098191
 20
90.5
 30
0.0
 11
123.098191
 21
90.5
 31
0.0
  0
LINE
  5
200
100
AcDbEntity
  8
0
  6
Continuous
 62
   112
100
AcDbLine
 10
377.5
 20
143.0
 30
0.0
 11
377.5
 21
154.0
 31
0.0
  0
LINE
  5
201
100
AcDbEntity
  8
0
  6
Continuous
 62
   112
100
AcDbLine
 10
98.098191
 20
124.5
 30
0.0
 11
98.098191
 21
126.5
 31
0.0
  0
LINE
  5
202
100
AcDbEntity
  8
0
  6
Continuous
 62
   112
100
AcDbLine
 10
149.25
 20
273.30098
 30
0.0
 11
149.25
 21
237.702637
 31
0.0
  0
LINE
  5
203
100
AcDbEntity
  8
0
  6
Continuous
 62
   112
100
AcDbLine
 10
337.0
 20
143.0
 30
0.0
 11
337.0
 21
139.69902
 31
0.0
  0
LINE
  5
204
100
AcDbEntity
  8
0
  6
Continuous
 62
   112
100
AcDbLine
 10
192.098191
 20
114.5
 30
0.0
 11
236.098191
 21
114.5
 31
0.0
  0
LINE
  5
205
100
AcDbEntity
  8
0
  6
Continuous
 62
   112
100
AcDbLine
 10
98.098191
 20
107.5
 30
0.0
 11
98.098191
 21
90.5
 31
0.0
  0
LINE
  5
206
100
AcDbEntity
  8
0
  6
Continuous
 62
   112
100
AcDbLine
 10
333.098191
 20
55.45
 30
0.0
 11
330.098191
 21
55.45
 31
0.0
  0
LINE
  5
207
100
AcDbEntity
  8
0
  6
Continuous
 62
   112
100
AcDbLine
 10
98.098191
 20
165.4
 30
0.0
 11
95.098191
 21
165.4
 31
0.0
  0
LINE
  5
208
100
AcDbEntity
  8
0
  6
Continuous
 62
   112
100
AcDbLine
 10
286.098191
 20
141.4
 30
0.0
 11
283.098191
 21
141.4
 31
0.0
  0
LINE
  5
209
100
AcDbEntity
  8
0
  6
Continuous
 62
   112
100
AcDbLine
 10
139.25
 20
264.75
 30
0.0
 11
142.25
 21
264.75
 31
0.0
  0
LINE
  5
20A
100
AcDbEntity
  8
0
  6
Continuous
 62
   112
100
AcDbLine
 10
191.25
 20
235.5
 30
0.0
 11
191.25
 21
221.25
 31
0.0
  0
LINE
  5
20B
100
AcDbEntity
  8
0
  6
Continuous
 62
   112
100
AcDbLine
 10
192.098191
 20
61.45
 30
0.0
 11
192.098191
 21
44.45
 31
0.0
  0
LINE
  5
20C
100
AcDbEntity
  8
0
  6
Continuous
 62
   112
100
AcDbLine
 10
236.098191
 20
95.5
 30
0.0
 11
239.098191
 21
95.5
 31
0.0
  0
CIRCLE
  5
20D
100
AcDbEntity
  8
0
  6
Continuous
 62
   112
100
AcDbCircle
 10
186.0
 20
164.0
 30
0.0
 40
2.2
  0
LINE
  5
20E
100
AcDbEntity
  8
0
  6
Continuous
 62
   112
100
AcDbLine
 10
236.098191
 20
147.4
 30
0.0
 11
236.098191
 21
150.4
 31
0.0
  0
LINE
  5
20F
100
AcDbEntity
  8
0
  6
Continuous
 62
   112
100
AcDbLine
 10
186.5
 20
178.0
 30
0.0
 11
189.5
 21
178.0
 31
0.0
  0
LINE
  5
210
100
AcDbEntity
  8
0
  6
Continuous
 62
   112
100
AcDbLine
 10
246.0
 20
172.0
 30
0.0
 11
243.0
 21
172.0
 31
0.0
  0
LINE
  5
211
100
AcDbEntity
  8
0
  6
Continuous
 62
   112
100
AcDbLine
 10
202.25
 20
270.0
 30
0.0
 11
198.94902
 21
270.0
 31
0.0
  0
LINE
  5
212
100
AcDbEntity
  8
0
  6
Continuous
 62
   112
100
AcDbLine
 10
335.25
 20
211.5
 30
0.0
 11
354.25
 21
211.5
 31
0.0
  0
ARC
  5
213
100
AcDbEntity
  8
0
  6
Continuous
 62
   112
100
AcDbCircle
 10
198.452637
 20
231.702637
 30
0.0
 40
2.202637
100
AcDbArc
 50
180.0
 51
270.0
  0
LINE
  5
214
100
AcDbEntity
  8
0
  6
Continuous
 62
   112
100
AcDbLine
 10
97.25
 20
221.25
 30
0.0
 11
97.25
 21
227.25
 31
0.0
  0
LINE
  5
215
100
AcDbEntity
  8
0
  6
Continuous
 62
   112
100
AcDbLine
 10
145.098191
 20
84.45
 30
0.0
 11
145.098191
 21
79.45
 31
0.0
  0
LINE
  5
216
100
AcDbEntity
  8
0
  6
Continuous
 62
   112
100
AcDbLine
 10
311.098191
 20
69.5
 30
0.0
 11
305.098191
 21
69.5
 31
0.0
  0
LINE
  5
217
100
AcDbEntity
  8
0
  6
Continuous
 62
   112
100
AcDbLine
 10
48.098191
 20
171.4
 30
0.0
 11
48.098191
 21
174.4
 31
0.0
  0
LINE
  5
218
100
AcDbEntity
  8
0
  6
Continuous
 62
   112
100
AcDbLine
 10
335.25
 20
197.25
 30
0.0
 11
332.25
 21
197.25
 31
0.0
  0
LINE
  5
219
100
AcDbEntity
  8
0
  6
Continuous
 62
   112
100
AcDbLine
 10
166.25
 20
201.0
 30
0.0
 11
147.25
 21
201.0
 31
0.0
  0
LINE
  5
21A
100
AcDbEntity
  8
0
  6
Continuous
 62
   112
100
AcDbLine
 10
119.25
 20
204.0
 30
0.0
 11
119.25
 21
207.0
 31
0.0
  0
LINE
  5
21B
100
AcDbEntity
  8
0
  6
Continuous
 62
   112
100
AcDbLine
 10
147.25
 20
201.0
 30
0.0
 11
147.25
 21
215.25
 31
0.0
  0
LINE
  5
21C
100
AcDbEntity
  8
0
  6
Continuous
 62
   112
100
AcDbLine
 10
283.098191
 20
89.5
 30
0.0
 11
283.098191
 21
72.5
 31
0.0
  0
LINE
  5
21D
100
AcDbEntity
  8
0
  6
Continuous
 62
   112
100
AcDbLine
 10
189.25
 20
235.5
 30
0.0
 11
189.25
 21
252.75
 31
0.0
  0
ARC
  5
21E
100
AcDbEntity
  8
0
  6
Continuous
 62
   112
100
AcDbCircle
 10
151.452637
 20
237.702637
 30
0.0
 40
2.202637
100
AcDbArc
 50
180.0
 51
270.0
  0
ARC
  5
21F
100
AcDbEntity
  8
0
  6
Continuous
 62
   112
100
AcDbCircle
 10
198.69902
 20
157.69902
 30
0.0
 40
2.69902
100
AcDbArc
 50
-180.0
 51
-90.0
  0
LINE
  5
220
100
AcDbEntity
  8
0
  6
Continuous
 62
   112
100
AcDbLine
 10
100.25
 20
207.0
 30
0.0
 11
100.25
 21
221.25
 31
0.0
  0
LINE
  5
221
100
AcDbEntity
  8
0
  6
Continuous
 62
   112
100
AcDbLine
 10
189.098191
 20
118.5
 30
0.0
 11
189.098191
 21
107.5
 31
0.0
  0
LINE
  5
222
100
AcDbEntity
  8
0
  6
Continuous
 62
   112
100
AcDbLine
 10
333.098191
 20
49.45
 30
0.0
 11
333.098191
 21
55.45
 31
0.0
  0
CIRCLE
  5
223
100
AcDbEntity
  8
0
  6
Continuous
 62
   112
100
AcDbCircle
 10
139.0
 20
170.0
 30
0.0
 40
2.2
  0
LINE
  5
224
100
AcDbEntity
  8
0
  6
Continuous
 62
   112
100
AcDbLine
 10
330.5
 20
166.0
 30
0.0
 11
330.5
 21
183.0
 31
0.0
  0
LINE
  5
225
100
AcDbEntity
  8
0
  6
Continuous
 62
   112
100
AcDbLine
 10
330.098191
 20
77.5
 30
0.0
 11
333.098191
 21
77.5
 31
0.0
  0
LINE
  5
226
100
AcDbEntity
  8
0
  6
Continuous
 62
   112
100
AcDbLine
 10
102.0
 20
184.0
 30
0.0
 11
105.0
 21
184.0
 31
0.0
  0
LINE
  5
227
100
AcDbEntity
  8
0
  6
Continuous
 62
   112
100
AcDbLine
 10
164.098191
 20
87.5
 30
0.0
 11
164.098191
 21
84.5
 31
0.0
  0
LINE
  5
228
100
AcDbEntity
  8
0
  6
Continuous
 62
   112
100
AcDbLine
 10
166.25
 20
238.5
 30
0.0
 11
166.25
 21
235.5
 31
0.0
  0
LINE
  5
229
100
AcDbEntity
  8
0
  6
Continuous
 62
   112
100
AcDbLine
 10
260.25
 20
226.5
 30
0.0
 11
260.25
 21
223.5
 31
0.0
  0
LINE
  5
22A
100
AcDbEntity
  8
0
  6
Continuous
 62
   112
100
AcDbLine
 10
286.098191
 20
102.5
 30
0.0
 11
330.098191
 21
102.5
 31
0.0
  0
LINE
  5
22B
100
AcDbEntity
  8
0
  6
Continuous
 62
   112
100
AcDbLine
 10
95.098191
 20
165.4
 30
0.0
 11
95.098191
 21
162.4
 31
0.0
  0
LINE
  5
22C
100
AcDbEntity
  8
0
  6
Continuous
 62
   112
100
AcDbLine
 10
142.25
 20
241.5
 30
0.0
 11
142.25
 21
258.75
 31
0.0
  0
LINE
  5
22D
100
AcDbEntity
  8
0
  6
Continuous
 62
   112
100
AcDbLine
 10
283.098191
 20
141.4
 30
0.0
 11
283.098191
 21
138.4
 31
0.0
  0
ARC
  5
22E
100
AcDbEntity
  8
0
  6
Continuous
 62
   112
100
AcDbCircle
 10
281.297363
 20
151.202637
 30
0.0
 40
2.202637
100
AcDbArc
 50
270.0
 51
360.0
  0
LINE
  5
22F
100
AcDbEntity
  8
0
  6
Continuous
 62
   112
100
AcDbLine
 10
142.098191
 20
101.5
 30
0.0
 11
142.098191
 21
90.5
 31
0.0
  0
LINE
  5
230
100
AcDbEntity
  8
0
  6
Continuous
 62
   112
100
AcDbLine
 10
260.25
 20
264.0
 30
0.0
 11
260.25
 21
261.0
 31
0.0
  0
LINE
  5
231
100
AcDbEntity
  8
0
  6
Continuous
 62
   112
100
AcDbLine
 10
189.5
 20
184.0
 30
0.0
 11
189.5
 21
201.0
 31
0.0
  0
LINE
  5
232
100
AcDbEntity
  8
0
  6
Continuous
 62
   112
100
AcDbLine
 10
123.098191
 20
93.5
 30
0.0
 11
117.098191
 21
93.5
 31
0.0
  0
LINE
  5
233
100
AcDbEntity
  8
0
  6
Continuous
 62
   112
100
AcDbLine
 10
286.098191
 20
89.5
 30
0.0
 11
286.098191
 21
95.5
 31
0.0
  0
LINE
  5
234
100
AcDbEntity
  8
0
  6
Continuous
 62
   112
100
AcDbLine
 10
311.098191
 20
32.45
 30
0.0
 11
330.098191
 21
32.45
 31
0.0
  0
CIRCLE
  5
235
100
AcDbEntity
  8
0
  6
Continuous
 62
   112
100
AcDbCircle
 10
293.25
 20
221.0
 30
0.0
 40
2.2
  0
LINE
  5
236
100
AcDbEntity
  8
0
  6
Continuous
 62
   112
100
AcDbLine
 10
98.098191
 20
126.5
 30
0.0
 11
142.098191
 21
126.5
 31
0.0
  0
LINE
  5
237
100
AcDbEntity
  8
0
  6
Continuous
 62
   112
100
AcDbLine
 10
285.25
 20
189.0
 30
0.0
 11
266.25
 21
189.0
 31
0.0
  0
LINE
  5
238
100
AcDbEntity
  8
0
  6
Continuous
 62
   112
100
AcDbLine
 10
4.098191
 20
85.45
 30
0.0
 11
4.098191
 21
68.45
 31
0.0
  0
LINE
  5
239
100
AcDbEntity
  8
0
  6
Continuous
 62
   112
100
AcDbLine
 10
142.5
 20
190.0
 30
0.0
 11
139.5
 21
190.0
 31
0.0
  0
LINE
  5
23A
100
AcDbEntity
  8
0
  6
Continuous
 62
   112
100
AcDbLine
 10
95.098191
 20
79.45
 30
0.0
 11
98.098191
 21
79.45
 31
0.0
  0
LINE
  5
23B
100
AcDbEntity
  8
0
  6
Continuous
 62
   112
100
AcDbLine
 10
139.25
 20
258.75
 30
0.0
 11
139.25
 21
264.75
 31
0.0
  0
LINE
  5
23C
100
AcDbEntity
  8
0
  6
Continuous
 62
   112
100
AcDbLine
 10
95.098191
 20
113.5
 30
0.0
 11
95.098191
 21
96.5
 31
0.0
  0
LINE
  5
23D
100
AcDbEntity
  8
0
  6
Continuous
 62
   112
100
AcDbLine
 10
50.25
 20
253.5
 30
0.0
 11
50.25
 21
239.25
 31
0.0
  0
LINE
  5
23E
100
AcDbEntity
  8
0
  6
Continuous
 62
   112
100
AcDbLine
 10
48.098191
 20
136.5
 30
0.0
 11
48.098191
 21
138.5
 31
0.0
  0
LINE
  5
23F
100
AcDbEntity
  8
0
  6
Continuous
 62
   112
100
AcDbLine
 10
78.25
 20
285.0
 30
0.0
 11
78.25
 21
288.0
 31
0.0
  0
LINE
  5
240
100
AcDbEntity
  8
0
  6
Continuous
 62
   112
100
AcDbLine
 10
50.25
 20
233.25
 30
0.0
 11
50.25
 21
219.0
 31
0.0
  0
LINE
  5
241
100
AcDbEntity
  8
0
  6
Continuous
 62
   112
100
AcDbLine
 10
145.098191
 20
73.45
 30
0.0
 11
142.098191
 21
73.45
 31
0.0
  0
LINE
  5
242
100
AcDbEntity
  8
0
  6
Continuous
 62
   112
100
AcDbLine
 10
100.25
 20
233.25
 30
0.0
 11
100.25
 21
227.25
 31
0.0
  0
LINE
  5
243
100
AcDbEntity
  8
0
  6
Continuous
 62
   112
100
AcDbLine
 10
53.25
 20
233.25
 30
0.0
 11
50.25
 21
233.25
 31
0.0
  0
LINE
  5
244
100
AcDbEntity
  8
0
  6
Continuous
 62
   112
100
AcDbLine
 10
166.25
 20
273.0
 30
0.0
 11
172.25
 21
273.0
 31
0.0
  0
LINE
  5
245
100
AcDbEntity
  8
0
  6
Continuous
 62
   112
100
AcDbLine
 10
145.098191
 20
118.5
 30
0.0
 11
145.098191
 21
120.5
 31
0.0
  0
LINE
  5
246
100
AcDbEntity
  8
0
  6
Continuous
 62
   112
100
AcDbLine
 10
145.098191
 20
118.5
 30
0.0
 11
145.098191
 21
107.5
 31
0.0
  0
LINE
  5
247
100
AcDbEntity
  8
0
  6
Continuous
 62
   112
100
AcDbLine
 10
4.098191
 20
91.45
 30
0.0
 11
1.098191
 21
91.45
 31
0.0
  0
LINE
  5
248
100
AcDbEntity
  8
0
  6
Continuous
 62
   112
100
AcDbLine
 10
145.098191
 20
165.4
 30
0.0
 11
145.098191
 21
162.4
 31
0.0
  0
LINE
  5
249
100
AcDbEntity
  8
0
  6
Continuous
 62
   112
100
AcDbLine
 10
95.098191
 20
130.5
 30
0.0
 11
95.098191
 21
132.5
 31
0.0
  0
LINE
  5
24A
100
AcDbEntity
  8
0
  6
Continuous
 62
   112
100
AcDbLine
 10
145.098191
 20
120.5
 30
0.0
 11
189.098191
 21
120.5
 31
0.0
  0
LINE
  5
24B
100
AcDbEntity
  8
0
  6
Continuous
 62
   112
100
AcDbLine
 10
186.5
 20
184.0
 30
0.0
 11
186.5
 21
178.0
 31
0.0
  0
LINE
  5
24C
100
AcDbEntity
  8
0
  6
Continuous
 62
   112
100
AcDbLine
 10
51.098191
 20
177.4
 30
0.0
 11
51.098191
 21
174.4
 31
0.0
  0
LINE
  5
24D
100
AcDbEntity
  8
0
  6
Continuous
 62
   112
100
AcDbLine
 10
31.25
 20
291.0
 30
0.0
 11
31.25
 21
294.0
 31
0.0
  0
LINE
  5
24E
100
AcDbEntity
  8
0
  6
Continuous
 62
   112
100
AcDbLine
 10
48.098191
 20
85.45
 30
0.0
 11
48.098191
 21
79.45
 31
0.0
  0
CIRCLE
  5
24F
100
AcDbEntity
  8
0
  6
Continuous
 62
   112
100
AcDbCircle
 10
11.25
 20
257.0
 30
0.0
 40
2.2
  0
ARC
  5
250
100
AcDbEntity
  8
0
  6
Continuous
 62
   112
100
AcDbCircle
 10
104.452637
 20
243.702637
 30
0.0
 40
2.202637
100
AcDbArc
 50
180.0
 51
270.0
  0
LINE
  5
251
100
AcDbEntity
  8
0
  6
Continuous
 62
   112
100
AcDbLine
 10
4.098191
 20
174.4
 30
0.0
 11
1.098191
 21
174.4
 31
0.0
  0
LINE
  5
252
100
AcDbEntity
  8
0
  6
Continuous
 62
   112
100
AcDbLine
 10
51.098191
 20
125.5
 30
0.0
 11
48.098191
 21
125.5
 31
0.0
  0
LINE
  5
253
100
AcDbEntity
  8
0
  6
Continuous
 62
   112
100
AcDbLine
 10
50.25
 20
219.0
 30
0.0
 11
31.25
 21
219.0
 31
0.0
  0
LINE
  5
254
100
AcDbEntity
  8
0
  6
Continuous
 62
   112
100
AcDbLine
 10
354.25
 20
214.5
 30
0.0
 11
354.25
 21
211.5
 31
0.0
  0
LINE
  5
255
100
AcDbEntity
  8
0
  6
Continuous
 62
   112
100
AcDbLine
 10
170.098191
 20
50.45
 30
0.0
 11
189.098191
 21
50.45
 31
0.0
  0
LINE
  5
256
100
AcDbEntity
  8
0
  6
Continuous
 62
   112
100
AcDbLine
 10
189.098191
 20
120.5
 30
0.0
 11
189.098191
 21
156.4
 31
0.0
  0
LINE
  5
257
100
AcDbEntity
  8
0
  6
Continuous
 62
   112
100
AcDbLine
 10
142.098191
 20
162.4
 30
0.0
 11
145.098191
 21
162.4
 31
0.0
  0
LINE
  5
258
100
AcDbEntity
  8
0
  6
Continuous
 62
   112
100
AcDbLine
 10
8.0
 20
185.0
 30
0.0
 11
8.0
 21
181.69902
 31
0.0
  0
LINE
  5
259
100
AcDbEntity
  8
0
  6
Continuous
 62
   112
100
AcDbLine
 10
144.25
 20
207.0
 30
0.0
 11
125.25
 21
207.0
 31
0.0
  0
LINE
  5
25A
100
AcDbEntity
  8
0
  6
Continuous
 62
   112
100
AcDbLine
 10
45.5
 20
202.0
 30
0.0
 11
45.5
 21
196.0
 31
0.0
  0
LINE
  5
25B
100
AcDbEntity
  8
0
  6
Continuous
 62
   112
100
AcDbLine
 10
8.25
 20
291.30098
 30
0.0
 11
8.25
 21
255.702637
 31
0.0
  0
LINE
  5
25C
100
AcDbEntity
  8
0
  6
Continuous
 62
   112
100
AcDbLine
 10
145.098191
 20
113.5
 30
0.0
 11
142.098191
 21
113.5
 31
0.0
  0
LINE
  5
25D
100
AcDbEntity
  8
0
  6
Continuous
 62
   112
100
AcDbLine
 10
95.098191
 20
79.45
 30
0.0
 11
95.098191
 21
62.45
 31
0.0
  0
LINE
  5
25E
100
AcDbEntity
  8
0
  6
Continuous
 62
   112
100
AcDbLine
 10
48.5
 20
202.0
 30
0.0
 11
45.5
 21
202.0
 31
0.0
  0
ARC
  5
25F
100
AcDbEntity
  8
0
  6
Continuous
 62
   112
100
AcDbCircle
 10
93.297363
 20
175.202637
 30
0.0
 40
2.202637
100
AcDbArc
 50
270.0
 51
360.0
  0
LINE
  5
260
100
AcDbEntity
  8
0
  6
Continuous
 62
   112
100
AcDbLine
 10
48.098191
 20
177.4
 30
0.0
 11
48.098191
 21
179.0
 31
0.0
  0
LINE
  5
261
100
AcDbEntity
  8
0
  6
Continuous
 62
   112
100
AcDbLine
 10
48.25
 20
253.5
 30
0.0
 11
48.25
 21
270.75
 31
0.0
  0
LINE
  5
262
100
AcDbEntity
  8
0
  6
Continuous
 62
   112
100
AcDbLine
 10
3.25
 20
239.25
 30
0.0
 11
6.25
 21
239.25
 31
0.0
  0
LINE
  5
263
100
AcDbEntity
  8
0
  6
Continuous
 62
   112
100
AcDbLine
 10
330.25
 20
234.75
 30
0.0
 11
327.25
 21
234.75
 31
0.0
  0
LINE
  5
264
100
AcDbEntity
  8
0
  6
Continuous
 62
   112
100
AcDbLine
 10
147.25
 20
235.5
 30
0.0
 11
166.25
 21
235.5
 31
0.0
  0
LINE
  5
265
100
AcDbEntity
  8
0
  6
Continuous
 62
   112
100
AcDbLine
 10
374.25
 20
228.75
 30
0.0
 11
374.25
 21
234.75
 31
0.0
  0
LINE
  5
266
100
AcDbEntity
  8
0
  6
Continuous
 62
   112
100
AcDbLine
 10
243.0
 20
155.0
 30
0.0
 11
243.0
 21
151.69902
 31
0.0
  0
ARC
  5
267
100
AcDbEntity
  8
0
  6
Continuous
 62
   112
100
AcDbCircle
 10
339.69902
 20
139.69902
 30
0.0
 40
2.69902
100
AcDbArc
 50
-180.0
 51
-90.0
  0
LINE
  5
268
100
AcDbEntity
  8
0
  6
Continuous
 62
   112
100
AcDbLine
 10
196.0
 20
161.0
 30
0.0
 11
196.0
 21
172.0
 31
0.0
  0
LINE
  5
269
100
AcDbEntity
  8
0
  6
Continuous
 62
   112
100
AcDbLine
 10
236.098191
 20
153.4
 30
0.0
 11
236.098191
 21
155.0
 31
0.0
  0
LINE
  5
26A
100
AcDbEntity
  8
0
  6
Continuous
 62
   112
100
AcDbLine
 10
332.25
 20
197.25
 30
0.0
 11
332.25
 21
183.0
 31
0.0
  0
LINE
  5
26B
100
AcDbEntity
  8
0
  6
Continuous
 62
   112
100
AcDbLine
 10
211.098191
 20
44.45
 30
0.0
 11
192.098191
 21
44.45
 31
0.0
  0
LINE
  5
26C
100
AcDbEntity
  8
0
  6
Continuous
 62
   112
100
AcDbLine
 10
11.0
 20
196.0
 30
0.0
 11
11.0
 21
202.0
 31
0.0
  0
LINE
  5
26D
100
AcDbEntity
  8
0
  6
Continuous
 62
   112
100
AcDbLine
 10
6.25
 20
239.25
 30
0.0
 11
6.25
 21
253.5
 31
0.0
  0
LINE
  5
26E
100
AcDbEntity
  8
0
  6
Continuous
 62
   112
100
AcDbLine
 10
31.25
 20
253.5
 30
0.0
 11
48.25
 21
253.5
 31
0.0
  0
LINE
  5
26F
100
AcDbEntity
  8
0
  6
Continuous
 62
   112
100
AcDbLine
 10
31.25
 20
216.0
 30
0.0
 11
25.25
 21
216.0
 31
0.0
  0
LINE
  5
270
100
AcDbEntity
  8
0
  6
Continuous
 62
   112
100
AcDbLine
 10
48.5
 20
185.0
 30
0.0
 11
48.5
 21
181.202637
 31
0.0
  0
LINE
  5
271
100
AcDbEntity
  8
0
  6
Continuous
 62
   112
100
AcDbLine
 10
23.098191
 20
102.5
 30
0.0
 11
29.098191
 21
102.5
 31
0.0
  0
LINE
  5
272
100
AcDbEntity
  8
0
  6
Continuous
 62
   112
100
AcDbLine
 10
53.25
 20
233.25
 30
0.0
 11
53.25
 21
247.5
 31
0.0
  0
LINE
  5
273
100
AcDbEntity
  8
0
  6
Continuous
 62
   112
100
AcDbLine
 10
4.098191
 20
174.4
 30
0.0
 11
4.098191
 21
138.5
 31
0.0
  0
ARC
  5
274
100
AcDbEntity
  8
0
  6
Continuous
 62
   112
100
AcDbCircle
 10
10.69902
 20
181.69902
 30
0.0
 40
2.69902
100
AcDbArc
 50
-180.0
 51
-90.0
  0
LINE
  5
275
100
AcDbEntity
  8
0
  6
Continuous
 62
   112
100
AcDbLine
 10
51.098191
 20
91.45
 30
0.0
 11
48.098191
 21
91.45
 31
0.0
  0
ARC
  5
276
100
AcDbEntity
  8
0
  6
Continuous
 62
   112
100
AcDbCircle
 10
104.94902
 20
279.30098
 30
0.0
 40
2.69902
100
AcDbArc
 50
-270.0
 51
-180.0
  0
LINE
  5
277
100
AcDbEntity
  8
0
  6
Continuous
 62
   112
100
AcDbLine
 10
23.098191
 20
71.45
 30
0.0
 11
23.098191
 21
68.45
 31
0.0
  0
LINE
  5
278
100
AcDbEntity
  8
0
  6
Continuous
 62
   112
100
AcDbLine
 10
25.25
 20
216.0
 30
0.0
 11
25.25
 21
219.0
 31
0.0
  0
LINE
  5
279
100
AcDbEntity
  8
0
  6
Continuous
 62
   112
100
AcDbLine
 10
191.25
 20
209.25
 30
0.0
 11
191.25
 21
215.25
 31
0.0
  0
LINE
  5
27A
100
AcDbEntity
  8
0
  6
Continuous
 62
   112
100
AcDbLine
 10
377.098191
 20
96.5
 30
0.0
 11
377.098191
 21
132.4
 31
0.0
  0
ARC
  5
27B
100
AcDbEntity
  8
0
  6
Continuous
 62
   112
100
AcDbCircle
 10
151.94902
 20
273.30098
 30
0.0
 40
2.69902
100
AcDbArc
 50
-270.0
 51
-180.0
  0
LINE
  5
27C
100
AcDbEntity
  8
0
  6
Continuous
 62
   112
100
AcDbLine
 10
95.5
 20
196.0
 30
0.0
 11
92.5
 21
196.0
 31
0.0
  0
LINE
  5
27D
100
AcDbEntity
  8
0
  6
Continuous
 62
   112
100
AcDbLine
 10
125.25
 20
282.0
 30
0.0
 11
142.25
 21
282.0
 31
0.0
  0
LINE
  5
27E
100
AcDbEntity
  8
0
  6
Continuous
 62
   112
100
AcDbLine
 10
55.0
 20
190.0
 30
0.0
 11
58.0
 21
190.0
 31
0.0
  0
LINE
  5
27F
100
AcDbEntity
  8
0
  6
Continuous
 62
   112
100
AcDbLine
 10
236.098191
 20
112.5
 30
0.0
 11
236.098191
 21
114.5
 31
0.0
  0
LINE
  5
280
100
AcDbEntity
  8
0
  6
Continuous
 62
   112
100
AcDbLine
 10
119.25
 20
282.0
 30
0.0
 11
119.25
 21
279.0
 31
0.0
  0
LINE
  5
281
100
AcDbEntity
  8
0
  6
Continuous
 62
   112
100
AcDbLine
 10
95.098191
 20
113.5
 30
0.0
 11
98.098191
 21
113.5
 31
0.0
  0
LINE
  5
282
100
AcDbEntity
  8
0
  6
Continuous
 62
   112
100
AcDbLine
 10
283.098191
 20
106.5
 30
0.0
 11
283.098191
 21
95.5
 31
0.0
  0
LINE
  5
283
100
AcDbEntity
  8
0
  6
Continuous
 62
   112
100
AcDbLine
 10
145.098191
 20
101.5
 30
0.0
 11
145.098191
 21
84.5
 31
0.0
  0
LINE
  5
284
100
AcDbEntity
  8
0
  6
Continuous
 62
   112
100
AcDbLine
 10
330.098191
 20
100.5
 30
0.0
 11
330.098191
 21
89.5
 31
0.0
  0
LINE
  5
285
100
AcDbEntity
  8
0
  6
Continuous
 62
   112
100
AcDbLine
 10
330.25
 20
217.5
 30
0.0
 11
332.25
 21
217.5
 31
0.0
  0
LINE
  5
286
100
AcDbEntity
  8
0
  6
Continuous
 62
   112
100
AcDbLine
 10
48.098191
 20
79.45
 30
0.0
 11
51.098191
 21
79.45
 31
0.0
  0
LINE
  5
287
100
AcDbEntity
  8
0
  6
Continuous
 62
   112
100
AcDbLine
 10
142.098191
 20
67.45
 30
0.0
 11
145.098191
 21
67.45
 31
0.0
  0
ARC
  5
288
100
AcDbEntity
  8
0
  6
Continuous
 62
   112
100
AcDbCircle
 10
10.94902
 20
291.30098
 30
0.0
 40
2.69902
100
AcDbArc
 50
-270.0
 51
-180.0
  0
LINE
  5
289
100
AcDbEntity
  8
0
  6
Continuous
 62
   112
100
AcDbLine
 10
8.0
 20
196.0
 30
0.0
 11
11.0
 21
196.0
 31
0.0
  0
LINE
  5
28A
100
AcDbEntity
  8
0
  6
Continuous
 62
   112
100
AcDbLine
 10
76.098191
 20
62.45
 30
0.0
 11
76.098191
 21
65.45
 31
0.0
  0
LINE
  5
28B
100
AcDbEntity
  8
0
  6
Continuous
 62
   112
100
AcDbLine
 10
333.098191
 20
137.0
 30
0.0
 11
377.098191
 21
137.0
 31
0.0
  0
LINE
  5
28C
100
AcDbEntity
  8
0
  6
Continuous
 62
   112
100
AcDbLine
 10
95.5
 20
179.0
 30
0.0
 11
95.5
 21
175.202637
 31
0.0
  0
LINE
  5
28D
100
AcDbEntity
  8
0
  6
Continuous
 62
   112
100
AcDbLine
 10
172.25
 20
238.5
 30
0.0
 11
166.25
 21
238.5
 31
0.0
  0
LINE
  5
28E
100
AcDbEntity
  8
0
  6
Continuous
 62
   112
100
AcDbLine
 10
6.25
 20
219.0
 30
0.0
 11
6.25
 21
233.25
 31
0.0
  0
LINE
  5
28F
100
AcDbEntity
  8
0
  6
Continuous
 62
   112
100
AcDbLine
 10
142.098191
 20
90.45
 30
0.0
 11
142.098191
 21
79.45
 31
0.0
  0
LINE
  5
290
100
AcDbEntity
  8
0
  6
Continuous
 62
   112
100
AcDbLine
 10
72.25
 20
288.0
 30
0.0
 11
72.25
 21
285.0
 31
0.0
  0
LINE
  5
291
100
AcDbEntity
  8
0
  6
Continuous
 62
   112
100
AcDbLine
 10
51.098191
 20
113.5
 30
0.0
 11
51.098191
 21
96.5
 31
0.0
  0
LINE
  5
292
100
AcDbEntity
  8
0
  6
Continuous
 62
   112
100
AcDbLine
 10
51.098191
 20
173.0
 30
0.0
 11
51.098191
 21
171.4
 31
0.0
  0
LINE
  5
293
100
AcDbEntity
  8
0
  6
Continuous
 62
   112
100
AcDbLine
 10
145.098191
 20
67.45
 30
0.0
 11
145.098191
 21
50.45
 31
0.0
  0
LINE
  5
294
100
AcDbEntity
  8
0
  6
Continuous
 62
   112
100
AcDbLine
 10
145.098191
 20
161.0
 30
0.0
 11
145.098191
 21
159.4
 31
0.0
  0
LINE
  5
295
100
AcDbEntity
  8
0
  6
Continuous
 62
   112
100
AcDbLine
 10
48.25
 20
253.5
 30
0.0
 11
50.25
 21
253.5
 31
0.0
  0
LINE
  5
296
100
AcDbEntity
  8
0
  6
Continuous
 62
   112
100
AcDbLine
 10
196.0
 20
172.0
 30
0.0
 11
199.0
 21
172.0
 31
0.0
  0
LINE
  5
297
100
AcDbEntity
  8
0
  6
Continuous
 62
   112
100
AcDbLine
 10
92.5
 20
196.0
 30
0.0
 11
92.5
 21
190.0
 31
0.0
  0
LINE
  5
298
100
AcDbEntity
  8
0
  6
Continuous
 62
   112
100
AcDbLine
 10
29.098191
 20
68.45
 30
0.0
 11
48.098191
 21
68.45
 31
0.0
  0
LINE
  5
299
100
AcDbEntity
  8
0
  6
Continuous
 62
   112
100
AcDbLine
 10
51.098191
 20
85.45
 30
0.0
 11
48.098191
 21
85.45
 31
0.0
  0
LINE
  5
29A
100
AcDbEntity
  8
0
  6
Continuous
 62
   112
100
AcDbLine
 10
236.098191
 20
55.45
 30
0.0
 11
239.098191
 21
55.45
 31
0.0
  0
LINE
  5
29B
100
AcDbEntity
  8
0
  6
Continuous
 62
   112
100
AcDbLine
 10
343.25
 20
252.0
 30
0.0
 11
339.94902
 21
252.0
 31
0.0
  0
LINE
  5
29C
100
AcDbEntity
  8
0
  6
Continuous
 62
   112
100
AcDbLine
 10
219.25
 20
229.5
 30
0.0
 11
236.25
 21
229.5
 31
0.0
  0
LINE
  5
29D
100
AcDbEntity
  8
0
  6
Continuous
 62
   112
100
AcDbLine
 10
236.25
 20
252.75
 30
0.0
 11
236.25
 21
270.0
 31
0.0
  0
LINE
  5
29E
100
AcDbEntity
  8
0
  6
Continuous
 62
   112
100
AcDbLine
 10
358.098191
 20
26.45
 30
0.0
 11
358.098191
 21
29.45
 31
0.0
  0
LINE
  5
29F
100
AcDbEntity
  8
0
  6
Continuous
 62
   112
100
AcDbLine
 10
194.25
 20
229.5
 30
0.0
 11
213.25
 21
229.5
 31
0.0
  0
LINE
  5
2A0
100
AcDbEntity
  8
0
  6
Continuous
 62
   112
100
AcDbLine
 10
333.098191
 20
89.5
 30
0.0
 11
330.098191
 21
89.5
 31
0.0
  0
LINE
  5
2A1
100
AcDbEntity
  8
0
  6
Continuous
 62
   112
100
AcDbLine
 10
266.25
 20
189.0
 30
0.0
 11
266.25
 21
186.0
 31
0.0
  0
LINE
  5
2A2
100
AcDbEntity
  8
0
  6
Continuous
 62
   112
100
AcDbLine
 10
285.25
 20
197.25
 30
0.0
 11
285.25
 21
189.0
 31
0.0
  0
ARC
  5
2A3
100
AcDbEntity
  8
0
  6
Continuous
 62
   112
100
AcDbCircle
 10
292.452637
 20
219.702637
 30
0.0
 40
2.202637
100
AcDbArc
 50
180.0
 51
270.0
  0
CIRCLE
  5
2A4
100
AcDbEntity
  8
0
  6
Continuous
 62
   112
100
AcDbCircle
 10
280.0
 20
152.0
 30
0.0
 40
2.2
  0
LINE
  5
2A5
100
AcDbEntity
  8
0
  6
Continuous
 62
   112
100
AcDbLine
 10
358.098191
 20
29.45
 30
0.0
 11
352.098191
 21
29.45
 31
0.0
  0
LINE
  5
2A6
100
AcDbEntity
  8
0
  6
Continuous
 62
   112
100
AcDbLine
 10
191.25
 20
215.25
 30
0.0
 11
194.25
 21
215.25
 31
0.0
  0
LINE
  5
2A7
100
AcDbEntity
  8
0
  6
Continuous
 62
   112
100
AcDbLine
 10
241.25
 20
189.0
 30
0.0
 11
241.25
 21
203.25
 31
0.0
  0
LINE
  5
2A8
100
AcDbEntity
  8
0
  6
Continuous
 62
   112
100
AcDbLine
 10
286.098191
 20
147.4
 30
0.0
 11
283.098191
 21
147.4
 31
0.0
  0
LINE
  5
2A9
100
AcDbEntity
  8
0
  6
Continuous
 62
   112
100
AcDbLine
 10
211.098191
 20
78.5
 30
0.0
 11
217.098191
 21
78.5
 31
0.0
  0
LINE
  5
2AA
100
AcDbEntity
  8
0
  6
Continuous
 62
   112
100
AcDbLine
 10
196.25
 20
267.30098
 30
0.0
 11
196.25
 21
231.702637
 31
0.0
  0
LINE
  5
2AB
100
AcDbEntity
  8
0
  6
Continuous
 62
   112
100
AcDbLine
 10
290.0
 20
149.0
 30
0.0
 11
290.0
 21
160.0
 31
0.0
  0
LINE
  5
2AC
100
AcDbEntity
  8
0
  6
Continuous
 62
   112
100
AcDbLine
 10
307.25
 20
258.0
 30
0.0
 11
307.25
 21
255.0
 31
0.0
  0
LINE
  5
2AD
100
AcDbEntity
  8
0
  6
Continuous
 62
   112
100
AcDbLine
 10
374.25
 20
234.75
 30
0.0
 11
377.25
 21
234.75
 31
0.0
  0
LINE
  5
2AE
100
AcDbEntity
  8
0
  6
Continuous
 62
   112
100
AcDbLine
 10
283.098191
 20
72.45
 30
0.0
 11
283.098191
 21
61.45
 31
0.0
  0
LINE
  5
2AF
100
AcDbEntity
  8
0
  6
Continuous
 62
   112
100
AcDbLine
 10
219.25
 20
232.5
 30
0.0
 11
213.25
 21
232.5
 31
0.0
  0
LINE
  5
2B0
100
AcDbEntity
  8
0
  6
Continuous
 62
   112
100
AcDbLine
 10
313.25
 20
255.0
 30
0.0
 11
313.25
 21
258.0
 31
0.0
  0
LINE
  5
2B1
100
AcDbEntity
  8
0
  6
Continuous
 62
   112
100
AcDbLine
 10
236.5
 20
178.0
 30
0.0
 11
233.5
 21
178.0
 31
0.0
  0
LINE
  5
2B2
100
AcDbEntity
  8
0
  6
Continuous
 62
   112
100
AcDbLine
 10
379.25
 20
191.25
 30
0.0
 11
379.25
 21
177.0
 31
0.0
  0
LINE
  5
2B3
100
AcDbEntity
  8
0
  6
Continuous
 62
   112
100
AcDbLine
 10
296.25
 20
258.0
 30
0.0
 11
307.25
 21
258.0
 31
0.0
  0
LINE
  5
2B4
100
AcDbEntity
  8
0
  6
Continuous
 62
   112
100
AcDbLine
 10
290.0
 20
166.0
 30
0.0
 11
290.0
 21
183.0
 31
0.0
  0
LINE
  5
2B5
100
AcDbEntity
  8
0
  6
Continuous
 62
   112
100
AcDbLine
 10
243.25
 20
261.30098
 30
0.0
 11
243.25
 21
225.702637
 31
0.0
  0
LINE
  5
2B6
100
AcDbEntity
  8
0
  6
Continuous
 62
   112
100
AcDbLine
 10
377.098191
 20
43.45
 30
0.0
 11
380.098191
 21
43.45
 31
0.0
  0
LINE
  5
2B7
100
AcDbEntity
  8
0
  6
Continuous
 62
   112
100
AcDbLine
 10
219.25
 20
267.0
 30
0.0
 11
219.25
 21
270.0
 31
0.0
  0
LINE
  5
2B8
100
AcDbEntity
  8
0
  6
Continuous
 62
   112
100
AcDbLine
 10
217.098191
 20
78.5
 30
0.0
 11
236.098191
 21
78.5
 31
0.0
  0
LINE
  5
2B9
100
AcDbEntity
  8
0
  6
Continuous
 62
   112
100
AcDbLine
 10
330.098191
 20
138.4
 30
0.0
 11
333.098191
 21
138.4
 31
0.0
  0
LINE
  5
2BA
100
AcDbEntity
  8
0
  6
Continuous
 62
   112
100
AcDbLine
 10
307.25
 20
183.0
 30
0.0
 11
288.25
 21
183.0
 31
0.0
  0
LINE
  5
2BB
100
AcDbEntity
  8
0
  6
Continuous
 62
   112
100
AcDbLine
 10
330.098191
 20
102.5
 30
0.0
 11
330.098191
 21
132.4
 31
0.0
  0
LINE
  5
2BC
100
AcDbEntity
  8
0
  6
Continuous
 62
   112
100
AcDbLine
 10
333.098191
 20
43.45
 30
0.0
 11
333.098191
 21
26.45
 31
0.0
  0
LINE
  5
2BD
100
AcDbEntity
  8
0
  6
Continuous
 62
   112
100
AcDbLine
 10
266.25
 20
226.5
 30
0.0
 11
260.25
 21
226.5
 31
0.0
  0
LINE
  5
2BE
100
AcDbEntity
  8
0
  6
Continuous
 62
   112
100
AcDbLine
 10
260.25
 20
261.0
 30
0.0
 11
266.25
 21
261.0
 31
0.0
  0
LINE
  5
2BF
100
AcDbEntity
  8
0
  6
Continuous
 62
   112
100
AcDbLine
 10
377.098191
 20
94.5
 30
0.0
 11
377.098191
 21
96.5
 31
0.0
  0
LINE
  5
2C0
100
AcDbEntity
  8
0
  6
Continuous
 62
   112
100
AcDbLine
 10
236.098191
 20
89.5
 30
0.0
 11
236.098191
 21
78.5
 31
0.0
  0
LINE
  5
2C1
100
AcDbEntity
  8
0
  6
Continuous
 62
   112
100
AcDbLine
 10
360.25
 20
211.5
 30
0.0
 11
360.25
 21
214.5
 31
0.0
  0
LINE
  5
2C2
100
AcDbEntity
  8
0
  6
Continuous
 62
   112
100
AcDbLine
 10
280.5
 20
172.0
 30
0.0
 11
280.5
 21
166.0
 31
0.0
  0
CIRCLE
  5
2C3
100
AcDbEntity
  8
0
  6
Continuous
 62
   112
100
AcDbCircle
 10
340.25
 20
215.0
 30
0.0
 40
2.2
  0
LINE
  5
2C4
100
AcDbEntity
  8
0
  6
Continuous
 62
   112
100
AcDbLine
 10
260.25
 20
186.0
 30
0.0
 11
260.25
 21
189.0
 31
0.0
  0
CIRCLE
  5
2C5
100
AcDbEntity
  8
0
  6
Continuous
 62
   112
100
AcDbCircle
 10
327.0
 20
146.0
 30
0.0
 40
2.2
  0
LINE
  5
2C6
100
AcDbEntity
  8
0
  6
Continuous
 62
   112
100
AcDbLine
 10
196.0
 20
178.0
 30
0.0
 11
196.0
 21
195.0
 31
0.0
  0
LINE
  5
2C7
100
AcDbEntity
  8
0
  6
Continuous
 62
   112
100
AcDbLine
 10
213.25
 20
270.0
 30
0.0
 11
213.25
 21
267.0
 31
0.0
  0
LINE
  5
2C8
100
AcDbEntity
  8
0
  6
Continuous
 62
   112
100
AcDbLine
 10
202.25
 20
270.0
 30
0.0
 11
213.25
 21
270.0
 31
0.0
  0
LINE
  5
2C9
100
AcDbEntity
  8
0
  6
Continuous
 62
   112
100
AcDbLine
 10
219.25
 20
192.0
 30
0.0
 11
213.25
 21
192.0
 31
0.0
  0
LINE
  5
2CA
100
AcDbEntity
  8
0
  6
Continuous
 62
   112
100
AcDbLine
 10
239.098191
 20
67.45
 30
0.0
 11
236.098191
 21
67.45
 31
0.0
  0
LINE
  5
2CB
100
AcDbEntity
  8
0
  6
Continuous
 62
   112
100
AcDbLine
 10
283.25
 20
223.5
 30
0.0
 11
283.25
 21
240.75
 31
0.0
  0
LINE
  5
2CC
100
AcDbEntity
  8
0
  6
Continuous
 62
   112
100
AcDbLine
 10
352.098191
 20
60.5
 30
0.0
 11
333.098191
 21
60.5
 31
0.0
  0
LINE
  5
2CD
100
AcDbEntity
  8
0
  6
Continuous
 62
   112
100
AcDbLine
 10
266.25
 20
223.5
 30
0.0
 11
266.25
 21
226.5
 31
0.0
  0
LINE
  5
2CE
100
AcDbEntity
  8
0
  6
Continuous
 62
   112
100
AcDbLine
 10
192.098191
 20
67.45
 30
0.0
 11
189.098191
 21
67.45
 31
0.0
  0
LINE
  5
2CF
100
AcDbEntity
  8
0
  6
Continuous
 62
   112
100
AcDbLine
 10
377.25
 20
211.5
 30
0.0
 11
377.25
 21
228.75
 31
0.0
  0
LINE
  5
2D0
100
AcDbEntity
  8
0
  6
Continuous
 62
   112
100
AcDbLine
 10
358.098191
 20
60.5
 30
0.0
 11
358.098191
 21
63.5
 31
0.0
  0
LINE
  5
2D1
100
AcDbEntity
  8
0
  6
Continuous
 62
   112
100
AcDbLine
 10
239.098191
 20
106.5
 30
0.0
 11
239.098191
 21
95.5
 31
0.0
  0
LINE
  5
2D2
100
AcDbEntity
  8
0
  6
Continuous
 62
   112
100
AcDbLine
 10
313.25
 20
258.0
 30
0.0
 11
330.25
 21
258.0
 31
0.0
  0
LINE
  5
2D3
100
AcDbEntity
  8
0
  6
Continuous
 62
   112
100
AcDbLine
 10
330.098191
 20
66.45
 30
0.0
 11
330.098191
 21
55.45
 31
0.0
  0
LINE
  5
2D4
100
AcDbEntity
  8
0
  6
Continuous
 62
   112
100
AcDbLine
 10
239.098191
 20
55.45
 30
0.0
 11
239.098191
 21
38.45
 31
0.0
  0
ARC
  5
2D5
100
AcDbEntity
  8
0
  6
Continuous
 62
   112
100
AcDbCircle
 10
339.94902
 20
249.30098
 30
0.0
 40
2.69902
100
AcDbArc
 50
-270.0
 51
-180.0
  0
LINE
  5
2D6
100
AcDbEntity
  8
0
  6
Continuous
 62
   112
100
AcDbLine
 10
335.25
 20
191.25
 30
0.0
 11
332.25
 21
191.25
 31
0.0
  0
LINE
  5
2D7
100
AcDbEntity
  8
0
  6
Continuous
 62
   112
100
AcDbLine
 10
340.0
 20
160.0
 30
0.0
 11
337.0
 21
160.0
 31
0.0
  0
LINE
  5
2D8
100
AcDbEntity
  8
0
  6
Continuous
 62
   112
100
AcDbLine
 10
236.25
 20
229.5
 30
0.0
 11
236.25
 21
246.75
 31
0.0
  0
LINE
  5
2D9
100
AcDbEntity
  8
0
  6
Continuous
 62
   112
100
AcDbLine
 10
311.098191
 20
66.5
 30
0.0
 11
311.098191
 21
69.5
 31
0.0
  0
LINE
  5
2DA
100
AcDbEntity
  8
0
  6
Continuous
 62
   112
100
AcDbLine
 10
313.25
 20
217.5
 30
0.0
 11
313.25
 21
220.5
 31
0.0
  0
LINE
  5
2DB
100
AcDbEntity
  8
0
  6
Continuous
 62
   112
100
AcDbLine
 10
330.098191
 20
83.5
 30
0.0
 11
330.098191
 21
77.5
 31
0.0
  0
LINE
  5
2DC
100
AcDbEntity
  8
0
  6
Continuous
 62
   112
100
AcDbLine
 10
241.25
 20
223.5
 30
0.0
 11
260.25
 21
223.5
 31
0.0
  0
LINE
  5
2DD
100
AcDbEntity
  8
0
  6
Continuous
 62
   112
100
AcDbLine
 10
239.098191
 20
101.5
 30
0.0
 11
236.098191
 21
101.5
 31
0.0
  0
LINE
  5
2DE
100
AcDbEntity
  8
0
  6
Continuous
 62
   112
100
AcDbLine
 10
236.098191
 20
61.45
 30
0.0
 11
236.098191
 21
55.45
 31
0.0
  0
LINE
  5
2DF
100
AcDbEntity
  8
0
  6
Continuous
 62
   112
100
AcDbLine
 10
374.5
 20
154.0
 30
0.0
 11
377.5
 21
154.0
 31
0.0
  0
LINE
  5
2E0
100
AcDbEntity
  8
0
  6
Continuous
 62
   112
100
AcDbLine
 10
286.098191
 20
143.0
 30
0.0
 11
286.098191
 21
141.4
 31
0.0
  0
LINE
  5
2E1
100
AcDbEntity
  8
0
  6
Continuous
 62
   112
100
AcDbLine
 10
264.098191
 20
38.45
 30
0.0
 11
264.098191
 21
41.45
 31
0.0
  0
LINE
  5
2E2
100
AcDbEntity
  8
0
  6
Continuous
 62
   112
100
AcDbLine
 10
192.098191
 20
153.4
 30
0.0
 11
189.098191
 21
153.4
 31
0.0
  0
LINE
  5
2E3
100
AcDbEntity
  8
0
  6
Continuous
 62
   112
100
AcDbLine
 10
213.25
 20
195.0
 30
0.0
 11
194.25
 21
195.0
 31
0.0
  0
LINE
  5
2E4
100
AcDbEntity
  8
0
  6
Continuous
 62
   112
100
AcDbLine
 10
239.098191
 20
153.4
 30
0.0
 11
236.098191
 21
153.4
 31
0.0
  0
LINE
  5
2E5
100
AcDbEntity
  8
0
  6
Continuous
 62
   112
100
AcDbLine
 10
358.098191
 20
26.45
 30
0.0
 11
377.098191
 21
26.45
 31
0.0
  0
LINE
  5
2E6
100
AcDbEntity
  8
0
  6
Continuous
 62
   112
100
AcDbLine
 10
379.25
 20
197.25
 30
0.0
 11
382.25
 21
197.25
 31
0.0
  0
CIRCLE
  5
2E7
100
AcDbEntity
  8
0
  6
Continuous
 62
   112
100
AcDbCircle
 10
246.25
 20
227.0
 30
0.0
 40
2.2
  0
LINE
  5
2E8
100
AcDbEntity
  8
0
  6
Continuous
 62
   112
100
AcDbLine
 10
290.0
 20
160.0
 30
0.0
 11
293.0
 21
160.0
 31
0.0
  0
LINE
  5
2E9
100
AcDbEntity
  8
0
  6
Continuous
 62
   112
100
AcDbLine
 10
293.0
 20
160.0
 30
0.0
 11
293.0
 21
166.0
 31
0.0
  0
LINE
  5
2EA
100
AcDbEntity
  8
0
  6
Continuous
 62
   112
100
AcDbLine
 10
337.0
 20
143.0
 30
0.0
 11
337.0
 21
154.0
 31
0.0
  0
LINE
  5
2EB
100
AcDbEntity
  8
0
  6
Continuous
 62
   112
100
AcDbLine
 10
337.0
 20
154.0
 30
0.0
 11
340.0
 21
154.0
 31
0.0
  0
LINE
  5
2EC
100
AcDbEntity
  8
0
  6
Continuous
 62
   112
100
AcDbLine
 10
305.098191
 20
69.5
 30
0.0
 11
305.098191
 21
66.5
 31
0.0
  0
LINE
  5
2ED
100
AcDbEntity
  8
0
  6
Continuous
 62
   112
100
AcDbLine
 10
280.25
 20
240.75
 30
0.0
 11
280.25
 21
246.75
 31
0.0
  0
LINE
  5
2EE
100
AcDbEntity
  8
0
  6
Continuous
 62
   112
100
AcDbLine
 10
286.098191
 20
138.4
 30
0.0
 11
286.098191
 21
102.5
 31
0.0
  0
LINE
  5
2EF
100
AcDbEntity
  8
0
  6
Continuous
 62
   112
100
AcDbLine
 10
219.25
 20
229.5
 30
0.0
 11
219.25
 21
232.5
 31
0.0
  0
LINE
  5
2F0
100
AcDbEntity
  8
0
  6
Continuous
 62
   112
100
AcDbLine
 10
239.098191
 20
149.0
 30
0.0
 11
283.098191
 21
149.0
 31
0.0
  0
LINE
  5
2F1
100
AcDbEntity
  8
0
  6
Continuous
 62
   112
100
AcDbLine
 10
354.25
 20
249.0
 30
0.0
 11
360.25
 21
249.0
 31
0.0
  0
LINE
  5
2F2
100
AcDbEntity
  8
0
  6
Continuous
 62
   112
100
AcDbLine
 10
241.25
 20
209.25
 30
0.0
 11
238.25
 21
209.25
 31
0.0
  0
LINE
  5
2F3
100
AcDbEntity
  8
0
  6
Continuous
 62
   112
100
AcDbLine
 10
288.25
 20
217.5
 30
0.0
 11
307.25
 21
217.5
 31
0.0
  0
LINE
  5
2F4
100
AcDbEntity
  8
0
  6
Continuous
 62
   112
100
AcDbLine
 10
283.5
 20
172.0
 30
0.0
 11
283.5
 21
189.0
 31
0.0
  0
LINE
  5
2F5
100
AcDbEntity
  8
0
  6
Continuous
 62
   112
100
AcDbLine
 10
360.25
 20
214.5
 30
0.0
 11
354.25
 21
214.5
 31
0.0
  0
LINE
  5
2F6
100
AcDbEntity
  8
0
  6
Continuous
 62
   112
100
AcDbLine
 10
258.098191
 20
72.5
 30
0.0
 11
264.098191
 21
72.5
 31
0.0
  0
LINE
  5
2F7
100
AcDbEntity
  8
0
  6
Continuous
 62
   112
100
AcDbLine
 10
243.0
 20
155.0
 30
0.0
 11
243.0
 21
166.0
 31
0.0
  0
LINE
  5
2F8
100
AcDbEntity
  8
0
  6
Continuous
 62
   112
100
AcDbLine
 10
335.25
 20
197.25
 30
0.0
 11
335.25
 21
211.5
 31
0.0
  0
LINE
  5
2F9
100
AcDbEntity
  8
0
  6
Continuous
 62
   112
100
AcDbLine
 10
286.098191
 20
55.45
 30
0.0
 11
286.098191
 21
61.45
 31
0.0
  0
LINE
  5
2FA
100
AcDbEntity
  8
0
  6
Continuous
 62
   112
100
AcDbLine
 10
337.25
 20
249.30098
 30
0.0
 11
337.25
 21
213.702637
 31
0.0
  0
LINE
  5
2FB
100
AcDbEntity
  8
0
  6
Continuous
 62
   112
100
AcDbLine
 10
192.098191
 20
112.5
 30
0.0
 11
192.098191
 21
101.5
 31
0.0
  0
LINE
  5
2FC
100
AcDbEntity
  8
0
  6
Continuous
 62
   112
100
AcDbLine
 10
246.0
 20
166.0
 30
0.0
 11
246.0
 21
172.0
 31
0.0
  0
LINE
  5
2FD
100
AcDbEntity
  8
0
  6
Continuous
 62
   112
100
AcDbLine
 10
313.25
 20
217.5
 30
0.0
 11
330.25
 21
217.5
 31
0.0
  0
LINE
  5
2FE
100
AcDbEntity
  8
0
  6
Continuous
 62
   112
100
AcDbLine
 10
333.098191
 20
94.5
 30
0.0
 11
333.098191
 21
83.5
 31
0.0
  0
LINE
  5
2FF
100
AcDbEntity
  8
0
  6
Continuous
 62
   112
100
AcDbLine
 10
283.25
 20
240.75
 30
0.0
 11
280.25
 21
240.75
 31
0.0
  0
LINE
  5
300
100
AcDbEntity
  8
0
  6
Continuous
 62
   112
100
AcDbLine
 10
258.098191
 20
38.45
 30
0.0
 11
239.098191
 21
38.45
 31
0.0
  0
LINE
  5
301
100
AcDbEntity
  8
0
  6
Continuous
 62
   112
100
AcDbLine
 10
330.5
 20
149.0
 30
0.0
 11
330.5
 21
160.0
 31
0.0
  0
LINE
  5
302
100
AcDbEntity
  8
0
  6
Continuous
 62
   112
100
AcDbLine
 10
377.098191
 20
132.4
 30
0.0
 11
380.098191
 21
132.4
 31
0.0
  0
LINE
  5
303
100
AcDbEntity
  8
0
  6
Continuous
 62
   112
100
AcDbLine
 10
283.098191
 20
83.5
 30
0.0
 11
286.098191
 21
83.5
 31
0.0
  0
LINE
  5
304
100
AcDbEntity
  8
0
  6
Continuous
 62
   112
100
AcDbLine
 10
290.25
 20
255.30098
 30
0.0
 11
290.25
 21
219.702637
 31
0.0
  0
LINE
  5
305
100
AcDbEntity
  8
0
  6
Continuous
 62
   112
100
AcDbLine
 10
327.25
 20
240.75
 30
0.0
 11
330.25
 21
240.75
 31
0.0
  0
LINE
  5
306
100
AcDbEntity
  8
0
  6
Continuous
 62
   112
100
AcDbLine
 10
377.098191
 20
60.45
 30
0.0
 11
377.098191
 21
49.45
 31
0.0
  0
ENDBLK
  5
307
100
AcDbEntity
  8
0
100
AcDbBlockEnd
  0
ENDSEC
  0
SECTION
  2
ENTITIES
  0
INSERT
  5
308
100
AcDbEntity
  8
0
  6
Continuous
 62
   112
100
AcDbBlockReference
  2
*B0
 10
0.0
 20
0.0
 30
0.0
  0
ENDSEC
  0
SECTION
  2
OBJECTS
  0
DICTIONARY
  5
19
100
AcDbDictionary
280
     0
281
     1
  3
ACAD_GROUP
350
1A
  3
ACAD_MLINESTYLE
350
1B
  3
ACAD_LAYOUT
350
1E
  3
ACAD_PLOTSETTINGS
350
22
  3
ACAD_PLOTSTYLENAME
350
1F
  3
ACAD_WIPEOUT_VARS
350
23
  0
DICTIONARY
  5
1A
102
{ACAD_REACTORS
330
19
102
}
100
AcDbDictionary
280
     0
281
     1
  0
DICTIONARY
  5
1B
102
{ACAD_REACTORS
330
19
102
}
100
AcDbDictionary
280
     0
281
     1
  3
Standard
350
1C
  0
MLINESTYLE
  5
1C
102
{ACAD_REACTORS
330
1B
102
}
100
AcDbMlineStyle
  2
Standard
 70
     0
  3

 62
     0
 51
90.0
 52
90.0
 71
     2
 49
0.5
 62
   256
  6
BYLAYER
 49
-0.5
 62
   256
  6
BYLAYER
  0
ACDBDICTIONARYWDFLT
  5
1F
102
{ACAD_REACTORS
330
19
102
}
100
AcDbDictionary
281
     1
  3
Normal
350
1D
100
AcDbDictionaryWithDefault
340
1D
  0
ACDBPLACEHOLDER
  5
1D
102
{ACAD_REACTORS
330
1F
102
}
  0
LAYOUT
  5
20
102
{ACAD_REACTORS
330
1E
102
}
100
AcDbPlotSettings
  1

  2

  4

  6

 40
0.0
 41
0.0
 42
0.0
 43
0.0
 44
0.0
 45
0.0
 46
0.0
 47
0.0
 48
0.0
 49
0.0
140
0.0
141
0.0
142
1.0
143
1.0
 70
     0
 72
     0
 73
     0
 74
     0
  7

 75
     0
147
1.0
148
0.0
149
0.0
100
AcDbLayout
  1
Model
 70
     0
 71
     0
 10
0.0
 20
0.0
 11
0.0
 21
0.0
 12
0.0
 22
0.0
 32
0.0
 14
0.0
 24
0.0
 34
0.0
 15
0.0
 25
0.0
 35
0.0
146
0.0
 13
0.0
 23
0.0
 33
0.0
 16
0.0
 26
0.0
 36
0.0
 17
0.0
 27
0.0
 37
0.0
 76
     0
330
A
331
0
345
0
346
0
  0
LAYOUT
  5
21
102
{ACAD_REACTORS
330
1E
102
}
100
AcDbPlotSettings
  1

  2

  4

  6

 40
0.0
 41
0.0
 42
0.0
 43
0.0
 44
0.0
 45
0.0
 46
0.0
 47
0.0
 48
0.0
 49
0.0
140
0.0
141
0.0
142
1.0
143
1.0
 70
     0
 72
     0
 73
     0
 74
     0
  7

 75
     0
147
1.0
148
0.0
149
0.0
100
AcDbLayout
  1
Layout1
 70
     0
 71
     0
 10
0.0
 20
0.0
 11
0.0
 21
0.0
 12
0.0
 22
0.0
 32
0.0
 14
0.0
 24
0.0
 34
0.0
 15
0.0
 25
0.0
 35
0.0
146
0.0
 13
0.0
 23
0.0
 33
0.0
 16
0.0
 26
0.0
 36
0.0
 17
0.0
 27
0.0
 37
0.0
 76
     0
330
B
331
0
345
0
346
0
  0
DICTIONARY
  5
1E
102
{ACAD_REACTORS
330
19
102
}
100
AcDbDictionary
280
     0
281
     1
  3
Layout1
350
21
  3
Model
350
20
  0
DICTIONARY
  5
22
102
{ACAD_REACTORS
330
19
102
}
100
AcDbDictionary
280
     0
281
     1
  0
WIPEOUTVARIABLES
  5
23
100
AcDbWipeoutVariables
 70
     1
  0
ENDSEC
  0
EOF
