  0
SECTION
  2
HEADER
  9
$ACADVER
  1
AC1014
  9
$HANDSEED
  5
FFFF
  9
$MEASUREMENT
 70
     1
  0
ENDSEC
  0
SECTION
  2
TABLES
  0
TABLE
  2
VPORT
  5
8
330
0
100
AcDbSymbolTable
 70
     4
  0
VPORT
  5
2E
330
8
100
AcDbSymbolTableRecord
100
AcDbViewportTableRecord
  2
*ACTIVE
 70
     0
 10
0.0
 20
0.0
 11
1.0
 21
1.0
 12
210.0
 22
148.5
 13
0.0
 23
0.0
 14
10.0
 24
10.0
 15
10.0
 25
10.0
 16
0.0
 26
0.0
 36
1.0
 17
0.0
 27
0.0
 37
0.0
 40
341.0
 41
1.24
 42
50.0
 43
0.0
 44
0.0
 50
0.0
 51
0.0
 71
     0
 72
   100
 73
     1
 74
     3
 75
     0
 76
     0
 77
     0
 78
     0
  0
ENDTAB
  0
TABLE
  2
LTYPE
  5
5
330
0
100
AcDbSymbolTable
 70
     1
  0
LTYPE
  5
14
330
5
100
AcDbSymbolTableRecord
100
AcDbLinetypeTableRecord
  2
BYBLOCK
 70
     0
  3

 72
    65
 73
     0
 40
0.0
  0
LTYPE
  5
15
330
5
100
AcDbSymbolTableRecord
100
AcDbLinetypeTableRecord
  2
BYLAYER
 70
     0
  3

 72
    65
 73
     0
 40
0.0
  0
LTYPE
  5
16
330
5
100
AcDbSymbolTableRecord
100
AcDbLinetypeTableRecord
  2
CONTINUOUS
 70
     0
  3
Solid line
 72
    65
 73
     0
 40
0.0
  0
ENDTAB
  0
TABLE
  2
LAYER
  5
2
100
AcDbSymbolTable
 70
1
  0
LAYER
  5
50
100
AcDbSymbolTableRecord
100
AcDbLayerTableRecord
  2
0
 70
0
  6
CONTINUOUS
  0
ENDTAB
  0
TABLE
  2
STYLE
  5
3
330
0
100
AcDbSymbolTable
 70
     1
  0
STYLE
  5
11
330
3
100
AcDbSymbolTableRecord
100
AcDbTextStyleTableRecord
  2
STANDARD
 70
     0
 40
0.0
 41
1.0
 50
0.0
 71
     0
 42
2.5
  3
txt
  4

  0
ENDTAB
  0
TABLE
  2
VIEW
  5
6
330
0
100
AcDbSymbolTable
 70
     0
  0
ENDTAB
  0
TABLE
  2
UCS
  5
7
330
0
100
AcDbSymbolTable
 70
     0
  0
ENDTAB
  0
TABLE
  2
APPID
  5
9
330
0
100
AcDbSymbolTable
 70
     2
  0
APPID
  5
12
330
9
100
AcDbSymbolTableRecord
100
AcDbRegAppTableRecord
  2
ACAD
 70
     0
  0
ENDTAB
  0
TABLE
  2
DIMSTYLE
  5
A
330
0
100
AcDbSymbolTable
 70
     1
  0
DIMSTYLE
105
27
330
A
100
AcDbSymbolTableRecord
100
AcDbDimStyleTableRecord
  2
ISO-25
 70
     0
  3

  4

  5

  6

  7

 40
1.0
 41
2.5
 42
0.625
 43
3.75
 44
1.25
 45
0.0
 46
0.0
 47
0.0
 48
0.0
140
2.5
141
2.5
142
0.0
143
0.03937007874016
144
1.0
145
0.0
146
1.0
147
0.625
 71
     0
 72
     0
 73
     0
 74
     0
 75
     0
 76
     0
 77
     1
 78
     8
170
     0
171
     3
172
     1
173
     0
174
     0
175
     0
176
     0
177
     0
178
     0
270
     2
271
     2
272
     2
273
     2
274
     3
340
11
275
     0
280
     0
281
     0
282
     0
283
     0
284
     8
285
     0
286
     0
287
     3
288
     0
  0
ENDTAB
  0
TABLE
  2
BLOCK_RECORD
  5
1
330
0
100
AcDbSymbolTable
 70
     1
  0
BLOCK_RECORD
  5
1F
330
1
100
AcDbSymbolTableRecord
100
AcDbBlockTableRecord
  2
*MODEL_SPACE
  0
BLOCK_RECORD
  5
1B
330
1
100
AcDbSymbolTableRecord
100
AcDbBlockTableRecord
  2
*PAPER_SPACE
  0
ENDTAB
  0
ENDSEC
  0
SECTION
  2
BLOCKS
  0
BLOCK
  5
20
330
1F
100
AcDbEntity
  8
0
100
AcDbBlockBegin
  2
*MODEL_SPACE
 70
     0
 10
0.0
 20
0.0
 30
0.0
  3
*MODEL_SPACE
  1

  0
ENDBLK
  5
21
330
1F
100
AcDbEntity
  8
0
100
AcDbBlockEnd
  0
BLOCK
  5
1C
330
1B
100
AcDbEntity
 67
     1
  8
0
100
AcDbBlockBegin
  2
*PAPER_SPACE
  1

  0
ENDBLK
  5
1D
330
1B
100
AcDbEntity
 67
     1
  8
0
100
AcDbBlockEnd
  0
ENDSEC
  0
SECTION
  2
ENTITIES
  0
LWPOLYLINE
  5
100
100
AcDbEntity
  8
0
 62
7
100
AcDbPolyline
 90
7
 70
1
 10
12.328342
 20
24.676963
 30
0.0
 10
12.228342
 20
24.676963
 30
0.0
 10
12.228342
 20
26.200000
 30
0.0
 10
10.179012
 20
26.200000
 30
0.0
 10
10.179012
 20
26.300000
 30
0.0
 10
12.328342
 20
26.300000
 30
0.0
 10
12.328342
 20
24.676963
 30
0.0
  0
LWPOLYLINE
  5
101
100
AcDbEntity
  8
0
 62
7
100
AcDbPolyline
 90
7
 70
1
 10
21.569858
 20
24.676963
 30
0.0
 10
21.469858
 20
24.676963
 30
0.0
 10
21.469858
 20
26.200000
 30
0.0
 10
19.420528
 20
26.200000
 30
0.0
 10
19.420528
 20
26.300000
 30
0.0
 10
21.569858
 20
26.300000
 30
0.0
 10
21.569858
 20
24.676963
 30
0.0
  0
LWPOLYLINE
  5
102
100
AcDbEntity
  8
0
 62
7
100
AcDbPolyline
 90
7
 70
1
 10
27.960705
 20
26.200000
 30
0.0
 10
25.911375
 20
26.200000
 30
0.0
 10
25.911375
 20
24.676963
 30
0.0
 10
25.811375
 20
24.676963
 30
0.0
 10
25.811375
 20
26.300000
 30
0.0
 10
27.960705
 20
26.300000
 30
0.0
 10
27.960705
 20
26.200000
 30
0.0
  0
LWPOLYLINE
  5
103
100
AcDbEntity
  8
0
 62
7
100
AcDbPolyline
 90
7
 70
1
 10
30.811375
 20
24.676963
 30
0.0
 10
30.711375
 20
24.676963
 30
0.0
 10
30.711375
 20
26.200000
 30
0.0
 10
28.662045
 20
26.200000
 30
0.0
 10
28.662045
 20
26.300000
 30
0.0
 10
30.811375
 20
26.300000
 30
0.0
 10
30.811375
 20
24.676963
 30
0.0
  0
LWPOLYLINE
  5
104
100
AcDbEntity
  8
0
 62
7
100
AcDbPolyline
 90
7
 70
1
 10
-33.879242
 20
24.676963
 30
0.0
 10
-33.979242
 20
24.676963
 30
0.0
 10
-33.979242
 20
26.200000
 30
0.0
 10
-36.028572
 20
26.200000
 30
0.0
 10
-36.028572
 20
26.300000
 30
0.0
 10
-33.879242
 20
26.300000
 30
0.0
 10
-33.879242
 20
24.676963
 30
0.0
  0
LWPOLYLINE
  5
105
100
AcDbEntity
  8
0
 62
7
100
AcDbPolyline
 90
7
 70
1
 10
-36.729912
 20
26.200000
 30
0.0
 10
-38.779242
 20
26.200000
 30
0.0
 10
-38.779242
 20
24.676963
 30
0.0
 10
-38.879242
 20
24.676963
 30
0.0
 10
-38.879242
 20
26.300000
 30
0.0
 10
-36.729912
 20
26.300000
 30
0.0
 10
-36.729912
 20
26.200000
 30
0.0
  0
LWPOLYLINE
  5
106
100
AcDbEntity
  8
0
 62
7
100
AcDbPolyline
 90
7
 70
1
 10
-18.246878
 20
26.200000
 30
0.0
 10
-20.296208
 20
26.200000
 30
0.0
 10
-20.296208
 20
24.676963
 30
0.0
 10
-20.396208
 20
24.676963
 30
0.0
 10
-20.396208
 20
26.300000
 30
0.0
 10
-18.246878
 20
26.300000
 30
0.0
 10
-18.246878
 20
26.200000
 30
0.0
  0
LWPOLYLINE
  5
107
100
AcDbEntity
  8
0
 62
7
100
AcDbPolyline
 90
7
 70
1
 10
0.236155
 20
26.200000
 30
0.0
 10
-1.813175
 20
26.200000
 30
0.0
 10
-1.813175
 20
24.676963
 30
0.0
 10
-1.913175
 20
24.676963
 30
0.0
 10
-1.913175
 20
26.300000
 30
0.0
 10
0.236155
 20
26.300000
 30
0.0
 10
0.236155
 20
26.200000
 30
0.0
  0
LWPOLYLINE
  5
108
100
AcDbEntity
  8
0
 62
7
100
AcDbPolyline
 90
7
 70
1
 10
-24.637725
 20
24.676963
 30
0.0
 10
-24.737725
 20
24.676963
 30
0.0
 10
-24.737725
 20
26.200000
 30
0.0
 10
-26.787055
 20
26.200000
 30
0.0
 10
-26.787055
 20
26.300000
 30
0.0
 10
-24.637725
 20
26.300000
 30
0.0
 10
-24.637725
 20
24.676963
 30
0.0
  0
LWPOLYLINE
  5
109
100
AcDbEntity
  8
0
 62
7
100
AcDbPolyline
 90
7
 70
1
 10
3.086825
 20
24.676963
 30
0.0
 10
2.986825
 20
24.676963
 30
0.0
 10
2.986825
 20
26.200000
 30
0.0
 10
0.937495
 20
26.200000
 30
0.0
 10
0.937495
 20
26.300000
 30
0.0
 10
3.086825
 20
26.300000
 30
0.0
 10
3.086825
 20
24.676963
 30
0.0
  0
LWPOLYLINE
  5
10a
100
AcDbEntity
  8
0
 62
7
100
AcDbPolyline
 90
7
 70
1
 10
18.719188
 20
26.200000
 30
0.0
 10
16.669858
 20
26.200000
 30
0.0
 10
16.669858
 20
24.676963
 30
0.0
 10
16.569858
 20
24.676963
 30
0.0
 10
16.569858
 20
26.300000
 30
0.0
 10
18.719188
 20
26.300000
 30
0.0
 10
18.719188
 20
26.200000
 30
0.0
  0
LWPOLYLINE
  5
10b
100
AcDbEntity
  8
0
 62
7
100
AcDbPolyline
 90
7
 70
1
 10
-6.154692
 20
24.676963
 30
0.0
 10
-6.254692
 20
24.676963
 30
0.0
 10
-6.254692
 20
26.200000
 30
0.0
 10
-8.304022
 20
26.200000
 30
0.0
 10
-8.304022
 20
26.300000
 30
0.0
 10
-6.154692
 20
26.300000
 30
0.0
 10
-6.154692
 20
24.676963
 30
0.0
  0
LWPOLYLINE
  5
10c
100
AcDbEntity
  8
0
 62
7
100
AcDbPolyline
 90
7
 70
1
 10
-15.396208
 20
24.676963
 30
0.0
 10
-15.496208
 20
24.676963
 30
0.0
 10
-15.496208
 20
26.200000
 30
0.0
 10
-17.545538
 20
26.200000
 30
0.0
 10
-17.545538
 20
26.300000
 30
0.0
 10
-15.396208
 20
26.300000
 30
0.0
 10
-15.396208
 20
24.676963
 30
0.0
  0
LWPOLYLINE
  5
10d
100
AcDbEntity
  8
0
 62
7
100
AcDbPolyline
 90
7
 70
1
 10
-27.488395
 20
26.200000
 30
0.0
 10
-29.537725
 20
26.200000
 30
0.0
 10
-29.537725
 20
24.676963
 30
0.0
 10
-29.637725
 20
24.676963
 30
0.0
 10
-29.637725
 20
26.300000
 30
0.0
 10
-27.488395
 20
26.300000
 30
0.0
 10
-27.488395
 20
26.200000
 30
0.0
  0
LWPOLYLINE
  5
10e
100
AcDbEntity
  8
0
 62
7
100
AcDbPolyline
 90
7
 70
1
 10
-9.005362
 20
26.200000
 30
0.0
 10
-11.054692
 20
26.200000
 30
0.0
 10
-11.054692
 20
24.676963
 30
0.0
 10
-11.154692
 20
24.676963
 30
0.0
 10
-11.154692
 20
26.300000
 30
0.0
 10
-9.005362
 20
26.300000
 30
0.0
 10
-9.005362
 20
26.200000
 30
0.0
  0
LWPOLYLINE
  5
10f
100
AcDbEntity
  8
0
 62
7
100
AcDbPolyline
 90
7
 70
1
 10
9.477672
 20
26.200000
 30
0.0
 10
7.428342
 20
26.200000
 30
0.0
 10
7.428342
 20
24.676963
 30
0.0
 10
7.328342
 20
24.676963
 30
0.0
 10
7.328342
 20
26.300000
 30
0.0
 10
9.477672
 20
26.300000
 30
0.0
 10
9.477672
 20
26.200000
 30
0.0
  0
LWPOLYLINE
  5
110
100
AcDbEntity
  8
0
 62
7
100
AcDbPolyline
 90
299
 70
1
 10
31.432133
 20
21.300000
 30
0.0
 10
31.432133
 20
20.900000
 30
0.0
 10
32.932133
 20
20.900000
 30
0.0
 10
32.932133
 20
23.000000
 30
0.0
 10
34.432133
 20
23.000000
 30
0.0
 10
34.432133
 20
27.000000
 30
0.0
 10
32.932133
 20
27.000000
 30
0.0
 10
32.932133
 20
29.300000
 30
0.0
 10
31.691881
 20
29.300000
 30
0.0
 10
31.691881
 20
28.300000
 30
0.0
 10
31.391881
 20
28.300000
 30
0.0
 10
31.391881
 20
29.300000
 30
0.0
 10
30.151628
 20
29.300000
 30
0.0
 10
30.151628
 20
28.300000
 30
0.0
 10
29.851628
 20
28.300000
 30
0.0
 10
29.851628
 20
29.300000
 30
0.0
 10
28.611375
 20
29.300000
 30
0.0
 10
28.611375
 20
28.300000
 30
0.0
 10
28.311375
 20
28.300000
 30
0.0
 10
28.311375
 20
29.300000
 30
0.0
 10
27.071122
 20
29.300000
 30
0.0
 10
27.071122
 20
28.300000
 30
0.0
 10
26.771122
 20
28.300000
 30
0.0
 10
26.771122
 20
29.300000
 30
0.0
 10
25.530869
 20
29.300000
 30
0.0
 10
25.530869
 20
28.300000
 30
0.0
 10
25.230869
 20
28.300000
 30
0.0
 10
25.230869
 20
29.300000
 30
0.0
 10
23.990617
 20
29.300000
 30
0.0
 10
23.990617
 20
28.300000
 30
0.0
 10
23.690617
 20
28.300000
 30
0.0
 10
23.690617
 20
29.300000
 30
0.0
 10
22.450364
 20
29.300000
 30
0.0
 10
22.450364
 20
28.300000
 30
0.0
 10
22.150364
 20
28.300000
 30
0.0
 10
22.150364
 20
29.300000
 30
0.0
 10
20.910111
 20
29.300000
 30
0.0
 10
20.910111
 20
28.300000
 30
0.0
 10
20.610111
 20
28.300000
 30
0.0
 10
20.610111
 20
29.300000
 30
0.0
 10
19.369858
 20
29.300000
 30
0.0
 10
19.369858
 20
28.300000
 30
0.0
 10
19.069858
 20
28.300000
 30
0.0
 10
19.069858
 20
29.300000
 30
0.0
 10
17.829606
 20
29.300000
 30
0.0
 10
17.829606
 20
28.300000
 30
0.0
 10
17.529606
 20
28.300000
 30
0.0
 10
17.529606
 20
29.300000
 30
0.0
 10
16.289353
 20
29.300000
 30
0.0
 10
16.289353
 20
28.300000
 30
0.0
 10
15.989353
 20
28.300000
 30
0.0
 10
15.989353
 20
29.300000
 30
0.0
 10
14.749100
 20
29.300000
 30
0.0
 10
14.749100
 20
28.300000
 30
0.0
 10
14.449100
 20
28.300000
 30
0.0
 10
14.449100
 20
29.300000
 30
0.0
 10
13.208847
 20
29.300000
 30
0.0
 10
13.208847
 20
28.300000
 30
0.0
 10
12.908847
 20
28.300000
 30
0.0
 10
12.908847
 20
29.300000
 30
0.0
 10
11.668594
 20
29.300000
 30
0.0
 10
11.668594
 20
28.300000
 30
0.0
 10
11.368594
 20
28.300000
 30
0.0
 10
11.368594
 20
29.300000
 30
0.0
 10
10.128342
 20
29.300000
 30
0.0
 10
10.128342
 20
28.300000
 30
0.0
 10
9.828342
 20
28.300000
 30
0.0
 10
9.828342
 20
29.300000
 30
0.0
 10
8.588089
 20
29.300000
 30
0.0
 10
8.588089
 20
28.300000
 30
0.0
 10
8.288089
 20
28.300000
 30
0.0
 10
8.288089
 20
29.300000
 30
0.0
 10
7.047836
 20
29.300000
 30
0.0
 10
7.047836
 20
28.300000
 30
0.0
 10
6.747836
 20
28.300000
 30
0.0
 10
6.747836
 20
29.300000
 30
0.0
 10
5.507583
 20
29.300000
 30
0.0
 10
5.507583
 20
28.300000
 30
0.0
 10
5.207583
 20
28.300000
 30
0.0
 10
5.207583
 20
29.300000
 30
0.0
 10
3.967331
 20
29.300000
 30
0.0
 10
3.967331
 20
28.300000
 30
0.0
 10
3.667331
 20
28.300000
 30
0.0
 10
3.667331
 20
29.300000
 30
0.0
 10
2.427078
 20
29.300000
 30
0.0
 10
2.427078
 20
28.300000
 30
0.0
 10
2.127078
 20
28.300000
 30
0.0
 10
2.127078
 20
29.300000
 30
0.0
 10
0.886825
 20
29.300000
 30
0.0
 10
0.886825
 20
28.300000
 30
0.0
 10
0.586825
 20
28.300000
 30
0.0
 10
0.586825
 20
29.300000
 30
0.0
 10
-0.653428
 20
29.300000
 30
0.0
 10
-0.653428
 20
28.300000
 30
0.0
 10
-0.953428
 20
28.300000
 30
0.0
 10
-0.953428
 20
29.300000
 30
0.0
 10
-2.193681
 20
29.300000
 30
0.0
 10
-2.193681
 20
28.300000
 30
0.0
 10
-2.493681
 20
28.300000
 30
0.0
 10
-2.493681
 20
29.300000
 30
0.0
 10
-3.733933
 20
29.300000
 30
0.0
 10
-3.733933
 20
28.300000
 30
0.0
 10
-4.033933
 20
28.300000
 30
0.0
 10
-4.033933
 20
29.300000
 30
0.0
 10
-5.274186
 20
29.300000
 30
0.0
 10
-5.274186
 20
28.300000
 30
0.0
 10
-5.574186
 20
28.300000
 30
0.0
 10
-5.574186
 20
29.300000
 30
0.0
 10
-6.814439
 20
29.300000
 30
0.0
 10
-6.814439
 20
28.300000
 30
0.0
 10
-7.114439
 20
28.300000
 30
0.0
 10
-7.114439
 20
29.300000
 30
0.0
 10
-8.354692
 20
29.300000
 30
0.0
 10
-8.354692
 20
28.300000
 30
0.0
 10
-8.654692
 20
28.300000
 30
0.0
 10
-8.654692
 20
29.300000
 30
0.0
 10
-9.894944
 20
29.300000
 30
0.0
 10
-9.894944
 20
28.300000
 30
0.0
 10
-10.194944
 20
28.300000
 30
0.0
 10
-10.194944
 20
29.300000
 30
0.0
 10
-11.435197
 20
29.300000
 30
0.0
 10
-11.435197
 20
28.300000
 30
0.0
 10
-11.735197
 20
28.300000
 30
0.0
 10
-11.735197
 20
29.300000
 30
0.0
 10
-12.975450
 20
29.300000
 30
0.0
 10
-12.975450
 20
28.300000
 30
0.0
 10
-13.275450
 20
28.300000
 30
0.0
 10
-13.275450
 20
29.300000
 30
0.0
 10
-14.515703
 20
29.300000
 30
0.0
 10
-14.515703
 20
28.300000
 30
0.0
 10
-14.815703
 20
28.300000
 30
0.0
 10
-14.815703
 20
29.300000
 30
0.0
 10
-16.055956
 20
29.300000
 30
0.0
 10
-16.055956
 20
28.300000
 30
0.0
 10
-16.355956
 20
28.300000
 30
0.0
 10
-16.355956
 20
29.300000
 30
0.0
 10
-17.596208
 20
29.300000
 30
0.0
 10
-17.596208
 20
28.300000
 30
0.0
 10
-17.896208
 20
28.300000
 30
0.0
 10
-17.896208
 20
29.300000
 30
0.0
 10
-19.136461
 20
29.300000
 30
0.0
 10
-19.136461
 20
28.300000
 30
0.0
 10
-19.436461
 20
28.300000
 30
0.0
 10
-19.436461
 20
29.300000
 30
0.0
 10
-20.676714
 20
29.300000
 30
0.0
 10
-20.676714
 20
28.300000
 30
0.0
 10
-20.976714
 20
28.300000
 30
0.0
 10
-20.976714
 20
29.300000
 30
0.0
 10
-22.216967
 20
29.300000
 30
0.0
 10
-22.216967
 20
28.300000
 30
0.0
 10
-22.516967
 20
28.300000
 30
0.0
 10
-22.516967
 20
29.300000
 30
0.0
 10
-23.757219
 20
29.300000
 30
0.0
 10
-23.757219
 20
28.300000
 30
0.0
 10
-24.057219
 20
28.300000
 30
0.0
 10
-24.057219
 20
29.300000
 30
0.0
 10
-25.297472
 20
29.300000
 30
0.0
 10
-25.297472
 20
28.300000
 30
0.0
 10
-25.597472
 20
28.300000
 30
0.0
 10
-25.597472
 20
29.300000
 30
0.0
 10
-26.837725
 20
29.300000
 30
0.0
 10
-26.837725
 20
28.300000
 30
0.0
 10
-27.137725
 20
28.300000
 30
0.0
 10
-27.137725
 20
29.300000
 30
0.0
 10
-28.377978
 20
29.300000
 30
0.0
 10
-28.377978
 20
28.300000
 30
0.0
 10
-28.677978
 20
28.300000
 30
0.0
 10
-28.677978
 20
29.300000
 30
0.0
 10
-29.918231
 20
29.300000
 30
0.0
 10
-29.918231
 20
28.300000
 30
0.0
 10
-30.218231
 20
28.300000
 30
0.0
 10
-30.218231
 20
29.300000
 30
0.0
 10
-31.458483
 20
29.300000
 30
0.0
 10
-31.458483
 20
28.300000
 30
0.0
 10
-31.758483
 20
28.300000
 30
0.0
 10
-31.758483
 20
29.300000
 30
0.0
 10
-32.998736
 20
29.300000
 30
0.0
 10
-32.998736
 20
28.300000
 30
0.0
 10
-33.298736
 20
28.300000
 30
0.0
 10
-33.298736
 20
29.300000
 30
0.0
 10
-34.538989
 20
29.300000
 30
0.0
 10
-34.538989
 20
28.300000
 30
0.0
 10
-34.838989
 20
28.300000
 30
0.0
 10
-34.838989
 20
29.300000
 30
0.0
 10
-36.079242
 20
29.300000
 30
0.0
 10
-36.079242
 20
28.300000
 30
0.0
 10
-36.379242
 20
28.300000
 30
0.0
 10
-36.379242
 20
29.300000
 30
0.0
 10
-37.619494
 20
29.300000
 30
0.0
 10
-37.619494
 20
28.300000
 30
0.0
 10
-37.919494
 20
28.300000
 30
0.0
 10
-37.919494
 20
29.300000
 30
0.0
 10
-39.159747
 20
29.300000
 30
0.0
 10
-39.159747
 20
28.300000
 30
0.0
 10
-39.459747
 20
28.300000
 30
0.0
 10
-39.459747
 20
29.300000
 30
0.0
 10
-40.700000
 20
29.300000
 30
0.0
 10
-40.700000
 20
28.300000
 30
0.0
 10
-41.000000
 20
28.300000
 30
0.0
 10
-41.000000
 20
27.000000
 30
0.0
 10
-39.500000
 20
27.000000
 30
0.0
 10
-39.500000
 20
23.000000
 30
0.0
 10
-41.000000
 20
23.000000
 30
0.0
 10
-41.000000
 20
20.900000
 30
0.0
 10
-39.500000
 20
20.900000
 30
0.0
 10
-39.500000
 20
21.300000
 30
0.0
 10
-38.879242
 20
21.300000
 30
0.0
 10
-38.879242
 20
24.158102
 30
0.0
 10
-38.779242
 20
24.158102
 30
0.0
 10
-38.779242
 20
21.300000
 30
0.0
 10
-33.979242
 20
21.300000
 30
0.0
 10
-33.979242
 20
24.158102
 30
0.0
 10
-33.879242
 20
24.158102
 30
0.0
 10
-33.879242
 20
21.300000
 30
0.0
 10
-33.258483
 20
21.300000
 30
0.0
 10
-33.258483
 20
20.900000
 30
0.0
 10
-30.258483
 20
20.900000
 30
0.0
 10
-30.258483
 20
21.300000
 30
0.0
 10
-29.637725
 20
21.300000
 30
0.0
 10
-29.637725
 20
24.158102
 30
0.0
 10
-29.537725
 20
24.158102
 30
0.0
 10
-29.537725
 20
21.300000
 30
0.0
 10
-24.737725
 20
21.300000
 30
0.0
 10
-24.737725
 20
24.158102
 30
0.0
 10
-24.637725
 20
24.158102
 30
0.0
 10
-24.637725
 20
21.300000
 30
0.0
 10
-24.016967
 20
21.300000
 30
0.0
 10
-24.016967
 20
20.900000
 30
0.0
 10
-21.016967
 20
20.900000
 30
0.0
 10
-21.016967
 20
21.300000
 30
0.0
 10
-20.396208
 20
21.300000
 30
0.0
 10
-20.396208
 20
24.158102
 30
0.0
 10
-20.296208
 20
24.158102
 30
0.0
 10
-20.296208
 20
21.300000
 30
0.0
 10
-15.496208
 20
21.300000
 30
0.0
 10
-15.496208
 20
24.158102
 30
0.0
 10
-15.396208
 20
24.158102
 30
0.0
 10
-15.396208
 20
21.300000
 30
0.0
 10
-14.775450
 20
21.300000
 30
0.0
 10
-14.775450
 20
20.900000
 30
0.0
 10
-11.775450
 20
20.900000
 30
0.0
 10
-11.775450
 20
21.300000
 30
0.0
 10
-11.154692
 20
21.300000
 30
0.0
 10
-11.154692
 20
24.158102
 30
0.0
 10
-11.054692
 20
24.158102
 30
0.0
 10
-11.054692
 20
21.300000
 30
0.0
 10
-6.254692
 20
21.300000
 30
0.0
 10
-6.254692
 20
24.158102
 30
0.0
 10
-6.154692
 20
24.158102
 30
0.0
 10
-6.154692
 20
21.300000
 30
0.0
 10
-5.533933
 20
21.300000
 30
0.0
 10
-5.533933
 20
20.900000
 30
0.0
 10
-2.533933
 20
20.900000
 30
0.0
 10
-2.533933
 20
21.300000
 30
0.0
 10
-1.913175
 20
21.300000
 30
0.0
 10
-1.913175
 20
24.158102
 30
0.0
 10
-1.813175
 20
24.158102
 30
0.0
 10
-1.813175
 20
21.300000
 30
0.0
 10
2.986825
 20
21.300000
 30
0.0
 10
2.986825
 20
24.158102
 30
0.0
 10
3.086825
 20
24.158102
 30
0.0
 10
3.086825
 20
21.300000
 30
0.0
 10
3.707583
 20
21.300000
 30
0.0
 10
3.707583
 20
20.900000
 30
0.0
 10
6.707583
 20
20.900000
 30
0.0
 10
6.707583
 20
21.300000
 30
0.0
 10
7.328342
 20
21.300000
 30
0.0
 10
7.328342
 20
24.158102
 30
0.0
 10
7.428342
 20
24.158102
 30
0.0
 10
7.428342
 20
21.300000
 30
0.0
 10
12.228342
 20
21.300000
 30
0.0
 10
12.228342
 20
24.158102
 30
0.0
 10
12.328342
 20
24.158102
 30
0.0
 10
12.328342
 20
21.300000
 30
0.0
 10
12.949100
 20
21.300000
 30
0.0
 10
12.949100
 20
20.900000
 30
0.0
 10
15.949100
 20
20.900000
 30
0.0
 10
15.949100
 20
21.300000
 30
0.0
 10
16.569858
 20
21.300000
 30
0.0
 10
16.569858
 20
24.158102
 30
0.0
 10
16.669858
 20
24.158102
 30
0.0
 10
16.669858
 20
21.300000
 30
0.0
 10
21.469858
 20
21.300000
 30
0.0
 10
21.469858
 20
24.158102
 30
0.0
 10
21.569858
 20
24.158102
 30
0.0
 10
21.569858
 20
21.300000
 30
0.0
 10
22.190617
 20
21.300000
 30
0.0
 10
22.190617
 20
20.900000
 30
0.0
 10
25.190617
 20
20.900000
 30
0.0
 10
25.190617
 20
21.300000
 30
0.0
 10
25.811375
 20
21.300000
 30
0.0
 10
25.811375
 20
24.158102
 30
0.0
 10
25.911375
 20
24.158102
 30
0.0
 10
25.911375
 20
21.300000
 30
0.0
 10
30.711375
 20
21.300000
 30
0.0
 10
30.711375
 20
24.158102
 30
0.0
 10
30.811375
 20
24.158102
 30
0.0
 10
30.811375
 20
21.300000
 30
0.0
 10
31.432133
 20
21.300000
 30
0.0
  0
ENDSEC
  0
SECTION
  2
OBJECTS
  0
DICTIONARY
  5
C
330
0
100
AcDbDictionary
  3
ACAD_GROUP
350
D
  3
ACAD_MLINESTYLE
350
17
  0
DICTIONARY
  5
D
330
C
100
AcDbDictionary
  0
DICTIONARY
  5
1A
330
C
100
AcDbDictionary
  0
DICTIONARY
  5
17
330
C
100
AcDbDictionary
  3
STANDARD
350
18
  0
DICTIONARY
  5
19
330
C
100
AcDbDictionary
  0
ENDSEC
  0
EOF
