ISO-10303-21;
HEADER;
/* Generated by software containing ST-Developer
 * from STEP Tools, Inc. (www.steptools.com) 
 */

FILE_DESCRIPTION(
/* description */ (''),
/* implementation_level */ '2;1');

FILE_NAME(
/* name */ 
'C:\\Users\\Mark\\Desktop\\Inventor Projects\\Burr_Puzzle\\Part1.stp',
/* time_stamp */ '2018-12-15T12:18:38-05:00',
/* author */ ('Mark'),
/* organization */ (''),
/* preprocessor_version */ 'ST-DEVELOPER v16.1',
/* originating_system */ 'Autodesk Inventor 2016',
/* authorisation */ '');

FILE_SCHEMA (('AUTOMOTIVE_DESIGN { 1 0 10303 214 3 1 1 }'));
ENDSEC;

DATA;
#10=MECHANICAL_DESIGN_GEOMETRIC_PRESENTATION_REPRESENTATION('',(#13),#569);
#11=SHAPE_REPRESENTATION_RELATIONSHIP('SRR','None',#581,#12);
#12=ADVANCED_BREP_SHAPE_REPRESENTATION('',(#14),#568);
#13=STYLED_ITEM('',(#590),#14);
#14=MANIFOLD_SOLID_BREP('Solid1',#345);
#15=PLANE('',#355);
#16=PLANE('',#356);
#17=PLANE('',#357);
#18=PLANE('',#366);
#19=PLANE('',#367);
#20=PLANE('',#368);
#21=PLANE('',#369);
#22=PLANE('',#370);
#23=PLANE('',#371);
#24=PLANE('',#372);
#25=PLANE('',#373);
#26=PLANE('',#374);
#27=FACE_OUTER_BOUND('',#47,.T.);
#28=FACE_OUTER_BOUND('',#48,.T.);
#29=FACE_OUTER_BOUND('',#49,.T.);
#30=FACE_OUTER_BOUND('',#50,.T.);
#31=FACE_OUTER_BOUND('',#51,.T.);
#32=FACE_OUTER_BOUND('',#52,.T.);
#33=FACE_OUTER_BOUND('',#53,.T.);
#34=FACE_OUTER_BOUND('',#54,.T.);
#35=FACE_OUTER_BOUND('',#55,.T.);
#36=FACE_OUTER_BOUND('',#56,.T.);
#37=FACE_OUTER_BOUND('',#57,.T.);
#38=FACE_OUTER_BOUND('',#58,.T.);
#39=FACE_OUTER_BOUND('',#59,.T.);
#40=FACE_OUTER_BOUND('',#60,.T.);
#41=FACE_OUTER_BOUND('',#61,.T.);
#42=FACE_OUTER_BOUND('',#62,.T.);
#43=FACE_OUTER_BOUND('',#63,.T.);
#44=FACE_OUTER_BOUND('',#64,.T.);
#45=FACE_OUTER_BOUND('',#65,.T.);
#46=FACE_OUTER_BOUND('',#66,.T.);
#47=EDGE_LOOP('',(#225,#226,#227,#228));
#48=EDGE_LOOP('',(#229,#230,#231,#232));
#49=EDGE_LOOP('',(#233,#234,#235,#236));
#50=EDGE_LOOP('',(#237,#238,#239,#240));
#51=EDGE_LOOP('',(#241,#242,#243,#244));
#52=EDGE_LOOP('',(#245,#246,#247,#248,#249,#250,#251,#252));
#53=EDGE_LOOP('',(#253,#254,#255,#256));
#54=EDGE_LOOP('',(#257,#258,#259,#260));
#55=EDGE_LOOP('',(#261,#262,#263,#264));
#56=EDGE_LOOP('',(#265,#266,#267,#268));
#57=EDGE_LOOP('',(#269,#270,#271,#272));
#58=EDGE_LOOP('',(#273,#274,#275,#276,#277,#278,#279,#280));
#59=EDGE_LOOP('',(#281,#282,#283,#284));
#60=EDGE_LOOP('',(#285,#286,#287,#288));
#61=EDGE_LOOP('',(#289,#290,#291,#292));
#62=EDGE_LOOP('',(#293,#294,#295,#296));
#63=EDGE_LOOP('',(#297,#298,#299,#300,#301,#302));
#64=EDGE_LOOP('',(#303,#304,#305,#306,#307,#308));
#65=EDGE_LOOP('',(#309,#310,#311,#312));
#66=EDGE_LOOP('',(#313,#314,#315,#316));
#67=ELLIPSE('',#348,0.265165042944955,0.1875);
#68=ELLIPSE('',#349,0.265165042944955,0.1875);
#69=ELLIPSE('',#351,0.265165042944955,0.1875);
#70=ELLIPSE('',#353,0.265165042944955,0.1875);
#71=ELLIPSE('',#359,0.265165042944955,0.1875);
#72=ELLIPSE('',#360,0.265165042944955,0.1875);
#73=ELLIPSE('',#362,0.265165042944955,0.1875);
#74=ELLIPSE('',#364,0.265165042944955,0.1875);
#75=LINE('',#475,#113);
#76=LINE('',#479,#114);
#77=LINE('',#483,#115);
#78=LINE('',#485,#116);
#79=LINE('',#489,#117);
#80=LINE('',#491,#118);
#81=LINE('',#494,#119);
#82=LINE('',#495,#120);
#83=LINE('',#498,#121);
#84=LINE('',#500,#122);
#85=LINE('',#501,#123);
#86=LINE('',#504,#124);
#87=LINE('',#506,#125);
#88=LINE('',#508,#126);
#89=LINE('',#510,#127);
#90=LINE('',#512,#128);
#91=LINE('',#513,#129);
#92=LINE('',#518,#130);
#93=LINE('',#523,#131);
#94=LINE('',#526,#132);
#95=LINE('',#529,#133);
#96=LINE('',#532,#134);
#97=LINE('',#534,#135);
#98=LINE('',#535,#136);
#99=LINE('',#538,#137);
#100=LINE('',#540,#138);
#101=LINE('',#542,#139);
#102=LINE('',#544,#140);
#103=LINE('',#545,#141);
#104=LINE('',#549,#142);
#105=LINE('',#551,#143);
#106=LINE('',#552,#144);
#107=LINE('',#554,#145);
#108=LINE('',#555,#146);
#109=LINE('',#558,#147);
#110=LINE('',#559,#148);
#111=LINE('',#561,#149);
#112=LINE('',#563,#150);
#113=VECTOR('',#379,0.375);
#114=VECTOR('',#382,0.75);
#115=VECTOR('',#387,0.75);
#116=VECTOR('',#388,0.375);
#117=VECTOR('',#393,0.75);
#118=VECTOR('',#394,0.375);
#119=VECTOR('',#399,0.75);
#120=VECTOR('',#400,0.375);
#121=VECTOR('',#403,0.5625);
#122=VECTOR('',#404,0.75);
#123=VECTOR('',#405,0.5625);
#124=VECTOR('',#408,1.875);
#125=VECTOR('',#409,0.75);
#126=VECTOR('',#410,0.5625);
#127=VECTOR('',#411,0.375);
#128=VECTOR('',#412,0.75);
#129=VECTOR('',#413,0.375);
#130=VECTOR('',#418,0.375);
#131=VECTOR('',#425,0.375);
#132=VECTOR('',#428,0.75);
#133=VECTOR('',#431,0.375);
#134=VECTOR('',#434,0.75);
#135=VECTOR('',#437,0.75);
#136=VECTOR('',#438,0.375);
#137=VECTOR('',#441,0.5625);
#138=VECTOR('',#442,0.375);
#139=VECTOR('',#443,0.75);
#140=VECTOR('',#444,0.375);
#141=VECTOR('',#445,0.5625);
#142=VECTOR('',#450,0.375);
#143=VECTOR('',#451,0.75);
#144=VECTOR('',#452,0.375);
#145=VECTOR('',#455,0.375);
#146=VECTOR('',#456,0.375);
#147=VECTOR('',#459,0.5625);
#148=VECTOR('',#460,0.75);
#149=VECTOR('',#463,0.75);
#150=VECTOR('',#466,0.75);
#151=VERTEX_POINT('',#473);
#152=VERTEX_POINT('',#474);
#153=VERTEX_POINT('',#476);
#154=VERTEX_POINT('',#478);
#155=VERTEX_POINT('',#482);
#156=VERTEX_POINT('',#484);
#157=VERTEX_POINT('',#488);
#158=VERTEX_POINT('',#490);
#159=VERTEX_POINT('',#497);
#160=VERTEX_POINT('',#499);
#161=VERTEX_POINT('',#503);
#162=VERTEX_POINT('',#505);
#163=VERTEX_POINT('',#507);
#164=VERTEX_POINT('',#509);
#165=VERTEX_POINT('',#511);
#166=VERTEX_POINT('',#516);
#167=VERTEX_POINT('',#517);
#168=VERTEX_POINT('',#522);
#169=VERTEX_POINT('',#524);
#170=VERTEX_POINT('',#528);
#171=VERTEX_POINT('',#530);
#172=VERTEX_POINT('',#537);
#173=VERTEX_POINT('',#539);
#174=VERTEX_POINT('',#541);
#175=VERTEX_POINT('',#543);
#176=VERTEX_POINT('',#548);
#177=VERTEX_POINT('',#550);
#178=VERTEX_POINT('',#557);
#179=EDGE_CURVE('',#151,#152,#75,.T.);
#180=EDGE_CURVE('',#152,#153,#67,.T.);
#181=EDGE_CURVE('',#153,#154,#76,.T.);
#182=EDGE_CURVE('',#154,#151,#68,.T.);
#183=EDGE_CURVE('',#155,#153,#77,.T.);
#184=EDGE_CURVE('',#152,#156,#78,.T.);
#185=EDGE_CURVE('',#156,#155,#69,.T.);
#186=EDGE_CURVE('',#157,#155,#79,.T.);
#187=EDGE_CURVE('',#156,#158,#80,.T.);
#188=EDGE_CURVE('',#158,#157,#70,.T.);
#189=EDGE_CURVE('',#154,#157,#81,.T.);
#190=EDGE_CURVE('',#158,#151,#82,.T.);
#191=EDGE_CURVE('',#154,#159,#83,.T.);
#192=EDGE_CURVE('',#159,#160,#84,.T.);
#193=EDGE_CURVE('',#157,#160,#85,.T.);
#194=EDGE_CURVE('',#153,#161,#86,.T.);
#195=EDGE_CURVE('',#162,#161,#87,.T.);
#196=EDGE_CURVE('',#163,#162,#88,.T.);
#197=EDGE_CURVE('',#163,#164,#89,.T.);
#198=EDGE_CURVE('',#164,#165,#90,.T.);
#199=EDGE_CURVE('',#165,#159,#91,.T.);
#200=EDGE_CURVE('',#166,#167,#92,.T.);
#201=EDGE_CURVE('',#167,#162,#71,.T.);
#202=EDGE_CURVE('',#166,#161,#72,.T.);
#203=EDGE_CURVE('',#167,#168,#93,.T.);
#204=EDGE_CURVE('',#168,#169,#73,.T.);
#205=EDGE_CURVE('',#169,#162,#94,.T.);
#206=EDGE_CURVE('',#168,#170,#95,.T.);
#207=EDGE_CURVE('',#170,#171,#74,.T.);
#208=EDGE_CURVE('',#171,#169,#96,.T.);
#209=EDGE_CURVE('',#161,#171,#97,.T.);
#210=EDGE_CURVE('',#170,#166,#98,.T.);
#211=EDGE_CURVE('',#155,#172,#99,.T.);
#212=EDGE_CURVE('',#172,#173,#100,.T.);
#213=EDGE_CURVE('',#173,#174,#101,.T.);
#214=EDGE_CURVE('',#174,#175,#102,.T.);
#215=EDGE_CURVE('',#175,#171,#103,.T.);
#216=EDGE_CURVE('',#176,#164,#104,.T.);
#217=EDGE_CURVE('',#177,#176,#105,.T.);
#218=EDGE_CURVE('',#177,#165,#106,.T.);
#219=EDGE_CURVE('',#174,#176,#107,.T.);
#220=EDGE_CURVE('',#173,#177,#108,.T.);
#221=EDGE_CURVE('',#178,#169,#109,.T.);
#222=EDGE_CURVE('',#178,#163,#110,.T.);
#223=EDGE_CURVE('',#175,#178,#111,.T.);
#224=EDGE_CURVE('',#160,#172,#112,.T.);
#225=ORIENTED_EDGE('',*,*,#179,.T.);
#226=ORIENTED_EDGE('',*,*,#180,.T.);
#227=ORIENTED_EDGE('',*,*,#181,.T.);
#228=ORIENTED_EDGE('',*,*,#182,.T.);
#229=ORIENTED_EDGE('',*,*,#183,.T.);
#230=ORIENTED_EDGE('',*,*,#180,.F.);
#231=ORIENTED_EDGE('',*,*,#184,.T.);
#232=ORIENTED_EDGE('',*,*,#185,.T.);
#233=ORIENTED_EDGE('',*,*,#186,.T.);
#234=ORIENTED_EDGE('',*,*,#185,.F.);
#235=ORIENTED_EDGE('',*,*,#187,.T.);
#236=ORIENTED_EDGE('',*,*,#188,.T.);
#237=ORIENTED_EDGE('',*,*,#189,.T.);
#238=ORIENTED_EDGE('',*,*,#188,.F.);
#239=ORIENTED_EDGE('',*,*,#190,.T.);
#240=ORIENTED_EDGE('',*,*,#182,.F.);
#241=ORIENTED_EDGE('',*,*,#189,.F.);
#242=ORIENTED_EDGE('',*,*,#191,.T.);
#243=ORIENTED_EDGE('',*,*,#192,.T.);
#244=ORIENTED_EDGE('',*,*,#193,.F.);
#245=ORIENTED_EDGE('',*,*,#181,.F.);
#246=ORIENTED_EDGE('',*,*,#194,.T.);
#247=ORIENTED_EDGE('',*,*,#195,.F.);
#248=ORIENTED_EDGE('',*,*,#196,.F.);
#249=ORIENTED_EDGE('',*,*,#197,.T.);
#250=ORIENTED_EDGE('',*,*,#198,.T.);
#251=ORIENTED_EDGE('',*,*,#199,.T.);
#252=ORIENTED_EDGE('',*,*,#191,.F.);
#253=ORIENTED_EDGE('',*,*,#179,.F.);
#254=ORIENTED_EDGE('',*,*,#190,.F.);
#255=ORIENTED_EDGE('',*,*,#187,.F.);
#256=ORIENTED_EDGE('',*,*,#184,.F.);
#257=ORIENTED_EDGE('',*,*,#200,.T.);
#258=ORIENTED_EDGE('',*,*,#201,.T.);
#259=ORIENTED_EDGE('',*,*,#195,.T.);
#260=ORIENTED_EDGE('',*,*,#202,.F.);
#261=ORIENTED_EDGE('',*,*,#203,.T.);
#262=ORIENTED_EDGE('',*,*,#204,.T.);
#263=ORIENTED_EDGE('',*,*,#205,.T.);
#264=ORIENTED_EDGE('',*,*,#201,.F.);
#265=ORIENTED_EDGE('',*,*,#206,.T.);
#266=ORIENTED_EDGE('',*,*,#207,.T.);
#267=ORIENTED_EDGE('',*,*,#208,.T.);
#268=ORIENTED_EDGE('',*,*,#204,.F.);
#269=ORIENTED_EDGE('',*,*,#209,.T.);
#270=ORIENTED_EDGE('',*,*,#207,.F.);
#271=ORIENTED_EDGE('',*,*,#210,.T.);
#272=ORIENTED_EDGE('',*,*,#202,.T.);
#273=ORIENTED_EDGE('',*,*,#183,.F.);
#274=ORIENTED_EDGE('',*,*,#211,.T.);
#275=ORIENTED_EDGE('',*,*,#212,.T.);
#276=ORIENTED_EDGE('',*,*,#213,.T.);
#277=ORIENTED_EDGE('',*,*,#214,.T.);
#278=ORIENTED_EDGE('',*,*,#215,.T.);
#279=ORIENTED_EDGE('',*,*,#209,.F.);
#280=ORIENTED_EDGE('',*,*,#194,.F.);
#281=ORIENTED_EDGE('',*,*,#200,.F.);
#282=ORIENTED_EDGE('',*,*,#210,.F.);
#283=ORIENTED_EDGE('',*,*,#206,.F.);
#284=ORIENTED_EDGE('',*,*,#203,.F.);
#285=ORIENTED_EDGE('',*,*,#198,.F.);
#286=ORIENTED_EDGE('',*,*,#216,.F.);
#287=ORIENTED_EDGE('',*,*,#217,.F.);
#288=ORIENTED_EDGE('',*,*,#218,.T.);
#289=ORIENTED_EDGE('',*,*,#217,.T.);
#290=ORIENTED_EDGE('',*,*,#219,.F.);
#291=ORIENTED_EDGE('',*,*,#213,.F.);
#292=ORIENTED_EDGE('',*,*,#220,.T.);
#293=ORIENTED_EDGE('',*,*,#205,.F.);
#294=ORIENTED_EDGE('',*,*,#221,.F.);
#295=ORIENTED_EDGE('',*,*,#222,.T.);
#296=ORIENTED_EDGE('',*,*,#196,.T.);
#297=ORIENTED_EDGE('',*,*,#222,.F.);
#298=ORIENTED_EDGE('',*,*,#223,.F.);
#299=ORIENTED_EDGE('',*,*,#214,.F.);
#300=ORIENTED_EDGE('',*,*,#219,.T.);
#301=ORIENTED_EDGE('',*,*,#216,.T.);
#302=ORIENTED_EDGE('',*,*,#197,.F.);
#303=ORIENTED_EDGE('',*,*,#192,.F.);
#304=ORIENTED_EDGE('',*,*,#199,.F.);
#305=ORIENTED_EDGE('',*,*,#218,.F.);
#306=ORIENTED_EDGE('',*,*,#220,.F.);
#307=ORIENTED_EDGE('',*,*,#212,.F.);
#308=ORIENTED_EDGE('',*,*,#224,.F.);
#309=ORIENTED_EDGE('',*,*,#208,.F.);
#310=ORIENTED_EDGE('',*,*,#215,.F.);
#311=ORIENTED_EDGE('',*,*,#223,.T.);
#312=ORIENTED_EDGE('',*,*,#221,.T.);
#313=ORIENTED_EDGE('',*,*,#186,.F.);
#314=ORIENTED_EDGE('',*,*,#193,.T.);
#315=ORIENTED_EDGE('',*,*,#224,.T.);
#316=ORIENTED_EDGE('',*,*,#211,.F.);
#317=CYLINDRICAL_SURFACE('',#347,0.1875);
#318=CYLINDRICAL_SURFACE('',#350,0.1875);
#319=CYLINDRICAL_SURFACE('',#352,0.1875);
#320=CYLINDRICAL_SURFACE('',#354,0.1875);
#321=CYLINDRICAL_SURFACE('',#358,0.1875);
#322=CYLINDRICAL_SURFACE('',#361,0.1875);
#323=CYLINDRICAL_SURFACE('',#363,0.1875);
#324=CYLINDRICAL_SURFACE('',#365,0.1875);
#325=ADVANCED_FACE('',(#27),#317,.T.);
#326=ADVANCED_FACE('',(#28),#318,.T.);
#327=ADVANCED_FACE('',(#29),#319,.T.);
#328=ADVANCED_FACE('',(#30),#320,.T.);
#329=ADVANCED_FACE('',(#31),#15,.T.);
#330=ADVANCED_FACE('',(#32),#16,.T.);
#331=ADVANCED_FACE('',(#33),#17,.F.);
#332=ADVANCED_FACE('',(#34),#321,.T.);
#333=ADVANCED_FACE('',(#35),#322,.T.);
#334=ADVANCED_FACE('',(#36),#323,.T.);
#335=ADVANCED_FACE('',(#37),#324,.T.);
#336=ADVANCED_FACE('',(#38),#18,.T.);
#337=ADVANCED_FACE('',(#39),#19,.T.);
#338=ADVANCED_FACE('',(#40),#20,.F.);
#339=ADVANCED_FACE('',(#41),#21,.F.);
#340=ADVANCED_FACE('',(#42),#22,.T.);
#341=ADVANCED_FACE('',(#43),#23,.F.);
#342=ADVANCED_FACE('',(#44),#24,.F.);
#343=ADVANCED_FACE('',(#45),#25,.T.);
#344=ADVANCED_FACE('',(#46),#26,.T.);
#345=CLOSED_SHELL('',(#325,#326,#327,#328,#329,#330,#331,#332,#333,#334,
#335,#336,#337,#338,#339,#340,#341,#342,#343,#344));
#346=AXIS2_PLACEMENT_3D('placement',#471,#375,#376);
#347=AXIS2_PLACEMENT_3D('',#472,#377,#378);
#348=AXIS2_PLACEMENT_3D('',#477,#380,#381);
#349=AXIS2_PLACEMENT_3D('',#480,#383,#384);
#350=AXIS2_PLACEMENT_3D('',#481,#385,#386);
#351=AXIS2_PLACEMENT_3D('',#486,#389,#390);
#352=AXIS2_PLACEMENT_3D('',#487,#391,#392);
#353=AXIS2_PLACEMENT_3D('',#492,#395,#396);
#354=AXIS2_PLACEMENT_3D('',#493,#397,#398);
#355=AXIS2_PLACEMENT_3D('',#496,#401,#402);
#356=AXIS2_PLACEMENT_3D('',#502,#406,#407);
#357=AXIS2_PLACEMENT_3D('',#514,#414,#415);
#358=AXIS2_PLACEMENT_3D('',#515,#416,#417);
#359=AXIS2_PLACEMENT_3D('',#519,#419,#420);
#360=AXIS2_PLACEMENT_3D('',#520,#421,#422);
#361=AXIS2_PLACEMENT_3D('',#521,#423,#424);
#362=AXIS2_PLACEMENT_3D('',#525,#426,#427);
#363=AXIS2_PLACEMENT_3D('',#527,#429,#430);
#364=AXIS2_PLACEMENT_3D('',#531,#432,#433);
#365=AXIS2_PLACEMENT_3D('',#533,#435,#436);
#366=AXIS2_PLACEMENT_3D('',#536,#439,#440);
#367=AXIS2_PLACEMENT_3D('',#546,#446,#447);
#368=AXIS2_PLACEMENT_3D('',#547,#448,#449);
#369=AXIS2_PLACEMENT_3D('',#553,#453,#454);
#370=AXIS2_PLACEMENT_3D('',#556,#457,#458);
#371=AXIS2_PLACEMENT_3D('',#560,#461,#462);
#372=AXIS2_PLACEMENT_3D('',#562,#464,#465);
#373=AXIS2_PLACEMENT_3D('',#564,#467,#468);
#374=AXIS2_PLACEMENT_3D('',#565,#469,#470);
#375=DIRECTION('axis',(0.,0.,1.));
#376=DIRECTION('refdir',(1.,0.,0.));
#377=DIRECTION('center_axis',(1.,0.,0.));
#378=DIRECTION('ref_axis',(0.,-0.707106781186548,-0.707106781186547));
#379=DIRECTION('',(1.,0.,0.));
#380=DIRECTION('center_axis',(-0.707106781186548,-0.707106781186548,0.));
#381=DIRECTION('ref_axis',(-0.707106781186548,0.707106781186548,0.));
#382=DIRECTION('',(-1.,0.,0.));
#383=DIRECTION('center_axis',(0.707106781186548,-0.707106781186548,0.));
#384=DIRECTION('ref_axis',(-0.707106781186548,-0.707106781186548,0.));
#385=DIRECTION('center_axis',(0.,1.,0.));
#386=DIRECTION('ref_axis',(0.707106781186547,0.,-0.707106781186548));
#387=DIRECTION('',(0.,-1.,0.));
#388=DIRECTION('',(0.,1.,0.));
#389=DIRECTION('center_axis',(0.707106781186548,-0.707106781186548,0.));
#390=DIRECTION('ref_axis',(-0.707106781186547,-0.707106781186547,0.));
#391=DIRECTION('center_axis',(-1.,0.,0.));
#392=DIRECTION('ref_axis',(0.,0.707106781186547,-0.707106781186548));
#393=DIRECTION('',(1.,0.,0.));
#394=DIRECTION('',(-1.,0.,0.));
#395=DIRECTION('center_axis',(0.707106781186548,0.707106781186548,0.));
#396=DIRECTION('ref_axis',(0.707106781186547,-0.707106781186547,0.));
#397=DIRECTION('center_axis',(0.,-1.,0.));
#398=DIRECTION('ref_axis',(-0.707106781186548,0.,-0.707106781186547));
#399=DIRECTION('',(0.,1.,0.));
#400=DIRECTION('',(0.,-1.,0.));
#401=DIRECTION('center_axis',(-1.,0.,0.));
#402=DIRECTION('ref_axis',(0.,-1.,0.));
#403=DIRECTION('',(0.,0.,1.));
#404=DIRECTION('',(0.,1.,3.10823593945801E-16));
#405=DIRECTION('',(0.,0.,1.));
#406=DIRECTION('center_axis',(0.,-1.,0.));
#407=DIRECTION('ref_axis',(1.,0.,0.));
#408=DIRECTION('',(0.,0.,1.));
#409=DIRECTION('',(1.,0.,0.));
#410=DIRECTION('',(0.,0.,1.));
#411=DIRECTION('',(1.,0.,0.));
#412=DIRECTION('',(0.,0.,-1.));
#413=DIRECTION('',(-1.,0.,0.));
#414=DIRECTION('center_axis',(0.,0.,1.));
#415=DIRECTION('ref_axis',(1.,0.,0.));
#416=DIRECTION('center_axis',(1.,0.,0.));
#417=DIRECTION('ref_axis',(0.,-0.707106781186547,0.707106781186548));
#418=DIRECTION('',(-1.,0.,0.));
#419=DIRECTION('center_axis',(0.707106781186548,-0.707106781186548,8.24195516369435E-17));
#420=DIRECTION('ref_axis',(-0.707106781186548,-0.707106781186548,8.24195516369435E-17));
#421=DIRECTION('center_axis',(0.707106781186547,0.707106781186548,0.));
#422=DIRECTION('ref_axis',(0.707106781186548,-0.707106781186547,0.));
#423=DIRECTION('center_axis',(0.,-1.,0.));
#424=DIRECTION('ref_axis',(-0.707106781186547,0.,0.707106781186548));
#425=DIRECTION('',(0.,1.,0.));
#426=DIRECTION('center_axis',(-0.707106781186548,-0.707106781186547,8.24195516369435E-17));
#427=DIRECTION('ref_axis',(-0.707106781186548,0.707106781186548,8.24195516369435E-17));
#428=DIRECTION('',(0.,-1.,0.));
#429=DIRECTION('center_axis',(-1.,0.,0.));
#430=DIRECTION('ref_axis',(0.,0.707106781186547,0.707106781186548));
#431=DIRECTION('',(1.,0.,0.));
#432=DIRECTION('center_axis',(-0.707106781186548,0.707106781186548,0.));
#433=DIRECTION('ref_axis',(0.707106781186547,0.707106781186547,0.));
#434=DIRECTION('',(-1.,0.,0.));
#435=DIRECTION('center_axis',(0.,1.,0.));
#436=DIRECTION('ref_axis',(0.707106781186547,0.,0.707106781186548));
#437=DIRECTION('',(0.,1.,0.));
#438=DIRECTION('',(0.,-1.,0.));
#439=DIRECTION('center_axis',(1.,0.,0.));
#440=DIRECTION('ref_axis',(0.,1.,0.));
#441=DIRECTION('',(0.,0.,1.));
#442=DIRECTION('',(0.,-1.,0.));
#443=DIRECTION('',(0.,-1.74838271594513E-16,1.));
#444=DIRECTION('',(0.,1.,0.));
#445=DIRECTION('',(0.,0.,1.));
#446=DIRECTION('center_axis',(0.,0.,1.));
#447=DIRECTION('ref_axis',(1.,0.,0.));
#448=DIRECTION('center_axis',(1.,0.,0.));
#449=DIRECTION('ref_axis',(0.,-1.40998324127395E-16,1.));
#450=DIRECTION('',(0.,-1.,-3.108235939458E-16));
#451=DIRECTION('',(0.,-1.74838271594513E-16,1.));
#452=DIRECTION('',(0.,-1.,-3.108235939458E-16));
#453=DIRECTION('center_axis',(0.,-1.,-1.74838271594513E-16));
#454=DIRECTION('ref_axis',(0.,-1.40998324127395E-16,1.));
#455=DIRECTION('',(-1.,0.,0.));
#456=DIRECTION('',(-1.,0.,0.));
#457=DIRECTION('center_axis',(-1.,0.,0.));
#458=DIRECTION('ref_axis',(0.,-1.,0.));
#459=DIRECTION('',(0.,0.,1.));
#460=DIRECTION('',(0.,-1.,0.));
#461=DIRECTION('center_axis',(0.,0.,1.));
#462=DIRECTION('ref_axis',(0.,1.,0.));
#463=DIRECTION('',(-1.,0.,0.));
#464=DIRECTION('center_axis',(0.,0.,-1.));
#465=DIRECTION('ref_axis',(0.,-1.,0.));
#466=DIRECTION('',(1.,0.,0.));
#467=DIRECTION('center_axis',(0.,1.,0.));
#468=DIRECTION('ref_axis',(-1.,0.,0.));
#469=DIRECTION('center_axis',(0.,1.,0.));
#470=DIRECTION('ref_axis',(-1.,0.,0.));
#471=CARTESIAN_POINT('',(0.,0.,0.));
#472=CARTESIAN_POINT('Origin',(0.1875,0.1875,0.1875));
#473=CARTESIAN_POINT('',(0.1875,0.1875,0.));
#474=CARTESIAN_POINT('',(0.5625,0.1875,0.));
#475=CARTESIAN_POINT('',(0.1875,0.1875,0.));
#476=CARTESIAN_POINT('',(0.75,0.,0.1875));
#477=CARTESIAN_POINT('Origin',(0.5625,0.1875,0.1875));
#478=CARTESIAN_POINT('',(0.,0.,0.1875));
#479=CARTESIAN_POINT('',(0.1875,0.,0.1875));
#480=CARTESIAN_POINT('Origin',(0.1875,0.1875,0.1875));
#481=CARTESIAN_POINT('Origin',(0.5625,0.1875,0.1875));
#482=CARTESIAN_POINT('',(0.75,0.75,0.1875));
#483=CARTESIAN_POINT('',(0.75,0.1875,0.1875));
#484=CARTESIAN_POINT('',(0.5625,0.5625,0.));
#485=CARTESIAN_POINT('',(0.5625,0.1875,0.));
#486=CARTESIAN_POINT('Origin',(0.5625,0.5625,0.1875));
#487=CARTESIAN_POINT('Origin',(0.5625,0.5625,0.1875));
#488=CARTESIAN_POINT('',(0.,0.75,0.1875));
#489=CARTESIAN_POINT('',(0.5625,0.75,0.1875));
#490=CARTESIAN_POINT('',(0.1875,0.5625,0.));
#491=CARTESIAN_POINT('',(0.5625,0.5625,0.));
#492=CARTESIAN_POINT('Origin',(0.1875,0.5625,0.1875));
#493=CARTESIAN_POINT('Origin',(0.1875,0.5625,0.1875));
#494=CARTESIAN_POINT('',(0.,0.5625,0.1875));
#495=CARTESIAN_POINT('',(0.1875,0.5625,0.));
#496=CARTESIAN_POINT('Origin',(0.,0.75,0.));
#497=CARTESIAN_POINT('',(0.,0.,0.75));
#498=CARTESIAN_POINT('',(0.,0.,0.));
#499=CARTESIAN_POINT('',(0.,0.75,0.75));
#500=CARTESIAN_POINT('',(0.,0.5625,0.75));
#501=CARTESIAN_POINT('',(0.,0.75,0.));
#502=CARTESIAN_POINT('Origin',(0.,0.,0.));
#503=CARTESIAN_POINT('',(0.75,0.,2.0625));
#504=CARTESIAN_POINT('',(0.75,0.,0.));
#505=CARTESIAN_POINT('',(0.,0.,2.0625));
#506=CARTESIAN_POINT('',(0.1875,0.,2.0625));
#507=CARTESIAN_POINT('',(0.,0.,1.5));
#508=CARTESIAN_POINT('',(0.,0.,0.));
#509=CARTESIAN_POINT('',(0.375,0.,1.5));
#510=CARTESIAN_POINT('',(0.1875,0.,1.5));
#511=CARTESIAN_POINT('',(0.375,0.,0.75));
#512=CARTESIAN_POINT('',(0.375,0.,0.375));
#513=CARTESIAN_POINT('',(0.,0.,0.75));
#514=CARTESIAN_POINT('Origin',(0.375,0.375,0.));
#515=CARTESIAN_POINT('Origin',(0.1875,0.1875,2.0625));
#516=CARTESIAN_POINT('',(0.5625,0.1875,2.25));
#517=CARTESIAN_POINT('',(0.1875,0.1875,2.25));
#518=CARTESIAN_POINT('',(0.1875,0.1875,2.25));
#519=CARTESIAN_POINT('Origin',(0.1875,0.1875,2.0625));
#520=CARTESIAN_POINT('Origin',(0.5625,0.1875,2.0625));
#521=CARTESIAN_POINT('Origin',(0.1875,0.5625,2.0625));
#522=CARTESIAN_POINT('',(0.1875,0.5625,2.25));
#523=CARTESIAN_POINT('',(0.1875,0.5625,2.25));
#524=CARTESIAN_POINT('',(0.,0.75,2.0625));
#525=CARTESIAN_POINT('Origin',(0.1875,0.5625,2.0625));
#526=CARTESIAN_POINT('',(0.,0.5625,2.0625));
#527=CARTESIAN_POINT('Origin',(0.5625,0.5625,2.0625));
#528=CARTESIAN_POINT('',(0.5625,0.5625,2.25));
#529=CARTESIAN_POINT('',(0.5625,0.5625,2.25));
#530=CARTESIAN_POINT('',(0.75,0.75,2.0625));
#531=CARTESIAN_POINT('Origin',(0.5625,0.5625,2.0625));
#532=CARTESIAN_POINT('',(0.5625,0.75,2.0625));
#533=CARTESIAN_POINT('Origin',(0.5625,0.1875,2.0625));
#534=CARTESIAN_POINT('',(0.75,0.1875,2.0625));
#535=CARTESIAN_POINT('',(0.5625,0.1875,2.25));
#536=CARTESIAN_POINT('Origin',(0.75,0.,0.));
#537=CARTESIAN_POINT('',(0.75,0.75,0.75));
#538=CARTESIAN_POINT('',(0.75,0.75,0.));
#539=CARTESIAN_POINT('',(0.75,0.375,0.75));
#540=CARTESIAN_POINT('',(0.75,0.375,0.75));
#541=CARTESIAN_POINT('',(0.75,0.375,1.5));
#542=CARTESIAN_POINT('',(0.75,0.375,0.375));
#543=CARTESIAN_POINT('',(0.75,0.75,1.5));
#544=CARTESIAN_POINT('',(0.75,0.1875,1.5));
#545=CARTESIAN_POINT('',(0.75,0.75,0.));
#546=CARTESIAN_POINT('Origin',(0.375,0.375,2.25));
#547=CARTESIAN_POINT('Origin',(0.375,0.375,0.75));
#548=CARTESIAN_POINT('',(0.375,0.375,1.5));
#549=CARTESIAN_POINT('',(0.375,0.375,1.5));
#550=CARTESIAN_POINT('',(0.375,0.375,0.75));
#551=CARTESIAN_POINT('',(0.375,0.375,0.75));
#552=CARTESIAN_POINT('',(0.375,0.375,0.75));
#553=CARTESIAN_POINT('Origin',(0.75,0.375,0.75));
#554=CARTESIAN_POINT('',(0.75,0.375,1.5));
#555=CARTESIAN_POINT('',(0.75,0.375,0.75));
#556=CARTESIAN_POINT('Origin',(0.,0.75,0.));
#557=CARTESIAN_POINT('',(0.,0.75,1.5));
#558=CARTESIAN_POINT('',(0.,0.75,0.));
#559=CARTESIAN_POINT('',(0.,0.5625,1.5));
#560=CARTESIAN_POINT('Origin',(0.75,0.375,1.5));
#561=CARTESIAN_POINT('',(0.75,0.75,1.5));
#562=CARTESIAN_POINT('Origin',(0.75,0.75,0.75));
#563=CARTESIAN_POINT('',(0.75,0.75,0.75));
#564=CARTESIAN_POINT('Origin',(0.75,0.75,0.));
#565=CARTESIAN_POINT('Origin',(0.75,0.75,0.));
#566=UNCERTAINTY_MEASURE_WITH_UNIT(LENGTH_MEASURE(0.000393700787401575),
#570,'DISTANCE_ACCURACY_VALUE',
'Maximum model space distance between geometric entities at asserted c
onnectivities');
#567=UNCERTAINTY_MEASURE_WITH_UNIT(LENGTH_MEASURE(1.E-6),#571,
'DISTANCE_ACCURACY_VALUE',
'Maximum model space distance between geometric entities at asserted c
onnectivities');
#568=(
GEOMETRIC_REPRESENTATION_CONTEXT(3)
GLOBAL_UNCERTAINTY_ASSIGNED_CONTEXT((#566))
GLOBAL_UNIT_ASSIGNED_CONTEXT((#570,#576,#573))
REPRESENTATION_CONTEXT('','3D')
);
#569=(
GEOMETRIC_REPRESENTATION_CONTEXT(3)
GLOBAL_UNCERTAINTY_ASSIGNED_CONTEXT((#567))
GLOBAL_UNIT_ASSIGNED_CONTEXT((#571,#576,#573))
REPRESENTATION_CONTEXT('','3D')
);
#570=(
CONVERSION_BASED_UNIT('__CONSTANT UNIT inch',#572)
LENGTH_UNIT()
NAMED_UNIT(#575)
);
#571=(
LENGTH_UNIT()
NAMED_UNIT(*)
SI_UNIT(.MILLI.,.METRE.)
);
#572=LENGTH_MEASURE_WITH_UNIT(LENGTH_MEASURE(25.4),#571);
#573=(
NAMED_UNIT(*)
SI_UNIT($,.STERADIAN.)
SOLID_ANGLE_UNIT()
);
#574=DIMENSIONAL_EXPONENTS(0.,0.,0.,0.,0.,0.,0.);
#575=DIMENSIONAL_EXPONENTS(1.,0.,0.,0.,0.,0.,0.);
#576=(
CONVERSION_BASED_UNIT('degree',#578)
NAMED_UNIT(#574)
PLANE_ANGLE_UNIT()
);
#577=(
NAMED_UNIT(*)
PLANE_ANGLE_UNIT()
SI_UNIT($,.RADIAN.)
);
#578=PLANE_ANGLE_MEASURE_WITH_UNIT(PLANE_ANGLE_MEASURE(0.01745329252),#577);
#579=SHAPE_DEFINITION_REPRESENTATION(#580,#581);
#580=PRODUCT_DEFINITION_SHAPE('',$,#583);
#581=SHAPE_REPRESENTATION('',(#346),#568);
#582=PRODUCT_DEFINITION_CONTEXT('part definition',#587,'design');
#583=PRODUCT_DEFINITION('Part1','Part1',#584,#582);
#584=PRODUCT_DEFINITION_FORMATION('',$,#589);
#585=PRODUCT_RELATED_PRODUCT_CATEGORY('Part1','Part1',(#589));
#586=APPLICATION_PROTOCOL_DEFINITION('international standard',
'automotive_design',2009,#587);
#587=APPLICATION_CONTEXT(
'Core Data for Automotive Mechanical Design Process');
#588=PRODUCT_CONTEXT('part definition',#587,'mechanical');
#589=PRODUCT('Part1','Part1',$,(#588));
#590=PRESENTATION_STYLE_ASSIGNMENT((#591));
#591=SURFACE_STYLE_USAGE(.BOTH.,#592);
#592=SURFACE_SIDE_STYLE('',(#593));
#593=SURFACE_STYLE_FILL_AREA(#594);
#594=FILL_AREA_STYLE('',(#595));
#595=FILL_AREA_STYLE_COLOUR('',#596);
#596=COLOUR_RGB('',0.,0.737254901960784,0.);
ENDSEC;
END-ISO-10303-21;
