  0
SECTION
  2
HEADER
  9
$ACADVER
  1
AC1009
  0
ENDSEC
  0
SECTION
  2
ENTITIES
  0
CIRCLE
  5
90
  8
Layer_0
  62
0
  10
388.07281
  20
367.54333
  30
0
  40
2
  0
CIRCLE
  5
90
  8
Layer_0
  62
0
  10
388.07281
  20
354.54333
  30
0
  40
2
  0
CIRCLE
  5
90
  8
Layer_0
  62
0
  10
405.07281
  20
354.54333
  30
0
  40
2
  0
CIRCLE
  5
90
  8
Layer_0
  62
0
  10
405.07281
  20
367.54333
  30
0
  40
2
  0
POLYLINE
  5
90
  8
Layer_0
  62
0
  70
1
  66
1
  10
0
  20
0
  30
0
  0
VERTEX
  5
90
  8
Layer_0
  10
416.00842
  20
288.43112
  0
VERTEX
  5
91
  8
Layer_0
  10
153.4511
  20
288.5
  0
VERTEX
  5
92
  8
Layer_0
  10
107.98437
  20
280
  0
VERTEX
  5
93
  8
Layer_0
  10
118.98437
  20
297
  0
VERTEX
  5
94
  8
Layer_0
  10
153.98438
  20
316
  0
VERTEX
  5
95
  8
Layer_0
  10
416.01563
  20
315.9343
  0
VERTEX
  5
96
  8
Layer_0
  10
416.00842
  20
288.43112
  0
SEQEND
  0
POLYLINE
  5
98
  8
Layer_0
  62
0
  70
1
  66
1
  10
0
  20
0
  30
0
  0
VERTEX
  5
98
  8
Layer_0
  10
416.12366
  20
373.40826
  0
VERTEX
  5
99
  8
Layer_0
  10
108.10406
  20
373.4855
  0
VERTEX
  5
9a
  8
Layer_0
  10
108.09686
  20
345.98233
  0
VERTEX
  5
9b
  8
Layer_0
  10
416.11642
  20
345.90155
  0
VERTEX
  5
9c
  8
Layer_0
  10
416.12366
  20
373.40826
  0
SEQEND
  0
CIRCLE
  5
9e
  8
Layer_0
  62
0
  10
387.96262
  20
395.84979
  30
0
  40
2
  0
CIRCLE
  5
9e
  8
Layer_0
  62
0
  10
387.96262
  20
382.84979
  30
0
  40
2
  0
CIRCLE
  5
9e
  8
Layer_0
  62
0
  10
404.96262
  20
382.84979
  30
0
  40
2
  0
CIRCLE
  5
9e
  8
Layer_0
  62
0
  10
404.96262
  20
395.84979
  30
0
  40
2
  0
POLYLINE
  5
9e
  8
Layer_0
  62
0
  70
1
  66
1
  10
0
  20
0
  30
0
  0
VERTEX
  5
9e
  8
Layer_0
  10
416.31433
  20
229.97409
  0
VERTEX
  5
9f
  8
Layer_0
  10
153.75703
  20
230.04295
  0
VERTEX
  5
a0
  8
Layer_0
  10
108.29031
  20
221.54295
  0
VERTEX
  5
a1
  8
Layer_0
  10
119.29031
  20
238.54295
  0
VERTEX
  5
a2
  8
Layer_0
  10
154.29031
  20
257.54294
  0
VERTEX
  5
a3
  8
Layer_0
  10
416.32156
  20
257.47723
  0
VERTEX
  5
a4
  8
Layer_0
  10
416.31433
  20
229.97409
  0
SEQEND
  0
POLYLINE
  5
a6
  8
Layer_0
  62
0
  70
1
  66
1
  10
0
  20
0
  30
0
  0
VERTEX
  5
a6
  8
Layer_0
  10
416.01343
  20
401.71472
  0
VERTEX
  5
a7
  8
Layer_0
  10
107.99384
  20
401.79196
  0
VERTEX
  5
a8
  8
Layer_0
  10
107.98663
  20
374.28879
  0
VERTEX
  5
a9
  8
Layer_0
  10
416.0062
  20
374.20801
  0
VERTEX
  5
aa
  8
Layer_0
  10
416.01343
  20
401.71472
  0
SEQEND
  0
CIRCLE
  5
ac
  8
Layer_0
  62
0
  10
387.96255
  20
338.84979
  30
0
  40
2
  0
CIRCLE
  5
ac
  8
Layer_0
  62
0
  10
387.96255
  20
325.84979
  30
0
  40
2
  0
CIRCLE
  5
ac
  8
Layer_0
  62
0
  10
404.96255
  20
325.84979
  30
0
  40
2
  0
CIRCLE
  5
ac
  8
Layer_0
  62
0
  10
404.96255
  20
338.84979
  30
0
  40
2
  0
POLYLINE
  5
ac
  8
Layer_0
  62
0
  70
1
  66
1
  10
0
  20
0
  30
0
  0
VERTEX
  5
ac
  8
Layer_0
  10
416.00842
  20
259.43112
  0
VERTEX
  5
ad
  8
Layer_0
  10
153.4511
  20
259.5
  0
VERTEX
  5
ae
  8
Layer_0
  10
107.98437
  20
251
  0
VERTEX
  5
af
  8
Layer_0
  10
118.98437
  20
268
  0
VERTEX
  5
b0
  8
Layer_0
  10
153.98438
  20
287
  0
VERTEX
  5
b1
  8
Layer_0
  10
416.01563
  20
286.9343
  0
VERTEX
  5
b2
  8
Layer_0
  10
416.00842
  20
259.43112
  0
SEQEND
  0
POLYLINE
  5
b4
  8
Layer_0
  62
0
  70
1
  66
1
  10
0
  20
0
  30
0
  0
VERTEX
  5
b4
  8
Layer_0
  10
416.01337
  20
344.71472
  0
VERTEX
  5
b5
  8
Layer_0
  10
107.9938
  20
344.79196
  0
VERTEX
  5
b6
  8
Layer_0
  10
107.9866
  20
317.28879
  0
VERTEX
  5
b7
  8
Layer_0
  10
416.00616
  20
317.20801
  0
VERTEX
  5
b8
  8
Layer_0
  10
416.01337
  20
344.71472
  0
SEQEND
  0
ENDSEC
  0
EOF
