0
SECTION
2
HEADER
9
$INSUNITS
70
4
9
$ACADVER
1
AC1014
9
$HANDSEED
5
FFFF
0
ENDSEC
0
SECTION
2
TABLES
0
TABLE
2
VPORT
5
8
100
AcDbSymbolTable
0
ENDTAB
0
TABLE
2
LTYPE
5
5
100
AcDbSymbolTable
0
LTYPE
5
14
100
AcDbSymbolTableRecord
100
AcDbLinetypeTableRecord
2
BYBLOCK
70
0
0
LTYPE
5
15
100
AcDbSymbolTableRecord
100
AcDbLinetypeTableRecord
2
BYLAYER
70
0
0
ENDTAB
0
TABLE
2
LAYER
5
2
100
AcDbSymbolTable
70
2
0
LAYER
5
50
100
AcDbSymbolTableRecord
100
AcDbLayerTableRecord
2
0
70
0
6
CONTINUOUS
0
ENDTAB
0
TABLE
2
STYLE
5
3
100
AcDbSymbolTable
70
1
0
STYLE
5
11
100
AcDbSymbolTableRecord
100
AcDbTextStyleTableRecord
2
STANDARD
70
0
0
ENDTAB
0
TABLE
2
VIEW
5
6
100
AcDbSymbolTable
70
0
0
ENDTAB
0
TABLE
2
UCS
5
7
100
AcDbSymbolTable
70
0
0
ENDTAB
0
TABLE
2
APPID
5
9
100
AcDbSymbolTable
70
2
0
APPID
5
12
100
AcDbSymbolTableRecord
100
AcDbRegAppTableRecord
2
ACAD
70
0
0
ENDTAB
0
TABLE
2
DIMSTYLE
5
A
100
AcDbSymbolTable
70
1
0
ENDTAB
0
TABLE
2
BLOCK_RECORD
5
1
100
AcDbSymbolTable
70
1
0
BLOCK_RECORD
5
1F
100
AcDbSymbolTableRecord
100
AcDbBlockTableRecord
2
*MODEL_SPACE
0
BLOCK_RECORD
5
1B
100
AcDbSymbolTableRecord
100
AcDbBlockTableRecord
2
*PAPER_SPACE
0
ENDTAB
0
ENDSEC
0
SECTION
2
BLOCKS
0
BLOCK
5
20
100
AcDbEntity
100
AcDbBlockBegin
2
*MODEL_SPACE
0
ENDBLK
5
21
100
AcDbEntity
100
AcDbBlockEnd
0
BLOCK
5
1C
100
AcDbEntity
100
AcDbBlockBegin
2
*PAPER_SPACE
0
ENDBLK
5
1D
100
AcDbEntity
100
AcDbBlockEnd
0
ENDSEC
0
SECTION
2
ENTITIES
0
LWPOLYLINE
5
100
100
AcDbEntity
8
0
100
AcDbPolyline
90
12
70
1
43
0.0
10
8.9999975655014524
20
-85.610356864614232
42
0.41421356237309842
10
12.499997565501452
20
-82.110356864614232
10
12.499997565501459
20
-79.238887172251026
42
-0.21486083840111306
10
16.211901108041324
20
-70.999733694692949
10
30.65427483421956
20
-58.224463385943757
42
0.69053041539787119
10
28.335335052300429
20
-52.102914552175328
10
-28.336148672915037
20
-52.102914552175292
42
0.69044510663708458
10
-30.654279726308662
20
-58.224463288940598
10
-16.211905926885201
20
-70.999733702085692
42
-0.21486083799873235
10
-12.500002397021248
20
-79.238887168431035
10
-12.500002397021259
20
-82.110356864614232
42
0.4142135623730952
10
-9.0000023970212499
20
-85.610356864614232
0
CIRCLE
5
101
100
AcDbEntity
8
0
100
AcDbCircle
10
28.335335052300422
20
-55.602914552175321
30
-7.1054273576010019e-14
40
1.6500000000000006
210
8.2718061255302767e-25
220
-2.0526832973508069e-48
230
1
0
CIRCLE
5
102
100
AcDbEntity
8
0
100
AcDbCircle
10
-28.335339940356281
20
-55.602914458739818
30
-1.4210854715202004e-13
40
1.6499999999999961
210
1.6543612251060553e-24
220
-4.7895943604852158e-48
230
1
0
CIRCLE
5
103
100
AcDbEntity
8
0
100
AcDbCircle
10
-23.841256231440646
20
-59.578239806086764
30
-7.1054273576010019e-14
40
1.6499999999999961
210
1.6543612251060553e-24
220
-4.7895943604852158e-48
230
1
0
CIRCLE
5
104
100
AcDbEntity
8
0
100
AcDbCircle
10
-8.0000023880126481
20
-77.110356813302104
30
-7.1054273576010019e-14
40
1.6500000000000006
210
2.481541837659083e-24
220
-7.1843915407278243e-48
230
1
0
CIRCLE
5
105
100
AcDbEntity
8
0
100
AcDbCircle
10
23.841251337268755
20
-59.578239892608089
30
-7.1054273576010019e-14
40
1.6500000000000006
210
8.2718061255302767e-25
220
-2.0526832973508069e-48
230
1
0
CIRCLE
5
106
100
AcDbEntity
8
0
100
AcDbCircle
10
-19.347172522525
20
-63.553565153433709
30
-7.1054273576010019e-14
40
1.6499999999999961
210
1.6543612251060553e-24
220
-4.7895943604852158e-48
230
1
0
CIRCLE
5
107
100
AcDbEntity
8
0
100
AcDbCircle
10
7.9999975821850065
20
-77.110356846219418
30
-7.1054273576010019e-14
40
1.6500000000000006
210
2.481541837659083e-24
220
-7.1843915407278243e-48
230
1
0
CIRCLE
5
108
100
AcDbEntity
8
0
100
AcDbCircle
10
19.347167622237095
20
-63.553565233040878
30
-7.1054273576010019e-14
40
1.6499999999999981
210
0
220
-0
230
1
0
LWPOLYLINE
5
109
100
AcDbEntity
8
0
100
AcDbPolyline
90
6
70
1
43
0.0
10
-7.4004899064083416
20
-66.226396409491556
10
7.4004851029663961
20
-66.226396409491542
42
-0.69053041539787863
10
9.0568706614800458
20
-70.598931290754749
10
1.6563831453213229
20
-77.145170172807966
42
-0.37881585977383048
10
-1.6563879745868906
20
-77.145170170259618
10
-9.0568754678028647
20
-70.598931288206344
42
-0.69053041482985078
0
ENDSEC
0
SECTION
2
OBJECTS
0
DICTIONARY
5
C
100
AcDbDictionary
3
ACAD_GROUP
350
D
3
ACAD_MLINESTYLE
350
17
0
DICTIONARY
5
D
100
AcDbDictionary
0
DICTIONARY
5
1A
330
C
100
AcDbDictionary
0
DICTIONARY
5
17
100
AcDbDictionary
0
ENDSEC
0
EOF
